  0
SECTION
  2
HEADER
  9
$ACADVER
  1
AC1015
  9
$ACADMAINTVER
 70
     6
  9
$DWGCODEPAGE
  3
ANSI_1252
  9
$INSBASE
 10
0.0
 20
0.0
 30
0.0
  9
$EXTMIN
 10
49.3189124917385
 20
297.8635695478488
 30
-0.0008605300456423
  9
$EXTMAX
 10
136.8924305117525
 20
326.5560919247482
 30
0.000573774241424
  9
$LIMMIN
 10
0.0
 20
0.0
  9
$LIMMAX
 10
420.0
 20
297.0
  9
$ORTHOMODE
 70
     1
  9
$REGENMODE
 70
     1
  9
$FILLMODE
 70
     1
  9
$QTEXTMODE
 70
     0
  9
$MIRRTEXT
 70
     0
  9
$LTSCALE
 40
1.0
  9
$ATTMODE
 70
     1
  9
$TEXTSIZE
 40
2.5
  9
$TRACEWID
 40
1.0
  9
$TEXTSTYLE
  7
Standard
  9
$CLAYER
  8
0
  9
$CELTYPE
  6
ByLayer
  9
$CECOLOR
 62
   256
  9
$CELTSCALE
 40
1.0
  9
$DISPSILH
 70
     0
  9
$DIMSCALE
 40
1.0
  9
$DIMASZ
 40
2.5
  9
$DIMEXO
 40
0.625
  9
$DIMDLI
 40
3.75
  9
$DIMRND
 40
0.0
  9
$DIMDLE
 40
0.0
  9
$DIMEXE
 40
1.25
  9
$DIMTP
 40
0.0
  9
$DIMTM
 40
0.0
  9
$DIMTXT
 40
2.5
  9
$DIMCEN
 40
2.5
  9
$DIMTSZ
 40
0.0
  9
$DIMTOL
 70
     0
  9
$DIMLIM
 70
     0
  9
$DIMTIH
 70
     0
  9
$DIMTOH
 70
     0
  9
$DIMSE1
 70
     0
  9
$DIMSE2
 70
     0
  9
$DIMTAD
 70
     1
  9
$DIMZIN
 70
     8
  9
$DIMBLK
  1

  9
$DIMASO
 70
     1
  9
$DIMSHO
 70
     1
  9
$DIMPOST
  1

  9
$DIMAPOST
  1

  9
$DIMALT
 70
     0
  9
$DIMALTD
 70
     3
  9
$DIMALTF
 40
0.03937007874016
  9
$DIMLFAC
 40
1.0
  9
$DIMTOFL
 70
     1
  9
$DIMTVP
 40
0.0
  9
$DIMTIX
 70
     0
  9
$DIMSOXD
 70
     0
  9
$DIMSAH
 70
     0
  9
$DIMBLK1
  1

  9
$DIMBLK2
  1

  9
$DIMSTYLE
  2
ISO-25
  9
$DIMCLRD
 70
     0
  9
$DIMCLRE
 70
     0
  9
$DIMCLRT
 70
     0
  9
$DIMTFAC
 40
1.0
  9
$DIMGAP
 40
0.625
  9
$DIMJUST
 70
     0
  9
$DIMSD1
 70
     0
  9
$DIMSD2
 70
     0
  9
$DIMTOLJ
 70
     0
  9
$DIMTZIN
 70
     8
  9
$DIMALTZ
 70
     0
  9
$DIMALTTZ
 70
     0
  9
$DIMUPT
 70
     0
  9
$DIMDEC
 70
     2
  9
$DIMTDEC
 70
     2
  9
$DIMALTU
 70
     2
  9
$DIMALTTD
 70
     3
  9
$DIMTXSTY
  7
Standard
  9
$DIMAUNIT
 70
     0
  9
$DIMADEC
 70
     0
  9
$DIMALTRND
 40
0.0
  9
$DIMAZIN
 70
     0
  9
$DIMDSEP
 70
    44
  9
$DIMATFIT
 70
     3
  9
$DIMFRAC
 70
     0
  9
$DIMLDRBLK
  1

  9
$DIMLUNIT
 70
     2
  9
$DIMLWD
 70
    -2
  9
$DIMLWE
 70
    -2
  9
$DIMTMOVE
 70
     0
  9
$LUNITS
 70
     2
  9
$LUPREC
 70
     4
  9
$SKETCHINC
 40
1.0
  9
$FILLETRAD
 40
0.0
  9
$AUNITS
 70
     0
  9
$AUPREC
 70
     0
  9
$MENU
  1
.
  9
$ELEVATION
 40
0.0
  9
$PELEVATION
 40
0.0
  9
$THICKNESS
 40
0.0
  9
$LIMCHECK
 70
     0
  9
$CHAMFERA
 40
0.0
  9
$CHAMFERB
 40
0.0
  9
$CHAMFERC
 40
0.0
  9
$CHAMFERD
 40
0.0
  9
$SKPOLY
 70
     0
  9
$TDCREATE
 40
2453308.69662904
  9
$TDUCREATE
 40
2453308.654962373
  9
$TDUPDATE
 40
2453691.691217581
  9
$TDUUPDATE
 40
2453691.649550914
  9
$TDINDWG
 40
1.1053005324
  9
$TDUSRTIMER
 40
1.1053002315
  9
$USRTIMER
 70
     1
  9
$ANGBASE
 50
0.0
  9
$ANGDIR
 70
     0
  9
$PDMODE
 70
     0
  9
$PDSIZE
 40
0.0
  9
$PLINEWID
 40
0.0
  9
$SPLFRAME
 70
     0
  9
$SPLINETYPE
 70
     6
  9
$SPLINESEGS
 70
     8
  9
$HANDSEED
  5
4052
  9
$SURFTAB1
 70
     6
  9
$SURFTAB2
 70
     6
  9
$SURFTYPE
 70
     6
  9
$SURFU
 70
     6
  9
$SURFV
 70
     6
  9
$UCSBASE
  2

  9
$UCSNAME
  2

  9
$UCSORG
 10
0.0
 20
0.0
 30
0.0
  9
$UCSXDIR
 10
1.0
 20
0.0
 30
0.0
  9
$UCSYDIR
 10
0.0
 20
1.0
 30
0.0
  9
$UCSORTHOREF
  2

  9
$UCSORTHOVIEW
 70
     0
  9
$UCSORGTOP
 10
0.0
 20
0.0
 30
0.0
  9
$UCSORGBOTTOM
 10
0.0
 20
0.0
 30
0.0
  9
$UCSORGLEFT
 10
0.0
 20
0.0
 30
0.0
  9
$UCSORGRIGHT
 10
0.0
 20
0.0
 30
0.0
  9
$UCSORGFRONT
 10
0.0
 20
0.0
 30
0.0
  9
$UCSORGBACK
 10
0.0
 20
0.0
 30
0.0
  9
$PUCSBASE
  2

  9
$PUCSNAME
  2

  9
$PUCSORG
 10
0.0
 20
0.0
 30
0.0
  9
$PUCSXDIR
 10
1.0
 20
0.0
 30
0.0
  9
$PUCSYDIR
 10
0.0
 20
1.0
 30
0.0
  9
$PUCSORTHOREF
  2

  9
$PUCSORTHOVIEW
 70
     0
  9
$PUCSORGTOP
 10
0.0
 20
0.0
 30
0.0
  9
$PUCSORGBOTTOM
 10
0.0
 20
0.0
 30
0.0
  9
$PUCSORGLEFT
 10
0.0
 20
0.0
 30
0.0
  9
$PUCSORGRIGHT
 10
0.0
 20
0.0
 30
0.0
  9
$PUCSORGFRONT
 10
0.0
 20
0.0
 30
0.0
  9
$PUCSORGBACK
 10
0.0
 20
0.0
 30
0.0
  9
$USERI1
 70
     0
  9
$USERI2
 70
     0
  9
$USERI3
 70
     0
  9
$USERI4
 70
     0
  9
$USERI5
 70
     0
  9
$USERR1
 40
0.0
  9
$USERR2
 40
0.0
  9
$USERR3
 40
0.0
  9
$USERR4
 40
0.0
  9
$USERR5
 40
0.0
  9
$WORLDVIEW
 70
     1
  9
$SHADEDGE
 70
     3
  9
$SHADEDIF
 70
    70
  9
$TILEMODE
 70
     1
  9
$MAXACTVP
 70
    64
  9
$PINSBASE
 10
0.0
 20
0.0
 30
0.0
  9
$PLIMCHECK
 70
     0
  9
$PEXTMIN
 10
26.66999878883363
 20
20.31999878883363
 30
0.0
  9
$PEXTMAX
 10
240.0299890995026
 20
182.8799890995025
 30
0.0
  9
$PLIMMIN
 10
-6.350006103515625
 20
-6.349999904632567
  9
$PLIMMAX
 10
273.0499877929688
 20
209.5499939918518
  9
$UNITMODE
 70
     0
  9
$VISRETAIN
 70
     1
  9
$PLINEGEN
 70
     0
  9
$PSLTSCALE
 70
     1
  9
$TREEDEPTH
 70
  3020
  9
$CMLSTYLE
  2
Standard
  9
$CMLJUST
 70
     0
  9
$CMLSCALE
 40
20.0
  9
$PROXYGRAPHICS
 70
     1
  9
$MEASUREMENT
 70
     1
  9
$CELWEIGHT
370
    -1
  9
$ENDCAPS
280
     0
  9
$JOINSTYLE
280
     0
  9
$LWDISPLAY
290
     0
  9
$INSUNITS
 70
     4
  9
$HYPERLINKBASE
  1

  9
$STYLESHEET
  1

  9
$XEDIT
290
     1
  9
$CEPSNTYPE
380
     0
  9
$PSTYLEMODE
290
     1
  9
$FINGERPRINTGUID
  2
{FDEAD578-A652-11D2-9A35-0060089B3A3F}
  9
$VERSIONGUID
  2
{A48D9E81-7BE7-401B-91CC-7ADDD18416E1}
  9
$EXTNAMES
290
     1
  9
$PSVPSCALE
 40
0.0
  9
$OLESTARTUP
290
     0
  0
ENDSEC
  0
SECTION
  2
CLASSES
  0
CLASS
  1
ACDBDICTIONARYWDFLT
  2
AcDbDictionaryWithDefault
  3
ObjectDBX Classes
 90
        0
280
     0
281
     0
  0
CLASS
  1
DICTIONARYVAR
  2
AcDbDictionaryVar
  3
ObjectDBX Classes
 90
        0
280
     0
281
     0
  0
CLASS
  1
DIMASSOC
  2
AcDbDimAssoc
  3
"AcDbDimAssoc|Product Desc:     AcDim ARX App For Dimension|Company:          Autodesk, Inc.|WEB Address:      www.autodesk.com"
 90
        0
280
     0
281
     0
  0
CLASS
  1
ACDBPLACEHOLDER
  2
AcDbPlaceHolder
  3
ObjectDBX Classes
 90
        0
280
     0
281
     0
  0
CLASS
  1
LAYOUT
  2
AcDbLayout
  3
ObjectDBX Classes
 90
        0
280
     0
281
     0
  0
ENDSEC
  0
SECTION
  2
TABLES
  0
TABLE
  2
VPORT
  5
8
330
0
100
AcDbSymbolTable
 70
     1
  0
VPORT
  5
403F
330
8
100
AcDbSymbolTableRecord
100
AcDbViewportTableRecord
  2
*Active
 70
     0
 10
0.0
 20
0.0
 11
1.0
 21
1.0
 12
93.10567150174552
 22
312.2098307362985
 13
0.0
 23
0.0
 14
10.0
 24
10.0
 15
10.0
 25
10.0
 16
0.0
 26
0.0
 36
1.0
 17
0.0
 27
0.0
 37
0.0
 40
54.99966203469995
 41
1.6
 42
50.0
 43
0.0
 44
0.0
 50
0.0
 51
0.0
 71
     0
 72
  1000
 73
     1
 74
     3
 75
     0
 76
     0
 77
     0
 78
     0
281
     0
 65
     1
110
0.0
120
0.0
130
0.0
111
1.0
121
0.0
131
0.0
112
0.0
122
1.0
132
0.0
 79
     0
146
0.0
  0
ENDTAB
  0
TABLE
  2
LTYPE
  5
5
330
0
100
AcDbSymbolTable
 70
     2
  0
LTYPE
  5
14
330
5
100
AcDbSymbolTableRecord
100
AcDbLinetypeTableRecord
  2
ByBlock
 70
     0
  3

 72
    65
 73
     0
 40
0.0
  0
LTYPE
  5
15
330
5
100
AcDbSymbolTableRecord
100
AcDbLinetypeTableRecord
  2
ByLayer
 70
     0
  3

 72
    65
 73
     0
 40
0.0
  0
LTYPE
  5
16
330
5
100
AcDbSymbolTableRecord
100
AcDbLinetypeTableRecord
  2
Continuous
 70
     0
  3
Solid line
 72
    65
 73
     0
 40
0.0
  0
LTYPE
  5
8B
330
5
100
AcDbSymbolTableRecord
100
AcDbLinetypeTableRecord
  2
CENTER
 70
     0
  3
____ _ ____ _ ____ _ ____ _ ____ _ ____ _ ____
 72
    65
 73
     4
 40
0.6
 49
0.375
 74
     0
 49
-0.075
 74
     0
 49
0.075
 74
     0
 49
-0.075
 74
     0
  0
ENDTAB
  0
TABLE
  2
LAYER
  5
2
330
0
100
AcDbSymbolTable
 70
     2
  0
LAYER
  5
10
330
2
100
AcDbSymbolTableRecord
100
AcDbLayerTableRecord
  2
0
 70
     0
 62
     7
  6
Continuous
370
    -3
390
F
  0
LAYER
  5
396
330
2
100
AcDbSymbolTableRecord
100
AcDbLayerTableRecord
  2
Defpoints
 70
     0
 62
     7
  6
Continuous
290
     0
370
    -3
390
F
  0
ENDTAB
  0
TABLE
  2
STYLE
  5
3
330
0
100
AcDbSymbolTable
 70
     1
  0
STYLE
  5
11
330
3
100
AcDbSymbolTableRecord
100
AcDbTextStyleTableRecord
  2
Standard
 70
     0
 40
0.0
 41
1.0
 50
0.0
 71
     0
 42
2.5
  3
VERDANA.TTF
  4

1001
ACAD
1000
Verdana
1071
       34
  0
ENDTAB
  0
TABLE
  2
VIEW
  5
6
330
0
100
AcDbSymbolTable
 70
     0
  0
ENDTAB
  0
TABLE
  2
UCS
  5
7
330
0
100
AcDbSymbolTable
 70
     0
  0
ENDTAB
  0
TABLE
  2
APPID
  5
9
330
0
100
AcDbSymbolTable
 70
     1
  0
APPID
  5
12
330
9
100
AcDbSymbolTableRecord
100
AcDbRegAppTableRecord
  2
ACAD
 70
     0
  0
ENDTAB
  0
TABLE
  2
DIMSTYLE
  5
A
330
0
100
AcDbSymbolTable
 70
     2
100
AcDbDimStyleTable
  0
DIMSTYLE
105
27
330
A
100
AcDbSymbolTableRecord
100
AcDbDimStyleTableRecord
  2
ISO-25
 70
     0
 41
2.5
 42
0.625
 43
3.75
 44
1.25
 73
     0
 74
     0
 77
     1
 78
     8
140
2.5
141
2.5
143
0.03937007874016
147
0.625
171
     3
172
     1
271
     2
272
     2
274
     3
278
    44
283
     0
284
     8
340
11
  0
DIMSTYLE
105
8D
330
A
100
AcDbSymbolTableRecord
100
AcDbDimStyleTableRecord
  2
STANDARD
 70
     0
 41
3.0
 47
0.01
 48
0.01
 71
     1
 73
     0
 74
     0
 77
     1
 78
     8
140
1.5
271
     2
272
     2
284
     8
340
11
  0
ENDTAB
  0
TABLE
  2
BLOCK_RECORD
  5
1
330
0
100
AcDbSymbolTable
 70
     1
  0
BLOCK_RECORD
  5
1F
330
1
100
AcDbSymbolTableRecord
100
AcDbBlockTableRecord
  2
*Model_Space
340
22
  0
BLOCK_RECORD
  5
50
330
1
100
AcDbSymbolTableRecord
100
AcDbBlockTableRecord
  2
*Paper_Space
340
51
  0
BLOCK_RECORD
  5
55
330
1
100
AcDbSymbolTableRecord
100
AcDbBlockTableRecord
  2
*Paper_Space0
340
56
  0
ENDTAB
  0
ENDSEC
  0
SECTION
  2
BLOCKS
  0
BLOCK
  5
20
330
1F
100
AcDbEntity
  8
0
100
AcDbBlockBegin
  2
*Model_Space
 70
     0
 71
     0
 10
0.0
 20
0.0
 30
0.0
  3
*Model_Space
  1

  0
ENDBLK
  5
21
330
1F
100
AcDbEntity
  8
0
100
AcDbBlockEnd
  0
BLOCK
  5
52
330
50
100
AcDbEntity
 67
     1
  8
0
100
AcDbBlockBegin
  2
*Paper_Space
 70
     0
 71
     0
 10
0.0
 20
0.0
 30
0.0
  3
*Paper_Space
  1

  0
ENDBLK
  5
53
330
50
100
AcDbEntity
 67
     1
  8
0
100
AcDbBlockEnd
  0
BLOCK
  5
57
330
55
100
AcDbEntity
  8
0
100
AcDbBlockBegin
  2
*Paper_Space0
 70
     0
 71
     0
 10
0.0
 20
0.0
 30
0.0
  3
*Paper_Space0
  1

  0
ENDBLK
  5
58
330
55
100
AcDbEntity
  8
0
100
AcDbBlockEnd
  0
ENDSEC
  0
SECTION
  2
ENTITIES
  0
ARC
  5
314
330
1F
100
AcDbEntity
  8
0
  6
Continuous
100
AcDbCircle
 10
88.98760737120053
 20
325.1522481932429
 30
0.0
 40
1.0
100
AcDbArc
 50
270.0
 51
0.0
  0
ARC
  5
315
330
1F
100
AcDbEntity
  8
0
  6
Continuous
100
AcDbCircle
 10
88.98760737120053
 20
299.2322481932428
 30
0.0
 40
1.0
100
AcDbArc
 50
0.0
 51
90.0
  0
ARC
  5
316
330
1F
100
AcDbEntity
  8
0
  6
Continuous
100
AcDbCircle
 10
85.58760737120053
 20
300.5322481932429
 30
0.0
 40
0.3
100
AcDbArc
 50
180.0
 51
270.0
  0
ARC
  5
317
330
1F
100
AcDbEntity
  8
0
  6
Continuous
100
AcDbCircle
 10
85.58760737120053
 20
323.8522481932428
 30
0.0
 40
0.3
100
AcDbArc
 50
90.0
 51
180.0
  0
ARC
  5
318
330
1F
100
AcDbEntity
  8
0
  6
Continuous
100
AcDbCircle
 10
58.58760737120054
 20
322.9342901436428
 30
0.0
 40
0.4
100
AcDbArc
 50
105.0000000000007
 51
180.0
  0
ARC
  5
319
330
1F
100
AcDbEntity
  8
0
  6
Continuous
100
AcDbCircle
 10
58.58760737120054
 20
301.4502062426429
 30
0.0
 40
0.4
100
AcDbArc
 50
180.0
 51
255.0000000000024
  0
ARC
  5
31A
330
1F
100
AcDbEntity
  8
0
  6
Continuous
100
AcDbCircle
 10
84.98760737120051
 20
300.8922481932429
 30
0.0
 40
0.3
100
AcDbArc
 50
0.0
 51
90.0
  0
ARC
  5
31B
330
1F
100
AcDbEntity
  8
0
  6
Continuous
100
AcDbCircle
 10
84.98760737120051
 20
323.4922481932429
 30
0.0
 40
0.3
100
AcDbArc
 50
270.0
 51
0.0
  0
ARC
  5
31C
330
1F
100
AcDbEntity
  8
0
  6
Continuous
100
AcDbCircle
 10
79.28760737120047
 20
300.8922481932429
 30
0.0
 40
0.3
100
AcDbArc
 50
90.0
 51
180.0
  0
ARC
  5
31D
330
1F
100
AcDbEntity
  8
0
  6
Continuous
100
AcDbCircle
 10
79.28760737120047
 20
323.4922481932429
 30
0.0
 40
0.3
100
AcDbArc
 50
180.0
 51
270.0
  0
ARC
  5
31E
330
1F
100
AcDbEntity
  8
0
  6
Continuous
100
AcDbCircle
 10
62.8876073712006
 20
323.8522481932428
 30
0.0
 40
0.3
100
AcDbArc
 50
0.0
 51
90.0
  0
ARC
  5
31F
330
1F
100
AcDbEntity
  8
0
  6
Continuous
100
AcDbCircle
 10
78.68760737120054
 20
300.5322481932429
 30
0.0
 40
0.3
100
AcDbArc
 50
270.0
 51
0.0
  0
ARC
  5
320
330
1F
100
AcDbEntity
  8
0
  6
Continuous
100
AcDbCircle
 10
62.8876073712006
 20
300.5322481932429
 30
0.0
 40
0.3
100
AcDbArc
 50
270.0
 51
0.0
  0
ARC
  5
321
330
1F
100
AcDbEntity
  8
0
  6
Continuous
100
AcDbCircle
 10
78.68760737120054
 20
323.8522481932428
 30
0.0
 40
0.3
100
AcDbArc
 50
0.0
 51
90.0
  0
ARC
  5
322
330
1F
100
AcDbEntity
  8
0
  6
Continuous
100
AcDbCircle
 10
63.4876073712005
 20
323.4922481932429
 30
0.0
 40
0.3
100
AcDbArc
 50
180.0
 51
270.0
  0
ARC
  5
323
330
1F
100
AcDbEntity
  8
0
  6
Continuous
100
AcDbCircle
 10
63.4876073712005
 20
300.8922481932429
 30
0.0
 40
0.3
100
AcDbArc
 50
90.0
 51
180.0
  0
ARC
  5
324
330
1F
100
AcDbEntity
  8
0
  6
Continuous
100
AcDbCircle
 10
69.18760737120056
 20
323.4922481932429
 30
0.0
 40
0.3
100
AcDbArc
 50
270.0
 51
0.0
  0
ARC
  5
325
330
1F
100
AcDbEntity
  8
0
  6
Continuous
100
AcDbCircle
 10
77.68760737120054
 20
300.5322481932429
 30
0.0
 40
0.3
100
AcDbArc
 50
180.0
 51
270.0
  0
ARC
  5
326
330
1F
100
AcDbEntity
  8
0
  6
Continuous
100
AcDbCircle
 10
69.18760737120056
 20
300.8922481932429
 30
0.0
 40
0.3
100
AcDbArc
 50
0.0
 51
90.0
  0
ARC
  5
327
330
1F
100
AcDbEntity
  8
0
  6
Continuous
100
AcDbCircle
 10
77.68760737120054
 20
323.8522481932428
 30
0.0
 40
0.3
100
AcDbArc
 50
90.0
 51
180.0
  0
ARC
  5
328
330
1F
100
AcDbEntity
  8
0
  6
Continuous
100
AcDbCircle
 10
69.78760737120047
 20
323.8522481932428
 30
0.0
 40
0.3
100
AcDbArc
 50
90.0
 51
180.0
  0
ARC
  5
329
330
1F
100
AcDbEntity
  8
0
  6
Continuous
100
AcDbCircle
 10
77.08760737120053
 20
300.8922481932429
 30
0.0
 40
0.3
100
AcDbArc
 50
0.0
 51
90.0
  0
ARC
  5
32A
330
1F
100
AcDbEntity
  8
0
  6
Continuous
100
AcDbCircle
 10
69.78760737120047
 20
300.5322481932429
 30
0.0
 40
0.3
100
AcDbArc
 50
180.0
 51
270.0
  0
ARC
  5
32B
330
1F
100
AcDbEntity
  8
0
  6
Continuous
100
AcDbCircle
 10
77.08760737120053
 20
323.4922481932429
 30
0.0
 40
0.3
100
AcDbArc
 50
270.0
 51
0.0
  0
ARC
  5
32C
330
1F
100
AcDbEntity
  8
0
  6
Continuous
100
AcDbCircle
 10
70.78760737120045
 20
323.8522481932428
 30
0.0
 40
0.3
100
AcDbArc
 50
0.0
 51
90.0
  0
ARC
  5
32D
330
1F
100
AcDbEntity
  8
0
  6
Continuous
100
AcDbCircle
 10
71.38760737120057
 20
300.8922481932429
 30
0.0
 40
0.3
100
AcDbArc
 50
90.0
 51
180.0
  0
ARC
  5
32E
330
1F
100
AcDbEntity
  8
0
  6
Continuous
100
AcDbCircle
 10
70.78760737120045
 20
300.5322481932429
 30
0.0
 40
0.3
100
AcDbArc
 50
270.0
 51
0.0
  0
ARC
  5
32F
330
1F
100
AcDbEntity
  8
0
  6
Continuous
100
AcDbCircle
 10
71.38760737120057
 20
323.4922481932429
 30
0.0
 40
0.3
100
AcDbArc
 50
180.0
 51
270.0
  0
ARC
  5
330
330
1F
100
AcDbEntity
  8
0
  6
Continuous
100
AcDbCircle
 10
97.28760737120047
 20
299.2322481932428
 30
0.0
 40
1.0
100
AcDbArc
 50
90.0
 51
180.0
  0
ARC
  5
331
330
1F
100
AcDbEntity
  8
0
  6
Continuous
100
AcDbCircle
 10
97.28760737120047
 20
325.1522481932429
 30
0.0
 40
1.0
100
AcDbArc
 50
180.0
 51
270.0
  0
ARC
  5
332
330
1F
100
AcDbEntity
  8
0
  6
Continuous
100
AcDbCircle
 10
100.6876073712005
 20
300.5322481932429
 30
0.0
 40
0.3
100
AcDbArc
 50
270.0
 51
0.0
  0
ARC
  5
333
330
1F
100
AcDbEntity
  8
0
  6
Continuous
100
AcDbCircle
 10
100.6876073712005
 20
323.8522481932428
 30
0.0
 40
0.3
100
AcDbArc
 50
0.0
 51
90.0
  0
ARC
  5
334
330
1F
100
AcDbEntity
  8
0
  6
Continuous
100
AcDbCircle
 10
101.2876073712004
 20
300.8922481932429
 30
0.0
 40
0.3
100
AcDbArc
 50
90.0
 51
180.0
  0
ARC
  5
335
330
1F
100
AcDbEntity
  8
0
  6
Continuous
100
AcDbCircle
 10
101.2876073712004
 20
323.4922481932429
 30
0.0
 40
0.3
100
AcDbArc
 50
180.0
 51
270.0
  0
ARC
  5
336
330
1F
100
AcDbEntity
  8
0
  6
Continuous
100
AcDbCircle
 10
106.9876073712005
 20
300.8922481932429
 30
0.0
 40
0.3
100
AcDbArc
 50
0.0
 51
90.0
  0
ARC
  5
337
330
1F
100
AcDbEntity
  8
0
  6
Continuous
100
AcDbCircle
 10
106.9876073712005
 20
323.4922481932429
 30
0.0
 40
0.3
100
AcDbArc
 50
270.0
 51
0.0
  0
ARC
  5
338
330
1F
100
AcDbEntity
  8
0
  6
Continuous
100
AcDbCircle
 10
107.5876073712005
 20
300.5322481932429
 30
0.0
 40
0.3
100
AcDbArc
 50
180.0
 51
270.0
  0
ARC
  5
339
330
1F
100
AcDbEntity
  8
0
  6
Continuous
100
AcDbCircle
 10
107.5876073712005
 20
323.8522481932428
 30
0.0
 40
0.3
100
AcDbArc
 50
90.0
 51
180.0
  0
ARC
  5
33A
330
1F
100
AcDbEntity
  8
0
  6
Continuous
100
AcDbCircle
 10
108.5876073712005
 20
300.5322481932429
 30
0.0
 40
0.3
100
AcDbArc
 50
270.0
 51
0.0
  0
ARC
  5
33B
330
1F
100
AcDbEntity
  8
0
  6
Continuous
100
AcDbCircle
 10
108.5876073712005
 20
323.8522481932428
 30
0.0
 40
0.3
100
AcDbArc
 50
0.0
 51
90.0
  0
ARC
  5
33C
330
1F
100
AcDbEntity
  8
0
  6
Continuous
100
AcDbCircle
 10
109.1876073712005
 20
300.8922481932429
 30
0.0
 40
0.3
100
AcDbArc
 50
90.0
 51
180.0
  0
ARC
  5
33D
330
1F
100
AcDbEntity
  8
0
  6
Continuous
100
AcDbCircle
 10
109.1876073712005
 20
323.4922481932429
 30
0.0
 40
0.3
100
AcDbArc
 50
180.0
 51
270.0
  0
ARC
  5
33E
330
1F
100
AcDbEntity
  8
0
  6
Continuous
100
AcDbCircle
 10
114.8876073712005
 20
300.8922481932429
 30
0.0
 40
0.3
100
AcDbArc
 50
0.0
 51
90.0
  0
ARC
  5
33F
330
1F
100
AcDbEntity
  8
0
  6
Continuous
100
AcDbCircle
 10
114.8876073712005
 20
323.4922481932429
 30
0.0
 40
0.3
100
AcDbArc
 50
270.0
 51
0.0
  0
ARC
  5
340
330
1F
100
AcDbEntity
  8
0
  6
Continuous
100
AcDbCircle
 10
115.4876073712005
 20
300.5322481932429
 30
0.0
 40
0.3
100
AcDbArc
 50
180.0
 51
270.0
  0
ARC
  5
341
330
1F
100
AcDbEntity
  8
0
  6
Continuous
100
AcDbCircle
 10
115.4876073712005
 20
323.8522481932428
 30
0.0
 40
0.3
100
AcDbArc
 50
90.0
 51
180.0
  0
ARC
  5
342
330
1F
100
AcDbEntity
  8
0
  6
Continuous
100
AcDbCircle
 10
116.4876073712005
 20
300.5322481932429
 30
0.0
 40
0.3
100
AcDbArc
 50
270.0
 51
0.0
  0
ARC
  5
343
330
1F
100
AcDbEntity
  8
0
  6
Continuous
100
AcDbCircle
 10
116.4876073712005
 20
323.8522481932428
 30
0.0
 40
0.3
100
AcDbArc
 50
0.0
 51
90.0
  0
ARC
  5
344
330
1F
100
AcDbEntity
  8
0
  6
Continuous
100
AcDbCircle
 10
117.0876073712005
 20
300.8922481932429
 30
0.0
 40
0.3
100
AcDbArc
 50
90.0
 51
180.0
  0
ARC
  5
345
330
1F
100
AcDbEntity
  8
0
  6
Continuous
100
AcDbCircle
 10
117.0876073712005
 20
323.4922481932429
 30
0.0
 40
0.3
100
AcDbArc
 50
180.0
 51
270.0
  0
ARC
  5
346
330
1F
100
AcDbEntity
  8
0
  6
Continuous
100
AcDbCircle
 10
122.7876073712004
 20
300.8922481932429
 30
0.0
 40
0.3
100
AcDbArc
 50
0.0
 51
90.0
  0
ARC
  5
347
330
1F
100
AcDbEntity
  8
0
  6
Continuous
100
AcDbCircle
 10
122.7876073712004
 20
323.4922481932429
 30
0.0
 40
0.3
100
AcDbArc
 50
270.0
 51
0.0
  0
ARC
  5
348
330
1F
100
AcDbEntity
  8
0
  6
Continuous
100
AcDbCircle
 10
123.3876073712005
 20
300.5322481932429
 30
0.0
 40
0.3
100
AcDbArc
 50
180.0
 51
270.0
  0
ARC
  5
349
330
1F
100
AcDbEntity
  8
0
  6
Continuous
100
AcDbCircle
 10
123.3876073712005
 20
323.8522481932428
 30
0.0
 40
0.3
100
AcDbArc
 50
90.0
 51
180.0
  0
ARC
  5
34A
330
1F
100
AcDbEntity
  8
0
  6
Continuous
100
AcDbCircle
 10
127.6876073712005
 20
301.4502062426429
 30
0.0
 40
0.4
100
AcDbArc
 50
285.0000000000015
 51
0.0
  0
ARC
  5
34B
330
1F
100
AcDbEntity
  8
0
  6
Continuous
100
AcDbCircle
 10
127.6876073712005
 20
322.9342901436428
 30
0.0
 40
0.4
100
AcDbArc
 50
0.0
 51
74.99999999999923
  0
ARC
  5
34C
330
1F
100
AcDbEntity
  8
0
  6
Continuous
100
AcDbCircle
 10
95.9876073712005
 20
298.4165122618429
 30
0.0
 40
0.3
100
AcDbArc
 50
315.0000000122008
 51
0.0
  0
ARC
  5
34D
330
1F
100
AcDbEntity
  8
0
  6
Continuous
100
AcDbCircle
 10
95.9876073712005
 20
325.9679841244428
 30
0.0
 40
0.3
100
AcDbArc
 50
0.0
 51
44.99999998360086
  0
ARC
  5
34E
330
1F
100
AcDbEntity
  8
0
  6
Continuous
100
AcDbCircle
 10
95.76334330240049
 20
298.1922481932429
 30
0.0
 40
0.3
100
AcDbArc
 50
270.0000000002019
 51
315.0000000182992
  0
ARC
  5
34F
330
1F
100
AcDbEntity
  8
0
  6
Continuous
100
AcDbCircle
 10
95.76334330240049
 20
326.1922481932428
 30
0.0
 40
0.3
100
AcDbArc
 50
44.99999998040203
 51
89.99999999980133
  0
ARC
  5
350
330
1F
100
AcDbEntity
  8
0
  6
Continuous
100
AcDbCircle
 10
90.28760737120045
 20
298.4165122618429
 30
0.0
 40
0.3
100
AcDbArc
 50
180.0
 51
224.9999999848007
  0
ARC
  5
351
330
1F
100
AcDbEntity
  8
0
  6
Continuous
100
AcDbCircle
 10
90.28760737120045
 20
325.9679841244428
 30
0.0
 40
0.3
100
AcDbArc
 50
135.0000000132003
 51
180.0
  0
ARC
  5
352
330
1F
100
AcDbEntity
  8
0
  6
Continuous
100
AcDbCircle
 10
90.51187143980052
 20
298.1922481932429
 30
0.0
 40
0.3
100
AcDbArc
 50
224.9999999815996
 51
269.999999999899
  0
ARC
  5
353
330
1F
100
AcDbEntity
  8
0
  6
Continuous
100
AcDbCircle
 10
90.51187143980052
 20
326.1922481932428
 30
0.0
 40
0.3
100
AcDbArc
 50
90.00000000019863
 51
135.0000000196002
  0
LINE
  5
354
330
1F
100
AcDbEntity
  8
0
  6
Continuous
100
AcDbLine
 10
128.0876073712005
 20
322.9342901436428
 30
0.0
 11
128.0876073712005
 21
301.4502062426429
 31
0.0
  0
LINE
  5
355
330
1F
100
AcDbEntity
  8
0
  6
Continuous
100
AcDbLine
 10
123.0876073712005
 20
323.8522481932428
 30
0.0
 11
123.0876073712005
 21
300.5322481932429
 31
0.0
  0
LINE
  5
356
330
1F
100
AcDbEntity
  8
0
  6
Continuous
100
AcDbLine
 10
116.7876073712004
 20
323.8522481932428
 30
0.0
 11
116.7876073712004
 21
300.5322481932429
 31
0.0
  0
LINE
  5
357
330
1F
100
AcDbEntity
  8
0
  6
Continuous
100
AcDbLine
 10
115.1876073712005
 20
323.8522481932428
 30
0.0
 11
115.1876073712005
 21
300.5322481932429
 31
0.0
  0
LINE
  5
358
330
1F
100
AcDbEntity
  8
0
  6
Continuous
100
AcDbLine
 10
124.7384739902005
 20
324.1386185236428
 30
0.0
 11
127.7911349892005
 21
323.3206604742429
 31
0.0
  0
LINE
  5
359
330
1F
100
AcDbEntity
  8
0
  6
Continuous
100
AcDbLine
 10
58.48407975320061
 20
323.3206604742429
 30
0.0
 11
61.53674075220056
 21
324.1386185236428
 31
0.0
  0
LINE
  5
35A
330
1F
100
AcDbEntity
  8
0
  6
Continuous
100
AcDbLine
 10
124.6349463722005
 20
324.1522481932429
 30
0.0
 11
124.7384739902005
 21
324.1386185236428
 31
0.0
  0
LINE
  5
35B
330
1F
100
AcDbEntity
  8
0
  6
Continuous
100
AcDbLine
 10
61.53674075220056
 20
324.1386185236428
 30
0.0
 11
61.64026837020061
 21
324.1522481932429
 31
0.0
  0
LINE
  5
35C
330
1F
100
AcDbEntity
  8
0
  6
Continuous
100
AcDbLine
 10
108.8876073712005
 20
323.8522481932428
 30
0.0
 11
108.8876073712005
 21
300.5322481932429
 31
0.0
  0
LINE
  5
35D
330
1F
100
AcDbEntity
  8
0
  6
Continuous
100
AcDbLine
 10
90.51187143980052
 20
326.4922481932428
 30
0.0
 11
95.76334330240049
 21
326.4922481932428
 31
0.0
  0
LINE
  5
35E
330
1F
100
AcDbEntity
  8
0
  6
Continuous
100
AcDbLine
 10
107.2876073712004
 20
323.8522481932428
 30
0.0
 11
107.2876073712004
 21
300.5322481932429
 31
0.0
  0
LINE
  5
35F
330
1F
100
AcDbEntity
  8
0
  6
Continuous
100
AcDbLine
 10
95.97547533680051
 20
326.4043802274429
 30
0.0
 11
96.19973940560058
 21
326.1801161588429
 31
0.0
  0
LINE
  5
360
330
1F
100
AcDbEntity
  8
0
  6
Continuous
100
AcDbLine
 10
123.3876073712005
 20
324.1522481932429
 30
0.0
 11
124.6349463722005
 21
324.1522481932429
 31
0.0
  0
LINE
  5
361
330
1F
100
AcDbEntity
  8
0
  6
Continuous
100
AcDbLine
 10
115.4876073712005
 20
324.1522481932429
 30
0.0
 11
116.4876073712005
 21
324.1522481932429
 31
0.0
  0
LINE
  5
362
330
1F
100
AcDbEntity
  8
0
  6
Continuous
100
AcDbLine
 10
107.5876073712005
 20
324.1522481932429
 30
0.0
 11
108.5876073712005
 21
324.1522481932429
 31
0.0
  0
LINE
  5
363
330
1F
100
AcDbEntity
  8
0
  6
Continuous
100
AcDbLine
 10
97.28760737120047
 20
324.1522481932429
 30
0.0
 11
100.6876073712005
 21
324.1522481932429
 31
0.0
  0
LINE
  5
364
330
1F
100
AcDbEntity
  8
0
  6
Continuous
100
AcDbLine
 10
85.58760737120053
 20
324.1522481932429
 30
0.0
 11
88.98760737120053
 21
324.1522481932429
 31
0.0
  0
LINE
  5
365
330
1F
100
AcDbEntity
  8
0
  6
Continuous
100
AcDbLine
 10
77.68760737120054
 20
324.1522481932429
 30
0.0
 11
78.68760737120054
 21
324.1522481932429
 31
0.0
  0
LINE
  5
366
330
1F
100
AcDbEntity
  8
0
  6
Continuous
100
AcDbLine
 10
69.78760737120047
 20
324.1522481932429
 30
0.0
 11
70.78760737120045
 21
324.1522481932429
 31
0.0
  0
LINE
  5
367
330
1F
100
AcDbEntity
  8
0
  6
Continuous
100
AcDbLine
 10
61.64026837020061
 20
324.1522481932429
 30
0.0
 11
62.8876073712006
 21
324.1522481932429
 31
0.0
  0
LINE
  5
368
330
1F
100
AcDbEntity
  8
0
  6
Continuous
100
AcDbLine
 10
117.0876073712005
 20
323.1922481932429
 30
0.0
 11
122.7876073712004
 21
323.1922481932429
 31
0.0
  0
LINE
  5
369
330
1F
100
AcDbEntity
  8
0
  6
Continuous
100
AcDbLine
 10
109.1876073712005
 20
323.1922481932429
 30
0.0
 11
114.8876073712005
 21
323.1922481932429
 31
0.0
  0
LINE
  5
36A
330
1F
100
AcDbEntity
  8
0
  6
Continuous
100
AcDbLine
 10
101.2876073712004
 20
323.1922481932429
 30
0.0
 11
106.9876073712005
 21
323.1922481932429
 31
0.0
  0
LINE
  5
36B
330
1F
100
AcDbEntity
  8
0
  6
Continuous
100
AcDbLine
 10
79.28760737120047
 20
323.1922481932429
 30
0.0
 11
84.98760737120051
 21
323.1922481932429
 31
0.0
  0
LINE
  5
36C
330
1F
100
AcDbEntity
  8
0
  6
Continuous
100
AcDbLine
 10
71.38760737120057
 20
323.1922481932429
 30
0.0
 11
77.08760737120053
 21
323.1922481932429
 31
0.0
  0
LINE
  5
36D
330
1F
100
AcDbEntity
  8
0
  6
Continuous
100
AcDbLine
 10
63.4876073712005
 20
323.1922481932429
 30
0.0
 11
69.18760737120056
 21
323.1922481932429
 31
0.0
  0
LINE
  5
36E
330
1F
100
AcDbEntity
  8
0
  6
Continuous
100
AcDbLine
 10
95.97547533680051
 20
297.9801161588429
 30
0.0
 11
96.19973940560058
 21
298.2043802274429
 31
0.0
  0
LINE
  5
36F
330
1F
100
AcDbEntity
  8
0
  6
Continuous
100
AcDbLine
 10
100.9876073712005
 20
323.8522481932428
 30
0.0
 11
100.9876073712005
 21
300.5322481932429
 31
0.0
  0
LINE
  5
370
330
1F
100
AcDbEntity
  8
0
  6
Continuous
100
AcDbLine
 10
96.28760737120047
 20
325.9679841244428
 30
0.0
 11
96.28760737120047
 21
298.4165122618429
 31
0.0
  0
LINE
  5
371
330
1F
100
AcDbEntity
  8
0
  6
CENTER
 48
25.0
100
AcDbLine
 10
49.36340948028111
 20
312.1922481932429
 30
0.0
 11
136.8161308131456
 21
312.1922481932429
 31
0.0
  0
LINE
  5
372
330
1F
100
AcDbEntity
  8
0
  6
Continuous
100
AcDbLine
 10
89.98760737120053
 20
325.9679841244428
 30
0.0
 11
89.98760737120053
 21
298.4165122618429
 31
0.0
  0
LINE
  5
373
330
1F
100
AcDbEntity
  8
0
  6
Continuous
100
AcDbLine
 10
85.28760737120045
 20
323.8522481932428
 30
0.0
 11
85.28760737120045
 21
300.5322481932429
 31
0.0
  0
LINE
  5
374
330
1F
100
AcDbEntity
  8
0
  6
Continuous
100
AcDbLine
 10
90.07547533680051
 20
298.2043802274429
 30
0.0
 11
90.2997394056006
 21
297.9801161588429
 31
0.0
  0
LINE
  5
375
330
1F
100
AcDbEntity
  8
0
  6
Continuous
100
AcDbLine
 10
117.0876073712005
 20
301.1922481932428
 30
0.0
 11
122.7876073712004
 21
301.1922481932428
 31
0.0
  0
LINE
  5
376
330
1F
100
AcDbEntity
  8
0
  6
Continuous
100
AcDbLine
 10
109.1876073712005
 20
301.1922481932428
 30
0.0
 11
114.8876073712005
 21
301.1922481932428
 31
0.0
  0
LINE
  5
377
330
1F
100
AcDbEntity
  8
0
  6
Continuous
100
AcDbLine
 10
101.2876073712004
 20
301.1922481932428
 30
0.0
 11
106.9876073712005
 21
301.1922481932428
 31
0.0
  0
LINE
  5
378
330
1F
100
AcDbEntity
  8
0
  6
Continuous
100
AcDbLine
 10
79.28760737120047
 20
301.1922481932428
 30
0.0
 11
84.98760737120051
 21
301.1922481932428
 31
0.0
  0
LINE
  5
379
330
1F
100
AcDbEntity
  8
0
  6
Continuous
100
AcDbLine
 10
71.38760737120057
 20
301.1922481932428
 30
0.0
 11
77.08760737120053
 21
301.1922481932428
 31
0.0
  0
LINE
  5
37A
330
1F
100
AcDbEntity
  8
0
  6
Continuous
100
AcDbLine
 10
63.4876073712005
 20
301.1922481932428
 30
0.0
 11
69.18760737120056
 21
301.1922481932428
 31
0.0
  0
LINE
  5
37B
330
1F
100
AcDbEntity
  8
0
  6
Continuous
100
AcDbLine
 10
123.3876073712005
 20
300.2322481932428
 30
0.0
 11
124.6349463722005
 21
300.2322481932428
 31
0.0
  0
LINE
  5
37C
330
1F
100
AcDbEntity
  8
0
  6
Continuous
100
AcDbLine
 10
115.4876073712005
 20
300.2322481932428
 30
0.0
 11
116.4876073712005
 21
300.2322481932428
 31
0.0
  0
LINE
  5
37D
330
1F
100
AcDbEntity
  8
0
  6
Continuous
100
AcDbLine
 10
107.5876073712005
 20
300.2322481932428
 30
0.0
 11
108.5876073712005
 21
300.2322481932428
 31
0.0
  0
LINE
  5
37E
330
1F
100
AcDbEntity
  8
0
  6
Continuous
100
AcDbLine
 10
97.28760737120047
 20
300.2322481932428
 30
0.0
 11
100.6876073712005
 21
300.2322481932428
 31
0.0
  0
LINE
  5
37F
330
1F
100
AcDbEntity
  8
0
  6
Continuous
100
AcDbLine
 10
85.58760737120053
 20
300.2322481932428
 30
0.0
 11
88.98760737120053
 21
300.2322481932428
 31
0.0
  0
LINE
  5
380
330
1F
100
AcDbEntity
  8
0
  6
Continuous
100
AcDbLine
 10
77.68760737120054
 20
300.2322481932428
 30
0.0
 11
78.68760737120054
 21
300.2322481932428
 31
0.0
  0
LINE
  5
381
330
1F
100
AcDbEntity
  8
0
  6
Continuous
100
AcDbLine
 10
69.78760737120047
 20
300.2322481932428
 30
0.0
 11
70.78760737120045
 21
300.2322481932428
 31
0.0
  0
LINE
  5
382
330
1F
100
AcDbEntity
  8
0
  6
Continuous
100
AcDbLine
 10
61.64026837020061
 20
300.2322481932428
 30
0.0
 11
62.8876073712006
 21
300.2322481932428
 31
0.0
  0
LINE
  5
383
330
1F
100
AcDbEntity
  8
0
  6
Continuous
100
AcDbLine
 10
90.07547533680051
 20
326.1801161588429
 30
0.0
 11
90.2997394056006
 21
326.4043802274429
 31
0.0
  0
LINE
  5
384
330
1F
100
AcDbEntity
  8
0
  6
Continuous
100
AcDbLine
 10
90.51187143980052
 20
297.8922481932429
 30
0.0
 11
95.76334330240049
 21
297.8922481932429
 31
0.0
  0
LINE
  5
385
330
1F
100
AcDbEntity
  8
0
  6
Continuous
100
AcDbLine
 10
78.98760737120051
 20
323.8522481932428
 30
0.0
 11
78.98760737120051
 21
300.5322481932429
 31
0.0
  0
LINE
  5
386
330
1F
100
AcDbEntity
  8
0
  6
Continuous
100
AcDbLine
 10
61.53674075220056
 20
300.2458778626429
 30
0.0
 11
61.64026837020061
 21
300.2322481932428
 31
0.0
  0
LINE
  5
387
330
1F
100
AcDbEntity
  8
0
  6
Continuous
100
AcDbLine
 10
124.6349463722005
 20
300.2322481932428
 30
0.0
 11
124.7384739902005
 21
300.2458778626429
 31
0.0
  0
LINE
  5
388
330
1F
100
AcDbEntity
  8
0
  6
Continuous
100
AcDbLine
 10
77.38760737120059
 20
323.8522481932428
 30
0.0
 11
77.38760737120059
 21
300.5322481932429
 31
0.0
  0
LINE
  5
389
330
1F
100
AcDbEntity
  8
0
  6
Continuous
100
AcDbLine
 10
58.48407975320061
 20
301.0638359120429
 30
0.0
 11
61.53674075220056
 21
300.2458778626429
 31
0.0
  0
LINE
  5
38A
330
1F
100
AcDbEntity
  8
0
  6
Continuous
100
AcDbLine
 10
124.7384739902005
 20
300.2458778626429
 30
0.0
 11
127.7911349892005
 21
301.0638359120429
 31
0.0
  0
LINE
  5
38B
330
1F
100
AcDbEntity
  8
0
  6
Continuous
100
AcDbLine
 10
71.08760737120053
 20
323.8522481932428
 30
0.0
 11
71.08760737120053
 21
300.5322481932429
 31
0.0
  0
LINE
  5
38C
330
1F
100
AcDbEntity
  8
0
  6
Continuous
100
AcDbLine
 10
69.48760737120051
 20
323.8522481932428
 30
0.0
 11
69.48760737120051
 21
300.5322481932429
 31
0.0
  0
LINE
  5
38D
330
1F
100
AcDbEntity
  8
0
  6
Continuous
100
AcDbLine
 10
63.18760737120054
 20
323.8522481932428
 30
0.0
 11
63.18760737120054
 21
300.5322481932429
 31
0.0
  0
LINE
  5
38E
330
1F
100
AcDbEntity
  8
0
  6
Continuous
100
AcDbLine
 10
58.18760737120054
 20
322.9342901436428
 30
0.0
 11
58.18760737120054
 21
301.4502062426429
 31
0.0
  0
VIEWPORT
  5
86E
330
50
100
AcDbEntity
 67
     1
  8
0
100
AcDbViewport
 10
133.3499908447265
 20
101.5999970436096
 30
0.0
 40
467.3964992866515
 41
228.4221935424805
 68
     1
 69
     1
 12
133.3499908447265
 22
101.5999970436096
 13
0.0
 23
0.0
 14
10.0
 24
10.0
 15
10.0
 25
10.0
 16
0.0
 26
0.0
 36
1.0
 17
0.0
 27
0.0
 37
0.0
 42
50.0
 43
0.0
 44
0.0
 45
228.4221935424805
 50
0.0
 51
0.0
 72
  1000
 90
    32800
  1

281
     0
 71
     1
 74
     0
110
0.0
120
0.0
130
0.0
111
1.0
121
0.0
131
0.0
112
0.0
122
1.0
132
0.0
 79
     0
146
0.0
  0
VIEWPORT
  5
870
330
50
100
AcDbEntity
 67
     1
  8
0
100
AcDbViewport
 10
133.3499939441681
 20
101.5999939441681
 30
0.0
 40
213.3599903106689
 41
162.5599903106689
 68
     2
 69
     2
 12
232.2178593412737
 22
236.3528153148605
 13
0.0
 23
0.0
 14
10.0
 24
10.0
 15
10.0
 25
10.0
 16
0.0
 26
0.0
 36
1.0
 17
0.0
 27
0.0
 37
0.0
 42
50.0
 43
0.0
 44
0.0
 45
372.3835153371155
 50
0.0
 51
0.0
 72
  1000
 90
    32864
  1

281
     0
 71
     1
 74
     0
110
0.0
120
0.0
130
0.0
111
1.0
121
0.0
131
0.0
112
0.0
122
1.0
132
0.0
 79
     0
146
0.0
  0
ENDSEC
  0
SECTION
  2
OBJECTS
  0
DICTIONARY
  5
C
330
0
100
AcDbDictionary
281
     1
  3
ACAD_COLOR
350
6B
  3
ACAD_GROUP
350
D
  3
ACAD_LAYOUT
350
1A
  3
ACAD_MATERIAL
350
6A
  3
ACAD_MLINESTYLE
350
17
  3
ACAD_PLOTSETTINGS
350
19
  3
ACAD_PLOTSTYLENAME
350
E
  3
ACDBHEADERROUNDTRIPXREC
350
404E
  3
AcDbVariableDictionary
350
5E
  3
DWGPROPS
350
4051
  0
DICTIONARY
  5
6B
102
{ACAD_REACTORS
330
C
102
}
330
C
100
AcDbDictionary
281
     1
  0
DICTIONARY
  5
D
102
{ACAD_REACTORS
330
C
102
}
330
C
100
AcDbDictionary
281
     1
  0
DICTIONARY
  5
1A
102
{ACAD_REACTORS
330
C
102
}
330
C
100
AcDbDictionary
281
     1
  3
Layout1
350
51
  3
Layout2
350
56
  3
Model
350
22
  0
DICTIONARY
  5
6A
102
{ACAD_REACTORS
330
C
102
}
330
C
100
AcDbDictionary
281
     1
  0
DICTIONARY
  5
17
102
{ACAD_REACTORS
330
C
102
}
330
C
100
AcDbDictionary
281
     1
  3
Standard
350
18
  0
DICTIONARY
  5
19
102
{ACAD_REACTORS
330
C
102
}
330
C
100
AcDbDictionary
281
     1
  0
ACDBDICTIONARYWDFLT
  5
E
102
{ACAD_REACTORS
330
C
102
}
330
C
100
AcDbDictionary
281
     1
  3
Normal
350
F
100
AcDbDictionaryWithDefault
340
F
  0
DICTIONARY
  5
404E
102
{ACAD_REACTORS
330
C
102
}
330
C
100
AcDbDictionary
281
     1
  3
COLORDICT
350
404F
  3
MATERIALDICT
350
4050
  0
DICTIONARY
  5
5E
102
{ACAD_REACTORS
330
C
102
}
330
C
100
AcDbDictionary
281
     1
  3
DIMASSOC
350
5F
  3
HIDETEXT
350
63
  0
XRECORD
  5
4051
102
{ACAD_REACTORS
330
C
102
}
330
C
100
AcDbXrecord
280
     1
  1
DWGPROPS COOKIE
  2

  3

  4

  6

  7

  8

  9

300
=
301
=
302
=
303
=
304
=
305
=
306
=
307
=
308
=
309
=
 40
0.0
 41
2453308.654962373
 42
2453691.649550914
  1

 90
        0
  0
LAYOUT
  5
51
102
{ACAD_REACTORS
330
1A
102
}
330
1A
100
AcDbPlotSettings
  1

  2
none_device
  4
Letter_(8.50_x_11.00_Inches)
  6

 40
6.349999904632567
 41
6.349999904632567
 42
6.350006103515625
 43
6.350006103515625
 44
215.8999938964844
 45
279.3999938964844
 46
0.0
 47
0.0
 48
0.0
 49
0.0
140
0.0
141
0.0
142
1.0
143
1.0
 70
   688
 72
     1
 73
     1
 74
     5
  7

 75
    16
147
1.0
148
0.0
149
0.0
100
AcDbLayout
  1
Layout1
 70
     1
 71
     1
 10
-6.350006103515625
 20
-6.349999904632567
 11
273.0499877929688
 21
209.5499939918518
 12
0.0
 22
0.0
 32
0.0
 14
26.66999878883363
 24
20.31999878883363
 34
0.0
 15
240.0299890995026
 25
182.8799890995025
 35
0.0
146
0.0
 13
0.0
 23
0.0
 33
0.0
 16
1.0
 26
0.0
 36
0.0
 17
0.0
 27
1.0
 37
0.0
 76
     0
330
50
331
86E
  0
LAYOUT
  5
56
102
{ACAD_REACTORS
330
1A
102
}
330
1A
100
AcDbPlotSettings
  1

  2
None
  4

  6

 40
0.0
 41
0.0
 42
0.0
 43
0.0
 44
0.0
 45
0.0
 46
0.0
 47
0.0
 48
0.0
 49
0.0
140
0.0
141
0.0
142
1.0
143
1.0
 70
   688
 72
     0
 73
     0
 74
     5
  7

 75
    16
147
1.0
148
0.0
149
0.0
100
AcDbLayout
  1
Layout2
 70
     1
 71
     2
 10
0.0
 20
0.0
 11
12.0
 21
9.0
 12
0.0
 22
0.0
 32
0.0
 14
0.0
 24
0.0
 34
0.0
 15
0.0
 25
0.0
 35
0.0
146
0.0
 13
0.0
 23
0.0
 33
0.0
 16
1.0
 26
0.0
 36
0.0
 17
0.0
 27
1.0
 37
0.0
 76
     0
330
55
  0
LAYOUT
  5
22
102
{ACAD_REACTORS
330
1A
102
}
330
1A
100
AcDbPlotSettings
  1

  2
\\alderaan\HP LaserJet 5Si/5Si MX PS Tecnico
  4
A3
  6

 40
5.746749877929687
 41
5.704421997070312
 42
5.746734619140625
 43
5.74676513671875
 44
297.0530090332031
 45
420.1583251953125
 46
10.34
 47
0.0
 48
-69.22767503670229
 49
-366.6080453569757
140
1188.996887231578
141
448.8355352667507
142
1.0
143
3.078548048453406
 70
 11956
 72
     1
 73
     1
 74
     4
  7

 75
     0
147
0.3248284529787921
148
69.22767503670229
149
366.6080453569757
100
AcDbLayout
  1
Model
 70
     1
 71
     0
 10
0.0
 20
0.0
 11
12.0
 21
9.0
 12
0.0
 22
0.0
 32
0.0
 14
0.0
 24
0.0
 34
0.0
 15
0.0
 25
0.0
 35
0.0
146
0.0
 13
0.0
 23
0.0
 33
0.0
 16
1.0
 26
0.0
 36
0.0
 17
0.0
 27
1.0
 37
0.0
 76
     0
330
1F
  0
MLINESTYLE
  5
18
102
{ACAD_REACTORS
330
17
102
}
330
17
100
AcDbMlineStyle
  2
STANDARD
 70
     0
  3

 62
   256
 51
90.0
 52
90.0
 71
     2
 49
0.5
 62
   256
  6
BYLAYER
 49
-0.5
 62
   256
  6
BYLAYER
  0
ACDBPLACEHOLDER
  5
F
102
{ACAD_REACTORS
330
E
102
}
330
E
  0
XRECORD
  5
404F
102
{ACAD_REACTORS
330
404E
102
}
330
404E
100
AcDbXrecord
280
     1
340
6B
  0
XRECORD
  5
4050
102
{ACAD_REACTORS
330
404E
102
}
330
404E
100
AcDbXrecord
280
     1
340
6A
  0
DICTIONARYVAR
  5
5F
102
{ACAD_REACTORS
330
5E
102
}
330
5E
100
DictionaryVariables
280
     0
  1
2
  0
DICTIONARYVAR
  5
63
102
{ACAD_REACTORS
330
5E
102
}
330
5E
100
DictionaryVariables
280
     0
  1
1
  0
ENDSEC
  0
EOF
