  0
SECTION
  2
HEADER
  9
$ACADVER
  1
AC1015
  9
$ACADMAINTVER
 70
     6
  9
$DWGCODEPAGE
  3
ANSI_1252
  9
$INSBASE
 10
0.0
 20
0.0
 30
0.0
  9
$EXTMIN
 10
383.0182140014181
 20
284.9903615251114
 30
-0.0008605300456423
  9
$EXTMAX
 10
472.3955120295927
 20
334.6258641181057
 30
0.000573774241424
  9
$LIMMIN
 10
0.0
 20
0.0
  9
$LIMMAX
 10
420.0
 20
297.0
  9
$ORTHOMODE
 70
     1
  9
$REGENMODE
 70
     1
  9
$FILLMODE
 70
     1
  9
$QTEXTMODE
 70
     0
  9
$MIRRTEXT
 70
     0
  9
$LTSCALE
 40
1.0
  9
$ATTMODE
 70
     1
  9
$TEXTSIZE
 40
2.5
  9
$TRACEWID
 40
1.0
  9
$TEXTSTYLE
  7
Standard
  9
$CLAYER
  8
0
  9
$CELTYPE
  6
ByLayer
  9
$CECOLOR
 62
   256
  9
$CELTSCALE
 40
1.0
  9
$DISPSILH
 70
     0
  9
$DIMSCALE
 40
1.0
  9
$DIMASZ
 40
2.5
  9
$DIMEXO
 40
0.625
  9
$DIMDLI
 40
3.75
  9
$DIMRND
 40
0.0
  9
$DIMDLE
 40
0.0
  9
$DIMEXE
 40
1.25
  9
$DIMTP
 40
0.0
  9
$DIMTM
 40
0.0
  9
$DIMTXT
 40
2.5
  9
$DIMCEN
 40
2.5
  9
$DIMTSZ
 40
0.0
  9
$DIMTOL
 70
     0
  9
$DIMLIM
 70
     0
  9
$DIMTIH
 70
     0
  9
$DIMTOH
 70
     0
  9
$DIMSE1
 70
     0
  9
$DIMSE2
 70
     0
  9
$DIMTAD
 70
     1
  9
$DIMZIN
 70
     8
  9
$DIMBLK
  1

  9
$DIMASO
 70
     1
  9
$DIMSHO
 70
     1
  9
$DIMPOST
  1

  9
$DIMAPOST
  1

  9
$DIMALT
 70
     0
  9
$DIMALTD
 70
     3
  9
$DIMALTF
 40
0.03937007874016
  9
$DIMLFAC
 40
1.0
  9
$DIMTOFL
 70
     1
  9
$DIMTVP
 40
0.0
  9
$DIMTIX
 70
     0
  9
$DIMSOXD
 70
     0
  9
$DIMSAH
 70
     0
  9
$DIMBLK1
  1

  9
$DIMBLK2
  1

  9
$DIMSTYLE
  2
ISO-25
  9
$DIMCLRD
 70
     0
  9
$DIMCLRE
 70
     0
  9
$DIMCLRT
 70
     0
  9
$DIMTFAC
 40
1.0
  9
$DIMGAP
 40
0.625
  9
$DIMJUST
 70
     0
  9
$DIMSD1
 70
     0
  9
$DIMSD2
 70
     0
  9
$DIMTOLJ
 70
     0
  9
$DIMTZIN
 70
     8
  9
$DIMALTZ
 70
     0
  9
$DIMALTTZ
 70
     0
  9
$DIMUPT
 70
     0
  9
$DIMDEC
 70
     2
  9
$DIMTDEC
 70
     2
  9
$DIMALTU
 70
     2
  9
$DIMALTTD
 70
     3
  9
$DIMTXSTY
  7
Standard
  9
$DIMAUNIT
 70
     0
  9
$DIMADEC
 70
     0
  9
$DIMALTRND
 40
0.0
  9
$DIMAZIN
 70
     0
  9
$DIMDSEP
 70
    44
  9
$DIMATFIT
 70
     3
  9
$DIMFRAC
 70
     0
  9
$DIMLDRBLK
  1

  9
$DIMLUNIT
 70
     2
  9
$DIMLWD
 70
    -2
  9
$DIMLWE
 70
    -2
  9
$DIMTMOVE
 70
     0
  9
$LUNITS
 70
     2
  9
$LUPREC
 70
     4
  9
$SKETCHINC
 40
1.0
  9
$FILLETRAD
 40
0.0
  9
$AUNITS
 70
     0
  9
$AUPREC
 70
     0
  9
$MENU
  1
.
  9
$ELEVATION
 40
0.0
  9
$PELEVATION
 40
0.0
  9
$THICKNESS
 40
0.0
  9
$LIMCHECK
 70
     0
  9
$CHAMFERA
 40
0.0
  9
$CHAMFERB
 40
0.0
  9
$CHAMFERC
 40
0.0
  9
$CHAMFERD
 40
0.0
  9
$SKPOLY
 70
     0
  9
$TDCREATE
 40
2453308.69662904
  9
$TDUCREATE
 40
2453308.654962373
  9
$TDUPDATE
 40
2453691.691051805
  9
$TDUUPDATE
 40
2453691.649385139
  9
$TDINDWG
 40
1.1046429398
  9
$TDUSRTIMER
 40
1.1046426389
  9
$USRTIMER
 70
     1
  9
$ANGBASE
 50
0.0
  9
$ANGDIR
 70
     0
  9
$PDMODE
 70
     0
  9
$PDSIZE
 40
0.0
  9
$PLINEWID
 40
0.0
  9
$SPLFRAME
 70
     0
  9
$SPLINETYPE
 70
     6
  9
$SPLINESEGS
 70
     8
  9
$HANDSEED
  5
479F
  9
$SURFTAB1
 70
     6
  9
$SURFTAB2
 70
     6
  9
$SURFTYPE
 70
     6
  9
$SURFU
 70
     6
  9
$SURFV
 70
     6
  9
$UCSBASE
  2

  9
$UCSNAME
  2

  9
$UCSORG
 10
0.0
 20
0.0
 30
0.0
  9
$UCSXDIR
 10
1.0
 20
0.0
 30
0.0
  9
$UCSYDIR
 10
0.0
 20
1.0
 30
0.0
  9
$UCSORTHOREF
  2

  9
$UCSORTHOVIEW
 70
     0
  9
$UCSORGTOP
 10
0.0
 20
0.0
 30
0.0
  9
$UCSORGBOTTOM
 10
0.0
 20
0.0
 30
0.0
  9
$UCSORGLEFT
 10
0.0
 20
0.0
 30
0.0
  9
$UCSORGRIGHT
 10
0.0
 20
0.0
 30
0.0
  9
$UCSORGFRONT
 10
0.0
 20
0.0
 30
0.0
  9
$UCSORGBACK
 10
0.0
 20
0.0
 30
0.0
  9
$PUCSBASE
  2

  9
$PUCSNAME
  2

  9
$PUCSORG
 10
0.0
 20
0.0
 30
0.0
  9
$PUCSXDIR
 10
1.0
 20
0.0
 30
0.0
  9
$PUCSYDIR
 10
0.0
 20
1.0
 30
0.0
  9
$PUCSORTHOREF
  2

  9
$PUCSORTHOVIEW
 70
     0
  9
$PUCSORGTOP
 10
0.0
 20
0.0
 30
0.0
  9
$PUCSORGBOTTOM
 10
0.0
 20
0.0
 30
0.0
  9
$PUCSORGLEFT
 10
0.0
 20
0.0
 30
0.0
  9
$PUCSORGRIGHT
 10
0.0
 20
0.0
 30
0.0
  9
$PUCSORGFRONT
 10
0.0
 20
0.0
 30
0.0
  9
$PUCSORGBACK
 10
0.0
 20
0.0
 30
0.0
  9
$USERI1
 70
     0
  9
$USERI2
 70
     0
  9
$USERI3
 70
     0
  9
$USERI4
 70
     0
  9
$USERI5
 70
     0
  9
$USERR1
 40
0.0
  9
$USERR2
 40
0.0
  9
$USERR3
 40
0.0
  9
$USERR4
 40
0.0
  9
$USERR5
 40
0.0
  9
$WORLDVIEW
 70
     1
  9
$SHADEDGE
 70
     3
  9
$SHADEDIF
 70
    70
  9
$TILEMODE
 70
     1
  9
$MAXACTVP
 70
    64
  9
$PINSBASE
 10
0.0
 20
0.0
 30
0.0
  9
$PLIMCHECK
 70
     0
  9
$PEXTMIN
 10
26.66999878883363
 20
20.31999878883363
 30
0.0
  9
$PEXTMAX
 10
240.0299890995026
 20
182.8799890995025
 30
0.0
  9
$PLIMMIN
 10
-6.350006103515625
 20
-6.349999904632567
  9
$PLIMMAX
 10
273.0499877929688
 20
209.5499939918518
  9
$UNITMODE
 70
     0
  9
$VISRETAIN
 70
     1
  9
$PLINEGEN
 70
     0
  9
$PSLTSCALE
 70
     1
  9
$TREEDEPTH
 70
  3020
  9
$CMLSTYLE
  2
Standard
  9
$CMLJUST
 70
     0
  9
$CMLSCALE
 40
20.0
  9
$PROXYGRAPHICS
 70
     1
  9
$MEASUREMENT
 70
     1
  9
$CELWEIGHT
370
    -1
  9
$ENDCAPS
280
     0
  9
$JOINSTYLE
280
     0
  9
$LWDISPLAY
290
     0
  9
$INSUNITS
 70
     4
  9
$HYPERLINKBASE
  1

  9
$STYLESHEET
  1

  9
$XEDIT
290
     1
  9
$CEPSNTYPE
380
     0
  9
$PSTYLEMODE
290
     1
  9
$FINGERPRINTGUID
  2
{FDEAD578-A652-11D2-9A35-0060089B3A3F}
  9
$VERSIONGUID
  2
{7235EEAD-8F3F-46CA-8D06-133F9CBC07FF}
  9
$EXTNAMES
290
     1
  9
$PSVPSCALE
 40
0.0
  9
$OLESTARTUP
290
     0
  0
ENDSEC
  0
SECTION
  2
CLASSES
  0
CLASS
  1
ACDBDICTIONARYWDFLT
  2
AcDbDictionaryWithDefault
  3
ObjectDBX Classes
 90
        0
280
     0
281
     0
  0
CLASS
  1
DICTIONARYVAR
  2
AcDbDictionaryVar
  3
ObjectDBX Classes
 90
        0
280
     0
281
     0
  0
CLASS
  1
DIMASSOC
  2
AcDbDimAssoc
  3
"AcDbDimAssoc|Product Desc:     AcDim ARX App For Dimension|Company:          Autodesk, Inc.|WEB Address:      www.autodesk.com"
 90
        0
280
     0
281
     0
  0
CLASS
  1
ACDBPLACEHOLDER
  2
AcDbPlaceHolder
  3
ObjectDBX Classes
 90
        0
280
     0
281
     0
  0
CLASS
  1
LAYOUT
  2
AcDbLayout
  3
ObjectDBX Classes
 90
        0
280
     0
281
     0
  0
ENDSEC
  0
SECTION
  2
TABLES
  0
TABLE
  2
VPORT
  5
8
330
0
100
AcDbSymbolTable
 70
     1
  0
VPORT
  5
478C
330
8
100
AcDbSymbolTableRecord
100
AcDbViewportTableRecord
  2
*Active
 70
     0
 10
0.0
 20
0.0
 11
1.0
 21
1.0
 12
427.7068630155054
 22
309.8081128216086
 13
0.0
 23
0.0
 14
10.0
 24
10.0
 15
10.0
 25
10.0
 16
0.0
 26
0.0
 36
1.0
 17
0.0
 27
0.0
 37
0.0
 40
56.13250782046719
 41
1.6
 42
50.0
 43
0.0
 44
0.0
 50
0.0
 51
0.0
 71
     0
 72
  1000
 73
     1
 74
     3
 75
     0
 76
     0
 77
     0
 78
     0
281
     0
 65
     1
110
0.0
120
0.0
130
0.0
111
1.0
121
0.0
131
0.0
112
0.0
122
1.0
132
0.0
 79
     0
146
0.0
  0
ENDTAB
  0
TABLE
  2
LTYPE
  5
5
330
0
100
AcDbSymbolTable
 70
     2
  0
LTYPE
  5
14
330
5
100
AcDbSymbolTableRecord
100
AcDbLinetypeTableRecord
  2
ByBlock
 70
     0
  3

 72
    65
 73
     0
 40
0.0
  0
LTYPE
  5
15
330
5
100
AcDbSymbolTableRecord
100
AcDbLinetypeTableRecord
  2
ByLayer
 70
     0
  3

 72
    65
 73
     0
 40
0.0
  0
LTYPE
  5
16
330
5
100
AcDbSymbolTableRecord
100
AcDbLinetypeTableRecord
  2
Continuous
 70
     0
  3
Solid line
 72
    65
 73
     0
 40
0.0
  0
LTYPE
  5
8B
330
5
100
AcDbSymbolTableRecord
100
AcDbLinetypeTableRecord
  2
CENTER
 70
     0
  3
____ _ ____ _ ____ _ ____ _ ____ _ ____ _ ____
 72
    65
 73
     4
 40
0.6
 49
0.375
 74
     0
 49
-0.075
 74
     0
 49
0.075
 74
     0
 49
-0.075
 74
     0
  0
ENDTAB
  0
TABLE
  2
LAYER
  5
2
330
0
100
AcDbSymbolTable
 70
     2
  0
LAYER
  5
10
330
2
100
AcDbSymbolTableRecord
100
AcDbLayerTableRecord
  2
0
 70
     0
 62
     7
  6
Continuous
370
    -3
390
F
  0
LAYER
  5
396
330
2
100
AcDbSymbolTableRecord
100
AcDbLayerTableRecord
  2
Defpoints
 70
     0
 62
     7
  6
Continuous
290
     0
370
    -3
390
F
  0
ENDTAB
  0
TABLE
  2
STYLE
  5
3
330
0
100
AcDbSymbolTable
 70
     1
  0
STYLE
  5
11
330
3
100
AcDbSymbolTableRecord
100
AcDbTextStyleTableRecord
  2
Standard
 70
     0
 40
0.0
 41
1.0
 50
0.0
 71
     0
 42
2.5
  3
verdana.TTF
  4

1001
ACAD
1000
Verdana
1071
       34
  0
ENDTAB
  0
TABLE
  2
VIEW
  5
6
330
0
100
AcDbSymbolTable
 70
     0
  0
ENDTAB
  0
TABLE
  2
UCS
  5
7
330
0
100
AcDbSymbolTable
 70
     0
  0
ENDTAB
  0
TABLE
  2
APPID
  5
9
330
0
100
AcDbSymbolTable
 70
     1
  0
APPID
  5
12
330
9
100
AcDbSymbolTableRecord
100
AcDbRegAppTableRecord
  2
ACAD
 70
     0
  0
ENDTAB
  0
TABLE
  2
DIMSTYLE
  5
A
330
0
100
AcDbSymbolTable
 70
     2
100
AcDbDimStyleTable
  0
DIMSTYLE
105
27
330
A
100
AcDbSymbolTableRecord
100
AcDbDimStyleTableRecord
  2
ISO-25
 70
     0
 41
2.5
 42
0.625
 43
3.75
 44
1.25
 73
     0
 74
     0
 77
     1
 78
     8
140
2.5
141
2.5
143
0.03937007874016
147
0.625
171
     3
172
     1
271
     2
272
     2
274
     3
278
    44
283
     0
284
     8
340
11
  0
DIMSTYLE
105
8D
330
A
100
AcDbSymbolTableRecord
100
AcDbDimStyleTableRecord
  2
STANDARD
 70
     0
 41
3.0
 47
0.01
 48
0.01
 71
     1
 73
     0
 74
     0
 77
     1
 78
     8
140
1.5
271
     2
272
     2
284
     8
340
11
  0
ENDTAB
  0
TABLE
  2
BLOCK_RECORD
  5
1
330
0
100
AcDbSymbolTable
 70
     1
  0
BLOCK_RECORD
  5
1F
330
1
100
AcDbSymbolTableRecord
100
AcDbBlockTableRecord
  2
*Model_Space
340
22
  0
BLOCK_RECORD
  5
50
330
1
100
AcDbSymbolTableRecord
100
AcDbBlockTableRecord
  2
*Paper_Space
340
51
  0
BLOCK_RECORD
  5
55
330
1
100
AcDbSymbolTableRecord
100
AcDbBlockTableRecord
  2
*Paper_Space0
340
56
  0
ENDTAB
  0
ENDSEC
  0
SECTION
  2
BLOCKS
  0
BLOCK
  5
20
330
1F
100
AcDbEntity
  8
0
100
AcDbBlockBegin
  2
*Model_Space
 70
     0
 71
     0
 10
0.0
 20
0.0
 30
0.0
  3
*Model_Space
  1

  0
ENDBLK
  5
21
330
1F
100
AcDbEntity
  8
0
100
AcDbBlockEnd
  0
BLOCK
  5
52
330
50
100
AcDbEntity
 67
     1
  8
0
100
AcDbBlockBegin
  2
*Paper_Space
 70
     0
 71
     0
 10
0.0
 20
0.0
 30
0.0
  3
*Paper_Space
  1

  0
ENDBLK
  5
53
330
50
100
AcDbEntity
 67
     1
  8
0
100
AcDbBlockEnd
  0
BLOCK
  5
57
330
55
100
AcDbEntity
  8
0
100
AcDbBlockBegin
  2
*Paper_Space0
 70
     0
 71
     0
 10
0.0
 20
0.0
 30
0.0
  3
*Paper_Space0
  1

  0
ENDBLK
  5
58
330
55
100
AcDbEntity
  8
0
100
AcDbBlockEnd
  0
ENDSEC
  0
SECTION
  2
ENTITIES
  0
SPLINE
  5
7E0
330
1F
100
AcDbEntity
  8
0
  6
Continuous
100
AcDbSpline
210
0.0
220
0.0
230
1.0
 70
     8
 71
     3
 72
    10
 73
     6
 74
     4
 42
0.0000000001
 43
0.0000000001
 44
0.0000000001
 12
0.2204307175394359
 22
-0.9754026341798804
 32
0.0
 13
1.450594341000000E-7
 23
-0.9999999999999895
 33
0.0
 40
0.0
 40
0.0
 40
0.0
 40
0.0
 40
0.2161007493969539
 40
0.3535829022394508
 40
0.4094873274104922
 40
0.4094873274104922
 40
0.4094873274104922
 40
0.4094873274104922
 10
418.8002645798222
 20
285.4183676824911
 30
0.0
 10
418.816142994239
 20
285.3481059357545
 30
0.0
 10
418.84345261105
 20
285.2331529919392
 30
0.0
 10
418.8678166195576
 20
285.0994921941453
 30
0.0
 10
418.8850801945192
 20
285.0364477546816
 30
0.0
 10
418.8850801972223
 20
285.0178129462912
 30
0.0
 11
418.8002645798222
 21
285.4183676824911
 31
0.0
 11
418.8471821104222
 21
285.2074215300912
 31
0.0
 11
418.8755801704222
 21
285.0729042726911
 31
0.0
 11
418.8850801972223
 21
285.0178129462912
 31
0.0
  0
SPLINE
  5
7E1
330
1F
100
AcDbEntity
  8
0
  6
Continuous
100
AcDbSpline
210
0.0
220
0.0
230
1.0
 70
     8
 71
     3
 72
    10
 73
     6
 74
     4
 42
0.0000000001
 43
0.0000000001
 44
0.0000000001
 12
0.2204307176592898
 22
0.9754026341527946
 32
0.0
 13
-2.925543100000000E-9
 23
1.0
 33
0.0
 40
0.0
 40
0.0
 40
0.0
 40
0.0
 40
0.2852844312996498
 40
0.6296855252816598
 40
1.025450615883494
 40
1.025450615883494
 40
1.025450615883494
 40
1.025450615883494
 10
418.8002645798222
 20
295.7430952818912
 30
0.0
 10
418.8212263971317
 20
295.835851010482
 30
0.0
 10
418.8535143923182
 20
296.0436968038554
 30
0.0
 10
418.8799062799672
 20
296.3846485447128
 30
0.0
 10
418.8850801976083
 20
296.6314529220236
 30
0.0
 10
418.8850801972223
 20
296.7633746188909
 30
0.0
 11
418.8002645798222
 21
295.7430952818912
 31
0.0
 11
418.8471821074223
 21
296.0244952682911
 31
0.0
 11
418.8755801674223
 21
296.3677235650911
 31
0.0
 11
418.8850801972223
 21
296.7633746188909
 31
0.0
  0
SPLINE
  5
7E2
330
1F
100
AcDbEntity
  8
0
  6
Continuous
100
AcDbSpline
210
0.0
220
0.0
230
1.0
 70
     8
 71
     3
 72
    10
 73
     6
 74
     4
 42
0.0000000001
 43
0.0000000001
 44
0.0000000001
 12
0.112280218823453
 22
-0.9936765834319322
 32
0.0
 13
4.915703200000000E-9
 23
-1.0
 33
0.0
 40
0.0
 40
0.0
 40
0.0
 40
0.0
 40
0.4945765864689772
 40
0.9731654468057585
 40
1.424007869686913
 40
1.424007869686913
 40
1.424007869686913
 40
1.424007869686913
 10
418.8002645798222
 20
299.4817678468912
 30
0.0
 10
418.8187749689402
 20
299.3179514559952
 30
0.0
 10
418.8496090135482
 20
298.9949512950875
 30
0.0
 10
418.8781083822946
 20
298.5210491016112
 30
0.0
 10
418.8850801964836
 20
298.2112145811182
 30
0.0
 10
418.8850801972223
 20
298.0609337734911
 30
0.0
 11
418.8002645798222
 21
299.4817678468912
 31
0.0
 11
418.8471821104222
 21
298.989421682891
 31
0.0
 11
418.8755801704222
 21
298.5116760942911
 31
0.0
 11
418.8850801972223
 21
298.0609337734911
 31
0.0
  0
SPLINE
  5
7E3
330
1F
100
AcDbEntity
  8
0
  6
Continuous
100
AcDbSpline
210
0.0
220
0.0
230
1.0
 70
     8
 71
     3
 72
    10
 73
     6
 74
     4
 42
0.0000000001
 43
0.0000000001
 44
0.0000000001
 12
0.112280218823453
 22
0.9936765834319322
 32
0.0
 13
-2.247178600000000E-9
 23
1.0
 33
0.0
 40
0.0
 40
0.0
 40
0.0
 40
0.0
 40
0.4945765553809354
 40
0.9731653875674948
 40
1.424007869686109
 40
1.424007869686109
 40
1.424007869686109
 40
1.424007869686109
 10
418.8002645798222
 20
320.1312230454911
 30
0.0
 10
418.8187749677766
 20
320.2950394260899
 30
0.0
 10
418.8496090110161
 20
320.6180395672948
 30
0.0
 10
418.8781083806576
 20
321.0919417606542
 30
0.0
 10
418.88508019756
 20
321.4017762915183
 30
0.0
 10
418.8850801972223
 20
321.5520571188911
 30
0.0
 11
418.8002645798222
 21
320.1312230454911
 31
0.0
 11
418.8471821080223
 21
320.6235691784911
 31
0.0
 11
418.8755801680223
 21
321.1013147388911
 31
0.0
 11
418.8850801972223
 21
321.5520571188911
 31
0.0
  0
SPLINE
  5
7E4
330
1F
100
AcDbEntity
  8
0
  6
Continuous
100
AcDbSpline
210
0.0
220
0.0
230
1.0
 70
     8
 71
     3
 72
    10
 73
     6
 74
     4
 42
0.0000000001
 43
0.0000000001
 44
0.0000000001
 12
0.2204307176592898
 22
-0.9754026341527946
 32
0.0
 13
5.656050000000000E-9
 23
-1.0
 33
0.0
 40
0.0
 40
0.0
 40
0.0
 40
0.0
 40
0.285284456649873
 40
0.6296855849149031
 40
1.025450615862031
 40
1.025450615862031
 40
1.025450615862031
 40
1.025450615862031
 10
418.8002645798222
 20
323.8698956104911
 30
0.0
 10
418.8212263989943
 20
323.777139873658
 30
0.0
 10
418.8535143959701
 20
323.5692940603615
 30
0.0
 10
418.8799062812435
 20
323.2283423192816
 30
0.0
 10
418.8850801964761
 20
322.9815379504735
 30
0.0
 10
418.8850801972223
 20
322.8496162734911
 30
0.0
 11
418.8002645798222
 21
323.8698956104911
 31
0.0
 11
418.8471821104222
 21
323.5884955988912
 31
0.0
 11
418.8755801704222
 21
323.245267267691
 31
0.0
 11
418.8850801972223
 21
322.8496162734911
 31
0.0
  0
SPLINE
  5
7E5
330
1F
100
AcDbEntity
  8
0
  6
Continuous
100
AcDbSpline
210
0.0
220
0.0
230
1.0
 70
     8
 71
     3
 72
    10
 73
     6
 74
     4
 42
0.0000000001
 43
0.0000000001
 44
0.0000000001
 12
0.2204307175394359
 22
0.9754026341798804
 32
0.0
 13
-7.472758730000002E-8
 23
0.9999999999999972
 33
0.0
 40
0.0
 40
0.0
 40
0.0
 40
0.0
 40
0.216100736880145
 40
0.353582888548365
 40
0.409487327400438
 40
0.409487327400438
 40
0.409487327400438
 40
0.409487327400438
 10
418.8002645798222
 20
334.1946232098911
 30
0.0
 10
418.8161429933193
 20
334.2648849525581
 30
0.0
 10
418.8434526119541
 20
334.3798378919274
 30
0.0
 10
418.8678166124834
 20
334.5134986897717
 30
0.0
 10
418.8850801986148
 20
334.5765431331404
 30
0.0
 10
418.8850801972223
 20
334.5951779460911
 30
0.0
 11
418.8002645798222
 21
334.1946232098911
 31
0.0
 11
418.8471821076222
 21
334.4055693500911
 31
0.0
 11
418.8755801676221
 21
334.5400866062911
 31
0.0
 11
418.8850801972223
 21
334.5951779460911
 31
0.0
  0
SPLINE
  5
7E6
330
1F
100
AcDbEntity
  8
0
  6
Continuous
100
AcDbSpline
210
0.0
220
0.0
230
1.0
 70
     8
 71
     3
 72
    10
 73
     6
 74
     4
 42
0.0000000001
 43
0.0000000001
 44
0.0000000001
 12
-0.2204307179621268
 22
-0.9754026340843568
 32
0.0
 13
0.0
 23
-1.0
 33
0.0
 40
0.0
 40
0.0
 40
0.0
 40
0.0
 40
0.2160916448981438
 40
0.3535577370094541
 40
0.409487320183359
 40
0.409487320183359
 40
0.409487320183359
 40
0.409487320183359
 10
429.8353267424221
 20
285.4183676824911
 30
0.0
 10
429.8194489969453
 20
285.3481088959454
 30
0.0
 10
429.7921411721404
 20
285.2331641783865
 30
0.0
 10
429.7677772287557
 20
285.0995033079554
 30
0.0
 10
429.7505111252223
 20
285.0364561406825
 30
0.0
 10
429.7505111252223
 20
285.0178129462912
 30
0.0
 11
429.8353267424221
 21
285.4183676824911
 31
0.0
 11
429.7884111486222
 21
285.2074304262911
 31
0.0
 11
429.7600160772223
 21
285.0729289526912
 31
0.0
 11
429.7505111252223
 21
285.0178129462912
 31
0.0
  0
SPLINE
  5
7E7
330
1F
100
AcDbEntity
  8
0
  6
Continuous
100
AcDbSpline
210
0.0
220
0.0
230
1.0
 70
     8
 71
     3
 72
    10
 73
     6
 74
     4
 42
0.0000000001
 43
0.0000000001
 44
0.0000000001
 12
0.0
 22
-1.0
 32
0.0
 13
0.2204307177641136
 23
-0.9754026341291056
 33
0.0
 40
0.0
 40
0.0
 40
0.0
 40
0.0
 40
0.3958613748464586
 40
0.7401823750537857
 40
1.025450633582725
 40
1.025450633582725
 40
1.025450633582725
 40
1.025450633582725
 10
429.7505111252223
 20
296.7633746188909
 30
0.0
 10
429.7505111252223
 20
296.6314208272754
 30
0.0
 10
429.7556862725457
 20
296.3846109667998
 30
0.0
 10
429.7820823122588
 20
296.043659627879
 30
0.0
 10
429.8143661134279
 20
295.8358457521587
 30
0.0
 10
429.8353267424221
 20
295.7430952818912
 30
0.0
 11
429.7505111252223
 21
296.7633746188909
 31
0.0
 11
429.7600160772223
 21
296.3676273712911
 31
0.0
 11
429.7884111486222
 21
296.024479194691
 31
0.0
 11
429.8353267424221
 21
295.7430952818912
 31
0.0
  0
SPLINE
  5
7E8
330
1F
100
AcDbEntity
  8
0
  6
Continuous
100
AcDbSpline
210
0.0
220
0.0
230
1.0
 70
     8
 71
     3
 72
    10
 73
     6
 74
     4
 42
0.0000000001
 43
0.0000000001
 44
0.0000000001
 12
-0.1122802188728136
 22
-0.9936765834263546
 32
0.0
 13
0.0
 23
-1.0
 33
0.0
 40
0.0
 40
0.0
 40
0.0
 40
0.0
 40
0.4945515206571422
 40
0.9730444341102126
 40
1.424007867328832
 40
1.424007867328832
 40
1.424007867328832
 40
1.424007867328832
 10
429.8353267424221
 20
299.4817678468912
 30
0.0
 10
429.8168172914277
 20
299.3179597584329
 30
0.0
 10
429.7859867917597
 20
298.9949997898955
 30
0.0
 10
429.7574849425557
 20
298.5210978105819
 30
0.0
 10
429.7505111252223
 20
298.2112549178974
 30
0.0
 10
429.7505111252223
 20
298.0609337734911
 30
0.0
 11
429.8353267424221
 21
299.4817678468912
 31
0.0
 11
429.7884111486222
 21
298.989446677691
 31
0.0
 11
429.7600160772223
 21
298.5117970276911
 31
0.0
 11
429.7505111252223
 21
298.0609337734911
 31
0.0
  0
SPLINE
  5
7E9
330
1F
100
AcDbEntity
  8
0
  6
Continuous
100
AcDbSpline
210
0.0
220
0.0
230
1.0
 70
     8
 71
     3
 72
    10
 73
     6
 74
     4
 42
0.0000000001
 43
0.0000000001
 44
0.0000000001
 12
0.0
 22
-1.0
 32
0.0
 13
0.1122802188728136
 23
-0.9936765834263546
 33
0.0
 40
0.0
 40
0.0
 40
0.0
 40
0.0
 40
0.4509634332187333
 40
0.9294563466718604
 40
1.424007867328776
 40
1.424007867328776
 40
1.424007867328776
 40
1.424007867328776
 10
429.7505111252223
 20
321.5520571188911
 30
0.0
 10
429.7505111252223
 20
321.4017359744849
 30
0.0
 10
429.7574849425557
 20
321.0918930818002
 30
0.0
 10
429.7859867917596
 20
320.6179911024867
 30
0.0
 10
429.8168172914277
 20
320.2950311339493
 30
0.0
 10
429.8353267424221
 20
320.1312230454911
 30
0.0
 11
429.7505111252223
 21
321.5520571188911
 31
0.0
 11
429.7600160772223
 21
321.101193864691
 31
0.0
 11
429.7884111486222
 21
320.6235442146911
 31
0.0
 11
429.8353267424221
 21
320.1312230454911
 31
0.0
  0
SPLINE
  5
7EA
330
1F
100
AcDbEntity
  8
0
  6
Continuous
100
AcDbSpline
210
0.0
220
0.0
230
1.0
 70
     8
 71
     3
 72
    10
 73
     6
 74
     4
 42
0.0000000001
 43
0.0000000001
 44
0.0000000001
 12
-0.2204307177641136
 22
-0.9754026341291056
 32
0.0
 13
0.0
 23
-1.0
 33
0.0
 40
0.0
 40
0.0
 40
0.0
 40
0.0
 40
0.2852682585292194
 40
0.62958925873632
 40
1.025450633583006
 40
1.025450633583006
 40
1.025450633583006
 40
1.025450633583006
 10
429.8353267424221
 20
323.8698956104911
 30
0.0
 10
429.8143661134278
 20
323.7771451402235
 30
0.0
 10
429.7820823122585
 20
323.5693312645032
 30
0.0
 10
429.7556862725459
 20
323.2283799255823
 30
0.0
 10
429.7505111252223
 20
322.9815700651067
 30
0.0
 10
429.7505111252223
 20
322.8496162734911
 30
0.0
 11
429.8353267424221
 21
323.8698956104911
 31
0.0
 11
429.7884111486222
 21
323.588511697691
 31
0.0
 11
429.7600160772223
 21
323.2453635210911
 31
0.0
 11
429.7505111252223
 21
322.8496162734911
 31
0.0
  0
SPLINE
  5
7EB
330
1F
100
AcDbEntity
  8
0
  6
Continuous
100
AcDbSpline
210
0.0
220
0.0
230
1.0
 70
     8
 71
     3
 72
    10
 73
     6
 74
     4
 42
0.0000000001
 43
0.0000000001
 44
0.0000000001
 12
0.0
 22
-1.0
 32
0.0
 13
0.2204307179621268
 23
-0.9754026340843568
 33
0.0
 40
0.0
 40
0.0
 40
0.0
 40
0.0
 40
0.0559295831739048
 40
0.1933956752852708
 40
0.4094873201834146
 40
0.4094873201834146
 40
0.4094873201834146
 40
0.4094873201834146
 10
429.7505111252223
 20
334.5951779460911
 30
0.0
 10
429.7505111252223
 20
334.5765347516998
 30
0.0
 10
429.7677772287557
 20
334.5134875844269
 30
0.0
 10
429.7921411721404
 20
334.3798267139958
 30
0.0
 10
429.8194489969453
 20
334.2648819964369
 30
0.0
 10
429.8353267424221
 20
334.1946232098911
 30
0.0
 11
429.7505111252223
 21
334.5951779460911
 31
0.0
 11
429.7600160772223
 21
334.5400619396911
 31
0.0
 11
429.7884111486222
 21
334.4055604660911
 31
0.0
 11
429.8353267424221
 21
334.1946232098911
 31
0.0
  0
SPLINE
  5
7EC
330
1F
100
AcDbEntity
  8
0
  6
Continuous
100
AcDbSpline
210
0.0
220
0.0
230
1.0
 70
     8
 71
     3
 72
    14
 73
    10
 74
     8
 42
0.0000000001
 43
0.0000000001
 44
0.0000000001
 12
0.2204307177525871
 22
0.9754026341317105
 32
0.0
 13
-0.2204307177525871
 23
0.9754026341317105
 33
0.0
 40
0.0
 40
0.0
 40
0.0
 40
0.0
 40
1.510223495336065
 40
2.992782855796766
 40
4.469999066516222
 40
5.947609485435916
 40
7.424858912682134
 40
8.907131492006538
 40
10.41707990173739
 40
10.41707990173739
 40
10.41707990173739
 40
10.41707990173739
 10
429.8353267424221
 20
285.4183676824911
 30
0.0
 10
429.9462932921034
 20
285.9093930076506
 30
0.0
 10
430.1417027435811
 20
286.888260164547
 30
0.0
 10
430.3463554050898
 20
288.3651016947741
 30
0.0
 10
430.4515461127405
 20
289.8416865392711
 30
0.0
 10
430.4515270764722
 20
291.3203165248068
 30
0.0
 10
430.3463044461255
 20
292.7968143140382
 30
0.0
 10
430.1416502903645
 20
294.2734771214463
 30
0.0
 10
429.9462730796643
 20
295.2521593964731
 30
0.0
 10
429.8353267424221
 20
295.7430952818912
 30
0.0
 11
429.8353267424221
 21
285.4183676824911
 31
0.0
 11
430.1286406556221
 21
286.8998338326911
 31
0.0
 11
430.3302044824222
 21
288.3686273106911
 31
0.0
 11
430.4340268150222
 21
289.8421905622911
 31
0.0
 11
430.4340080028222
 21
291.319800981091
 31
0.0
 11
430.3301459182223
 21
292.7933947302912
 31
0.0
 11
430.1285948812221
 21
294.2619004942912
 31
0.0
 11
429.8353267424221
 21
295.7430952818912
 31
0.0
  0
SPLINE
  5
7ED
330
1F
100
AcDbEntity
  8
0
  6
Continuous
100
AcDbSpline
210
0.0
220
0.0
230
1.0
 70
     8
 71
     3
 72
    14
 73
    10
 74
     8
 42
0.0000000001
 43
0.0000000001
 44
0.0000000001
 12
-0.2204307177525871
 22
-0.9754026341317105
 32
0.0
 13
0.2204307177525871
 23
-0.9754026341317105
 33
0.0
 40
0.0
 40
0.0
 40
0.0
 40
0.0
 40
1.510223495297337
 40
2.992782855785235
 40
4.469999066504617
 40
5.947609485424596
 40
7.424858912670547
 40
8.907131491994944
 40
10.41707990172573
 40
10.41707990172573
 40
10.41707990172573
 40
10.41707990172573
 10
418.8002645798222
 20
295.7430952818912
 30
0.0
 10
418.6892980301439
 20
295.2520699567443
 30
0.0
 10
418.493888579026
 20
294.2732027997855
 30
0.0
 10
418.2892359170593
 20
292.7963612696318
 30
0.0
 10
418.1840452095299
 20
291.3197764251071
 30
0.0
 10
418.1840642457649
 20
289.8411464395765
 30
0.0
 10
418.289286876121
 20
288.3646486503437
 30
0.0
 10
418.4939410318792
 20
286.887985842936
 30
0.0
 10
418.6893182425801
 20
285.9093035679093
 30
0.0
 10
418.8002645798222
 20
285.4183676824911
 30
0.0
 11
418.8002645798222
 21
295.7430952818912
 31
0.0
 11
418.5069506668222
 21
294.2616291316911
 31
0.0
 11
418.3053868398221
 21
292.7928356536911
 31
0.0
 11
418.2015645072223
 21
291.3192724020912
 31
0.0
 11
418.201583319422
 21
289.841661983291
 31
0.0
 11
418.3054454040222
 21
288.3680682340911
 31
0.0
 11
418.5069964410223
 21
286.8995624700911
 31
0.0
 11
418.8002645798222
 21
285.4183676824911
 31
0.0
  0
SPLINE
  5
7EE
330
1F
100
AcDbEntity
  8
0
  6
Continuous
100
AcDbSpline
210
0.0
220
0.0
230
1.0
 70
     8
 71
     3
 72
    14
 73
    10
 74
     8
 42
0.0000000001
 43
0.0000000001
 44
0.0000000001
 12
0.2204307177525871
 22
0.9754026341317105
 32
0.0
 13
-0.2204307177525871
 23
0.9754026341317105
 33
0.0
 40
0.0
 40
0.0
 40
0.0
 40
0.0
 40
1.510223495336009
 40
2.99278285579688
 40
4.469999066516391
 40
5.947609485436029
 40
7.424858912881557
 40
8.907131492007846
 40
10.41707990173869
 40
10.41707990173869
 40
10.41707990173869
 40
10.41707990173869
 10
429.8353267424221
 20
323.8698956104911
 30
0.0
 10
429.9462932921034
 20
324.3609209356505
 30
0.0
 10
430.1417027435811
 20
325.3397880925468
 30
0.0
 10
430.3463554050891
 20
326.8166296227741
 30
0.0
 10
430.4515461127429
 20
328.2932144672715
 30
0.0
 10
430.4515270764628
 20
329.7718444528726
 30
0.0
 10
430.3463044461541
 20
331.248342242108
 30
0.0
 10
430.1416502903412
 20
332.7250050495098
 30
0.0
 10
429.9462730796643
 20
333.703687324473
 30
0.0
 10
429.8353267424221
 20
334.1946232098911
 30
0.0
 11
429.8353267424221
 21
323.8698956104911
 31
0.0
 11
430.1286406556221
 21
325.351361760691
 31
0.0
 11
430.3302044824222
 21
326.8201552386912
 31
0.0
 11
430.4340268150222
 21
328.2937184902912
 31
0.0
 11
430.4340080028222
 21
329.7713289090911
 31
0.0
 11
430.3301459182223
 21
331.2449226584911
 31
0.0
 11
430.1285948812221
 21
332.7134284222911
 31
0.0
 11
429.8353267424221
 21
334.1946232098911
 31
0.0
  0
SPLINE
  5
7EF
330
1F
100
AcDbEntity
  8
0
  6
Continuous
100
AcDbSpline
210
0.0
220
0.0
230
1.0
 70
     8
 71
     3
 72
    14
 73
    10
 74
     8
 42
0.0000000001
 43
0.0000000001
 44
0.0000000001
 12
-0.2204307177525871
 22
-0.9754026341317105
 32
0.0
 13
0.2204307177525871
 23
-0.9754026341317105
 33
0.0
 40
0.0
 40
0.0
 40
0.0
 40
0.0
 40
1.51022349529717
 40
2.992782855785124
 40
4.46999906650462
 40
5.947609485424485
 40
7.424858912670322
 40
8.907131491994946
 40
10.41707990172567
 40
10.41707990172567
 40
10.41707990172567
 40
10.41707990172567
 10
418.8002645798222
 20
334.1946232098911
 30
0.0
 10
418.6892980301439
 20
333.7035978847443
 30
0.0
 10
418.4938885790259
 20
332.7247307277855
 30
0.0
 10
418.2892359170593
 20
331.2478891976317
 30
0.0
 10
418.1840452095301
 20
329.7713043531071
 30
0.0
 10
418.1840642457648
 20
328.2926743675765
 30
0.0
 10
418.2892868761212
 20
326.8161765783437
 30
0.0
 10
418.4939410318792
 20
325.339513770936
 30
0.0
 10
418.6893182425801
 20
324.3608314959092
 30
0.0
 10
418.8002645798222
 20
323.8698956104911
 30
0.0
 11
418.8002645798222
 21
334.1946232098911
 31
0.0
 11
418.5069506668222
 21
332.7131570596912
 31
0.0
 11
418.3053868398221
 21
331.2443635816911
 31
0.0
 11
418.2015645072223
 21
329.7708003300911
 31
0.0
 11
418.201583319422
 21
328.293189911291
 31
0.0
 11
418.3054454040222
 21
326.8195961620912
 31
0.0
 11
418.5069964410223
 21
325.351090398091
 31
0.0
 11
418.8002645798222
 21
323.8698956104911
 31
0.0
  0
SPLINE
  5
7F0
330
1F
100
AcDbEntity
  8
0
  6
Continuous
100
AcDbSpline
210
0.0
220
0.0
230
1.0
 70
     8
 71
     3
 72
    14
 73
    10
 74
     8
 42
0.0000000001
 43
0.0000000001
 44
0.0000000001
 12
0.1122802188739418
 22
0.9936765834262272
 32
0.0
 13
-0.1122802188739418
 23
0.9936765834262272
 33
0.0
 40
0.0
 40
0.0
 40
0.0
 40
0.0
 40
2.977415131829153
 40
5.9219091633242
 40
8.870863842771051
 40
11.82608468063096
 40
14.77510171743188
 40
17.71902079494504
 40
20.69589133235327
 40
20.69589133235327
 40
20.69589133235327
 40
20.69589133235327
 10
429.8353267424221
 20
299.4817678468912
 30
0.0
 10
429.9467616833156
 20
300.4679637454371
 30
0.0
 10
430.1426170376061
 20
302.4325030076508
 30
0.0
 10
430.346729554679
 20
305.3828915976593
 30
0.0
 10
430.451552606403
 20
308.3311861076517
 30
0.0
 10
430.4515336414812
 20
311.2828829524483
 30
0.0
 10
430.3466787199267
 20
314.2310053371172
 30
0.0
 10
430.1425643432486
 20
317.1810402525305
 30
0.0
 10
429.946741300922
 20
319.1452075305198
 30
0.0
 10
429.8353267424221
 20
320.1312230454911
 30
0.0
 11
429.8353267424221
 21
299.4817678468912
 31
0.0
 11
430.1286406556221
 21
302.4447001470912
 31
0.0
 11
430.3302044824222
 21
305.3822871032911
 31
0.0
 11
430.4340268150222
 21
308.3294136062911
 31
0.0
 11
430.4340080028222
 21
311.2846344440911
 31
0.0
 11
430.3301459182223
 21
314.231821942491
 31
0.0
 11
430.1285948812221
 21
317.168833470291
 31
0.0
 11
429.8353267424221
 21
320.1312230454911
 31
0.0
  0
SPLINE
  5
7F1
330
1F
100
AcDbEntity
  8
0
  6
Continuous
100
AcDbSpline
210
0.0
220
0.0
230
1.0
 70
     8
 71
     3
 72
    14
 73
    10
 74
     8
 42
0.0000000001
 43
0.0000000001
 44
0.0000000001
 12
-0.1122802188739418
 22
-0.9936765834262272
 32
0.0
 13
0.1122802188739418
 23
-0.9936765834262272
 33
0.0
 40
0.0
 40
0.0
 40
0.0
 40
0.0
 40
2.97741513180934
 40
5.921909163318307
 40
8.870863842765264
 40
11.826084680625
 40
14.77510171742616
 40
17.71902079493908
 40
20.69589133234726
 40
20.69589133234726
 40
20.69589133234726
 40
20.69589133234726
 10
418.8002645798222
 20
320.1312230454911
 30
0.0
 10
418.6888296389295
 20
319.1450271469518
 30
0.0
 10
418.4929742850072
 20
317.1804878847059
 30
0.0
 10
418.2888617674668
 20
314.2300992947351
 30
0.0
 10
418.1840387158684
 20
311.2818047847284
 30
0.0
 10
418.1840576807556
 20
308.3301079399344
 30
0.0
 10
418.2889126023199
 20
305.3819855552649
 30
0.0
 10
418.4930269789953
 20
302.4319506398517
 30
0.0
 10
418.6888500213224
 20
300.4677833618625
 30
0.0
 10
418.8002645798222
 20
299.4817678468912
 30
0.0
 11
418.8002645798222
 21
320.1312230454911
 31
0.0
 11
418.5069506668222
 21
317.1682907452912
 31
0.0
 11
418.3053868398221
 21
314.2307037890911
 31
0.0
 11
418.2015645072223
 21
311.283577286091
 31
0.0
 11
418.201583319422
 21
308.3283564482911
 31
0.0
 11
418.3054454040222
 21
305.381168949891
 31
0.0
 11
418.5069964410223
 21
302.4441574220912
 31
0.0
 11
418.8002645798222
 21
299.4817678468912
 31
0.0
  0
ARC
  5
7F2
330
1F
100
AcDbEntity
  8
0
  6
Continuous
100
AcDbCircle
 10
443.4811536216223
 20
321.1064954462912
 30
0.0
 40
0.3
100
AcDbArc
 50
180.0
 51
270.0
  0
ARC
  5
7F3
330
1F
100
AcDbEntity
  8
0
  6
Continuous
100
AcDbCircle
 10
443.4811536216223
 20
298.5064954462911
 30
0.0
 40
0.3
100
AcDbArc
 50
90.0
 51
180.0
  0
ARC
  5
7F4
330
1F
100
AcDbEntity
  8
0
  6
Continuous
100
AcDbCircle
 10
442.8811536216223
 20
298.1464954462911
 30
0.0
 40
0.3
100
AcDbArc
 50
270.0
 51
0.0
  0
ARC
  5
7F5
330
1F
100
AcDbEntity
  8
0
  6
Continuous
100
AcDbCircle
 10
442.8811536216223
 20
321.4664954462911
 30
0.0
 40
0.3
100
AcDbArc
 50
0.0
 51
90.0
  0
ARC
  5
7F6
330
1F
100
AcDbEntity
  8
0
  6
Continuous
100
AcDbCircle
 10
449.1811536216221
 20
321.1064954462912
 30
0.0
 40
0.3
100
AcDbArc
 50
270.0
 51
0.0
  0
ARC
  5
7F7
330
1F
100
AcDbEntity
  8
0
  6
Continuous
100
AcDbCircle
 10
449.1811536216221
 20
298.5064954462911
 30
0.0
 40
0.3
100
AcDbArc
 50
0.0
 51
90.0
  0
ARC
  5
7F8
330
1F
100
AcDbEntity
  8
0
  6
Continuous
100
AcDbCircle
 10
449.7811536216222
 20
321.4664954462911
 30
0.0
 40
0.3
100
AcDbArc
 50
90.0
 51
180.0
  0
ARC
  5
7F9
330
1F
100
AcDbEntity
  8
0
  6
Continuous
100
AcDbCircle
 10
441.8811536216223
 20
298.1464954462911
 30
0.0
 40
0.3
100
AcDbArc
 50
180.0
 51
270.0
  0
ARC
  5
7FA
330
1F
100
AcDbEntity
  8
0
  6
Continuous
100
AcDbCircle
 10
449.7811536216222
 20
298.1464954462911
 30
0.0
 40
0.3
100
AcDbArc
 50
180.0
 51
270.0
  0
ARC
  5
7FB
330
1F
100
AcDbEntity
  8
0
  6
Continuous
100
AcDbCircle
 10
441.8811536216223
 20
321.4664954462911
 30
0.0
 40
0.3
100
AcDbArc
 50
90.0
 51
180.0
  0
ARC
  5
7FC
330
1F
100
AcDbEntity
  8
0
  6
Continuous
100
AcDbCircle
 10
441.2811536216223
 20
298.5064954462911
 30
0.0
 40
0.3
100
AcDbArc
 50
0.0
 51
90.0
  0
ARC
  5
7FD
330
1F
100
AcDbEntity
  8
0
  6
Continuous
100
AcDbCircle
 10
441.2811536216223
 20
321.1064954462912
 30
0.0
 40
0.3
100
AcDbArc
 50
270.0
 51
0.0
  0
ARC
  5
7FE
330
1F
100
AcDbEntity
  8
0
  6
Continuous
100
AcDbCircle
 10
450.7811536216222
 20
321.4664954462911
 30
0.0
 40
0.3
100
AcDbArc
 50
0.0
 51
90.0
  0
ARC
  5
7FF
330
1F
100
AcDbEntity
  8
0
  6
Continuous
100
AcDbCircle
 10
450.7811536216222
 20
298.1464954462911
 30
0.0
 40
0.3
100
AcDbArc
 50
270.0
 51
0.0
  0
ARC
  5
800
330
1F
100
AcDbEntity
  8
0
  6
Continuous
100
AcDbCircle
 10
435.5811536216223
 20
298.5064954462911
 30
0.0
 40
0.3
100
AcDbArc
 50
90.0
 51
180.0
  0
ARC
  5
801
330
1F
100
AcDbEntity
  8
0
  6
Continuous
100
AcDbCircle
 10
435.5811536216223
 20
321.1064954462912
 30
0.0
 40
0.3
100
AcDbArc
 50
180.0
 51
270.0
  0
ARC
  5
802
330
1F
100
AcDbEntity
  8
0
  6
Continuous
100
AcDbCircle
 10
434.9811536216223
 20
298.1464954462911
 30
0.0
 40
0.3
100
AcDbArc
 50
270.0
 51
0.0
  0
ARC
  5
803
330
1F
100
AcDbEntity
  8
0
  6
Continuous
100
AcDbCircle
 10
451.3811536216222
 20
321.1064954462912
 30
0.0
 40
0.3
100
AcDbArc
 50
180.0
 51
270.0
  0
ARC
  5
804
330
1F
100
AcDbEntity
  8
0
  6
Continuous
100
AcDbCircle
 10
434.9811536216223
 20
321.4664954462911
 30
0.0
 40
0.3
100
AcDbArc
 50
0.0
 51
90.0
  0
ARC
  5
805
330
1F
100
AcDbEntity
  8
0
  6
Continuous
100
AcDbCircle
 10
451.3811536216222
 20
298.5064954462911
 30
0.0
 40
0.3
100
AcDbArc
 50
90.0
 51
180.0
  0
ARC
  5
806
330
1F
100
AcDbEntity
  8
0
  6
Continuous
100
AcDbCircle
 10
457.0811536216223
 20
321.1064954462912
 30
0.0
 40
0.3
100
AcDbArc
 50
270.0
 51
0.0
  0
ARC
  5
807
330
1F
100
AcDbEntity
  8
0
  6
Continuous
100
AcDbCircle
 10
457.0811536216223
 20
298.5064954462911
 30
0.0
 40
0.3
100
AcDbArc
 50
0.0
 51
90.0
  0
ARC
  5
808
330
1F
100
AcDbEntity
  8
0
  6
Continuous
100
AcDbCircle
 10
431.5811536216223
 20
296.8464954462911
 30
0.0
 40
1.0
100
AcDbArc
 50
90.0
 51
180.0
  0
ARC
  5
809
330
1F
100
AcDbEntity
  8
0
  6
Continuous
100
AcDbCircle
 10
431.5811536216223
 20
322.7664954462911
 30
0.0
 40
1.0
100
AcDbArc
 50
180.0
 51
270.0
  0
ARC
  5
80A
330
1F
100
AcDbEntity
  8
0
  6
Continuous
100
AcDbCircle
 10
457.6811536216221
 20
321.4664954462911
 30
0.0
 40
0.3
100
AcDbArc
 50
90.0
 51
180.0
  0
ARC
  5
80B
330
1F
100
AcDbEntity
  8
0
  6
Continuous
100
AcDbCircle
 10
457.6811536216221
 20
298.1464954462911
 30
0.0
 40
0.3
100
AcDbArc
 50
180.0
 51
270.0
  0
ARC
  5
80C
330
1F
100
AcDbEntity
  8
0
  6
Continuous
100
AcDbCircle
 10
461.9811536216221
 20
320.548537396691
 30
0.0
 40
0.4
100
AcDbArc
 50
0.0
 51
75.00000000000198
  0
ARC
  5
80D
330
1F
100
AcDbEntity
  8
0
  6
Continuous
100
AcDbCircle
 10
461.9811536216221
 20
299.064453495691
 30
0.0
 40
0.4
100
AcDbArc
 50
285.0000000000012
 51
0.0
  0
ARC
  5
80E
330
1F
100
AcDbEntity
  8
0
  6
Continuous
100
AcDbCircle
 10
417.5716851060221
 20
288.3626713346911
 30
0.0
 40
0.4
100
AcDbArc
 50
15.00000000000158
 51
88.21099999999979
  0
ARC
  5
80F
330
1F
100
AcDbEntity
  8
0
  6
Continuous
100
AcDbCircle
 10
417.5716851060221
 20
331.2503195576911
 30
0.0
 40
0.4
100
AcDbArc
 50
271.7890000000002
 51
345.0000000000024
  0
ARC
  5
810
330
1F
100
AcDbEntity
  8
0
  6
Continuous
100
AcDbCircle
 10
392.0518103358223
 20
289.8601028008911
 30
0.0
 40
0.3
100
AcDbArc
 50
224.9999999912994
 51
268.2109999994002
  0
ARC
  5
811
330
1F
100
AcDbEntity
  8
0
  6
Continuous
100
AcDbCircle
 10
392.0518103358223
 20
329.7528880914911
 30
0.0
 40
0.3
100
AcDbArc
 50
91.7890000005998
 51
135.0000000099027
  0
ARC
  5
812
330
1F
100
AcDbEntity
  8
0
  6
Continuous
100
AcDbCircle
 10
389.5811536216223
 20
292.330759514891
 30
0.0
 40
0.3
100
AcDbArc
 50
180.0
 51
224.9999999835983
  0
ARC
  5
813
330
1F
100
AcDbEntity
  8
0
  6
Continuous
100
AcDbCircle
 10
389.5811536216223
 20
327.282231377491
 30
0.0
 40
0.3
100
AcDbArc
 50
135.0000000213024
 51
180.0
  0
LINE
  5
814
330
1F
100
AcDbEntity
  8
0
  6
Continuous
100
AcDbLine
 10
462.3811536216221
 20
299.064453495691
 30
0.0
 11
462.3811536216221
 21
320.548537396691
 31
0.0
  0
LINE
  5
815
330
1F
100
AcDbEntity
  8
0
  6
Continuous
100
AcDbLine
 10
462.0846812396221
 20
320.934907727291
 30
0.0
 11
462.0846812396221
 21
298.678083165091
 31
0.0
  0
LINE
  5
816
330
1F
100
AcDbEntity
  8
0
  6
Continuous
100
AcDbLine
 10
459.0320202406221
 20
321.7528657766911
 30
0.0
 11
459.0320202406221
 21
297.8601251156911
 31
0.0
  0
LINE
  5
817
330
1F
100
AcDbEntity
  8
0
  6
Continuous
100
AcDbLine
 10
458.9284926226222
 20
321.7664954462911
 30
0.0
 11
458.9284926226222
 21
297.8464954462911
 31
0.0
  0
LINE
  5
818
330
1F
100
AcDbEntity
  8
0
  6
Continuous
100
AcDbLine
 10
457.6811536216221
 20
321.7664954462911
 30
0.0
 11
457.6811536216221
 21
297.8464954462911
 31
0.0
  0
LINE
  5
819
330
1F
100
AcDbEntity
  8
0
  6
Continuous
100
AcDbLine
 10
457.3811536216221
 20
321.4664954462911
 30
0.0
 11
457.3811536216221
 21
298.1464954462911
 31
0.0
  0
LINE
  5
81A
330
1F
100
AcDbEntity
  8
0
  6
Continuous
100
AcDbLine
 10
457.0811536216223
 20
320.806495446291
 30
0.0
 11
457.0811536216223
 21
298.806495446291
 31
0.0
  0
LINE
  5
81B
330
1F
100
AcDbEntity
  8
0
  6
Continuous
100
AcDbLine
 10
429.7505111252221
 20
334.6064954462911
 30
0.0
 11
418.8850801972222
 21
334.6064954462911
 31
0.0
  0
LINE
  5
81C
330
1F
100
AcDbEntity
  8
0
  6
Continuous
100
AcDbLine
 10
429.7505111252221
 20
334.5951779460911
 30
0.0
 11
418.8850801972222
 21
334.5951779460911
 31
0.0
  0
LINE
  5
81D
330
1F
100
AcDbEntity
  8
0
  6
Continuous
100
AcDbLine
 10
429.8353267424223
 20
334.1946232098911
 30
0.0
 11
418.8002645798222
 21
334.1946232098911
 31
0.0
  0
LINE
  5
81E
330
1F
100
AcDbEntity
  8
0
  6
Continuous
100
AcDbLine
 10
451.3811536216222
 20
320.806495446291
 30
0.0
 11
451.3811536216222
 21
298.806495446291
 31
0.0
  0
LINE
  5
81F
330
1F
100
AcDbEntity
  8
0
  6
Continuous
100
AcDbLine
 10
451.0811536216221
 20
298.1464954462911
 30
0.0
 11
451.0811536216221
 21
321.4664954462911
 31
0.0
  0
LINE
  5
820
330
1F
100
AcDbEntity
  8
0
  6
Continuous
100
AcDbLine
 10
450.7811536216222
 20
321.7664954462911
 30
0.0
 11
450.7811536216222
 21
297.8464954462911
 31
0.0
  0
LINE
  5
821
330
1F
100
AcDbEntity
  8
0
  6
Continuous
100
AcDbLine
 10
392.0424446756223
 20
330.0527418632912
 30
0.0
 11
417.5841726528223
 21
330.850514528891
 31
0.0
  0
LINE
  5
822
330
1F
100
AcDbEntity
  8
0
  6
Continuous
100
AcDbLine
 10
449.7811536216222
 20
321.7664954462911
 30
0.0
 11
449.7811536216222
 21
297.8464954462911
 31
0.0
  0
LINE
  5
823
330
1F
100
AcDbEntity
  8
0
  6
Continuous
100
AcDbLine
 10
449.4811536216221
 20
321.4664954462911
 30
0.0
 11
449.4811536216221
 21
298.1464954462911
 31
0.0
  0
LINE
  5
824
330
1F
100
AcDbEntity
  8
0
  6
Continuous
100
AcDbLine
 10
449.1811536216221
 20
320.806495446291
 30
0.0
 11
449.1811536216221
 21
298.806495446291
 31
0.0
  0
LINE
  5
825
330
1F
100
AcDbEntity
  8
0
  6
Continuous
100
AcDbLine
 10
462.0846812396221
 20
320.934907727291
 30
0.0
 11
459.0320202406221
 21
321.7528657766911
 31
0.0
  0
LINE
  5
826
330
1F
100
AcDbEntity
  8
0
  6
Continuous
100
AcDbLine
 10
415.6811536216221
 20
328.465942124291
 30
0.0
 11
389.5235926502223
 21
327.648934474691
 31
0.0
  0
LINE
  5
827
330
1F
100
AcDbEntity
  8
0
  6
Continuous
100
AcDbLine
 10
459.0320202406221
 20
321.7528657766911
 30
0.0
 11
458.9284926226222
 21
321.7664954462911
 31
0.0
  0
LINE
  5
828
330
1F
100
AcDbEntity
  8
0
  6
Continuous
100
AcDbLine
 10
443.4811536216223
 20
320.806495446291
 30
0.0
 11
443.4811536216223
 21
298.806495446291
 31
0.0
  0
LINE
  5
829
330
1F
100
AcDbEntity
  8
0
  6
Continuous
100
AcDbLine
 10
443.1811536216222
 20
298.1464954462911
 30
0.0
 11
443.1811536216222
 21
321.4664954462911
 31
0.0
  0
LINE
  5
82A
330
1F
100
AcDbEntity
  8
0
  6
Continuous
100
AcDbLine
 10
442.8811536216223
 20
321.7664954462911
 30
0.0
 11
442.8811536216223
 21
297.8464954462911
 31
0.0
  0
LINE
  5
82B
330
1F
100
AcDbEntity
  8
0
  6
Continuous
100
AcDbLine
 10
441.8811536216223
 20
321.7664954462911
 30
0.0
 11
441.8811536216223
 21
297.8464954462911
 31
0.0
  0
LINE
  5
82C
330
1F
100
AcDbEntity
  8
0
  6
Continuous
100
AcDbLine
 10
441.5811536216223
 20
321.4664954462911
 30
0.0
 11
441.5811536216223
 21
298.1464954462911
 31
0.0
  0
LINE
  5
82D
330
1F
100
AcDbEntity
  8
0
  6
Continuous
100
AcDbLine
 10
441.2811536216223
 20
320.806495446291
 30
0.0
 11
441.2811536216223
 21
298.806495446291
 31
0.0
  0
LINE
  5
82E
330
1F
100
AcDbEntity
  8
0
  6
Continuous
100
AcDbLine
 10
418.8002645798222
 20
323.8698956104911
 30
0.0
 11
429.8353267424223
 21
323.8698956104911
 31
0.0
  0
LINE
  5
82F
330
1F
100
AcDbEntity
  8
0
  6
Continuous
100
AcDbLine
 10
418.8850801972222
 20
322.8496162734911
 30
0.0
 11
429.7505111252221
 21
322.8496162734911
 31
0.0
  0
LINE
  5
830
330
1F
100
AcDbEntity
  8
0
  6
Continuous
100
AcDbLine
 10
430.5675239522223
 20
331.557362065291
 30
0.0
 11
429.7533405002223
 21
334.595936074891
 31
0.0
  0
LINE
  5
831
330
1F
100
AcDbEntity
  8
0
  6
Continuous
100
AcDbLine
 10
434.9811536216223
 20
321.7664954462911
 30
0.0
 11
431.5811536216223
 21
321.7664954462911
 31
0.0
  0
LINE
  5
832
330
1F
100
AcDbEntity
  8
0
  6
Continuous
100
AcDbLine
 10
442.8811536216223
 20
321.7664954462911
 30
0.0
 11
441.8811536216223
 21
321.7664954462911
 31
0.0
  0
LINE
  5
833
330
1F
100
AcDbEntity
  8
0
  6
Continuous
100
AcDbLine
 10
450.7811536216222
 20
321.7664954462911
 30
0.0
 11
449.7811536216222
 21
321.7664954462911
 31
0.0
  0
LINE
  5
834
330
1F
100
AcDbEntity
  8
0
  6
Continuous
100
AcDbLine
 10
458.9284926226222
 20
321.7664954462911
 30
0.0
 11
457.6811536216221
 21
321.7664954462911
 31
0.0
  0
LINE
  5
835
330
1F
100
AcDbEntity
  8
0
  6
Continuous
100
AcDbLine
 10
429.7505111252221
 20
321.5520571188911
 30
0.0
 11
418.8850801972222
 21
321.5520571188911
 31
0.0
  0
LINE
  5
836
330
1F
100
AcDbEntity
  8
0
  6
Continuous
100
AcDbLine
 10
441.2811536216223
 20
320.806495446291
 30
0.0
 11
435.5811536216223
 21
320.806495446291
 31
0.0
  0
LINE
  5
837
330
1F
100
AcDbEntity
  8
0
  6
Continuous
100
AcDbLine
 10
449.1811536216221
 20
320.806495446291
 30
0.0
 11
443.4811536216223
 21
320.806495446291
 31
0.0
  0
LINE
  5
838
330
1F
100
AcDbEntity
  8
0
  6
Continuous
100
AcDbLine
 10
457.0811536216223
 20
320.806495446291
 30
0.0
 11
451.3811536216222
 21
320.806495446291
 31
0.0
  0
LINE
  5
839
330
1F
100
AcDbEntity
  8
0
  6
Continuous
100
AcDbLine
 10
429.8353267424223
 20
320.1312230454911
 30
0.0
 11
418.8002645798222
 21
320.1312230454911
 31
0.0
  0
LINE
  5
83A
330
1F
100
AcDbEntity
  8
0
  6
Continuous
100
AcDbLine
 10
430.5675239522223
 20
288.0556288272911
 30
0.0
 11
429.7505111252221
 21
285.0064954462911
 31
0.0
  0
LINE
  5
83B
330
1F
100
AcDbEntity
  8
0
  6
Continuous
100
AcDbLine
 10
435.5811536216223
 20
320.806495446291
 30
0.0
 11
435.5811536216223
 21
298.806495446291
 31
0.0
  0
LINE
  5
83C
330
1F
100
AcDbEntity
  8
0
  6
Continuous
100
AcDbLine
 10
435.2811536216223
 20
298.1464954462911
 30
0.0
 11
435.2811536216223
 21
321.4664954462911
 31
0.0
  0
LINE
  5
83D
330
1F
100
AcDbEntity
  8
0
  6
Continuous
100
AcDbLine
 10
430.5811536216223
 20
331.453834447091
 30
0.0
 11
430.5675239522223
 21
331.5573620650911
 31
0.0
  0
LINE
  5
83E
330
1F
100
AcDbEntity
  8
0
  6
Continuous
100
AcDbLine
 10
430.5811536216223
 20
288.159156445291
 30
0.0
 11
430.5675239522223
 21
288.0556288272911
 31
0.0
  0
LINE
  5
83F
330
1F
100
AcDbEntity
  8
0
  6
Continuous
100
AcDbLine
 10
434.9811536216223
 20
321.7664954462911
 30
0.0
 11
434.9811536216223
 21
297.8464954462911
 31
0.0
  0
LINE
  5
840
330
1F
100
AcDbEntity
  8
0
  6
Continuous
100
AcDbLine
 10
431.5811536216223
 20
321.7664954462911
 30
0.0
 11
431.5811536216223
 21
297.8464954462911
 31
0.0
  0
LINE
  5
841
330
1F
100
AcDbEntity
  8
0
  6
Continuous
100
AcDbLine
 10
430.5811536216223
 20
331.453834447091
 30
0.0
 11
430.5811536216223
 21
288.159156445291
 31
0.0
  0
LINE
  5
842
330
1F
100
AcDbEntity
  8
0
  6
Continuous
100
AcDbLine
 10
430.5675239522223
 20
331.557362065291
 30
0.0
 11
430.5675239522223
 21
288.0556288272911
 31
0.0
  0
LINE
  5
843
330
1F
100
AcDbEntity
  8
0
  6
Continuous
100
AcDbLine
 10
429.7505111252221
 20
285.0178129462912
 30
0.0
 11
429.7505111252221
 21
285.0064954462911
 31
0.0
  0
LINE
  5
844
330
1F
100
AcDbEntity
  8
0
  6
Continuous
100
AcDbLine
 10
429.7505111252221
 20
298.0609337734911
 30
0.0
 11
429.7505111252221
 21
296.7633746188909
 31
0.0
  0
LINE
  5
845
330
1F
100
AcDbEntity
  8
0
  6
Continuous
100
AcDbLine
 10
429.7505111252221
 20
322.8496162734911
 30
0.0
 11
429.7505111252221
 21
321.5520571188911
 31
0.0
  0
LINE
  5
846
330
1F
100
AcDbEntity
  8
0
  6
Continuous
100
AcDbLine
 10
429.7505111252221
 20
334.6064954462911
 30
0.0
 11
429.7505111252221
 21
334.5951779460911
 31
0.0
  0
LINE
  5
847
330
1F
100
AcDbEntity
  8
0
  6
CENTER
 48
25.0
100
AcDbLine
 10
383.0850773444223
 20
309.806495446291
 30
0.0
 11
472.3811536216222
 21
309.806495446291
 31
0.0
  0
LINE
  5
848
330
1F
100
AcDbEntity
  8
0
  6
Continuous
100
AcDbLine
 10
418.8850801972222
 20
334.5951779460911
 30
0.0
 11
418.8850801972222
 21
334.6064954462911
 31
0.0
  0
LINE
  5
849
330
1F
100
AcDbEntity
  8
0
  6
Continuous
100
AcDbLine
 10
418.8850801972222
 20
321.5520571188911
 30
0.0
 11
418.8850801972222
 21
322.8496162734911
 31
0.0
  0
LINE
  5
84A
330
1F
100
AcDbEntity
  8
0
  6
Continuous
100
AcDbLine
 10
418.8850801972222
 20
296.7633746188909
 30
0.0
 11
418.8850801972222
 21
298.0609337734911
 31
0.0
  0
LINE
  5
84B
330
1F
100
AcDbEntity
  8
0
  6
Continuous
100
AcDbLine
 10
418.8850801972222
 20
285.0064954462911
 30
0.0
 11
418.8850801972222
 21
285.0178129462912
 31
0.0
  0
LINE
  5
84C
330
1F
100
AcDbEntity
  8
0
  6
Continuous
100
AcDbLine
 10
417.9580554366223
 20
331.1467919396911
 30
0.0
 11
417.9580554366223
 21
288.4661989526911
 31
0.0
  0
LINE
  5
84D
330
1F
100
AcDbEntity
  8
0
  6
Continuous
100
AcDbLine
 10
417.5841726528223
 20
330.850514528891
 30
0.0
 11
417.5841726528223
 21
288.762476363491
 31
0.0
  0
LINE
  5
84E
330
1F
100
AcDbEntity
  8
0
  6
Continuous
100
AcDbLine
 10
418.8002645798222
 20
299.4817678468912
 30
0.0
 11
429.8353267424223
 21
299.4817678468912
 31
0.0
  0
LINE
  5
84F
330
1F
100
AcDbEntity
  8
0
  6
Continuous
100
AcDbLine
 10
441.2811536216223
 20
298.806495446291
 30
0.0
 11
435.5811536216223
 21
298.806495446291
 31
0.0
  0
LINE
  5
850
330
1F
100
AcDbEntity
  8
0
  6
Continuous
100
AcDbLine
 10
449.1811536216221
 20
298.806495446291
 30
0.0
 11
443.4811536216223
 21
298.806495446291
 31
0.0
  0
LINE
  5
851
330
1F
100
AcDbEntity
  8
0
  6
Continuous
100
AcDbLine
 10
457.0811536216223
 20
298.806495446291
 30
0.0
 11
451.3811536216222
 21
298.806495446291
 31
0.0
  0
LINE
  5
852
330
1F
100
AcDbEntity
  8
0
  6
Continuous
100
AcDbLine
 10
415.6811540032222
 20
288.821916359891
 30
0.0
 11
415.6811540032222
 21
330.7910745324911
 31
0.0
  0
LINE
  5
853
330
1F
100
AcDbEntity
  8
0
  6
Continuous
100
AcDbLine
 10
417.9580554366223
 20
288.4661989526911
 30
0.0
 11
418.8822508220221
 21
285.0170548174911
 31
0.0
  0
LINE
  5
854
330
1F
100
AcDbEntity
  8
0
  6
Continuous
100
AcDbLine
 10
418.8850801972222
 20
298.0609337734911
 30
0.0
 11
429.7505111252221
 21
298.0609337734911
 31
0.0
  0
LINE
  5
855
330
1F
100
AcDbEntity
  8
0
  6
Continuous
100
AcDbLine
 10
434.9811536216223
 20
297.8464954462911
 30
0.0
 11
431.5811536216223
 21
297.8464954462911
 31
0.0
  0
LINE
  5
856
330
1F
100
AcDbEntity
  8
0
  6
Continuous
100
AcDbLine
 10
442.8811536216223
 20
297.8464954462911
 30
0.0
 11
441.8811536216223
 21
297.8464954462911
 31
0.0
  0
LINE
  5
857
330
1F
100
AcDbEntity
  8
0
  6
Continuous
100
AcDbLine
 10
450.7811536216222
 20
297.8464954462911
 30
0.0
 11
449.7811536216222
 21
297.8464954462911
 31
0.0
  0
LINE
  5
858
330
1F
100
AcDbEntity
  8
0
  6
Continuous
100
AcDbLine
 10
458.9284926226222
 20
297.8464954462911
 30
0.0
 11
457.6811536216221
 21
297.8464954462911
 31
0.0
  0
LINE
  5
859
330
1F
100
AcDbEntity
  8
0
  6
Continuous
100
AcDbLine
 10
429.7505111252221
 20
296.7633746188909
 30
0.0
 11
418.8850801972222
 21
296.7633746188909
 31
0.0
  0
LINE
  5
85A
330
1F
100
AcDbEntity
  8
0
  6
Continuous
100
AcDbLine
 10
429.8353267424223
 20
295.7430952818912
 30
0.0
 11
418.8002645798222
 21
295.7430952818912
 31
0.0
  0
LINE
  5
85B
330
1F
100
AcDbEntity
  8
0
  6
Continuous
100
AcDbLine
 10
417.9580554366223
 20
331.1467919396911
 30
0.0
 11
418.8850801972222
 21
334.6064954462911
 31
0.0
  0
LINE
  5
85C
330
1F
100
AcDbEntity
  8
0
  6
Continuous
100
AcDbLine
 10
459.0320202406221
 20
297.8601251156911
 30
0.0
 11
458.9284926226222
 21
297.8464954462911
 31
0.0
  0
LINE
  5
85D
330
1F
100
AcDbEntity
  8
0
  6
Continuous
100
AcDbLine
 10
415.6811536216221
 20
291.1470487680911
 30
0.0
 11
389.5235926502223
 21
291.964056417691
 31
0.0
  0
LINE
  5
85E
330
1F
100
AcDbEntity
  8
0
  6
Continuous
100
AcDbLine
 10
462.0846812396221
 20
298.678083165091
 30
0.0
 11
459.0320202406221
 21
297.8601251156911
 31
0.0
  0
LINE
  5
85F
330
1F
100
AcDbEntity
  8
0
  6
Continuous
100
AcDbLine
 10
392.0424446756223
 20
289.5602490290911
 30
0.0
 11
417.5841726528223
 21
288.762476363491
 31
0.0
  0
LINE
  5
860
330
1F
100
AcDbEntity
  8
0
  6
Continuous
100
AcDbLine
 10
418.8002645798222
 20
285.4183676824911
 30
0.0
 11
429.8353267424223
 21
285.4183676824911
 31
0.0
  0
LINE
  5
861
330
1F
100
AcDbEntity
  8
0
  6
Continuous
100
AcDbLine
 10
418.8850801972222
 20
285.0178129462912
 30
0.0
 11
429.7505111252221
 21
285.0178129462912
 31
0.0
  0
LINE
  5
862
330
1F
100
AcDbEntity
  8
0
  6
Continuous
100
AcDbLine
 10
429.7505111252221
 20
285.0064954462911
 30
0.0
 11
418.8850801972222
 21
285.0064954462911
 31
0.0
  0
LINE
  5
863
330
1F
100
AcDbEntity
  8
0
  6
Continuous
100
AcDbLine
 10
392.0424446756223
 20
289.5602490290911
 30
0.0
 11
392.0424446756223
 21
330.0527418632912
 31
0.0
  0
LINE
  5
864
330
1F
100
AcDbEntity
  8
0
  6
Continuous
100
AcDbLine
 10
391.8396783014224
 20
289.6479707664911
 30
0.0
 11
391.8396783014224
 21
329.9650201258911
 31
0.0
  0
LINE
  5
865
330
1F
100
AcDbEntity
  8
0
  6
Continuous
100
AcDbLine
 10
389.5235936546222
 20
291.964055794691
 30
0.0
 11
389.5235936546222
 21
327.648935097691
 31
0.0
  0
LINE
  5
866
330
1F
100
AcDbEntity
  8
0
  6
Continuous
100
AcDbLine
 10
389.3690215874223
 20
292.1186274804912
 30
0.0
 11
389.3690215874223
 21
327.4943634118911
 31
0.0
  0
LINE
  5
867
330
1F
100
AcDbEntity
  8
0
  6
Continuous
100
AcDbLine
 10
389.2811536216224
 20
292.330759514891
 30
0.0
 11
389.2811536216224
 21
327.282231377491
 31
0.0
  0
LINE
  5
868
330
1F
100
AcDbEntity
  8
0
  6
Continuous
100
AcDbLine
 10
389.3690215874223
 20
292.1186274804912
 30
0.0
 11
391.8396783014224
 21
289.6479707664911
 31
0.0
  0
LINE
  5
869
330
1F
100
AcDbEntity
  8
0
  6
Continuous
100
AcDbLine
 10
389.3690215874223
 20
327.4943634118911
 30
0.0
 11
391.8396783014224
 21
329.9650201258911
 31
0.0
  0
VIEWPORT
  5
86E
330
50
100
AcDbEntity
 67
     1
  8
0
100
AcDbViewport
 10
133.3499908447265
 20
101.5999970436096
 30
0.0
 40
467.3964992866515
 41
228.4221935424805
 68
     1
 69
     1
 12
133.3499908447265
 22
101.5999970436096
 13
0.0
 23
0.0
 14
10.0
 24
10.0
 15
10.0
 25
10.0
 16
0.0
 26
0.0
 36
1.0
 17
0.0
 27
0.0
 37
0.0
 42
50.0
 43
0.0
 44
0.0
 45
228.4221935424805
 50
0.0
 51
0.0
 72
  1000
 90
    32800
  1

281
     0
 71
     1
 74
     0
110
0.0
120
0.0
130
0.0
111
1.0
121
0.0
131
0.0
112
0.0
122
1.0
132
0.0
 79
     0
146
0.0
  0
VIEWPORT
  5
870
330
50
100
AcDbEntity
 67
     1
  8
0
100
AcDbViewport
 10
133.3499939441681
 20
101.5999939441681
 30
0.0
 40
213.3599903106689
 41
162.5599903106689
 68
     2
 69
     2
 12
232.2178593412737
 22
236.3528153148605
 13
0.0
 23
0.0
 14
10.0
 24
10.0
 15
10.0
 25
10.0
 16
0.0
 26
0.0
 36
1.0
 17
0.0
 27
0.0
 37
0.0
 42
50.0
 43
0.0
 44
0.0
 45
372.3835153371155
 50
0.0
 51
0.0
 72
  1000
 90
    32864
  1

281
     0
 71
     1
 74
     0
110
0.0
120
0.0
130
0.0
111
1.0
121
0.0
131
0.0
112
0.0
122
1.0
132
0.0
 79
     0
146
0.0
  0
ENDSEC
  0
SECTION
  2
OBJECTS
  0
DICTIONARY
  5
C
330
0
100
AcDbDictionary
281
     1
  3
ACAD_COLOR
350
6B
  3
ACAD_GROUP
350
D
  3
ACAD_LAYOUT
350
1A
  3
ACAD_MATERIAL
350
6A
  3
ACAD_MLINESTYLE
350
17
  3
ACAD_PLOTSETTINGS
350
19
  3
ACAD_PLOTSTYLENAME
350
E
  3
ACDBHEADERROUNDTRIPXREC
350
479B
  3
AcDbVariableDictionary
350
5E
  3
DWGPROPS
350
479E
  0
DICTIONARY
  5
6B
102
{ACAD_REACTORS
330
C
102
}
330
C
100
AcDbDictionary
281
     1
  0
DICTIONARY
  5
D
102
{ACAD_REACTORS
330
C
102
}
330
C
100
AcDbDictionary
281
     1
  0
DICTIONARY
  5
1A
102
{ACAD_REACTORS
330
C
102
}
330
C
100
AcDbDictionary
281
     1
  3
Layout1
350
51
  3
Layout2
350
56
  3
Model
350
22
  0
DICTIONARY
  5
6A
102
{ACAD_REACTORS
330
C
102
}
330
C
100
AcDbDictionary
281
     1
  0
DICTIONARY
  5
17
102
{ACAD_REACTORS
330
C
102
}
330
C
100
AcDbDictionary
281
     1
  3
Standard
350
18
  0
DICTIONARY
  5
19
102
{ACAD_REACTORS
330
C
102
}
330
C
100
AcDbDictionary
281
     1
  0
ACDBDICTIONARYWDFLT
  5
E
102
{ACAD_REACTORS
330
C
102
}
330
C
100
AcDbDictionary
281
     1
  3
Normal
350
F
100
AcDbDictionaryWithDefault
340
F
  0
DICTIONARY
  5
479B
102
{ACAD_REACTORS
330
C
102
}
330
C
100
AcDbDictionary
281
     1
  3
COLORDICT
350
479C
  3
MATERIALDICT
350
479D
  0
DICTIONARY
  5
5E
102
{ACAD_REACTORS
330
C
102
}
330
C
100
AcDbDictionary
281
     1
  3
DIMASSOC
350
5F
  3
HIDETEXT
350
63
  0
XRECORD
  5
479E
102
{ACAD_REACTORS
330
C
102
}
330
C
100
AcDbXrecord
280
     1
  1
DWGPROPS COOKIE
  2

  3

  4

  6

  7

  8

  9

300
=
301
=
302
=
303
=
304
=
305
=
306
=
307
=
308
=
309
=
 40
0.0
 41
2453308.654962373
 42
2453691.649385139
  1

 90
        0
  0
LAYOUT
  5
51
102
{ACAD_REACTORS
330
1A
102
}
330
1A
100
AcDbPlotSettings
  1

  2
none_device
  4
Letter_(8.50_x_11.00_Inches)
  6

 40
6.349999904632567
 41
6.349999904632567
 42
6.350006103515625
 43
6.350006103515625
 44
215.8999938964844
 45
279.3999938964844
 46
0.0
 47
0.0
 48
0.0
 49
0.0
140
0.0
141
0.0
142
1.0
143
1.0
 70
   688
 72
     1
 73
     1
 74
     5
  7

 75
    16
147
1.0
148
0.0
149
0.0
100
AcDbLayout
  1
Layout1
 70
     1
 71
     1
 10
-6.350006103515625
 20
-6.349999904632567
 11
273.0499877929688
 21
209.5499939918518
 12
0.0
 22
0.0
 32
0.0
 14
26.66999878883363
 24
20.31999878883363
 34
0.0
 15
240.0299890995026
 25
182.8799890995025
 35
0.0
146
0.0
 13
0.0
 23
0.0
 33
0.0
 16
1.0
 26
0.0
 36
0.0
 17
0.0
 27
1.0
 37
0.0
 76
     0
330
50
331
86E
  0
LAYOUT
  5
56
102
{ACAD_REACTORS
330
1A
102
}
330
1A
100
AcDbPlotSettings
  1

  2
None
  4

  6

 40
0.0
 41
0.0
 42
0.0
 43
0.0
 44
0.0
 45
0.0
 46
0.0
 47
0.0
 48
0.0
 49
0.0
140
0.0
141
0.0
142
1.0
143
1.0
 70
   688
 72
     0
 73
     0
 74
     5
  7

 75
    16
147
1.0
148
0.0
149
0.0
100
AcDbLayout
  1
Layout2
 70
     1
 71
     2
 10
0.0
 20
0.0
 11
12.0
 21
9.0
 12
0.0
 22
0.0
 32
0.0
 14
0.0
 24
0.0
 34
0.0
 15
0.0
 25
0.0
 35
0.0
146
0.0
 13
0.0
 23
0.0
 33
0.0
 16
1.0
 26
0.0
 36
0.0
 17
0.0
 27
1.0
 37
0.0
 76
     0
330
55
  0
LAYOUT
  5
22
102
{ACAD_REACTORS
330
1A
102
}
330
1A
100
AcDbPlotSettings
  1

  2
\\alderaan\HP LaserJet 5Si/5Si MX PS Tecnico
  4
A3
  6

 40
5.746749877929687
 41
5.704421997070312
 42
5.746734619140625
 43
5.74676513671875
 44
297.0530090332031
 45
420.1583251953125
 46
10.34
 47
0.0
 48
-69.22767503670229
 49
-366.6080453569757
140
1188.996887231578
141
448.8355352667507
142
1.0
143
3.078548048453406
 70
 11956
 72
     1
 73
     1
 74
     4
  7

 75
     0
147
0.3248284529787921
148
69.22767503670229
149
366.6080453569757
100
AcDbLayout
  1
Model
 70
     1
 71
     0
 10
0.0
 20
0.0
 11
12.0
 21
9.0
 12
0.0
 22
0.0
 32
0.0
 14
0.0
 24
0.0
 34
0.0
 15
0.0
 25
0.0
 35
0.0
146
0.0
 13
0.0
 23
0.0
 33
0.0
 16
1.0
 26
0.0
 36
0.0
 17
0.0
 27
1.0
 37
0.0
 76
     0
330
1F
  0
MLINESTYLE
  5
18
102
{ACAD_REACTORS
330
17
102
}
330
17
100
AcDbMlineStyle
  2
STANDARD
 70
     0
  3

 62
   256
 51
90.0
 52
90.0
 71
     2
 49
0.5
 62
   256
  6
BYLAYER
 49
-0.5
 62
   256
  6
BYLAYER
  0
ACDBPLACEHOLDER
  5
F
102
{ACAD_REACTORS
330
E
102
}
330
E
  0
XRECORD
  5
479C
102
{ACAD_REACTORS
330
479B
102
}
330
479B
100
AcDbXrecord
280
     1
340
6B
  0
XRECORD
  5
479D
102
{ACAD_REACTORS
330
479B
102
}
330
479B
100
AcDbXrecord
280
     1
340
6A
  0
DICTIONARYVAR
  5
5F
102
{ACAD_REACTORS
330
5E
102
}
330
5E
100
DictionaryVariables
280
     0
  1
2
  0
DICTIONARYVAR
  5
63
102
{ACAD_REACTORS
330
5E
102
}
330
5E
100
DictionaryVariables
280
     0
  1
1
  0
ENDSEC
  0
EOF
