  0
SECTION
  2
HEADER
  9
$ACADVER
  1
AC1015
  9
$ACADMAINTVER
 70
     6
  9
$DWGCODEPAGE
  3
ANSI_1252
  9
$INSBASE
 10
0.0
 20
0.0
 30
0.0
  9
$EXTMIN
 10
723.8424465433313
 20
251.8786772079211
 30
-0.0008605300456423
  9
$EXTMAX
 10
801.4049855180552
 20
328.4774662565001
 30
0.000573774241424
  9
$LIMMIN
 10
0.0
 20
0.0
  9
$LIMMAX
 10
420.0
 20
297.0
  9
$ORTHOMODE
 70
     1
  9
$REGENMODE
 70
     1
  9
$FILLMODE
 70
     1
  9
$QTEXTMODE
 70
     0
  9
$MIRRTEXT
 70
     0
  9
$LTSCALE
 40
1.0
  9
$ATTMODE
 70
     1
  9
$TEXTSIZE
 40
2.5
  9
$TRACEWID
 40
1.0
  9
$TEXTSTYLE
  7
Standard
  9
$CLAYER
  8
0
  9
$CELTYPE
  6
ByLayer
  9
$CECOLOR
 62
   256
  9
$CELTSCALE
 40
1.0
  9
$DISPSILH
 70
     0
  9
$DIMSCALE
 40
1.0
  9
$DIMASZ
 40
2.5
  9
$DIMEXO
 40
0.625
  9
$DIMDLI
 40
3.75
  9
$DIMRND
 40
0.0
  9
$DIMDLE
 40
0.0
  9
$DIMEXE
 40
1.25
  9
$DIMTP
 40
0.0
  9
$DIMTM
 40
0.0
  9
$DIMTXT
 40
2.5
  9
$DIMCEN
 40
2.5
  9
$DIMTSZ
 40
0.0
  9
$DIMTOL
 70
     0
  9
$DIMLIM
 70
     0
  9
$DIMTIH
 70
     0
  9
$DIMTOH
 70
     0
  9
$DIMSE1
 70
     0
  9
$DIMSE2
 70
     0
  9
$DIMTAD
 70
     1
  9
$DIMZIN
 70
     8
  9
$DIMBLK
  1

  9
$DIMASO
 70
     1
  9
$DIMSHO
 70
     1
  9
$DIMPOST
  1

  9
$DIMAPOST
  1

  9
$DIMALT
 70
     0
  9
$DIMALTD
 70
     3
  9
$DIMALTF
 40
0.03937007874016
  9
$DIMLFAC
 40
1.0
  9
$DIMTOFL
 70
     1
  9
$DIMTVP
 40
0.0
  9
$DIMTIX
 70
     0
  9
$DIMSOXD
 70
     0
  9
$DIMSAH
 70
     0
  9
$DIMBLK1
  1

  9
$DIMBLK2
  1

  9
$DIMSTYLE
  2
ISO-25
  9
$DIMCLRD
 70
     0
  9
$DIMCLRE
 70
     0
  9
$DIMCLRT
 70
     0
  9
$DIMTFAC
 40
1.0
  9
$DIMGAP
 40
0.625
  9
$DIMJUST
 70
     0
  9
$DIMSD1
 70
     0
  9
$DIMSD2
 70
     0
  9
$DIMTOLJ
 70
     0
  9
$DIMTZIN
 70
     8
  9
$DIMALTZ
 70
     0
  9
$DIMALTTZ
 70
     0
  9
$DIMUPT
 70
     0
  9
$DIMDEC
 70
     2
  9
$DIMTDEC
 70
     2
  9
$DIMALTU
 70
     2
  9
$DIMALTTD
 70
     3
  9
$DIMTXSTY
  7
Standard
  9
$DIMAUNIT
 70
     0
  9
$DIMADEC
 70
     0
  9
$DIMALTRND
 40
0.0
  9
$DIMAZIN
 70
     0
  9
$DIMDSEP
 70
    44
  9
$DIMATFIT
 70
     3
  9
$DIMFRAC
 70
     0
  9
$DIMLDRBLK
  1

  9
$DIMLUNIT
 70
     2
  9
$DIMLWD
 70
    -2
  9
$DIMLWE
 70
    -2
  9
$DIMTMOVE
 70
     0
  9
$LUNITS
 70
     2
  9
$LUPREC
 70
     4
  9
$SKETCHINC
 40
1.0
  9
$FILLETRAD
 40
0.0
  9
$AUNITS
 70
     0
  9
$AUPREC
 70
     0
  9
$MENU
  1
.
  9
$ELEVATION
 40
0.0
  9
$PELEVATION
 40
0.0
  9
$THICKNESS
 40
0.0
  9
$LIMCHECK
 70
     0
  9
$CHAMFERA
 40
0.0
  9
$CHAMFERB
 40
0.0
  9
$CHAMFERC
 40
0.0
  9
$CHAMFERD
 40
0.0
  9
$SKPOLY
 70
     0
  9
$TDCREATE
 40
2453308.69662904
  9
$TDUCREATE
 40
2453308.654962373
  9
$TDUPDATE
 40
2453691.69088088
  9
$TDUUPDATE
 40
2453691.649214213
  9
$TDINDWG
 40
1.1054209028
  9
$TDUSRTIMER
 40
1.1054206019
  9
$USRTIMER
 70
     1
  9
$ANGBASE
 50
0.0
  9
$ANGDIR
 70
     0
  9
$PDMODE
 70
     0
  9
$PDSIZE
 40
0.0
  9
$PLINEWID
 40
0.0
  9
$SPLFRAME
 70
     0
  9
$SPLINETYPE
 70
     6
  9
$SPLINESEGS
 70
     8
  9
$HANDSEED
  5
479F
  9
$SURFTAB1
 70
     6
  9
$SURFTAB2
 70
     6
  9
$SURFTYPE
 70
     6
  9
$SURFU
 70
     6
  9
$SURFV
 70
     6
  9
$UCSBASE
  2

  9
$UCSNAME
  2

  9
$UCSORG
 10
0.0
 20
0.0
 30
0.0
  9
$UCSXDIR
 10
1.0
 20
0.0
 30
0.0
  9
$UCSYDIR
 10
0.0
 20
1.0
 30
0.0
  9
$UCSORTHOREF
  2

  9
$UCSORTHOVIEW
 70
     0
  9
$UCSORGTOP
 10
0.0
 20
0.0
 30
0.0
  9
$UCSORGBOTTOM
 10
0.0
 20
0.0
 30
0.0
  9
$UCSORGLEFT
 10
0.0
 20
0.0
 30
0.0
  9
$UCSORGRIGHT
 10
0.0
 20
0.0
 30
0.0
  9
$UCSORGFRONT
 10
0.0
 20
0.0
 30
0.0
  9
$UCSORGBACK
 10
0.0
 20
0.0
 30
0.0
  9
$PUCSBASE
  2

  9
$PUCSNAME
  2

  9
$PUCSORG
 10
0.0
 20
0.0
 30
0.0
  9
$PUCSXDIR
 10
1.0
 20
0.0
 30
0.0
  9
$PUCSYDIR
 10
0.0
 20
1.0
 30
0.0
  9
$PUCSORTHOREF
  2

  9
$PUCSORTHOVIEW
 70
     0
  9
$PUCSORGTOP
 10
0.0
 20
0.0
 30
0.0
  9
$PUCSORGBOTTOM
 10
0.0
 20
0.0
 30
0.0
  9
$PUCSORGLEFT
 10
0.0
 20
0.0
 30
0.0
  9
$PUCSORGRIGHT
 10
0.0
 20
0.0
 30
0.0
  9
$PUCSORGFRONT
 10
0.0
 20
0.0
 30
0.0
  9
$PUCSORGBACK
 10
0.0
 20
0.0
 30
0.0
  9
$USERI1
 70
     0
  9
$USERI2
 70
     0
  9
$USERI3
 70
     0
  9
$USERI4
 70
     0
  9
$USERI5
 70
     0
  9
$USERR1
 40
0.0
  9
$USERR2
 40
0.0
  9
$USERR3
 40
0.0
  9
$USERR4
 40
0.0
  9
$USERR5
 40
0.0
  9
$WORLDVIEW
 70
     1
  9
$SHADEDGE
 70
     3
  9
$SHADEDIF
 70
    70
  9
$TILEMODE
 70
     1
  9
$MAXACTVP
 70
    64
  9
$PINSBASE
 10
0.0
 20
0.0
 30
0.0
  9
$PLIMCHECK
 70
     0
  9
$PEXTMIN
 10
26.66999878883363
 20
20.31999878883363
 30
0.0
  9
$PEXTMAX
 10
240.0299890995026
 20
182.8799890995025
 30
0.0
  9
$PLIMMIN
 10
-6.350006103515625
 20
-6.349999904632567
  9
$PLIMMAX
 10
273.0499877929688
 20
209.5499939918518
  9
$UNITMODE
 70
     0
  9
$VISRETAIN
 70
     1
  9
$PLINEGEN
 70
     0
  9
$PSLTSCALE
 70
     1
  9
$TREEDEPTH
 70
  3020
  9
$CMLSTYLE
  2
Standard
  9
$CMLJUST
 70
     0
  9
$CMLSCALE
 40
20.0
  9
$PROXYGRAPHICS
 70
     1
  9
$MEASUREMENT
 70
     1
  9
$CELWEIGHT
370
    -1
  9
$ENDCAPS
280
     0
  9
$JOINSTYLE
280
     0
  9
$LWDISPLAY
290
     0
  9
$INSUNITS
 70
     4
  9
$HYPERLINKBASE
  1

  9
$STYLESHEET
  1

  9
$XEDIT
290
     1
  9
$CEPSNTYPE
380
     0
  9
$PSTYLEMODE
290
     1
  9
$FINGERPRINTGUID
  2
{FDEAD578-A652-11D2-9A35-0060089B3A3F}
  9
$VERSIONGUID
  2
{F18E2D17-C30B-409C-B46A-A7D2FE1398D2}
  9
$EXTNAMES
290
     1
  9
$PSVPSCALE
 40
0.0
  9
$OLESTARTUP
290
     0
  0
ENDSEC
  0
SECTION
  2
CLASSES
  0
CLASS
  1
ACDBDICTIONARYWDFLT
  2
AcDbDictionaryWithDefault
  3
ObjectDBX Classes
 90
        0
280
     0
281
     0
  0
CLASS
  1
DICTIONARYVAR
  2
AcDbDictionaryVar
  3
ObjectDBX Classes
 90
        0
280
     0
281
     0
  0
CLASS
  1
DIMASSOC
  2
AcDbDimAssoc
  3
"AcDbDimAssoc|Product Desc:     AcDim ARX App For Dimension|Company:          Autodesk, Inc.|WEB Address:      www.autodesk.com"
 90
        0
280
     0
281
     0
  0
CLASS
  1
ACDBPLACEHOLDER
  2
AcDbPlaceHolder
  3
ObjectDBX Classes
 90
        0
280
     0
281
     0
  0
CLASS
  1
LAYOUT
  2
AcDbLayout
  3
ObjectDBX Classes
 90
        0
280
     0
281
     0
  0
ENDSEC
  0
SECTION
  2
TABLES
  0
TABLE
  2
VPORT
  5
8
330
0
100
AcDbSymbolTable
 70
     1
  0
VPORT
  5
478C
330
8
100
AcDbSymbolTableRecord
100
AcDbViewportTableRecord
  2
*Active
 70
     0
 10
0.0
 20
0.0
 11
1.0
 21
1.0
 12
762.6237160306932
 22
290.1780717322106
 13
0.0
 23
0.0
 14
10.0
 24
10.0
 15
10.0
 25
10.0
 16
0.0
 26
0.0
 36
1.0
 17
0.0
 27
0.0
 37
0.0
 40
77.19488857424884
 41
1.6
 42
50.0
 43
0.0
 44
0.0
 50
0.0
 51
0.0
 71
     0
 72
  1000
 73
     1
 74
     3
 75
     0
 76
     0
 77
     0
 78
     0
281
     0
 65
     1
110
0.0
120
0.0
130
0.0
111
1.0
121
0.0
131
0.0
112
0.0
122
1.0
132
0.0
 79
     0
146
0.0
  0
ENDTAB
  0
TABLE
  2
LTYPE
  5
5
330
0
100
AcDbSymbolTable
 70
     2
  0
LTYPE
  5
14
330
5
100
AcDbSymbolTableRecord
100
AcDbLinetypeTableRecord
  2
ByBlock
 70
     0
  3

 72
    65
 73
     0
 40
0.0
  0
LTYPE
  5
15
330
5
100
AcDbSymbolTableRecord
100
AcDbLinetypeTableRecord
  2
ByLayer
 70
     0
  3

 72
    65
 73
     0
 40
0.0
  0
LTYPE
  5
16
330
5
100
AcDbSymbolTableRecord
100
AcDbLinetypeTableRecord
  2
Continuous
 70
     0
  3
Solid line
 72
    65
 73
     0
 40
0.0
  0
LTYPE
  5
8B
330
5
100
AcDbSymbolTableRecord
100
AcDbLinetypeTableRecord
  2
CENTER
 70
     0
  3
____ _ ____ _ ____ _ ____ _ ____ _ ____ _ ____
 72
    65
 73
     4
 40
0.6
 49
0.375
 74
     0
 49
-0.075
 74
     0
 49
0.075
 74
     0
 49
-0.075
 74
     0
  0
ENDTAB
  0
TABLE
  2
LAYER
  5
2
330
0
100
AcDbSymbolTable
 70
     2
  0
LAYER
  5
10
330
2
100
AcDbSymbolTableRecord
100
AcDbLayerTableRecord
  2
0
 70
     0
 62
     7
  6
Continuous
370
    -3
390
F
  0
LAYER
  5
396
330
2
100
AcDbSymbolTableRecord
100
AcDbLayerTableRecord
  2
Defpoints
 70
     0
 62
     7
  6
Continuous
290
     0
370
    -3
390
F
  0
ENDTAB
  0
TABLE
  2
STYLE
  5
3
330
0
100
AcDbSymbolTable
 70
     1
  0
STYLE
  5
11
330
3
100
AcDbSymbolTableRecord
100
AcDbTextStyleTableRecord
  2
Standard
 70
     0
 40
0.0
 41
1.0
 50
0.0
 71
     0
 42
2.5
  3
verdana.TTF
  4

1001
ACAD
1000
Verdana
1071
       34
  0
ENDTAB
  0
TABLE
  2
VIEW
  5
6
330
0
100
AcDbSymbolTable
 70
     0
  0
ENDTAB
  0
TABLE
  2
UCS
  5
7
330
0
100
AcDbSymbolTable
 70
     0
  0
ENDTAB
  0
TABLE
  2
APPID
  5
9
330
0
100
AcDbSymbolTable
 70
     1
  0
APPID
  5
12
330
9
100
AcDbSymbolTableRecord
100
AcDbRegAppTableRecord
  2
ACAD
 70
     0
  0
ENDTAB
  0
TABLE
  2
DIMSTYLE
  5
A
330
0
100
AcDbSymbolTable
 70
     2
100
AcDbDimStyleTable
  0
DIMSTYLE
105
27
330
A
100
AcDbSymbolTableRecord
100
AcDbDimStyleTableRecord
  2
ISO-25
 70
     0
 41
2.5
 42
0.625
 43
3.75
 44
1.25
 73
     0
 74
     0
 77
     1
 78
     8
140
2.5
141
2.5
143
0.03937007874016
147
0.625
171
     3
172
     1
271
     2
272
     2
274
     3
278
    44
283
     0
284
     8
340
11
  0
DIMSTYLE
105
8D
330
A
100
AcDbSymbolTableRecord
100
AcDbDimStyleTableRecord
  2
STANDARD
 70
     0
 41
3.0
 47
0.01
 48
0.01
 71
     1
 73
     0
 74
     0
 77
     1
 78
     8
140
1.5
271
     2
272
     2
284
     8
340
11
  0
ENDTAB
  0
TABLE
  2
BLOCK_RECORD
  5
1
330
0
100
AcDbSymbolTable
 70
     1
  0
BLOCK_RECORD
  5
1F
330
1
100
AcDbSymbolTableRecord
100
AcDbBlockTableRecord
  2
*Model_Space
340
22
  0
BLOCK_RECORD
  5
50
330
1
100
AcDbSymbolTableRecord
100
AcDbBlockTableRecord
  2
*Paper_Space
340
51
  0
BLOCK_RECORD
  5
55
330
1
100
AcDbSymbolTableRecord
100
AcDbBlockTableRecord
  2
*Paper_Space0
340
56
  0
ENDTAB
  0
ENDSEC
  0
SECTION
  2
BLOCKS
  0
BLOCK
  5
20
330
1F
100
AcDbEntity
  8
0
100
AcDbBlockBegin
  2
*Model_Space
 70
     0
 71
     0
 10
0.0
 20
0.0
 30
0.0
  3
*Model_Space
  1

  0
ENDBLK
  5
21
330
1F
100
AcDbEntity
  8
0
100
AcDbBlockEnd
  0
BLOCK
  5
52
330
50
100
AcDbEntity
 67
     1
  8
0
100
AcDbBlockBegin
  2
*Paper_Space
 70
     0
 71
     0
 10
0.0
 20
0.0
 30
0.0
  3
*Paper_Space
  1

  0
ENDBLK
  5
53
330
50
100
AcDbEntity
 67
     1
  8
0
100
AcDbBlockEnd
  0
BLOCK
  5
57
330
55
100
AcDbEntity
  8
0
100
AcDbBlockBegin
  2
*Paper_Space0
 70
     0
 71
     0
 10
0.0
 20
0.0
 30
0.0
  3
*Paper_Space0
  1

  0
ENDBLK
  5
58
330
55
100
AcDbEntity
  8
0
100
AcDbBlockEnd
  0
ENDSEC
  0
SECTION
  2
ENTITIES
  0
SPLINE
  5
CD6
330
1F
100
AcDbEntity
  8
0
  6
Continuous
100
AcDbSpline
210
0.0
220
0.0
230
1.0
 70
     8
 71
     3
 72
    15
 73
    11
 74
     9
 42
0.0000000001
 43
0.0000000001
 44
0.0000000001
 12
0.9999999999999332
 22
3.656856738000000E-7
 32
0.0
 13
0.917488799592592
 23
0.3977616153202123
 33
0.0
 40
0.0
 40
0.0
 40
0.0
 40
0.0
 40
0.3026140061541552
 40
0.61394767008834
 40
0.9251059857690267
 40
1.227683813964641
 40
1.514835476164621
 40
1.785428184074838
 40
2.039121612138296
 40
2.275724917937533
 40
2.275724917937533
 40
2.275724917937533
 40
2.275724917937533
 10
756.647373137725
 20
293.9180256802517
 30
0.0
 10
756.7482444731097
 20
293.9180257171389
 30
0.0
 10
756.952954728939
 20
293.9251115431442
 30
0.0
 10
757.2599593439627
 20
293.9562110655273
 30
0.0
 10
757.5643763307014
 20
294.0065366475555
 30
0.0
 10
757.8574870030716
 20
294.0725107621676
 30
0.0
 10
758.1337891292977
 20
294.1497076815696
 30
0.0
 10
758.3908260667441
 20
294.2341749306085
 30
0.0
 10
758.6285064557139
 20
294.3228593601044
 30
0.0
 10
758.7795390373859
 20
294.3853967176168
 30
0.0
 10
758.851899331725
 20
294.4167672886517
 30
0.0
 11
756.647373137725
 21
293.9180256802517
 31
0.0
 11
756.949812551725
 21
293.9283036946518
 31
0.0
 11
757.2595839979251
 21
293.9594533562516
 31
0.0
 11
757.5666135731251
 21
294.0099740190517
 31
0.0
 11
757.861854554125
 21
294.0762016964517
 31
0.0
 11
758.138457628725
 21
294.1533172994517
 31
0.0
 11
758.395565342725
 21
294.2376739054517
 31
0.0
 11
758.6332767247249
 21
294.3262947512518
 31
0.0
 11
758.851899331725
 21
294.4167672886517
 31
0.0
  0
SPLINE
  5
CD7
330
1F
100
AcDbEntity
  8
0
  6
Continuous
100
AcDbSpline
210
0.0
220
0.0
230
1.0
 70
     8
 71
     3
 72
    14
 73
    10
 74
     8
 42
0.0000000001
 43
0.0000000001
 44
0.0000000001
 12
0.3977615492778179
 22
0.9174888282241425
 32
0.0
 13
2.815513296900000E-6
 23
0.9999999999960365
 33
0.0
 40
0.0
 40
0.0
 40
0.0
 40
0.0
 40
0.2387543770179773
 40
0.5028292598183834
 40
0.7957384091785931
 40
1.120416941018003
 40
1.478129130791009
 40
1.864916144742286
 40
2.27553533751053
 40
2.27553533751053
 40
2.27553533751053
 40
2.27553533751053
 10
758.851899331725
 20
294.4167672886517
 30
0.0
 10
758.8835551020248
 20
294.4897854465196
 30
0.0
 10
758.9476668281039
 20
294.6446890678544
 30
0.0
 10
759.0401521207325
 20
294.8933578969373
 30
0.0
 10
759.1309107049148
 20
295.1729893307452
 30
0.0
 10
759.2156486442477
 20
295.4870179003086
 30
0.0
 10
759.2876740448178
 20
295.836327066239
 30
0.0
 10
759.3381339151326
 20
296.2184131535217
 30
0.0
 10
759.3506408313572
 20
296.4843590059962
 30
0.0
 10
759.3506412167251
 20
296.6212320702517
 30
0.0
 11
758.851899331725
 21
294.4167672886517
 31
0.0
 11
758.943160074325
 21
294.6373916966517
 31
0.0
 11
759.0351374675252
 21
294.8849309922517
 31
0.0
 11
759.1254098039249
 21
295.1635825220517
 31
0.0
 11
759.209763278325
 21
295.4771118514517
 31
0.0
 11
759.281645242725
 21
295.8275273104517
 31
0.0
 11
759.3318398037249
 21
296.2110435424516
 31
0.0
 11
759.3506412167251
 21
296.6212320702517
 31
0.0
  0
SPLINE
  5
CD8
330
1F
100
AcDbEntity
  8
0
  6
Continuous
100
AcDbSpline
 70
     0
 71
     3
 72
     9
 73
     5
 74
     3
 42
0.0000000001
 43
0.0000000001
 44
0.0000000001
 12
-0.7071067811865476
 22
0.7071067811865476
 32
0.0
 13
-0.7071067811865476
 23
0.7071067811865476
 33
0.0
 40
0.0
 40
0.0
 40
0.0
 40
0.0
 40
0.0121775662871974
 40
0.0484133652947612
 40
0.0484133652947612
 40
0.0484133652947612
 40
0.0484133652947612
 10
758.886132750725
 20
294.3825338698517
 30
0.0
 10
758.883262470825
 20
294.3854041497518
 30
0.0
 10
758.8718513309426
 20
294.396815289136
 30
0.0
 10
758.8604401914583
 20
294.4082264289184
 30
0.0
 10
758.851899331725
 20
294.4167672886517
 30
0.0
 11
758.886132750725
 21
294.3825338698517
 31
0.0
 11
758.8775219109249
 21
294.3911447094517
 31
0.0
 11
758.851899331725
 21
294.4167672886517
 31
0.0
  0
ARC
  5
CD9
330
1F
100
AcDbEntity
  8
0
  6
Continuous
100
AcDbCircle
 10
732.0815810179252
 20
294.9250261500517
 30
0.0
 40
3.0
100
AcDbArc
 50
139.2938657321008
 51
180.0
  0
ARC
  5
CDA
330
1F
100
AcDbEntity
  8
0
  6
Continuous
100
AcDbCircle
 10
754.3221002385251
 20
325.8870856026517
 30
0.0
 40
3.2
100
AcDbArc
 50
270.0
 51
310.0373731299977
  0
ARC
  5
CDB
330
1F
100
AcDbEntity
  8
0
  6
Continuous
100
AcDbCircle
 10
758.4391380085251
 20
320.9870856026518
 30
0.0
 40
3.2
100
AcDbArc
 50
90.0
 51
130.0373731299976
  0
ARC
  5
CDC
330
1F
100
AcDbEntity
  8
0
  6
Continuous
100
AcDbCircle
 10
731.921581017925
 20
289.2870856026517
 30
0.0
 40
0.3
100
AcDbArc
 50
180.0
 51
270.0
  0
ARC
  5
CDD
330
1F
100
AcDbEntity
  8
0
  6
Continuous
100
AcDbCircle
 10
755.2415810179248
 20
289.2870856026517
 30
0.0
 40
0.3
100
AcDbArc
 50
270.0
 51
0.0
  0
ARC
  5
CDE
330
1F
100
AcDbEntity
  8
0
  6
Continuous
100
AcDbCircle
 10
731.921581017925
 20
282.3870856026517
 30
0.0
 40
0.3
100
AcDbArc
 50
90.0
 51
180.0
  0
ARC
  5
CDF
330
1F
100
AcDbEntity
  8
0
  6
Continuous
100
AcDbCircle
 10
755.2415810179248
 20
282.3870856026517
 30
0.0
 40
0.3
100
AcDbArc
 50
0.0
 51
90.0
  0
ARC
  5
CE0
330
1F
100
AcDbEntity
  8
0
  6
Continuous
100
AcDbCircle
 10
731.921581017925
 20
281.3870856026517
 30
0.0
 40
0.3
100
AcDbArc
 50
180.0
 51
270.0
  0
ARC
  5
CE1
330
1F
100
AcDbEntity
  8
0
  6
Continuous
100
AcDbCircle
 10
755.2415810179248
 20
281.3870856026517
 30
0.0
 40
0.3
100
AcDbArc
 50
270.0
 51
0.0
  0
ARC
  5
CE2
330
1F
100
AcDbEntity
  8
0
  6
Continuous
100
AcDbCircle
 10
731.921581017925
 20
274.4870856026517
 30
0.0
 40
0.3
100
AcDbArc
 50
90.0
 51
180.0
  0
ARC
  5
CE3
330
1F
100
AcDbEntity
  8
0
  6
Continuous
100
AcDbCircle
 10
755.2415810179248
 20
274.4870856026517
 30
0.0
 40
0.3
100
AcDbArc
 50
0.0
 51
90.0
  0
ARC
  5
CE4
330
1F
100
AcDbEntity
  8
0
  6
Continuous
100
AcDbCircle
 10
731.921581017925
 20
273.4870856026518
 30
0.0
 40
0.3
100
AcDbArc
 50
180.0
 51
270.0
  0
ARC
  5
CE5
330
1F
100
AcDbEntity
  8
0
  6
Continuous
100
AcDbCircle
 10
755.2415810179248
 20
273.4870856026518
 30
0.0
 40
0.3
100
AcDbArc
 50
270.0
 51
0.0
  0
ARC
  5
CE6
330
1F
100
AcDbEntity
  8
0
  6
Continuous
100
AcDbCircle
 10
731.921581017925
 20
266.5870856026517
 30
0.0
 40
0.3
100
AcDbArc
 50
90.0
 51
180.0
  0
ARC
  5
CE7
330
1F
100
AcDbEntity
  8
0
  6
Continuous
100
AcDbCircle
 10
755.2415810179248
 20
266.5870856026517
 30
0.0
 40
0.3
100
AcDbArc
 50
0.0
 51
90.0
  0
ARC
  5
CE8
330
1F
100
AcDbEntity
  8
0
  6
Continuous
100
AcDbCircle
 10
732.281581017925
 20
288.6870856026519
 30
0.0
 40
0.3
100
AcDbArc
 50
0.0
 51
89.99999999819571
  0
ARC
  5
CE9
330
1F
100
AcDbEntity
  8
0
  6
Continuous
100
AcDbCircle
 10
754.8815810179251
 20
288.6870856026519
 30
0.0
 40
0.3
100
AcDbArc
 50
90.00000000510028
 51
180.0
  0
ARC
  5
CEA
330
1F
100
AcDbEntity
  8
0
  6
Continuous
100
AcDbCircle
 10
732.281581017925
 20
280.7870856026517
 30
0.0
 40
0.3
100
AcDbArc
 50
0.0
 51
89.99999999819571
  0
ARC
  5
CEB
330
1F
100
AcDbEntity
  8
0
  6
Continuous
100
AcDbCircle
 10
754.8815810179251
 20
280.7870856026517
 30
0.0
 40
0.3
100
AcDbArc
 50
90.00000000510028
 51
180.0
  0
ARC
  5
CEC
330
1F
100
AcDbEntity
  8
0
  6
Continuous
100
AcDbCircle
 10
732.281581017925
 20
272.8870856026517
 30
0.0
 40
0.3
100
AcDbArc
 50
0.0
 51
89.99999999819571
  0
ARC
  5
CED
330
1F
100
AcDbEntity
  8
0
  6
Continuous
100
AcDbCircle
 10
754.8815810179251
 20
272.8870856026517
 30
0.0
 40
0.3
100
AcDbArc
 50
90.00000000510028
 51
180.0
  0
ARC
  5
CEE
330
1F
100
AcDbEntity
  8
0
  6
Continuous
100
AcDbCircle
 10
732.281581017925
 20
282.9870856026517
 30
0.0
 40
0.3
100
AcDbArc
 50
270.0000000020974
 51
0.0
  0
ARC
  5
CEF
330
1F
100
AcDbEntity
  8
0
  6
Continuous
100
AcDbCircle
 10
754.8815810179251
 20
282.9870856026517
 30
0.0
 40
0.3
100
AcDbArc
 50
180.0
 51
269.9999999983976
  0
ARC
  5
CF0
330
1F
100
AcDbEntity
  8
0
  6
Continuous
100
AcDbCircle
 10
732.281581017925
 20
275.0870856026517
 30
0.0
 40
0.3
100
AcDbArc
 50
270.0000000020974
 51
0.0
  0
ARC
  5
CF1
330
1F
100
AcDbEntity
  8
0
  6
Continuous
100
AcDbCircle
 10
754.8815810179251
 20
275.0870856026517
 30
0.0
 40
0.3
100
AcDbArc
 50
180.0
 51
269.9999999983976
  0
ARC
  5
CF2
330
1F
100
AcDbEntity
  8
0
  6
Continuous
100
AcDbCircle
 10
732.281581017925
 20
267.1870856026519
 30
0.0
 40
0.3
100
AcDbArc
 50
270.0000000020974
 51
0.0
  0
ARC
  5
CF3
330
1F
100
AcDbEntity
  8
0
  6
Continuous
100
AcDbCircle
 10
754.8815810179251
 20
267.1870856026519
 30
0.0
 40
0.3
100
AcDbArc
 50
180.0
 51
269.9999999983976
  0
ARC
  5
CF4
330
1F
100
AcDbEntity
  8
0
  6
Continuous
100
AcDbCircle
 10
732.7628063685251
 20
262.1870856026518
 30
0.0
 40
0.3
100
AcDbArc
 50
195.0000000167019
 51
270.0
  0
ARC
  5
CF5
330
1F
100
AcDbEntity
  8
0
  6
Continuous
100
AcDbCircle
 10
754.4003556671249
 20
262.1870856026518
 30
0.0
 40
0.3
100
AcDbArc
 50
270.0
 51
344.9999999866999
  0
ARC
  5
CF6
330
1F
100
AcDbEntity
  8
0
  6
Continuous
100
AcDbCircle
 10
763.981581017925
 20
298.0270856026517
 30
0.0
 40
0.3
100
AcDbArc
 50
270.0
 51
0.0
  0
ARC
  5
CF7
330
1F
100
AcDbEntity
  8
0
  6
Continuous
100
AcDbCircle
 10
763.981581017925
 20
321.3470856026516
 30
0.0
 40
0.3
100
AcDbArc
 50
0.0
 51
90.0
  0
ARC
  5
CF8
330
1F
100
AcDbEntity
  8
0
  6
Continuous
100
AcDbCircle
 10
770.8815810179251
 20
298.0270856026517
 30
0.0
 40
0.3
100
AcDbArc
 50
180.0
 51
270.0
  0
ARC
  5
CF9
330
1F
100
AcDbEntity
  8
0
  6
Continuous
100
AcDbCircle
 10
770.8815810179251
 20
321.3470856026516
 30
0.0
 40
0.3
100
AcDbArc
 50
90.0
 51
180.0
  0
ARC
  5
CFA
330
1F
100
AcDbEntity
  8
0
  6
Continuous
100
AcDbCircle
 10
771.8815810179251
 20
298.0270856026517
 30
0.0
 40
0.3
100
AcDbArc
 50
270.0
 51
0.0
  0
ARC
  5
CFB
330
1F
100
AcDbEntity
  8
0
  6
Continuous
100
AcDbCircle
 10
771.8815810179251
 20
321.3470856026516
 30
0.0
 40
0.3
100
AcDbArc
 50
0.0
 51
90.0
  0
ARC
  5
CFC
330
1F
100
AcDbEntity
  8
0
  6
Continuous
100
AcDbCircle
 10
778.781581017925
 20
298.0270856026517
 30
0.0
 40
0.3
100
AcDbArc
 50
180.0
 51
270.0
  0
ARC
  5
CFD
330
1F
100
AcDbEntity
  8
0
  6
Continuous
100
AcDbCircle
 10
778.781581017925
 20
321.3470856026516
 30
0.0
 40
0.3
100
AcDbArc
 50
90.0
 51
180.0
  0
ARC
  5
CFE
330
1F
100
AcDbEntity
  8
0
  6
Continuous
100
AcDbCircle
 10
779.7815810179249
 20
298.0270856026517
 30
0.0
 40
0.3
100
AcDbArc
 50
270.0
 51
0.0
  0
ARC
  5
CFF
330
1F
100
AcDbEntity
  8
0
  6
Continuous
100
AcDbCircle
 10
779.7815810179249
 20
321.3470856026516
 30
0.0
 40
0.3
100
AcDbArc
 50
0.0
 51
90.0
  0
ARC
  5
D00
330
1F
100
AcDbEntity
  8
0
  6
Continuous
100
AcDbCircle
 10
786.6815810179249
 20
298.0270856026517
 30
0.0
 40
0.3
100
AcDbArc
 50
180.0
 51
270.0
  0
ARC
  5
D01
330
1F
100
AcDbEntity
  8
0
  6
Continuous
100
AcDbCircle
 10
786.6815810179249
 20
321.3470856026516
 30
0.0
 40
0.3
100
AcDbArc
 50
90.0
 51
180.0
  0
ARC
  5
D02
330
1F
100
AcDbEntity
  8
0
  6
Continuous
100
AcDbCircle
 10
770.281581017925
 20
298.3870856026517
 30
0.0
 40
0.3
100
AcDbArc
 50
0.0000000021006928
 51
90.0
  0
ARC
  5
D03
330
1F
100
AcDbEntity
  8
0
  6
Continuous
100
AcDbCircle
 10
770.281581017925
 20
320.9870856026518
 30
0.0
 40
0.3
100
AcDbArc
 50
270.0
 51
359.9999999984009
  0
ARC
  5
D04
330
1F
100
AcDbEntity
  8
0
  6
Continuous
100
AcDbCircle
 10
778.1815810179249
 20
298.3870856026517
 30
0.0
 40
0.3
100
AcDbArc
 50
0.0000000021006928
 51
90.0
  0
ARC
  5
D05
330
1F
100
AcDbEntity
  8
0
  6
Continuous
100
AcDbCircle
 10
778.1815810179249
 20
320.9870856026518
 30
0.0
 40
0.3
100
AcDbArc
 50
270.0
 51
359.9999999984009
  0
ARC
  5
D06
330
1F
100
AcDbEntity
  8
0
  6
Continuous
100
AcDbCircle
 10
786.0815810179252
 20
298.3870856026517
 30
0.0
 40
0.3
100
AcDbArc
 50
0.0000000021006928
 51
90.0
  0
ARC
  5
D07
330
1F
100
AcDbEntity
  8
0
  6
Continuous
100
AcDbCircle
 10
786.0815810179252
 20
320.9870856026518
 30
0.0
 40
0.3
100
AcDbArc
 50
270.0
 51
359.9999999984009
  0
ARC
  5
D08
330
1F
100
AcDbEntity
  8
0
  6
Continuous
100
AcDbCircle
 10
780.381581017925
 20
298.3870856026517
 30
0.0
 40
0.3
100
AcDbArc
 50
90.0
 51
179.9999999981989
  0
ARC
  5
D09
330
1F
100
AcDbEntity
  8
0
  6
Continuous
100
AcDbCircle
 10
780.381581017925
 20
320.9870856026518
 30
0.0
 40
0.3
100
AcDbArc
 50
180.0000000051003
 51
270.0
  0
ARC
  5
D0A
330
1F
100
AcDbEntity
  8
0
  6
Continuous
100
AcDbCircle
 10
764.5815810179252
 20
298.3870856026517
 30
0.0
 40
0.3
100
AcDbArc
 50
90.0
 51
179.9999999981989
  0
ARC
  5
D0B
330
1F
100
AcDbEntity
  8
0
  6
Continuous
100
AcDbCircle
 10
764.5815810179252
 20
320.9870856026518
 30
0.0
 40
0.3
100
AcDbArc
 50
180.0000000051003
 51
270.0
  0
ARC
  5
D0C
330
1F
100
AcDbEntity
  8
0
  6
Continuous
100
AcDbCircle
 10
772.481581017925
 20
298.3870856026517
 30
0.0
 40
0.3
100
AcDbArc
 50
90.0
 51
179.9999999981989
  0
ARC
  5
D0D
330
1F
100
AcDbEntity
  8
0
  6
Continuous
100
AcDbCircle
 10
772.481581017925
 20
320.9870856026518
 30
0.0
 40
0.3
100
AcDbArc
 50
180.0000000051003
 51
270.0
  0
ARC
  5
D0E
330
1F
100
AcDbEntity
  8
0
  6
Continuous
100
AcDbCircle
 10
791.0815810179252
 20
298.8683109532517
 30
0.0
 40
0.3
100
AcDbArc
 50
285.0000000167047
 51
0.0
  0
ARC
  5
D0F
330
1F
100
AcDbEntity
  8
0
  6
Continuous
100
AcDbCircle
 10
791.0815810179252
 20
320.5058602518517
 30
0.0
 40
0.3
100
AcDbArc
 50
0.0
 51
74.99999998670037
  0
ARC
  5
D10
330
1F
100
AcDbEntity
  8
0
  6
Continuous
100
AcDbCircle
 10
730.6215810179251
 20
292.6870856026519
 30
0.0
 40
1.0
100
AcDbArc
 50
0.0
 51
90.0
  0
ARC
  5
D11
330
1F
100
AcDbEntity
  8
0
  6
Continuous
100
AcDbCircle
 10
756.5415810179248
 20
292.6870856026519
 30
0.0
 40
1.0
100
AcDbArc
 50
90.0
 51
180.0
  0
ARC
  5
D12
330
1F
100
AcDbEntity
  8
0
  6
Continuous
100
AcDbCircle
 10
760.5815810179252
 20
296.7270856026518
 30
0.0
 40
1.0
100
AcDbArc
 50
90.0
 51
180.0
  0
ARC
  5
D13
330
1F
100
AcDbEntity
  8
0
  6
Continuous
100
AcDbCircle
 10
760.5815810179252
 20
322.6470856026517
 30
0.0
 40
1.0
100
AcDbArc
 50
180.0
 51
270.0
  0
ARC
  5
D14
330
1F
100
AcDbEntity
  8
0
  6
Continuous
100
AcDbCircle
 10
727.3815810179249
 20
298.9685394738517
 30
0.0
 40
3.2
100
AcDbArc
 50
319.2938657321008
 51
0.0
  0
ARC
  5
D15
330
1F
100
AcDbEntity
  8
0
  6
Continuous
100
AcDbCircle
 10
743.5815810179252
 20
309.6870856026519
 30
0.0
 40
13.0
100
AcDbArc
 50
90.0
 51
180.0
  0
LINE
  5
D16
330
1F
100
AcDbEntity
  8
0
  6
Continuous
100
AcDbLine
 10
788.0197309821251
 20
321.6368633504518
 30
0.0
 11
791.159226731325
 21
320.7956379998517
 31
0.0
  0
LINE
  5
D17
330
1F
100
AcDbEntity
  8
0
  6
Continuous
100
AcDbLine
 10
787.9420852685249
 20
321.6470856026516
 30
0.0
 11
788.0197309821251
 21
321.6368633504518
 31
0.0
  0
LINE
  5
D18
330
1F
100
AcDbEntity
  8
0
  6
Continuous
100
AcDbLine
 10
759.3506409101251
 20
324.1870856026519
 30
0.0
 11
758.4391380085251
 21
324.1870856026519
 31
0.0
  0
LINE
  5
D19
330
1F
100
AcDbEntity
  8
0
  6
Continuous
100
AcDbLine
 10
791.3815810179251
 20
320.5058602518517
 30
0.0
 11
791.3815810179251
 21
298.8683109532517
 31
0.0
  0
LINE
  5
D1A
330
1F
100
AcDbEntity
  8
0
  6
Continuous
100
AcDbLine
 10
754.3221002385251
 20
322.6870856026518
 30
0.0
 11
743.5815810179252
 21
322.6870856026518
 31
0.0
  0
LINE
  5
D1B
330
1F
100
AcDbEntity
  8
0
  6
Continuous
100
AcDbLine
 10
786.6815810179249
 20
321.6470856026516
 30
0.0
 11
787.9420852685249
 21
321.6470856026516
 31
0.0
  0
LINE
  5
D1C
330
1F
100
AcDbEntity
  8
0
  6
Continuous
100
AcDbLine
 10
778.781581017925
 20
321.6470856026516
 30
0.0
 11
779.7815810179249
 21
321.6470856026516
 31
0.0
  0
LINE
  5
D1D
330
1F
100
AcDbEntity
  8
0
  6
Continuous
100
AcDbLine
 10
770.8815810179251
 20
321.6470856026516
 30
0.0
 11
771.8815810179251
 21
321.6470856026516
 31
0.0
  0
LINE
  5
D1E
330
1F
100
AcDbEntity
  8
0
  6
Continuous
100
AcDbLine
 10
760.5815810179252
 20
321.6470856026516
 30
0.0
 11
763.981581017925
 21
321.6470856026516
 31
0.0
  0
LINE
  5
D1F
330
1F
100
AcDbEntity
  8
0
  6
Continuous
100
AcDbLine
 10
780.381581017925
 20
320.6870856026518
 30
0.0
 11
786.0815810179252
 21
320.6870856026518
 31
0.0
  0
LINE
  5
D20
330
1F
100
AcDbEntity
  8
0
  6
Continuous
100
AcDbLine
 10
772.481581017925
 20
320.6870856026518
 30
0.0
 11
778.1815810179249
 21
320.6870856026518
 31
0.0
  0
LINE
  5
D21
330
1F
100
AcDbEntity
  8
0
  6
Continuous
100
AcDbLine
 10
764.5815810179252
 20
320.6870856026518
 30
0.0
 11
770.281581017925
 21
320.6870856026518
 31
0.0
  0
LINE
  5
D22
330
1F
100
AcDbEntity
  8
0
  6
Continuous
100
AcDbLine
 10
786.3815810179251
 20
321.3470856026516
 30
0.0
 11
786.3815810179251
 21
298.0270856026517
 31
0.0
  0
LINE
  5
D23
330
1F
100
AcDbEntity
  8
0
  6
Continuous
100
AcDbLine
 10
780.0815810179252
 20
321.3470856026516
 30
0.0
 11
780.0815810179252
 21
298.0270856026517
 31
0.0
  0
LINE
  5
D24
330
1F
100
AcDbEntity
  8
0
  6
Continuous
100
AcDbLine
 10
778.4815810179248
 20
321.3470856026516
 30
0.0
 11
778.4815810179248
 21
298.0270856026517
 31
0.0
  0
LINE
  5
D25
330
1F
100
AcDbEntity
  8
0
  6
CENTER
 48
25.0
100
AcDbLine
 10
723.8709568196717
 20
309.6870856026519
 30
0.0
 11
801.3815810179249
 21
309.6870856026519
 31
0.0
  0
LINE
  5
D26
330
1F
100
AcDbEntity
  8
0
  6
Continuous
100
AcDbLine
 10
759.5815810179252
 20
323.7870856026517
 30
0.0
 11
759.3506409101251
 21
324.1870856026519
 31
0.0
  0
LINE
  5
D27
330
1F
100
AcDbEntity
  8
0
  6
Continuous
100
AcDbLine
 10
772.1815810179251
 20
321.3470856026516
 30
0.0
 11
772.1815810179251
 21
298.0270856026517
 31
0.0
  0
LINE
  5
D28
330
1F
100
AcDbEntity
  8
0
  6
Continuous
100
AcDbLine
 10
770.5815810179252
 20
321.3470856026516
 30
0.0
 11
770.5815810179252
 21
298.0270856026517
 31
0.0
  0
LINE
  5
D29
330
1F
100
AcDbEntity
  8
0
  6
Continuous
100
AcDbLine
 10
780.381581017925
 20
298.6870856026519
 30
0.0
 11
786.0815810179252
 21
298.6870856026519
 31
0.0
  0
LINE
  5
D2A
330
1F
100
AcDbEntity
  8
0
  6
Continuous
100
AcDbLine
 10
772.481581017925
 20
298.6870856026519
 30
0.0
 11
778.1815810179249
 21
298.6870856026519
 31
0.0
  0
LINE
  5
D2B
330
1F
100
AcDbEntity
  8
0
  6
Continuous
100
AcDbLine
 10
764.5815810179252
 20
298.6870856026519
 30
0.0
 11
770.281581017925
 21
298.6870856026519
 31
0.0
  0
LINE
  5
D2C
330
1F
100
AcDbEntity
  8
0
  6
Continuous
100
AcDbLine
 10
786.6815810179249
 20
297.7270856026517
 30
0.0
 11
787.9420852685249
 21
297.7270856026517
 31
0.0
  0
LINE
  5
D2D
330
1F
100
AcDbEntity
  8
0
  6
Continuous
100
AcDbLine
 10
778.781581017925
 20
297.7270856026517
 30
0.0
 11
779.7815810179249
 21
297.7270856026517
 31
0.0
  0
LINE
  5
D2E
330
1F
100
AcDbEntity
  8
0
  6
Continuous
100
AcDbLine
 10
770.8815810179251
 20
297.7270856026517
 30
0.0
 11
771.8815810179251
 21
297.7270856026517
 31
0.0
  0
LINE
  5
D2F
330
1F
100
AcDbEntity
  8
0
  6
Continuous
100
AcDbLine
 10
760.5815810179252
 20
297.7270856026517
 30
0.0
 11
763.981581017925
 21
297.7270856026517
 31
0.0
  0
LINE
  5
D30
330
1F
100
AcDbEntity
  8
0
  6
Continuous
100
AcDbLine
 10
764.2815810179249
 20
321.3470856026516
 30
0.0
 11
764.2815810179249
 21
298.0270856026517
 31
0.0
  0
LINE
  5
D31
330
1F
100
AcDbEntity
  8
0
  6
Continuous
100
AcDbLine
 10
756.6473715543249
 20
293.9180255902517
 30
0.0
 11
729.0815810179252
 21
293.9180257102517
 31
0.0
  0
LINE
  5
D32
330
1F
100
AcDbEntity
  8
0
  6
Continuous
100
AcDbLine
 10
757.6815810179249
 20
293.6870856026518
 30
0.0
 11
729.481581017925
 21
293.6870856026518
 31
0.0
  0
LINE
  5
D33
330
1F
100
AcDbEntity
  8
0
  6
Continuous
100
AcDbLine
 10
787.9420852685249
 20
297.7270856026517
 30
0.0
 11
788.0197309821251
 21
297.7373078546517
 31
0.0
  0
LINE
  5
D34
330
1F
100
AcDbEntity
  8
0
  6
Continuous
100
AcDbLine
 10
755.5313587657251
 20
265.2489356382517
 30
0.0
 11
754.6901334151249
 21
262.1094398890517
 31
0.0
  0
LINE
  5
D35
330
1F
100
AcDbEntity
  8
0
  6
Continuous
100
AcDbLine
 10
757.6815810179249
 20
293.6870856026518
 30
0.0
 11
758.875281191725
 21
294.3762687192517
 31
0.0
  0
LINE
  5
D36
330
1F
100
AcDbEntity
  8
0
  6
Continuous
100
AcDbLine
 10
759.5815810179252
 20
295.5870856026517
 30
0.0
 11
758.886132750725
 21
294.3825338698517
 31
0.0
  0
LINE
  5
D37
330
1F
100
AcDbEntity
  8
0
  6
Continuous
100
AcDbLine
 10
755.5415810179248
 20
265.3265813518517
 30
0.0
 11
755.5313587657251
 21
265.2489356382517
 31
0.0
  0
LINE
  5
D38
330
1F
100
AcDbEntity
  8
0
  6
Continuous
100
AcDbLine
 10
759.5815810179252
 20
323.7870856026517
 30
0.0
 11
759.5815810179252
 21
295.5870856026517
 31
0.0
  0
LINE
  5
D39
330
1F
100
AcDbEntity
  8
0
  6
Continuous
100
AcDbLine
 10
759.350642136325
 20
296.6212438974519
 30
0.0
 11
759.3506409101251
 21
324.1870856026519
 31
0.0
  0
LINE
  5
D3A
330
1F
100
AcDbEntity
  8
0
  6
Continuous
100
AcDbLine
 10
755.2415810179248
 20
288.9870856026517
 30
0.0
 11
731.921581017925
 21
288.9870856026517
 31
0.0
  0
LINE
  5
D3B
330
1F
100
AcDbEntity
  8
0
  6
Continuous
100
AcDbLine
 10
788.0197309821251
 20
297.7373078546517
 30
0.0
 11
791.159226731325
 21
298.5785332054517
 31
0.0
  0
LINE
  5
D3C
330
1F
100
AcDbEntity
  8
0
  6
Continuous
100
AcDbLine
 10
755.5415810179248
 20
266.5870856026517
 30
0.0
 11
755.5415810179248
 21
265.3265813518517
 31
0.0
  0
LINE
  5
D3D
330
1F
100
AcDbEntity
  8
0
  6
Continuous
100
AcDbLine
 10
755.5415810179248
 20
274.4870856026517
 30
0.0
 11
755.5415810179248
 21
273.4870856026518
 31
0.0
  0
LINE
  5
D3E
330
1F
100
AcDbEntity
  8
0
  6
Continuous
100
AcDbLine
 10
755.5415810179248
 20
282.3870856026517
 30
0.0
 11
755.5415810179248
 21
281.3870856026517
 31
0.0
  0
LINE
  5
D3F
330
1F
100
AcDbEntity
  8
0
  6
Continuous
100
AcDbLine
 10
755.5415810179248
 20
292.6870856026519
 30
0.0
 11
755.5415810179248
 21
289.2870856026517
 31
0.0
  0
LINE
  5
D40
330
1F
100
AcDbEntity
  8
0
  6
Continuous
100
AcDbLine
 10
754.5815810179252
 20
272.8870856026517
 30
0.0
 11
754.5815810179252
 21
267.1870856026519
 31
0.0
  0
LINE
  5
D41
330
1F
100
AcDbEntity
  8
0
  6
Continuous
100
AcDbLine
 10
754.5815810179252
 20
280.7870856026517
 30
0.0
 11
754.5815810179252
 21
275.0870856026517
 31
0.0
  0
LINE
  5
D42
330
1F
100
AcDbEntity
  8
0
  6
Continuous
100
AcDbLine
 10
754.5815810179252
 20
288.6870856026519
 30
0.0
 11
754.5815810179252
 21
282.9870856026517
 31
0.0
  0
LINE
  5
D43
330
1F
100
AcDbEntity
  8
0
  6
Continuous
100
AcDbLine
 10
755.2415810179248
 20
282.6870856026518
 30
0.0
 11
731.921581017925
 21
282.6870856026518
 31
0.0
  0
LINE
  5
D44
330
1F
100
AcDbEntity
  8
0
  6
Continuous
100
AcDbLine
 10
755.2415810179248
 20
281.0870856026517
 30
0.0
 11
731.921581017925
 21
281.0870856026517
 31
0.0
  0
LINE
  5
D45
330
1F
100
AcDbEntity
  8
0
  6
Continuous
100
AcDbLine
 10
729.481581017925
 20
293.6870856026518
 30
0.0
 11
729.0815810179252
 21
293.9180257102517
 31
0.0
  0
LINE
  5
D46
330
1F
100
AcDbEntity
  8
0
  6
CENTER
 48
25.0
100
AcDbLine
 10
743.5815810179252
 20
251.8870856026516
 30
0.0
 11
743.5815810179252
 21
328.4658460911295
 31
0.0
  0
LINE
  5
D47
330
1F
100
AcDbEntity
  8
0
  6
Continuous
100
AcDbLine
 10
755.2415810179248
 20
274.7870856026517
 30
0.0
 11
731.921581017925
 21
274.7870856026517
 31
0.0
  0
LINE
  5
D48
330
1F
100
AcDbEntity
  8
0
  6
Continuous
100
AcDbLine
 10
755.2415810179248
 20
273.1870856026518
 30
0.0
 11
731.921581017925
 21
273.1870856026518
 31
0.0
  0
LINE
  5
D49
330
1F
100
AcDbEntity
  8
0
  6
Continuous
100
AcDbLine
 10
755.2415810179248
 20
266.8870856026517
 30
0.0
 11
731.921581017925
 21
266.8870856026517
 31
0.0
  0
LINE
  5
D4A
330
1F
100
AcDbEntity
  8
0
  6
Continuous
100
AcDbLine
 10
732.5815810179252
 20
272.8870856026517
 30
0.0
 11
732.5815810179252
 21
267.1870856026519
 31
0.0
  0
LINE
  5
D4B
330
1F
100
AcDbEntity
  8
0
  6
Continuous
100
AcDbLine
 10
732.5815810179252
 20
280.7870856026517
 30
0.0
 11
732.5815810179252
 21
275.0870856026517
 31
0.0
  0
LINE
  5
D4C
330
1F
100
AcDbEntity
  8
0
  6
Continuous
100
AcDbLine
 10
732.5815810179252
 20
288.6870856026519
 30
0.0
 11
732.5815810179252
 21
282.9870856026517
 31
0.0
  0
LINE
  5
D4D
330
1F
100
AcDbEntity
  8
0
  6
Continuous
100
AcDbLine
 10
731.6215810179251
 20
266.5870856026517
 30
0.0
 11
731.6215810179251
 21
265.3265813518517
 31
0.0
  0
LINE
  5
D4E
330
1F
100
AcDbEntity
  8
0
  6
Continuous
100
AcDbLine
 10
731.6215810179251
 20
274.4870856026517
 30
0.0
 11
731.6215810179251
 21
273.4870856026518
 31
0.0
  0
LINE
  5
D4F
330
1F
100
AcDbEntity
  8
0
  6
Continuous
100
AcDbLine
 10
731.6215810179251
 20
282.3870856026517
 30
0.0
 11
731.6215810179251
 21
281.3870856026517
 31
0.0
  0
LINE
  5
D50
330
1F
100
AcDbEntity
  8
0
  6
Continuous
100
AcDbLine
 10
731.6215810179251
 20
292.6870856026519
 30
0.0
 11
731.6215810179251
 21
289.2870856026517
 31
0.0
  0
LINE
  5
D51
330
1F
100
AcDbEntity
  8
0
  6
Continuous
100
AcDbLine
 10
754.4003556671249
 20
261.8870856026517
 30
0.0
 11
732.7628063685251
 21
261.8870856026517
 31
0.0
  0
LINE
  5
D52
330
1F
100
AcDbEntity
  8
0
  6
Continuous
100
AcDbLine
 10
730.5815810179252
 20
309.6870856026519
 30
0.0
 11
730.5815810179252
 21
298.9685394738517
 31
0.0
  0
LINE
  5
D53
330
1F
100
AcDbEntity
  8
0
  6
Continuous
100
AcDbLine
 10
729.0815810179252
 20
294.9250261500517
 30
0.0
 11
729.0815810179252
 21
293.9180257102517
 31
0.0
  0
LINE
  5
D54
330
1F
100
AcDbEntity
  8
0
  6
Continuous
100
AcDbLine
 10
731.6215810179251
 20
265.3265813518517
 30
0.0
 11
731.6318032699249
 21
265.2489356382517
 31
0.0
  0
LINE
  5
D55
330
1F
100
AcDbEntity
  8
0
  6
Continuous
100
AcDbLine
 10
731.6318032699249
 20
265.2489356382517
 30
0.0
 11
732.4730286205252
 21
262.1094398890517
 31
0.0
  0
VIEWPORT
  5
86E
330
50
100
AcDbEntity
 67
     1
  8
0
100
AcDbViewport
 10
133.3499908447265
 20
101.5999970436096
 30
0.0
 40
467.3964992866515
 41
228.4221935424805
 68
     1
 69
     1
 12
133.3499908447265
 22
101.5999970436096
 13
0.0
 23
0.0
 14
10.0
 24
10.0
 15
10.0
 25
10.0
 16
0.0
 26
0.0
 36
1.0
 17
0.0
 27
0.0
 37
0.0
 42
50.0
 43
0.0
 44
0.0
 45
228.4221935424805
 50
0.0
 51
0.0
 72
  1000
 90
    32800
  1

281
     0
 71
     1
 74
     0
110
0.0
120
0.0
130
0.0
111
1.0
121
0.0
131
0.0
112
0.0
122
1.0
132
0.0
 79
     0
146
0.0
  0
VIEWPORT
  5
870
330
50
100
AcDbEntity
 67
     1
  8
0
100
AcDbViewport
 10
133.3499939441681
 20
101.5999939441681
 30
0.0
 40
213.3599903106689
 41
162.5599903106689
 68
     2
 69
     2
 12
232.2178593412737
 22
236.3528153148605
 13
0.0
 23
0.0
 14
10.0
 24
10.0
 15
10.0
 25
10.0
 16
0.0
 26
0.0
 36
1.0
 17
0.0
 27
0.0
 37
0.0
 42
50.0
 43
0.0
 44
0.0
 45
372.3835153371155
 50
0.0
 51
0.0
 72
  1000
 90
    32864
  1

281
     0
 71
     1
 74
     0
110
0.0
120
0.0
130
0.0
111
1.0
121
0.0
131
0.0
112
0.0
122
1.0
132
0.0
 79
     0
146
0.0
  0
ENDSEC
  0
SECTION
  2
OBJECTS
  0
DICTIONARY
  5
C
330
0
100
AcDbDictionary
281
     1
  3
ACAD_COLOR
350
6B
  3
ACAD_GROUP
350
D
  3
ACAD_LAYOUT
350
1A
  3
ACAD_MATERIAL
350
6A
  3
ACAD_MLINESTYLE
350
17
  3
ACAD_PLOTSETTINGS
350
19
  3
ACAD_PLOTSTYLENAME
350
E
  3
ACDBHEADERROUNDTRIPXREC
350
479B
  3
AcDbVariableDictionary
350
5E
  3
DWGPROPS
350
479E
  0
DICTIONARY
  5
6B
102
{ACAD_REACTORS
330
C
102
}
330
C
100
AcDbDictionary
281
     1
  0
DICTIONARY
  5
D
102
{ACAD_REACTORS
330
C
102
}
330
C
100
AcDbDictionary
281
     1
  0
DICTIONARY
  5
1A
102
{ACAD_REACTORS
330
C
102
}
330
C
100
AcDbDictionary
281
     1
  3
Layout1
350
51
  3
Layout2
350
56
  3
Model
350
22
  0
DICTIONARY
  5
6A
102
{ACAD_REACTORS
330
C
102
}
330
C
100
AcDbDictionary
281
     1
  0
DICTIONARY
  5
17
102
{ACAD_REACTORS
330
C
102
}
330
C
100
AcDbDictionary
281
     1
  3
Standard
350
18
  0
DICTIONARY
  5
19
102
{ACAD_REACTORS
330
C
102
}
330
C
100
AcDbDictionary
281
     1
  0
ACDBDICTIONARYWDFLT
  5
E
102
{ACAD_REACTORS
330
C
102
}
330
C
100
AcDbDictionary
281
     1
  3
Normal
350
F
100
AcDbDictionaryWithDefault
340
F
  0
DICTIONARY
  5
479B
102
{ACAD_REACTORS
330
C
102
}
330
C
100
AcDbDictionary
281
     1
  3
COLORDICT
350
479C
  3
MATERIALDICT
350
479D
  0
DICTIONARY
  5
5E
102
{ACAD_REACTORS
330
C
102
}
330
C
100
AcDbDictionary
281
     1
  3
DIMASSOC
350
5F
  3
HIDETEXT
350
63
  0
XRECORD
  5
479E
102
{ACAD_REACTORS
330
C
102
}
330
C
100
AcDbXrecord
280
     1
  1
DWGPROPS COOKIE
  2

  3

  4

  6

  7

  8

  9

300
=
301
=
302
=
303
=
304
=
305
=
306
=
307
=
308
=
309
=
 40
0.0
 41
2453308.654962373
 42
2453691.649214213
  1

 90
        0
  0
LAYOUT
  5
51
102
{ACAD_REACTORS
330
1A
102
}
330
1A
100
AcDbPlotSettings
  1

  2
none_device
  4
Letter_(8.50_x_11.00_Inches)
  6

 40
6.349999904632567
 41
6.349999904632567
 42
6.350006103515625
 43
6.350006103515625
 44
215.8999938964844
 45
279.3999938964844
 46
0.0
 47
0.0
 48
0.0
 49
0.0
140
0.0
141
0.0
142
1.0
143
1.0
 70
   688
 72
     1
 73
     1
 74
     5
  7

 75
    16
147
1.0
148
0.0
149
0.0
100
AcDbLayout
  1
Layout1
 70
     1
 71
     1
 10
-6.350006103515625
 20
-6.349999904632567
 11
273.0499877929688
 21
209.5499939918518
 12
0.0
 22
0.0
 32
0.0
 14
26.66999878883363
 24
20.31999878883363
 34
0.0
 15
240.0299890995026
 25
182.8799890995025
 35
0.0
146
0.0
 13
0.0
 23
0.0
 33
0.0
 16
1.0
 26
0.0
 36
0.0
 17
0.0
 27
1.0
 37
0.0
 76
     0
330
50
331
86E
  0
LAYOUT
  5
56
102
{ACAD_REACTORS
330
1A
102
}
330
1A
100
AcDbPlotSettings
  1

  2
None
  4

  6

 40
0.0
 41
0.0
 42
0.0
 43
0.0
 44
0.0
 45
0.0
 46
0.0
 47
0.0
 48
0.0
 49
0.0
140
0.0
141
0.0
142
1.0
143
1.0
 70
   688
 72
     0
 73
     0
 74
     5
  7

 75
    16
147
1.0
148
0.0
149
0.0
100
AcDbLayout
  1
Layout2
 70
     1
 71
     2
 10
0.0
 20
0.0
 11
12.0
 21
9.0
 12
0.0
 22
0.0
 32
0.0
 14
0.0
 24
0.0
 34
0.0
 15
0.0
 25
0.0
 35
0.0
146
0.0
 13
0.0
 23
0.0
 33
0.0
 16
1.0
 26
0.0
 36
0.0
 17
0.0
 27
1.0
 37
0.0
 76
     0
330
55
  0
LAYOUT
  5
22
102
{ACAD_REACTORS
330
1A
102
}
330
1A
100
AcDbPlotSettings
  1

  2
\\alderaan\HP LaserJet 5Si/5Si MX PS Tecnico
  4
A3
  6

 40
5.746749877929687
 41
5.704421997070312
 42
5.746734619140625
 43
5.74676513671875
 44
297.0530090332031
 45
420.1583251953125
 46
10.34
 47
0.0
 48
-69.22767503670229
 49
-366.6080453569757
140
1188.996887231578
141
448.8355352667507
142
1.0
143
3.078548048453406
 70
 11956
 72
     1
 73
     1
 74
     4
  7

 75
     0
147
0.3248284529787921
148
69.22767503670229
149
366.6080453569757
100
AcDbLayout
  1
Model
 70
     1
 71
     0
 10
0.0
 20
0.0
 11
12.0
 21
9.0
 12
0.0
 22
0.0
 32
0.0
 14
0.0
 24
0.0
 34
0.0
 15
0.0
 25
0.0
 35
0.0
146
0.0
 13
0.0
 23
0.0
 33
0.0
 16
1.0
 26
0.0
 36
0.0
 17
0.0
 27
1.0
 37
0.0
 76
     0
330
1F
  0
MLINESTYLE
  5
18
102
{ACAD_REACTORS
330
17
102
}
330
17
100
AcDbMlineStyle
  2
STANDARD
 70
     0
  3

 62
   256
 51
90.0
 52
90.0
 71
     2
 49
0.5
 62
   256
  6
BYLAYER
 49
-0.5
 62
   256
  6
BYLAYER
  0
ACDBPLACEHOLDER
  5
F
102
{ACAD_REACTORS
330
E
102
}
330
E
  0
XRECORD
  5
479C
102
{ACAD_REACTORS
330
479B
102
}
330
479B
100
AcDbXrecord
280
     1
340
6B
  0
XRECORD
  5
479D
102
{ACAD_REACTORS
330
479B
102
}
330
479B
100
AcDbXrecord
280
     1
340
6A
  0
DICTIONARYVAR
  5
5F
102
{ACAD_REACTORS
330
5E
102
}
330
5E
100
DictionaryVariables
280
     0
  1
2
  0
DICTIONARYVAR
  5
63
102
{ACAD_REACTORS
330
5E
102
}
330
5E
100
DictionaryVariables
280
     0
  1
1
  0
ENDSEC
  0
EOF
