  0
SECTION
  2
HEADER
  9
$ACADVER
  1
AC1015
  9
$ACADMAINTVER
 70
     6
  9
$DWGCODEPAGE
  3
ANSI_1252
  9
$INSBASE
 10
0.0
 20
0.0
 30
0.0
  9
$EXTMIN
 10
45.79525860014268
 20
93.94500812567424
 30
-0.0015258207003583
  9
$EXTMAX
 10
125.8779303233346
 20
147.7744145806348
 30
0.0000000349246037
  9
$LIMMIN
 10
0.0
 20
0.0
  9
$LIMMAX
 10
420.0
 20
297.0
  9
$ORTHOMODE
 70
     0
  9
$REGENMODE
 70
     1
  9
$FILLMODE
 70
     1
  9
$QTEXTMODE
 70
     0
  9
$MIRRTEXT
 70
     1
  9
$LTSCALE
 40
23.1
  9
$ATTMODE
 70
     1
  9
$TEXTSIZE
 40
0.2
  9
$TRACEWID
 40
0.05
  9
$TEXTSTYLE
  7
STANDARD
  9
$CLAYER
  8
0
  9
$CELTYPE
  6
BYLAYER
  9
$CECOLOR
 62
   256
  9
$CELTSCALE
 40
1.0
  9
$DISPSILH
 70
     0
  9
$DIMSCALE
 40
1.0
  9
$DIMASZ
 40
3.0
  9
$DIMEXO
 40
2.625
  9
$DIMDLI
 40
15.96
  9
$DIMRND
 40
0.0
  9
$DIMDLE
 40
0.0
  9
$DIMEXE
 40
7.559999999999998
  9
$DIMTP
 40
0.003
  9
$DIMTM
 40
0.003
  9
$DIMTXT
 40
1.5
  9
$DIMCEN
 40
3.779999999999998
  9
$DIMTSZ
 40
0.0
  9
$DIMTOL
 70
     1
  9
$DIMLIM
 70
     0
  9
$DIMTIH
 70
     1
  9
$DIMTOH
 70
     1
  9
$DIMSE1
 70
     0
  9
$DIMSE2
 70
     0
  9
$DIMTAD
 70
     0
  9
$DIMZIN
 70
     0
  9
$DIMBLK
  1

  9
$DIMASO
 70
     1
  9
$DIMSHO
 70
     1
  9
$DIMPOST
  1

  9
$DIMAPOST
  1

  9
$DIMALT
 70
     0
  9
$DIMALTD
 70
     2
  9
$DIMALTF
 40
25.4
  9
$DIMLFAC
 40
1.0
  9
$DIMTOFL
 70
     0
  9
$DIMTVP
 40
0.0
  9
$DIMTIX
 70
     0
  9
$DIMSOXD
 70
     0
  9
$DIMSAH
 70
     0
  9
$DIMBLK1
  1

  9
$DIMBLK2
  1

  9
$DIMSTYLE
  2
STANDARD
  9
$DIMCLRD
 70
     0
  9
$DIMCLRE
 70
     0
  9
$DIMCLRT
 70
     0
  9
$DIMTFAC
 40
1.0
  9
$DIMGAP
 40
0.09
  9
$DIMJUST
 70
     0
  9
$DIMSD1
 70
     0
  9
$DIMSD2
 70
     0
  9
$DIMTOLJ
 70
     1
  9
$DIMTZIN
 70
     0
  9
$DIMALTZ
 70
     0
  9
$DIMALTTZ
 70
     0
  9
$DIMUPT
 70
     0
  9
$DIMDEC
 70
     4
  9
$DIMTDEC
 70
     4
  9
$DIMALTU
 70
     2
  9
$DIMALTTD
 70
     2
  9
$DIMTXSTY
  7
STANDARD
  9
$DIMAUNIT
 70
     0
  9
$DIMADEC
 70
     0
  9
$DIMALTRND
 40
0.0
  9
$DIMAZIN
 70
     0
  9
$DIMDSEP
 70
    46
  9
$DIMATFIT
 70
     3
  9
$DIMFRAC
 70
     0
  9
$DIMLDRBLK
  1

  9
$DIMLUNIT
 70
     2
  9
$DIMLWD
 70
    -2
  9
$DIMLWE
 70
    -2
  9
$DIMTMOVE
 70
     0
  9
$LUNITS
 70
     2
  9
$LUPREC
 70
     4
  9
$SKETCHINC
 40
0.1
  9
$FILLETRAD
 40
0.0
  9
$AUNITS
 70
     0
  9
$AUPREC
 70
     0
  9
$MENU
  1
acad
  9
$ELEVATION
 40
0.0
  9
$PELEVATION
 40
0.0
  9
$THICKNESS
 40
0.0
  9
$LIMCHECK
 70
     0
  9
$CHAMFERA
 40
0.0
  9
$CHAMFERB
 40
0.0
  9
$CHAMFERC
 40
0.0
  9
$CHAMFERD
 40
0.0
  9
$SKPOLY
 70
     0
  9
$TDCREATE
 40
2444972.041666667
  9
$TDUCREATE
 40
2444972.0
  9
$TDUPDATE
 40
2453691.690693449
  9
$TDUUPDATE
 40
2453691.649026782
  9
$TDINDWG
 40
0.003058912
  9
$TDUSRTIMER
 40
0.0030587963
  9
$USRTIMER
 70
     1
  9
$ANGBASE
 50
0.0
  9
$ANGDIR
 70
     0
  9
$PDMODE
 70
     3
  9
$PDSIZE
 40
0.3125
  9
$PLINEWID
 40
0.0
  9
$SPLFRAME
 70
     0
  9
$SPLINETYPE
 70
     6
  9
$SPLINESEGS
 70
     8
  9
$HANDSEED
  5
A0D
  9
$SURFTAB1
 70
     6
  9
$SURFTAB2
 70
     6
  9
$SURFTYPE
 70
     6
  9
$SURFU
 70
     6
  9
$SURFV
 70
     6
  9
$UCSBASE
  2

  9
$UCSNAME
  2

  9
$UCSORG
 10
0.0
 20
0.0
 30
0.0
  9
$UCSXDIR
 10
1.0
 20
0.0
 30
0.0
  9
$UCSYDIR
 10
0.0
 20
1.0
 30
0.0
  9
$UCSORTHOREF
  2

  9
$UCSORTHOVIEW
 70
     0
  9
$UCSORGTOP
 10
0.0
 20
0.0
 30
0.0
  9
$UCSORGBOTTOM
 10
0.0
 20
0.0
 30
0.0
  9
$UCSORGLEFT
 10
0.0
 20
0.0
 30
0.0
  9
$UCSORGRIGHT
 10
0.0
 20
0.0
 30
0.0
  9
$UCSORGFRONT
 10
0.0
 20
0.0
 30
0.0
  9
$UCSORGBACK
 10
0.0
 20
0.0
 30
0.0
  9
$PUCSBASE
  2

  9
$PUCSNAME
  2

  9
$PUCSORG
 10
0.0
 20
0.0
 30
0.0
  9
$PUCSXDIR
 10
1.0
 20
0.0
 30
0.0
  9
$PUCSYDIR
 10
0.0
 20
1.0
 30
0.0
  9
$PUCSORTHOREF
  2

  9
$PUCSORTHOVIEW
 70
     0
  9
$PUCSORGTOP
 10
0.0
 20
0.0
 30
0.0
  9
$PUCSORGBOTTOM
 10
0.0
 20
0.0
 30
0.0
  9
$PUCSORGLEFT
 10
0.0
 20
0.0
 30
0.0
  9
$PUCSORGRIGHT
 10
0.0
 20
0.0
 30
0.0
  9
$PUCSORGFRONT
 10
0.0
 20
0.0
 30
0.0
  9
$PUCSORGBACK
 10
0.0
 20
0.0
 30
0.0
  9
$USERI1
 70
     0
  9
$USERI2
 70
     0
  9
$USERI3
 70
     0
  9
$USERI4
 70
     0
  9
$USERI5
 70
     0
  9
$USERR1
 40
0.0
  9
$USERR2
 40
0.0
  9
$USERR3
 40
0.0
  9
$USERR4
 40
0.0
  9
$USERR5
 40
0.0
  9
$WORLDVIEW
 70
     1
  9
$SHADEDGE
 70
     3
  9
$SHADEDIF
 70
    70
  9
$TILEMODE
 70
     1
  9
$MAXACTVP
 70
    16
  9
$PINSBASE
 10
0.0
 20
0.0
 30
0.0
  9
$PLIMCHECK
 70
     0
  9
$PEXTMIN
 10
1.000000000000000E+20
 20
1.000000000000000E+20
 30
1.000000000000000E+20
  9
$PEXTMAX
 10
-1.000000000000000E+20
 20
-1.000000000000000E+20
 30
-1.000000000000000E+20
  9
$PLIMMIN
 10
0.0
 20
0.0
  9
$PLIMMAX
 10
12.0
 20
9.0
  9
$UNITMODE
 70
     0
  9
$VISRETAIN
 70
     0
  9
$PLINEGEN
 70
     1
  9
$PSLTSCALE
 70
     0
  9
$TREEDEPTH
 70
  3020
  9
$CMLSTYLE
  2
STANDARD
  9
$CMLJUST
 70
     0
  9
$CMLSCALE
 40
1.0
  9
$PROXYGRAPHICS
 70
     1
  9
$MEASUREMENT
 70
     0
  9
$CELWEIGHT
370
    -1
  9
$ENDCAPS
280
     0
  9
$JOINSTYLE
280
     0
  9
$LWDISPLAY
290
     0
  9
$INSUNITS
 70
     0
  9
$HYPERLINKBASE
  1

  9
$STYLESHEET
  1

  9
$XEDIT
290
     1
  9
$CEPSNTYPE
380
     0
  9
$PSTYLEMODE
290
     1
  9
$FINGERPRINTGUID
  2
{0DD521BD-D7AA-4F71-ABE7-C89B3FF8F821}
  9
$VERSIONGUID
  2
{22EEF445-2708-441F-8C76-B18F4174659D}
  9
$EXTNAMES
290
     1
  9
$PSVPSCALE
 40
0.0
  9
$OLESTARTUP
290
     0
  0
ENDSEC
  0
SECTION
  2
CLASSES
  0
CLASS
  1
IMAGE
  2
AcDbRasterImage
  3
ISM
 90
      127
280
     0
281
     1
  0
CLASS
  1
DICTIONARYVAR
  2
AcDbDictionaryVar
  3
ObjectDBX Classes
 90
        0
280
     0
281
     0
  0
CLASS
  1
RASTERVARIABLES
  2
AcDbRasterVariables
  3
ISM
 90
        0
280
     0
281
     0
  0
CLASS
  1
IMAGEDEF
  2
AcDbRasterImageDef
  3
ISM
 90
        0
280
     0
281
     0
  0
CLASS
  1
IMAGEDEF_REACTOR
  2
AcDbRasterImageDefReactor
  3
ISM
 90
        1
280
     0
281
     0
  0
CLASS
  1
IDBUFFER
  2
AcDbIdBuffer
  3
ObjectDBX Classes
 90
        0
280
     0
281
     0
  0
CLASS
  1
SPATIAL_FILTER
  2
AcDbSpatialFilter
  3
ObjectDBX Classes
 90
        0
280
     0
281
     0
  0
CLASS
  1
SORTENTSTABLE
  2
AcDbSortentsTable
  3
ObjectDBX Classes
 90
        0
280
     0
281
     0
  0
CLASS
  1
LAYER_INDEX
  2
AcDbLayerIndex
  3
ObjectDBX Classes
 90
        0
280
     0
281
     0
  0
CLASS
  1
SPATIAL_INDEX
  2
AcDbSpatialIndex
  3
AutoCAD 2000
 90
        0
280
     0
281
     0
  0
CLASS
  1
OBJECT_PTR
  2
CAseDLPNTableRecord
  3
ASE-LPNTableRecord
 90
        1
280
     0
281
     0
  0
CLASS
  1
PLOTSETTINGS
  2
AcDbPlotSettings
  3
ObjectDBX Classes
 90
        0
280
     0
281
     0
  0
CLASS
  1
ACDBDICTIONARYWDFLT
  2
AcDbDictionaryWithDefault
  3
ObjectDBX Classes
 90
        0
280
     0
281
     0
  0
CLASS
  1
WIPEOUT
  2
AcDbWipeout
  3
WipeOut|AutoCAD Express Tool|expresstools@autodesk.com
 90
      127
280
     0
281
     1
  0
CLASS
  1
WIPEOUTVARIABLES
  2
AcDbWipeoutVariables
  3
WipeOut|AutoCAD Express Tool|expresstools@autodesk.com
 90
        0
280
     0
281
     0
  0
CLASS
  1
RTEXT
  2
RText
  3
RText|AutoCAD Express Tool|expresstools@autodesk.com
 90
        0
280
     0
281
     1
  0
CLASS
  1
ARCALIGNEDTEXT
  2
AcDbArcAlignedText
  3
ATEXT|AutoCAD Express Tool|expresstools@autodesk.com
 90
        0
280
     0
281
     1
  0
CLASS
  1
ACDBPLACEHOLDER
  2
AcDbPlaceHolder
  3
ObjectDBX Classes
 90
        0
280
     0
281
     0
  0
CLASS
  1
LAYOUT
  2
AcDbLayout
  3
ObjectDBX Classes
 90
        0
280
     0
281
     0
  0
ENDSEC
  0
SECTION
  2
TABLES
  0
TABLE
  2
VPORT
  5
8
330
0
100
AcDbSymbolTable
 70
     1
  0
VPORT
  5
9FF
330
8
100
AcDbSymbolTableRecord
100
AcDbViewportTableRecord
  2
*Active
 70
     0
 10
0.0
 20
0.0
 11
1.0
 21
1.0
 12
85.83659446173868
 22
120.8597113531545
 13
0.0
 23
0.0
 14
1.0
 24
1.0
 15
0.0
 25
0.0
 16
0.0
 26
0.0
 36
1.0
 17
0.0
 27
0.0
 37
0.0
 40
54.24831234176962
 41
1.6
 42
50.0
 43
0.0
 44
0.0
 50
0.0
 51
0.0
 71
     0
 72
   100
 73
     1
 74
     1
 75
     0
 76
     0
 77
     0
 78
     0
281
     0
 65
     1
110
0.0
120
0.0
130
0.0
111
1.0
121
0.0
131
0.0
112
0.0
122
1.0
132
0.0
 79
     0
146
0.0
  0
ENDTAB
  0
TABLE
  2
LTYPE
  5
5
330
0
100
AcDbSymbolTable
 70
     1
  0
LTYPE
  5
14
330
5
100
AcDbSymbolTableRecord
100
AcDbLinetypeTableRecord
  2
BYBLOCK
 70
     0
  3

 72
    65
 73
     0
 40
0.0
  0
LTYPE
  5
15
330
5
100
AcDbSymbolTableRecord
100
AcDbLinetypeTableRecord
  2
BYLAYER
 70
     0
  3

 72
    65
 73
     0
 40
0.0
  0
LTYPE
  5
16
330
5
100
AcDbSymbolTableRecord
100
AcDbLinetypeTableRecord
  2
CONTINUOUS
 70
     0
  3
Solid line
 72
    65
 73
     0
 40
0.0
  0
ENDTAB
  0
TABLE
  2
LAYER
  5
2
330
0
100
AcDbSymbolTable
 70
     1
  0
LAYER
  5
10
330
2
100
AcDbSymbolTableRecord
100
AcDbLayerTableRecord
  2
0
 70
     0
 62
     7
  6
CONTINUOUS
370
    -3
390
9ED
  0
ENDTAB
  0
TABLE
  2
STYLE
  5
3
330
0
100
AcDbSymbolTable
 70
     2
  0
STYLE
  5
11
330
3
100
AcDbSymbolTableRecord
100
AcDbTextStyleTableRecord
  2
STANDARD
 70
     0
 40
0.0
 41
1.0
 50
0.0
 71
     0
 42
0.2
  3
txt
  4

  0
STYLE
  5
204
330
3
100
AcDbSymbolTableRecord
100
AcDbTextStyleTableRecord
  2
TEXTSTYLE_1
 70
     0
 40
0.0
 41
1.0
 50
0.0
 71
     0
 42
0.2
  3
txt
  4

  0
ENDTAB
  0
TABLE
  2
VIEW
  5
6
330
0
100
AcDbSymbolTable
 70
     0
  0
ENDTAB
  0
TABLE
  2
UCS
  5
7
330
0
100
AcDbSymbolTable
 70
     0
  0
ENDTAB
  0
TABLE
  2
APPID
  5
9
330
0
100
AcDbSymbolTable
 70
     1
  0
APPID
  5
206
330
9
100
AcDbSymbolTableRecord
100
AcDbRegAppTableRecord
  2
ACAD
 70
     0
  0
ENDTAB
  0
TABLE
  2
DIMSTYLE
  5
A
330
0
100
AcDbSymbolTable
 70
     1
100
AcDbDimStyleTable
  0
DIMSTYLE
105
207
330
A
100
AcDbSymbolTableRecord
100
AcDbDimStyleTableRecord
  2
STANDARD
 70
     0
 41
3.0
 47
0.003
 48
0.003
 71
     1
 73
     0
 74
     0
 77
     1
 78
     8
140
1.5
271
     3
272
     3
284
     8
340
11
  0
ENDTAB
  0
TABLE
  2
BLOCK_RECORD
  5
1
330
0
100
AcDbSymbolTable
 70
     0
  0
BLOCK_RECORD
  5
1B
330
1
100
AcDbSymbolTableRecord
100
AcDbBlockTableRecord
  2
*MODEL_SPACE
340
9F2
  0
BLOCK_RECORD
  5
1C
330
1
100
AcDbSymbolTableRecord
100
AcDbBlockTableRecord
  2
*PAPER_SPACE
340
9F3
  0
ENDTAB
  0
ENDSEC
  0
SECTION
  2
BLOCKS
  0
BLOCK
  5
1E
330
1B
100
AcDbEntity
  8
0
100
AcDbBlockBegin
  2
*MODEL_SPACE
 70
     0
 71
     0
 10
0.0
 20
0.0
 30
0.0
  3
*MODEL_SPACE
  1

  0
ENDBLK
  5
1F
330
1B
100
AcDbEntity
  8
0
100
AcDbBlockEnd
  0
BLOCK
  5
20
330
1C
100
AcDbEntity
 67
     1
  8
0
100
AcDbBlockBegin
  2
*PAPER_SPACE
 70
     0
 71
     0
 10
0.0
 20
0.0
 30
0.0
  3
*PAPER_SPACE
  1

  0
ENDBLK
  5
21
330
1C
100
AcDbEntity
 67
     1
  8
0
100
AcDbBlockEnd
  0
ENDSEC
  0
SECTION
  2
ENTITIES
  0
TEXT
  5
256
330
1B
100
AcDbEntity
  8
0
  6
Continuous
 62
     1
100
AcDbText
 10
327.4708256706
 20
32.0853596703
 30
0.0
 40
1.5
  1
 
 41
1.2307692308
  7
TEXTSTYLE_1
 72
     1
 11
328.3939025937
 21
32.0853596703
 31
0.0
100
AcDbText
  0
TEXT
  5
259
330
1B
100
AcDbEntity
  8
0
  6
Continuous
 62
     1
100
AcDbText
 10
352.836210286
 20
32.0853596703
 30
0.0
 40
1.5
  1
 
 41
1.2307692308
  7
TEXTSTYLE_1
 72
     1
 11
353.7592872091
 21
32.0853596703
 31
0.0
100
AcDbText
  0
TEXT
  5
263
330
1B
100
AcDbEntity
  8
0
  6
Continuous
 62
     1
100
AcDbText
 10
401.5862102859
 20
20.9420904395
 30
0.0
 40
1.5
  1
 
 41
1.2307692308
  7
TEXTSTYLE_1
 72
     1
 11
402.509287209
 21
20.9420904395
 31
0.0
100
AcDbText
  0
LINE
  5
5F4
330
1B
100
AcDbEntity
  8
0
  6
Continuous
100
AcDbLine
 10
45.872779107
 20
121.364055229
 30
0.0
 11
45.872779107
 21
99.72650593030001
 31
0.0
  0
LINE
  5
5F5
330
1B
100
AcDbEntity
  8
0
  6
Continuous
100
AcDbLine
 10
46.09513339350001
 20
121.6538329769
 30
0.0
 11
46.09513339350001
 21
99.4367281824
 31
0.0
  0
LINE
  5
5F6
330
1B
100
AcDbEntity
  8
0
  6
Continuous
100
AcDbLine
 10
49.2346291427
 20
122.4950583275
 30
0.0
 11
49.2346291427
 21
98.59550283170002
 31
0.0
  0
LINE
  5
5F7
330
1B
100
AcDbEntity
  8
0
  6
Continuous
100
AcDbLine
 10
49.3122748563
 20
122.5052805796
 30
0.0
 11
49.3122748563
 21
98.5852805796
 31
0.0
  0
LINE
  5
5F8
330
1B
100
AcDbEntity
  8
0
  6
Continuous
100
AcDbLine
 10
50.57277910699999
 20
122.5052805796
 30
0.0
 11
50.57277910699999
 21
98.5852805796
 31
0.0
  0
LINE
  5
5F9
330
1B
100
AcDbEntity
  8
0
  6
Continuous
100
AcDbLine
 10
50.872779107
 20
122.2052805796
 30
0.0
 11
50.872779107
 21
98.88528057960002
 31
0.0
  0
LINE
  5
5FA
330
1B
100
AcDbEntity
  8
0
  6
Continuous
100
AcDbLine
 10
51.172779107
 20
99.54528057959999
 30
0.0
 11
51.172779107
 21
121.5452805796
 31
0.0
  0
LINE
  5
5FB
330
1B
100
AcDbEntity
  8
0
  6
Continuous
100
AcDbLine
 10
46.09513339350001
 20
99.4367281824
 30
0.0
 11
49.2346291427
 21
98.59550283170002
 31
0.0
  0
LINE
  5
5FC
330
1B
100
AcDbEntity
  8
0
  6
Continuous
100
AcDbLine
 10
56.872779107
 20
99.54528057959999
 30
0.0
 11
56.872779107
 21
121.5452805796
 31
0.0
  0
LINE
  5
5FD
330
1B
100
AcDbEntity
  8
0
  6
Continuous
100
AcDbLine
 10
49.2346291427
 20
98.59550283180001
 30
0.0
 11
49.3122748563
 21
98.5852805796
 31
0.0
  0
LINE
  5
5FE
330
1B
100
AcDbEntity
  8
0
  6
Continuous
100
AcDbLine
 10
57.172779107
 20
122.2052805796
 30
0.0
 11
57.172779107
 21
98.88528057960002
 31
0.0
  0
LINE
  5
5FF
330
1B
100
AcDbEntity
  8
0
  6
Continuous
100
AcDbLine
 10
57.472779107
 20
122.5052805796
 30
0.0
 11
57.472779107
 21
98.5852805796
 31
0.0
  0
LINE
  5
600
330
1B
100
AcDbEntity
  8
0
  6
Continuous
100
AcDbLine
 10
58.472779107
 20
122.5052805796
 30
0.0
 11
58.472779107
 21
98.5852805796
 31
0.0
  0
LINE
  5
601
330
1B
100
AcDbEntity
  8
0
  6
Continuous
100
AcDbLine
 10
58.772779107
 20
122.2052805796
 30
0.0
 11
58.772779107
 21
98.88528057960002
 31
0.0
  0
LINE
  5
602
330
1B
100
AcDbEntity
  8
0
  6
Continuous
100
AcDbLine
 10
59.07277910699999
 20
99.54528057959999
 30
0.0
 11
59.07277910699999
 21
121.5452805796
 31
0.0
  0
LINE
  5
603
330
1B
100
AcDbEntity
  8
0
  6
Continuous
100
AcDbLine
 10
79.0407282995
 20
96.04528057959999
 30
0.0
 11
78.072779107
 21
96.04528057959999
 31
0.0
  0
LINE
  5
604
330
1B
100
AcDbEntity
  8
0
  6
Continuous
100
AcDbLine
 10
104.5871289713
 20
97.54528057959999
 30
0.0
 11
83.009355266
 21
97.54528057959999
 31
0.0
  0
LINE
  5
605
330
1B
100
AcDbEntity
  8
0
  6
Continuous
100
AcDbLine
 10
49.3122748563
 20
98.5852805796
 30
0.0
 11
50.57277910699999
 21
98.5852805796
 31
0.0
  0
LINE
  5
606
330
1B
100
AcDbEntity
  8
0
  6
Continuous
100
AcDbLine
 10
57.472779107
 20
98.5852805796
 30
0.0
 11
58.472779107
 21
98.5852805796
 31
0.0
  0
LINE
  5
607
330
1B
100
AcDbEntity
  8
0
  6
Continuous
100
AcDbLine
 10
65.372779107
 20
98.5852805796
 30
0.0
 11
66.37277910699999
 21
98.5852805796
 31
0.0
  0
LINE
  5
608
330
1B
100
AcDbEntity
  8
0
  6
Continuous
100
AcDbLine
 10
73.27277910700002
 20
98.5852805796
 30
0.0
 11
76.672779107
 21
98.5852805796
 31
0.0
  0
LINE
  5
609
330
1B
100
AcDbEntity
  8
0
  6
Continuous
100
AcDbLine
 10
51.172779107
 20
99.54528057959999
 30
0.0
 11
56.872779107
 21
99.54528057959999
 31
0.0
  0
LINE
  5
60A
330
1B
100
AcDbEntity
  8
0
  6
Continuous
100
AcDbLine
 10
59.07277910699999
 20
99.54528057959999
 30
0.0
 11
64.77277910700001
 21
99.54528057959999
 31
0.0
  0
LINE
  5
60B
330
1B
100
AcDbEntity
  8
0
  6
Continuous
100
AcDbLine
 10
66.97277910699999
 20
99.54528057959999
 30
0.0
 11
72.67277910699998
 21
99.54528057959999
 31
0.0
  0
LINE
  5
60C
330
1B
100
AcDbEntity
  8
0
  6
Continuous
100
AcDbLine
 10
104.872779107
 20
97.54328057959999
 30
0.0
 11
104.6291363442
 21
97.54498646200001
 31
0.0
  0
LINE
  5
60D
330
1B
100
AcDbEntity
  8
0
  6
Continuous
100
AcDbLine
 10
78.072779107
 20
96.04528057959999
 30
0.0
 11
77.8485150338
 21
96.26954465279999
 31
0.0
  0
LINE
  5
60E
330
1B
100
AcDbEntity
  8
0
  6
Continuous
100
AcDbLine
 10
64.77277910700001
 20
99.54528057959999
 30
0.0
 11
64.77277910700001
 21
121.5452805796
 31
0.0
  0
LINE
  5
60F
330
1B
100
AcDbEntity
  8
0
  6
Continuous
100
AcDbLine
 10
65.072779107
 20
122.2052805796
 30
0.0
 11
65.072779107
 21
98.88528057960002
 31
0.0
  0
LINE
  5
610
330
1B
100
AcDbEntity
  8
0
  6
Continuous
100
AcDbLine
 10
65.372779107
 20
122.5052805796
 30
0.0
 11
65.372779107
 21
98.5852805796
 31
0.0
  0
LINE
  5
611
330
1B
100
AcDbEntity
  8
0
  6
Continuous
100
AcDbLine
 10
66.37277910699999
 20
122.5052805796
 30
0.0
 11
66.37277910699999
 21
98.5852805796
 31
0.0
  0
LINE
  5
612
330
1B
100
AcDbEntity
  8
0
  6
Continuous
100
AcDbLine
 10
66.672779107
 20
122.2052805796
 30
0.0
 11
66.672779107
 21
98.88528057960002
 31
0.0
  0
LINE
  5
613
330
1B
100
AcDbEntity
  8
0
  6
Continuous
100
AcDbLine
 10
66.97277910699999
 20
99.54528057959999
 30
0.0
 11
66.97277910699999
 21
121.5452805796
 31
0.0
  0
LINE
  5
614
330
1B
100
AcDbEntity
  8
0
  6
Continuous
100
AcDbLine
 10
86.672779107
 20
146.7452805796
 30
0.0
 11
87.5556218195
 21
147.6281232920999
 31
0.0
  0
LINE
  5
615
330
1B
100
AcDbEntity
  8
0
  6
Continuous
100
AcDbLine
 10
72.67277910699998
 20
99.54528057959999
 30
0.0
 11
72.67277910699998
 21
121.5452805796
 31
0.0
  0
LINE
  5
616
330
1B
100
AcDbEntity
  8
0
  6
Continuous
100
AcDbLine
 10
72.97277910699999
 20
122.2052805796
 30
0.0
 11
72.97277910699999
 21
98.88528057960002
 31
0.0
  0
LINE
  5
617
330
1B
100
AcDbEntity
  8
0
  6
Continuous
100
AcDbLine
 10
73.27277910700002
 20
122.5052805796
 30
0.0
 11
73.27277910700002
 21
98.5852805796
 31
0.0
  0
LINE
  5
618
330
1B
100
AcDbEntity
  8
0
  6
Continuous
100
AcDbLine
 10
76.672779107
 20
98.5852805796
 30
0.0
 11
76.672779107
 21
122.5052805796
 31
0.0
  0
LINE
  5
619
330
1B
100
AcDbEntity
  8
0
  6
Continuous
100
AcDbLine
 10
77.67277910699998
 20
96.69380871700001
 30
0.0
 11
77.67277910699998
 21
124.3967524422
 31
0.0
  0
LINE
  5
61A
330
1B
100
AcDbEntity
  8
0
  6
Continuous
100
AcDbLine
 10
77.8485150364
 20
124.821016509
 30
0.0
 11
77.8485150364
 21
96.2695446502
 31
0.0
  0
LINE
  5
61B
330
1B
100
AcDbEntity
  8
0
  6
Continuous
100
AcDbLine
 10
78.072779107
 20
96.04528057959999
 30
0.0
 11
78.072779107
 21
125.0452805796
 31
0.0
  0
LINE
  5
61C
330
1B
100
AcDbEntity
  8
0
  6
Continuous
100
AcDbLine
 10
78.072779107
 20
125.0452805796
 30
0.0
 11
77.8485150338
 21
124.8210165064
 31
0.0
  0
LINE
  5
61D
330
1B
100
AcDbEntity
  8
0
  6
Continuous
100
AcDbLine
 10
122.2725905717
 20
114.8622806325
 30
0.0
 11
93.4718207272
 21
114.8622806325
 31
0.0
  0
LINE
  5
61E
330
1B
100
AcDbEntity
  8
0
  6
Continuous
100
AcDbLine
 10
79.0407282995
 20
125.0452805796
 30
0.0
 11
79.0407282995
 21
96.04528057959999
 31
0.0
  0
LINE
  5
61F
330
1B
100
AcDbEntity
  8
0
  6
Continuous
100
AcDbLine
 10
81.02504178329998
 20
96.79528058009998
 30
0.0
 11
81.02504178329998
 21
124.2952805792
 31
0.0
  0
LINE
  5
620
330
1B
100
AcDbEntity
  8
0
  6
Continuous
100
AcDbLine
 10
93.20967577219999
 20
116.345170059
 30
0.0
 11
122.6726685863
 21
116.345170059
 31
0.0
  0
LINE
  5
621
330
1B
100
AcDbEntity
  8
0
  6
Continuous
100
AcDbLine
 10
123.072779107
 20
117.8420249936
 30
0.0
 11
91.38921578079999
 21
117.8420249936
 31
0.0
  0
LINE
  5
622
330
1B
100
AcDbEntity
  8
0
  6
Continuous
100
AcDbLine
 10
83.009355266
 20
97.54528057959999
 30
0.0
 11
83.009355266
 21
123.5452805796
 31
0.0
  0
LINE
  5
623
330
1B
100
AcDbEntity
  8
0
  6
Continuous
100
AcDbLine
 10
51.172779107
 20
121.5452805796
 30
0.0
 11
56.872779107
 21
121.5452805796
 31
0.0
  0
LINE
  5
624
330
1B
100
AcDbEntity
  8
0
  6
Continuous
100
AcDbLine
 10
59.07277910699999
 20
121.5452805796
 30
0.0
 11
64.77277910700001
 21
121.5452805796
 31
0.0
  0
LINE
  5
625
330
1B
100
AcDbEntity
  8
0
  6
Continuous
100
AcDbLine
 10
66.97277910699999
 20
121.5452805796
 30
0.0
 11
72.67277910699998
 21
121.5452805796
 31
0.0
  0
LINE
  5
626
330
1B
100
AcDbEntity
  8
0
  6
Continuous
100
AcDbLine
 10
86.672779107
 20
126.5452805796
 30
0.0
 11
86.672779107
 21
146.7452805796
 31
0.0
  0
LINE
  5
627
330
1B
100
AcDbEntity
  8
0
  6
Continuous
100
AcDbLine
 10
49.3122748563
 20
122.5052805796
 30
0.0
 11
50.57277910699999
 21
122.5052805796
 31
0.0
  0
LINE
  5
628
330
1B
100
AcDbEntity
  8
0
  6
Continuous
100
AcDbLine
 10
57.472779107
 20
122.5052805796
 30
0.0
 11
58.472779107
 21
122.5052805796
 31
0.0
  0
LINE
  5
629
330
1B
100
AcDbEntity
  8
0
  6
Continuous
100
AcDbLine
 10
65.372779107
 20
122.5052805796
 30
0.0
 11
66.37277910699999
 21
122.5052805796
 31
0.0
  0
LINE
  5
62A
330
1B
100
AcDbEntity
  8
0
  6
Continuous
100
AcDbLine
 10
73.27277910700002
 20
122.5052805796
 30
0.0
 11
76.672779107
 21
122.5052805796
 31
0.0
  0
LINE
  5
62B
330
1B
100
AcDbEntity
  8
0
  6
Continuous
100
AcDbLine
 10
83.672779107
 20
123.5452805796
 30
0.0
 11
83.009355266
 21
123.5452805796
 31
0.0
  0
LINE
  5
62C
330
1B
100
AcDbEntity
  8
0
  6
Continuous
100
AcDbLine
 10
79.0407282995
 20
125.0452805796
 30
0.0
 11
78.072779107
 21
125.0452805796
 31
0.0
  0
LINE
  5
62D
330
1B
100
AcDbEntity
  8
0
  6
Continuous
100
AcDbLine
 10
49.2346291427
 20
122.4950583275
 30
0.0
 11
49.3122748563
 21
122.5052805796
 31
0.0
  0
LINE
  5
62E
330
1B
100
AcDbEntity
  8
0
  6
Continuous
100
AcDbLine
 10
46.09513339350001
 20
121.6538329769
 30
0.0
 11
49.2346291427
 21
122.4950583275
 31
0.0
  0
LINE
  5
62F
330
1B
100
AcDbEntity
  8
0
  6
Continuous
100
AcDbLine
 10
108.0457273772
 20
130.5569954627
 30
0.0
 11
107.6848789857
 21
128.8931641012
 31
0.0
  0
LINE
  5
630
330
1B
100
AcDbEntity
  8
0
  6
Continuous
100
AcDbLine
 10
123.072779107
 20
146.7452805796
 30
0.0
 11
86.672779107
 21
146.7452805796
 31
0.0
  0
LINE
  5
631
330
1B
100
AcDbEntity
  8
0
  6
Continuous
100
AcDbLine
 10
122.1899363945
 20
147.6281232920999
 30
0.0
 11
87.5556218195
 21
147.6281232920999
 31
0.0
  0
LINE
  5
632
330
1B
100
AcDbEntity
  8
0
  6
Continuous
100
AcDbLine
 10
121.907093682
 20
147.7452805796
 30
0.0
 11
87.83846453189999
 21
147.7452805796
 31
0.0
  0
LINE
  5
633
330
1B
100
AcDbEntity
  8
0
  6
Continuous
100
AcDbLine
 10
123.072779107
 20
117.8420249936
 30
0.0
 11
123.072779107
 21
146.7452805796
 31
0.0
  0
LINE
  5
634
330
1B
100
AcDbEntity
  8
0
  6
Continuous
100
AcDbLine
 10
123.072779107
 20
146.7452805796
 30
0.0
 11
122.1899363945
 21
147.6281232920999
 31
0.0
  0
CIRCLE
  5
699
330
1B
100
AcDbEntity
  8
0
  6
Continuous
100
AcDbCircle
 10
104.872779107
 20
133.2452805796
 30
0.0
 40
8.999909999999998
  0
CIRCLE
  5
69A
330
1B
100
AcDbEntity
  8
0
  6
Continuous
100
AcDbCircle
 10
104.872779107
 20
133.2452805796
 30
0.0
 40
8.699913000000001
  0
CIRCLE
  5
69B
330
1B
100
AcDbEntity
  8
0
  6
Continuous
100
AcDbCircle
 10
107.1905744088
 20
138.1927300646
 30
0.0
 40
0.2687037129
  0
ARC
  5
69C
330
1B
100
AcDbEntity
  8
0
  6
Continuous
100
AcDbCircle
 10
87.83846453189999
 20
147.3452805796
 30
0.0
 40
0.4
100
AcDbArc
 50
90.00000000000019
 51
134.9999999938003
  0
ARC
  5
69D
330
1B
100
AcDbEntity
  8
0
  6
Continuous
100
AcDbCircle
 10
121.907093682
 20
147.3452805796
 30
0.0
 40
0.4
100
AcDbArc
 50
45.0000000049001
 51
90.00000000000019
  0
ARC
  5
69E
330
1B
100
AcDbEntity
  8
0
  6
Continuous
100
AcDbCircle
 10
46.17277910699999
 20
121.364055229
 30
0.0
 40
0.3
100
AcDbArc
 50
105.0000000123002
 51
180.0000000000004
  0
ARC
  5
69F
330
1B
100
AcDbEntity
  8
0
  6
Continuous
100
AcDbCircle
 10
46.17277910699999
 20
99.72650593030001
 30
0.0
 40
0.3
100
AcDbArc
 50
180.0000000000004
 51
254.9999999902005
  0
ARC
  5
6A0
330
1B
100
AcDbEntity
  8
0
  6
Continuous
100
AcDbCircle
 10
50.57277910699999
 20
122.2052805796
 30
0.0
 40
0.3
100
AcDbArc
 50
0.0
 51
90.00000000000019
  0
ARC
  5
6A1
330
1B
100
AcDbEntity
  8
0
  6
Continuous
100
AcDbCircle
 10
50.57277910699999
 20
98.88528057960002
 30
0.0
 40
0.3
100
AcDbArc
 50
270.0000000000006
 51
360.0000000000008
  0
ARC
  5
6A2
330
1B
100
AcDbEntity
  8
0
  6
Continuous
100
AcDbCircle
 10
57.472779107
 20
122.2052805796
 30
0.0
 40
0.3
100
AcDbArc
 50
90.00000000000019
 51
180.0000000000004
  0
ARC
  5
6A3
330
1B
100
AcDbEntity
  8
0
  6
Continuous
100
AcDbCircle
 10
57.472779107
 20
98.88528057960002
 30
0.0
 40
0.3
100
AcDbArc
 50
180.0000000000004
 51
270.0000000000006
  0
ARC
  5
6A4
330
1B
100
AcDbEntity
  8
0
  6
Continuous
100
AcDbCircle
 10
58.472779107
 20
122.2052805796
 30
0.0
 40
0.3
100
AcDbArc
 50
0.0
 51
90.00000000000019
  0
ARC
  5
6A5
330
1B
100
AcDbEntity
  8
0
  6
Continuous
100
AcDbCircle
 10
58.472779107
 20
98.88528057960002
 30
0.0
 40
0.3
100
AcDbArc
 50
270.0000000000006
 51
360.0000000000008
  0
ARC
  5
6A6
330
1B
100
AcDbEntity
  8
0
  6
Continuous
100
AcDbCircle
 10
65.372779107
 20
122.2052805796
 30
0.0
 40
0.3
100
AcDbArc
 50
90.00000000000019
 51
180.0000000000004
  0
ARC
  5
6A7
330
1B
100
AcDbEntity
  8
0
  6
Continuous
100
AcDbCircle
 10
65.372779107
 20
98.88528057960002
 30
0.0
 40
0.3
100
AcDbArc
 50
180.0000000000004
 51
270.0000000000006
  0
ARC
  5
6A8
330
1B
100
AcDbEntity
  8
0
  6
Continuous
100
AcDbCircle
 10
66.37277910699999
 20
122.2052805796
 30
0.0
 40
0.3
100
AcDbArc
 50
0.0
 51
90.00000000000019
  0
ARC
  5
6A9
330
1B
100
AcDbEntity
  8
0
  6
Continuous
100
AcDbCircle
 10
66.37277910699999
 20
98.88528057960002
 30
0.0
 40
0.3
100
AcDbArc
 50
270.0000000000006
 51
360.0000000000008
  0
ARC
  5
6AA
330
1B
100
AcDbEntity
  8
0
  6
Continuous
100
AcDbCircle
 10
73.27277910700002
 20
122.2052805796
 30
0.0
 40
0.3
100
AcDbArc
 50
90.00000000000019
 51
180.0000000000004
  0
ARC
  5
6AB
330
1B
100
AcDbEntity
  8
0
  6
Continuous
100
AcDbCircle
 10
73.27277910700002
 20
98.88528057960002
 30
0.0
 40
0.3
100
AcDbArc
 50
180.0000000000004
 51
270.0000000000006
  0
ARC
  5
6AC
330
1B
100
AcDbEntity
  8
0
  6
Continuous
100
AcDbCircle
 10
51.172779107
 20
121.8452805796
 30
0.0
 40
0.3
100
AcDbArc
 50
180.0000000021004
 51
270.0000000000006
  0
ARC
  5
6AD
330
1B
100
AcDbEntity
  8
0
  6
Continuous
100
AcDbCircle
 10
51.172779107
 20
99.24528057959999
 30
0.0
 40
0.3
100
AcDbArc
 50
90.00000000000019
 51
179.9999999984004
  0
ARC
  5
6AE
330
1B
100
AcDbEntity
  8
0
  6
Continuous
100
AcDbCircle
 10
56.872779107
 20
121.8452805796
 30
0.0
 40
0.3
100
AcDbArc
 50
270.0000000000006
 51
359.9999999982009
  0
ARC
  5
6AF
330
1B
100
AcDbEntity
  8
0
  6
Continuous
100
AcDbCircle
 10
56.872779107
 20
99.24528057959999
 30
0.0
 40
0.3
100
AcDbArc
 50
0.0000000051
 51
90.00000000000019
  0
ARC
  5
6B0
330
1B
100
AcDbEntity
  8
0
  6
Continuous
100
AcDbCircle
 10
59.07277910699999
 20
121.8452805796
 30
0.0
 40
0.3
100
AcDbArc
 50
180.0000000021004
 51
270.0000000000006
  0
ARC
  5
6B1
330
1B
100
AcDbEntity
  8
0
  6
Continuous
100
AcDbCircle
 10
59.07277910699999
 20
99.24528057959999
 30
0.0
 40
0.3
100
AcDbArc
 50
90.00000000000019
 51
179.9999999984004
  0
ARC
  5
6B2
330
1B
100
AcDbEntity
  8
0
  6
Continuous
100
AcDbCircle
 10
64.77277910700001
 20
121.8452805796
 30
0.0
 40
0.3
100
AcDbArc
 50
270.0000000000006
 51
359.9999999949008
  0
ARC
  5
6B3
330
1B
100
AcDbEntity
  8
0
  6
Continuous
100
AcDbCircle
 10
64.77277910700001
 20
99.24528057959999
 30
0.0
 40
0.3
100
AcDbArc
 50
0.0000000019
 51
90.00000000000019
  0
ARC
  5
6B4
330
1B
100
AcDbEntity
  8
0
  6
Continuous
100
AcDbCircle
 10
66.97277910699999
 20
121.8452805796
 30
0.0
 40
0.3
100
AcDbArc
 50
180.0000000021004
 51
270.0000000000006
  0
ARC
  5
6B5
330
1B
100
AcDbEntity
  8
0
  6
Continuous
100
AcDbCircle
 10
66.97277910699999
 20
99.24528057959999
 30
0.0
 40
0.3
100
AcDbArc
 50
90.00000000000019
 51
179.9999999984004
  0
ARC
  5
6B6
330
1B
100
AcDbEntity
  8
0
  6
Continuous
100
AcDbCircle
 10
72.67277910699998
 20
121.8452805796
 30
0.0
 40
0.3
100
AcDbArc
 50
270.0000000000006
 51
359.9999999949008
  0
ARC
  5
6B7
330
1B
100
AcDbEntity
  8
0
  6
Continuous
100
AcDbCircle
 10
72.67277910699998
 20
99.24528057959999
 30
0.0
 40
0.3
100
AcDbArc
 50
0.0000000018
 51
90.00000000000019
  0
ARC
  5
6B8
330
1B
100
AcDbEntity
  8
0
  6
Continuous
100
AcDbCircle
 10
76.672779107
 20
123.5052805796
 30
0.0
 40
1.0
100
AcDbArc
 50
270.0000000000006
 51
360.0000000000008
  0
ARC
  5
6B9
330
1B
100
AcDbEntity
  8
0
  6
Continuous
100
AcDbCircle
 10
76.672779107
 20
97.5852805796
 30
0.0
 40
1.0
100
AcDbArc
 50
0.0
 51
90.00000000000019
  0
ARC
  5
6BA
330
1B
100
AcDbEntity
  8
0
  6
Continuous
100
AcDbCircle
 10
78.27277910700002
 20
96.69380871700001
 30
0.0
 40
0.6
100
AcDbArc
 50
180.0000000000004
 51
224.9999993928005
  0
ARC
  5
6BB
330
1B
100
AcDbEntity
  8
0
  6
Continuous
100
AcDbCircle
 10
78.27277910700002
 20
124.3967524422
 30
0.0
 40
0.6
100
AcDbArc
 50
135.0000006072003
 51
180.0000000000004
  0
ARC
  5
6BC
330
1B
100
AcDbEntity
  8
0
  6
Continuous
100
AcDbCircle
 10
104.5871288832
 20
94.5452805825
 30
0.0
 40
2.999999999499998
100
AcDbArc
 50
89.19769039140019
 51
89.99999826020022
  0
ARC
  5
6BD
330
1B
100
AcDbEntity
  8
0
  6
Continuous
100
AcDbCircle
 10
104.872779107
 20
114.9432805796
 30
0.0
 40
17.4
100
AcDbArc
 50
270.0000000000006
 51
359.7332774785008
  0
ARC
  5
6BE
330
1B
100
AcDbEntity
  8
0
  6
Continuous
100
AcDbCircle
 10
125.2725580657
 20
114.8483151243
 30
0.0
 40
3.0
100
AcDbArc
 50
150.0693344135003
 51
179.7332774785004
  0
ARC
  5
6BF
330
1B
100
AcDbEntity
  8
0
  6
Continuous
100
AcDbCircle
 10
120.072779107
 20
117.8420249936
 30
0.0
 40
3.0
100
AcDbArc
 50
330.0693344135008
 51
360.0000000000008
  0
ARC
  5
6C0
330
1B
100
AcDbEntity
  8
0
  6
Continuous
100
AcDbCircle
 10
83.009355266
 20
94.54528057959999
 30
0.0
 40
3.0
100
AcDbArc
 50
90.00000000000019
 51
131.4096220957003
  0
ARC
  5
6C1
330
1B
100
AcDbEntity
  8
0
  6
Continuous
100
AcDbCircle
 10
83.009355266
 20
126.5452805796
 30
0.0
 40
3.0
100
AcDbArc
 50
228.5903779043005
 51
270.0000000000006
  0
ARC
  5
6C2
330
1B
100
AcDbEntity
  8
0
  6
Continuous
100
AcDbCircle
 10
79.0407282994
 20
122.0452805796
 30
0.0
 40
3.0
100
AcDbArc
 50
48.5903778771001
 51
90.00000000000019
  0
ARC
  5
6C3
330
1B
100
AcDbEntity
  8
0
  6
Continuous
100
AcDbCircle
 10
79.0407282994
 20
99.0452805796
 30
0.0
 40
3.0
100
AcDbArc
 50
270.0000000000006
 51
311.4096221229007
  0
SPLINE
  5
822
330
1B
100
AcDbEntity
  8
0
  6
Continuous
100
AcDbSpline
210
0.0
220
0.0
230
1.0
 70
     8
 71
     3
 72
    11
 73
     7
 74
     5
 42
0.0000000001
 43
0.0000000001
 44
0.0000000001
 12
-0.5348284792046009
 22
0.8449606486882652
 32
0.0
 13
0.5178520334193967
 23
-0.8554702049068664
 33
0.0
 40
0.0
 40
0.0
 40
0.0
 40
0.0
 40
0.0694145763669469
 40
0.1388279088482701
 40
0.2082411810134613
 40
0.277655903125324
 40
0.277655903125324
 40
0.277655903125324
 40
0.277655903125324
 10
109.6531833025
 20
137.195905073
 30
0.0
 10
109.6408083383957
 20
137.2154559348251
 30
0.0
 10
109.6357425772308
 20
137.2677231101283
 30
0.0
 10
109.6809558667121
 20
137.3284626261419
 30
0.0
 10
109.7554850237914
 20
137.3418587540082
 30
0.0
 10
109.8000075294017
 20
137.3140141653162
 30
0.0
 10
109.8119897144
 20
137.2942200898
 30
0.0
 11
109.6531833025
 21
137.195905073
 31
0.0
 11
109.6445447028
 21
137.2647800177
 31
0.0
 11
109.6858418234
 21
137.3205721189
 31
0.0
 11
109.7541935924
 21
137.3326650105
 31
0.0
 11
109.8119897144
 21
137.2942200898
 31
0.0
  0
SPLINE
  5
823
330
1B
100
AcDbEntity
  8
0
  6
Continuous
100
AcDbSpline
210
0.0
220
0.0
230
1.0
 70
     8
 71
     3
 72
     9
 73
     5
 74
     3
 42
0.0000000001
 43
0.0000000001
 44
0.0000000001
 12
0.5686892443139174
 22
-0.8225524563221883
 32
0.0
 13
0.2151454352184389
 23
-0.9765820199577036
 33
0.0
 40
0.0
 40
0.0
 40
0.0
 40
0.0
 40
2.584054886871946
 40
3.914802099548342
 40
3.914802099548342
 40
3.914802099548342
 40
3.914802099548342
 10
109.8119897144
 20
137.2942200898
 30
0.0
 10
110.3018311213603
 20
136.5857131916441
 30
0.0
 10
110.9066519956855
 20
135.4082972776605
 30
0.0
 10
111.2708553227877
 20
134.1522617075362
 30
0.0
 10
111.3662900522
 20
133.7190671072
 30
0.0
 11
109.8119897144
 21
137.2942200898
 31
0.0
 11
110.9954467249
 21
134.9970981595
 31
0.0
 11
111.3662900522
 21
133.7190671072
 31
0.0
  0
SPLINE
  5
824
330
1B
100
AcDbEntity
  8
0
  6
Continuous
100
AcDbSpline
210
0.0
220
0.0
230
1.0
 70
     8
 71
     3
 72
     8
 73
     4
 74
     2
 42
0.0000000001
 43
0.0000000001
 44
0.0000000001
 12
0.215145435222264
 22
-0.976582019956861
 32
0.0
 13
0.09076710993861932
 23
-0.9958721462885638
 33
0.0
 40
0.0
 40
0.0
 40
0.0
 40
0.0
 40
1.258626205878236
 40
1.258626205878236
 40
1.258626205878236
 40
1.258626205878236
 10
111.3662900522
 20
133.7190671072
 30
0.0
 10
111.4565526131486
 20
133.3093498663643
 30
0.0
 10
111.5214636176332
 20
132.893176139141
 30
0.0
 10
111.5595442387
 20
132.4753658788
 30
0.0
 11
111.3662900522
 21
133.7190671072
 31
0.0
 11
111.5595442387
 21
132.4753658788
 31
0.0
  0
SPLINE
  5
825
330
1B
100
AcDbEntity
  8
0
  6
Continuous
100
AcDbSpline
210
0.0
220
0.0
230
1.0
 70
     8
 71
     3
 72
    12
 73
     8
 74
     6
 42
0.0000000001
 43
0.0000000001
 44
0.0000000001
 12
0.1719557556735736
 22
-0.9851046736721588
 32
0.0
 13
-0.1098157870509903
 23
0.9939519570453954
 33
0.0
 40
0.0
 40
0.0
 40
0.0
 40
0.0
 40
0.3183343103979073
 40
0.6651994935502874
 40
1.032442287851403
 40
1.248091177718129
 40
1.272697779951921
 40
1.272697779951921
 40
1.272697779951921
 40
1.272697779951921
 10
111.5595442387
 20
132.4753658788
 30
0.0
 10
111.5777907110004
 20
132.370835006479
 30
0.0
 10
111.4968881986912
 20
132.1272632913728
 30
0.0
 10
111.1441325899975
 20
131.9736827321228
 30
0.0
 10
110.8151361105126
 20
132.1394897860792
 30
0.0
 10
110.7659961587384
 20
132.3461675835491
 30
0.0
 10
110.7563906639303
 20
132.4254922981178
 30
0.0
 10
110.7554899328
 20
132.4336448916
 30
0.0
 11
111.5595442387
 21
132.4753658788
 31
0.0
 11
111.4668357293
 21
132.1708303875
 31
0.0
 11
111.1490427065
 21
132.0318230138
 31
0.0
 11
110.8246514536
 21
132.2039787137
 31
0.0
 11
110.7584613212
 21
132.4092183543
 31
0.0
 11
110.7554899328
 21
132.4336448916
 31
0.0
  0
SPLINE
  5
826
330
1B
100
AcDbEntity
  8
0
  6
Continuous
100
AcDbSpline
210
0.0
220
0.0
230
1.0
 70
     8
 71
     3
 72
    11
 73
     7
 74
     5
 42
0.0000000001
 43
0.0000000001
 44
0.0000000001
 12
-0.6773326095092221
 22
0.735676923720887
 32
0.0
 13
0.6880035635282868
 23
-0.7257073077848801
 33
0.0
 40
0.0
 40
0.0
 40
0.0
 40
0.0
 40
0.0826489623467882
 40
0.165296623827244
 40
0.2479441638594722
 40
0.3305929542063275
 40
0.3305929542063275
 40
0.3305929542063275
 40
0.3305929542063275
 10
110.4557832764
 20
136.9583674484
 30
0.0
 10
110.4371229972868
 20
136.9786350931893
 30
0.0
 10
110.4196787872957
 20
137.0384893342368
 30
0.0
 10
110.4585406099229
 20
137.1196895233852
 30
0.0
 10
110.542189017308
 20
137.1529537425045
 30
0.0
 10
110.60072341664
 20
137.1314908608114
 30
0.0
 10
110.6196776374
 20
137.1114979171
 30
0.0
 11
110.4557832764
 21
136.9583674484
 31
0.0
 11
110.4305168637
 21
137.0370596295
 31
0.0
 11
110.4660050394
 21
137.1117002708
 31
0.0
 11
110.5428807553
 21
137.1420439716
 31
0.0
 11
110.6196776374
 21
137.1114979171
 31
0.0
  0
SPLINE
  5
827
330
1B
100
AcDbEntity
  8
0
  6
Continuous
100
AcDbSpline
210
0.0
220
0.0
230
1.0
 70
     8
 71
     3
 72
     9
 73
     5
 74
     3
 42
0.0000000001
 43
0.0000000001
 44
0.0000000001
 12
0.7307949480390985
 22
-0.6825970582419262
 32
0.0
 13
0.08239432197812462
 23
-0.996599807197335
 33
0.0
 40
0.0
 40
0.0
 40
0.0
 40
0.0
 40
1.876898580685653
 40
3.753797107441977
 40
3.753797107441977
 40
3.753797107441977
 40
3.753797107441977
 10
110.6196776374
 20
137.1114979171
 30
0.0
 10
111.0768869709823
 20
136.6844427671685
 30
0.0
 10
111.8339731242747
 20
135.6487178898231
 30
0.0
 10
112.1771089536554
 20
134.4125295120648
 30
0.0
 10
112.2286575475
 20
133.7890239421
 30
0.0
 11
110.6196776374
 21
137.1114979171
 31
0.0
 11
111.7304855512
 21
135.5986019984
 31
0.0
 11
112.2286575475
 21
133.7890239421
 31
0.0
  0
SPLINE
  5
828
330
1B
100
AcDbEntity
  8
0
  6
Continuous
100
AcDbSpline
210
0.0
220
0.0
230
1.0
 70
     8
 71
     3
 72
    19
 73
    15
 74
    13
 42
0.0000000001
 43
0.0000000001
 44
0.0000000001
 12
0.03678715713060111
 22
-0.9993231234541952
 32
0.0
 13
0.0214069357115194
 23
0.9997708452957822
 33
0.0
 40
0.0
 40
0.0
 40
0.0
 40
0.0
 40
0.032669868598416
 40
0.0653891625292352
 40
0.1311410682239372
 40
0.1969599645572924
 40
0.2625370657116989
 40
0.394541134224188
 40
0.5281108006760734
 40
0.6615440096137759
 40
0.7942824591668203
 40
0.9249498115822054
 40
1.055592859507848
 40
1.058855374965187
 40
1.058855374965187
 40
1.058855374965187
 40
1.058855374965187
 10
112.2286575475
 20
133.7890239421
 30
0.0
 10
112.2290581580299
 20
133.7781413570565
 30
0.0
 10
112.2305091122053
 20
133.7563707500636
 30
0.0
 10
112.228098849142
 20
133.7126162518927
 30
0.0
 10
112.2158787255349
 20
133.6587954983694
 30
0.0
 10
112.1891087231419
 20
133.5983646253541
 30
0.0
 10
112.1385610351826
 20
133.5258764056207
 30
0.0
 10
112.0473602194794
 20
133.4580713678332
 30
0.0
 10
111.9149733133029
 20
133.4239589715658
 30
0.0
 10
111.7800458817792
 20
133.4480467879916
 30
0.0
 10
111.6652959691782
 20
133.5208902462815
 30
0.0
 10
111.5906787127074
 20
133.6333826647022
 30
0.0
 10
111.573726280029
 20
133.72267654298
 30
0.0
 10
111.5744540267471
 20
133.7673010065545
 30
0.0
 10
111.5744773069
 20
133.7683882625
 30
0.0
 11
112.2286575475
 21
133.7890239421
 31
0.0
 11
112.2298458296
 21
133.756375691
 31
0.0
 11
112.22809712
 21
133.7237031611
 31
0.0
 11
112.2138659879
 21
133.6595097971
 31
0.0
 11
112.1872256724
 21
133.5993232479
 31
0.0
 11
112.1494912755
 21
133.5456905015
 31
0.0
 11
112.0440917873
 21
133.4662170972
 31
0.0
 11
111.9145441044
 21
133.4336862864
 31
0.0
 11
111.7830473486
 21
133.4563363296999
 31
0.0
 11
111.6713727822
 21
133.5280878956
 31
0.0
 11
111.5988602479
 21
133.6367888126
 31
0.0
 11
111.5744240899
 21
133.7651261811
 31
0.0
 11
111.5744773069
 21
133.7683882625
 31
0.0
  0
SPLINE
  5
829
330
1B
100
AcDbEntity
  8
0
  6
Continuous
100
AcDbSpline
210
0.0
220
0.0
230
1.0
 70
     8
 71
     3
 72
     9
 73
     5
 74
     3
 42
0.0000000001
 43
0.0000000001
 44
0.0000000001
 12
0.0159630815489657
 22
0.9998725818960439
 32
0.0
 13
-0.6369765209687215
 23
0.7708832023948791
 33
0.0
 40
0.0
 40
0.0
 40
0.0
 40
0.0
 40
1.714817782287576
 40
3.432846360208727
 40
3.432846360208727
 40
3.432846360208727
 40
3.432846360208727
 10
111.5744773069
 20
133.7683882625
 30
0.0
 10
111.5836018989334
 20
134.3399213569857
 30
0.0
 10
111.3923641802619
 20
135.4950304532167
 30
0.0
 10
110.8205645652297
 20
136.5169009910821
 30
0.0
 10
110.4557832764
 20
136.9583674484
 30
0.0
 11
111.5744773069
 21
133.7683882625
 31
0.0
 11
111.2975804634
 21
135.4607027027
 31
0.0
 11
110.4557832764
 21
136.9583674484
 31
0.0
  0
SPLINE
  5
82A
330
1B
100
AcDbEntity
  8
0
  6
Continuous
100
AcDbSpline
210
0.0
220
0.0
230
1.0
 70
     8
 71
     3
 72
    11
 73
     7
 74
     5
 42
0.0000000001
 43
0.0000000001
 44
0.0000000001
 12
0.4267685367307496
 22
-0.9043608881727996
 32
0.0
 13
0.4433293749377784
 23
-0.8963587815809464
 33
0.0
 40
0.0
 40
0.0
 40
0.0
 40
0.0
 40
0.2946035384134573
 40
0.5891279835542687
 40
0.8836526390736875
 40
1.178215221111941
 40
1.178215221111941
 40
1.178215221111941
 40
1.178215221111941
 10
108.8871829626
 20
139.0271467604
 30
0.0
 10
108.9290921362681
 20
138.9383374545139
 30
0.0
 10
109.0248347343052
 20
138.7657111856383
 30
0.0
 10
109.2138286188939
 20
138.537616159276
 30
0.0
 10
109.4286709692174
 20
138.3372922340712
 30
0.0
 10
109.553664880375
 20
138.1813821702784
 30
0.0
 10
109.5971942955
 20
138.0933709179
 30
0.0
 11
108.8871829626
 21
139.0271467604
 31
0.0
 11
109.032414353
 21
138.7708284269
 31
0.0
 11
109.2181379229
 21
138.542242766
 31
0.0
 11
109.4241029772
 21
138.3317120815
 31
0.0
 11
109.5971942955
 21
138.0933709179
 31
0.0
  0
SPLINE
  5
82B
330
1B
100
AcDbEntity
  8
0
  6
Continuous
100
AcDbSpline
210
0.0
220
0.0
230
1.0
 70
     8
 71
     3
 72
     8
 73
     4
 74
     2
 42
0.0000000001
 43
0.0000000001
 44
0.0000000001
 12
0.4433293751891951
 22
-0.8963587814565984
 32
0.0
 13
0.4188613268033076
 23
-0.9080502127683098
 33
0.0
 40
0.0
 40
0.0
 40
0.0
 40
0.0
 40
0.0179195155324463
 40
0.0179195155324463
 40
0.0179195155324463
 40
0.0179195155324463
 10
109.5971942955
 20
138.0933709179
 30
0.0
 10
109.5998423780416
 20
138.0880168128643
 30
0.0
 10
109.6024194971161
 20
138.082626974164
 30
0.0
 10
109.6049214278
 20
138.0772030342
 30
0.0
 11
109.5971942955
 21
138.0933709179
 31
0.0
 11
109.6049214278
 21
138.0772030342
 31
0.0
  0
SPLINE
  5
82C
330
1B
100
AcDbEntity
  8
0
  6
Continuous
100
AcDbSpline
210
0.0
220
0.0
230
1.0
 70
     8
 71
     3
 72
     8
 73
     4
 74
     2
 42
0.0000000001
 43
0.0000000001
 44
0.0000000001
 12
0.412919151605215
 22
-0.910767684010379
 32
0.0
 13
0.2500761036008294
 23
-0.9682261834963085
 33
0.0
 40
0.0
 40
0.0
 40
0.0
 40
0.0
 40
0.0736656009262548
 40
0.0736656009262548
 40
0.0736656009262548
 40
0.0736656009262548
 10
109.6049214278
 20
138.0772030342
 30
0.0
 10
109.615060740279
 20
138.0548389512844
 30
0.0
 10
109.6233662321836
 20
138.0315361379799
 30
0.0
 10
109.629506901
 20
138.0077611501
 30
0.0
 11
109.6049214278
 21
138.0772030342
 31
0.0
 11
109.629506901
 21
138.0077611501
 31
0.0
  0
SPLINE
  5
82D
330
1B
100
AcDbEntity
  8
0
  6
Continuous
100
AcDbSpline
210
0.0
220
0.0
230
1.0
 70
     8
 71
     3
 72
    17
 73
    13
 74
    11
 42
0.0000000001
 43
0.0000000001
 44
0.0000000001
 12
0.2500761041328369
 22
-0.9682261833589002
 32
0.0
 13
-0.8717487913107017
 23
0.4899531047440468
 33
0.0
 40
0.0
 40
0.0
 40
0.0
 40
0.0
 40
0.012959301225012
 40
0.1173676717076518
 40
0.1682346570560701
 40
0.2188923078383503
 40
0.2701440733751709
 40
0.3217566192667006
 40
0.4237613876095842
 40
0.5254728051606633
 40
0.6287991301645733
 40
0.7317190518477549
 40
0.7317190518477549
 40
0.7317190518477549
 40
0.7317190518477549
 10
109.629506901
 20
138.0077611501
 30
0.0
 10
109.6305871715209
 20
138.003578638512
 30
0.0
 10
109.6397699000758
 20
137.9655740316043
 30
0.0
 10
109.6451088728873
 20
137.9084942932251
 30
0.0
 10
109.6316354877766
 20
137.8406548608959
 30
0.0
 10
109.6098300806669
 20
137.7940964182616
 30
0.0
 10
109.5785107289809
 20
137.7531999681847
 30
0.0
 10
109.5277111229801
 20
137.707174278594
 30
0.0
 10
109.4509839998207
 20
137.6663327132671
 30
0.0
 10
109.3477189173838
 20
137.6518037407803
 30
0.0
 10
109.2453300648544
 20
137.6691731015199
 30
0.0
 10
109.181435091543
 20
137.6962312565438
 30
0.0
 10
109.1515283191
 20
137.7130399016
 30
0.0
 11
109.629506901
 21
138.0077611501
 31
0.0
 11
109.6325484739
 21
137.995163836
 31
0.0
 11
109.6399868111
 21
137.8910207663
 31
0.0
 11
109.6296516902
 21
137.841214788
 31
0.0
 11
109.6083718237
 21
137.7952434397
 31
0.0
 11
109.5774618789
 21
137.7543616738
 31
0.0
 11
109.5392953221
 21
137.7196173385
 31
0.0
 11
109.449066388
 21
137.6720388537
 31
0.0
 11
109.3484560327
 21
137.6571134101
 31
0.0
 11
109.2463688498
 21
137.673067611
 31
0.0
 11
109.1515283191
 21
137.7130399016
 31
0.0
  0
SPLINE
  5
82E
330
1B
100
AcDbEntity
  8
0
  6
Continuous
100
AcDbSpline
210
0.0
220
0.0
230
1.0
 70
     8
 71
     3
 72
     9
 73
     5
 74
     3
 42
0.0000000001
 43
0.0000000001
 44
0.0000000001
 12
-0.8627846939648449
 22
0.5055715299144017
 32
0.0
 13
-0.5409048345001633
 23
0.841083800827451
 33
0.0
 40
0.0
 40
0.0
 40
0.0
 40
0.0
 40
0.1425957268958889
 40
0.5703169868449957
 40
0.5703169868449957
 40
0.5703169868449957
 40
0.5703169868449957
 10
109.1515283191
 20
137.7130399016
 30
0.0
 10
109.1105185155698
 20
137.7370706815354
 30
0.0
 10
108.9544145829857
 20
137.8467607200567
 30
0.0
 10
108.8299991380417
 20
137.9964873935624
 30
0.0
 10
108.7528803056
 20
138.1164038679
 30
0.0
 11
109.1515283191
 21
137.7130399016
 31
0.0
 11
109.0344385159
 21
137.7944249083
 31
0.0
 11
108.7528803056
 21
138.1164038679
 31
0.0
  0
SPLINE
  5
82F
330
1B
100
AcDbEntity
  8
0
  6
Continuous
100
AcDbSpline
210
0.0
220
0.0
230
1.0
 70
     8
 71
     3
 72
    14
 73
    10
 74
     8
 42
0.0000000001
 43
0.0000000001
 44
0.0000000001
 12
-0.6511120651693778
 22
0.7589816062269678
 32
0.0
 13
-0.2202597477172872
 23
-0.9754412558096552
 33
0.0
 40
0.0
 40
0.0
 40
0.0
 40
0.0
 40
0.3476066348834463
 40
0.5222604517157059
 40
0.6990524064234003
 40
0.8730015523706052
 40
1.048998825171163
 40
1.232469161582812
 40
1.37803070108883
 40
1.37803070108883
 40
1.37803070108883
 40
1.37803070108883
 10
108.7528803056
 20
138.1164038679
 30
0.0
 10
108.6774366809648
 20
138.2043462152597
 30
0.0
 10
108.5323255996476
 20
138.3123338487316
 30
0.0
 10
108.3106282294222
 20
138.3885482668991
 30
0.0
 10
108.1336844095861
 20
138.401828234585
 30
0.0
 10
107.9587128548484
 20
138.3554771462796
 30
0.0
 10
107.8225750978152
 20
138.2331608720189
 30
0.0
 10
107.7365746651742
 20
138.0866076950609
 30
0.0
 10
107.7018310417897
 20
137.9817991445978
 30
0.0
 10
107.6911439258
 20
137.9344702343
 30
0.0
 11
108.7528803056
 21
138.1164038679
 31
0.0
 11
108.47518066
 21
138.3254810771999
 31
0.0
 11
108.3096014204
 21
138.3810460945
 31
0.0
 11
108.1331372097
 21
138.3918060941
 31
0.0
 11
107.9660476631
 21
138.3434388656
 31
0.0
 11
107.8318007393
 21
138.2296284817
 31
0.0
 11
107.7367377802
 21
138.0727068511
 31
0.0
 11
107.6911439258
 21
137.9344702343
 31
0.0
  0
SPLINE
  5
830
330
1B
100
AcDbEntity
  8
0
  6
Continuous
100
AcDbSpline
210
0.0
220
0.0
230
1.0
 70
     8
 71
     3
 72
    10
 73
     6
 74
     4
 42
0.0000000001
 43
0.0000000001
 44
0.0000000001
 12
-0.2202597477209626
 22
-0.9754412558088251
 32
0.0
 13
0.1837409249198572
 23
-0.9829747059358117
 33
0.0
 40
0.0
 40
0.0
 40
0.0
 40
0.0
 40
0.0351924875299602
 40
0.3192030087635494
 40
0.6043915633211158
 40
0.6043915633211158
 40
0.6043915633211158
 40
0.6043915633211158
 10
107.6913103448
 20
137.934432656
 30
0.0
 10
107.688726515325
 20
137.9229899212563
 30
0.0
 10
107.6673135277791
 20
137.8187446698362
 30
0.0
 10
107.6601180176072
 20
137.6148858752943
 30
0.0
 10
107.6899478241363
 20
137.4271680733175
 30
0.0
 10
107.7074147604
 20
137.3337236948
 30
0.0
 11
107.6913103448
 21
137.934432656
 31
0.0
 11
107.6842189923
 21
137.8999620323
 31
0.0
 11
107.6692457851
 21
137.616346484
 31
0.0
 11
107.7074147604
 21
137.3337236948
 31
0.0
  0
SPLINE
  5
831
330
1B
100
AcDbEntity
  8
0
  6
Continuous
100
AcDbSpline
210
0.0
220
0.0
230
1.0
 70
     8
 71
     3
 72
     8
 73
     4
 74
     2
 42
0.0000000001
 43
0.0000000001
 44
0.0000000001
 12
0.1958708834868254
 22
-0.9806296941262234
 32
0.0
 13
0.0466284419933457
 23
-0.9989123026558804
 33
0.0
 40
0.0
 40
0.0
 40
0.0
 40
0.0
 40
0.8517753885652347
 40
0.8517753885652347
 40
0.8517753885652347
 40
0.8517753885652347
 10
107.7074147604
 20
137.3337236948
 30
0.0
 10
107.7630274263635
 20
137.0552982818823
 30
0.0
 10
107.8166825488677
 20
136.7744204290125
 30
0.0
 10
107.8299215353
 20
136.4908041241
 30
0.0
 11
107.7074147604
 21
137.3337236948
 31
0.0
 11
107.8299215353
 21
136.4908041241
 31
0.0
  0
SPLINE
  5
832
330
1B
100
AcDbEntity
  8
0
  6
Continuous
100
AcDbSpline
210
0.0
220
0.0
230
1.0
 70
     8
 71
     3
 72
     9
 73
     5
 74
     3
 42
0.0000000001
 43
0.0000000001
 44
0.0000000001
 12
0.1921399579244556
 22
-0.9813675338876809
 32
0.0
 13
-0.0478962997937078
 23
-0.9988523136410464
 33
0.0
 40
0.0
 40
0.0
 40
0.0
 40
0.0
 40
0.2827377410243396
 40
0.5654841985780861
 40
0.5654841985780861
 40
0.5654841985780861
 40
0.5654841985780861
 10
107.8299215353
 20
136.4908041241
 30
0.0
 10
107.848029941188
 20
136.398314244218
 30
0.0
 10
107.8922851057073
 20
136.2163286837145
 30
0.0
 10
107.9380666686989
 20
136.0294823298005
 30
0.0
 10
107.933552499
 20
135.9353416787
 30
0.0
 11
107.8299215353
 21
136.4908041241
 31
0.0
 11
107.8926660114
 21
136.215116328
 31
0.0
 11
107.933552499
 21
135.9353416787
 31
0.0
  0
SPLINE
  5
833
330
1B
100
AcDbEntity
  8
0
  6
Continuous
100
AcDbSpline
210
0.0
220
0.0
230
1.0
 70
     8
 71
     3
 72
    11
 73
     7
 74
     5
 42
0.0000000001
 43
0.0000000001
 44
0.0000000001
 12
-0.0102761371944176
 22
-0.9999471991082136
 32
0.0
 13
-0.7745534893744741
 23
-0.6325084126696073
 33
0.0
 40
0.0
 40
0.0
 40
0.0
 40
0.0
 40
0.1415759635012295
 40
0.283112685833115
 40
0.4271953337262762
 40
0.5711459557929417
 40
0.5711459557929417
 40
0.5711459557929417
 40
0.5711459557929417
 10
107.933552499
 20
135.9353416787
 30
0.0
 10
107.9330675476585
 20
135.8881521826453
 30
0.0
 10
107.9119366494371
 20
135.7935219966182
 30
0.0
 10
107.8387404009594
 20
135.6697271047932
 30
0.0
 10
107.7409953286906
 20
135.564189510772
 30
0.0
 10
107.6678893461731
 20
135.5018363104554
 30
0.0
 10
107.6307235273
 20
135.4714863173
 30
0.0
 11
107.933552499
 21
135.9353416787
 31
0.0
 11
107.9050873163
 21
135.7966568316
 31
0.0
 11
107.8352348745
 21
135.6735581714
 31
0.0
 11
107.7390719498
 21
135.5662618465
 31
0.0
 11
107.6307235273
 21
135.4714863173
 31
0.0
  0
SPLINE
  5
834
330
1B
100
AcDbEntity
  8
0
  6
Continuous
100
AcDbSpline
210
0.0
220
0.0
230
1.0
 70
     8
 71
     3
 72
    14
 73
    10
 74
     8
 42
0.0000000001
 43
0.0000000001
 44
0.0000000001
 12
-0.7748696790030867
 22
-0.6321210173389692
 32
0.0
 13
-0.8173417174979881
 23
-0.5761532060463077
 33
0.0
 40
0.0
 40
0.0
 40
0.0
 40
0.0
 40
0.3545970612918846
 40
0.5318747381538798
 40
0.7092315255378145
 40
0.8869329022367332
 40
1.06530200829231
 40
1.242960497923809
 40
1.419472854814976
 40
1.419472854814976
 40
1.419472854814976
 40
1.419472854814976
 10
107.6307235273
 20
135.4714863173
 30
0.0
 10
107.5391346902805
 20
135.3967702322569
 30
0.0
 10
107.4007615231255
 20
135.2856878172859
 30
0.0
 10
107.2060820773431
 20
135.1513381045217
 30
0.0
 10
107.0537298054837
 20
135.0600592308639
 30
0.0
 10
106.8939696184746
 20
134.9814611829008
 30
0.0
 10
106.7285723305734
 20
134.9157841959379
 30
0.0
 10
106.5649817941407
 20
134.8468463527177
 30
0.0
 10
106.4614620052137
 20
134.7887888701766
 30
0.0
 10
106.4133717009
 20
134.7548894834
 30
0.0
 11
107.6307235273
 21
135.4714863173
 31
0.0
 11
107.3512416378
 21
135.2532457406
 31
0.0
 11
107.2050667477
 21
135.1529448123
 31
0.0
 11
107.0526499864
 21
135.0622554474
 31
0.0
 11
106.8932479587
 21
134.9837139116
 31
0.0
 11
106.7285934684
 21
134.9151250144
 31
0.0
 11
106.5659576878
 21
134.843625771
 31
0.0
 11
106.4133717009
 21
134.7548894834
 31
0.0
  0
SPLINE
  5
835
330
1B
100
AcDbEntity
  8
0
  6
Continuous
100
AcDbSpline
210
0.0
220
0.0
230
1.0
 70
     8
 71
     3
 72
     9
 73
     5
 74
     3
 42
0.0000000001
 43
0.0000000001
 44
0.0000000001
 12
-0.8312952047904136
 22
-0.5558311636571527
 32
0.0
 13
-0.1833657814133698
 23
-0.9830447549357376
 33
0.0
 40
0.0
 40
0.0
 40
0.0
 40
0.0
 40
0.273920060182102
 40
0.548164753082186
 40
0.548164753082186
 40
0.548164753082186
 40
0.548164753082186
 10
106.4133717009
 20
134.7548894834
 30
0.0
 10
106.3374688900583
 20
134.7041383814667
 30
0.0
 10
106.2069740248387
 20
134.5656302975417
 30
0.0
 10
106.1489888765374
 20
134.3877185894415
 30
0.0
 10
106.1322265124
 20
134.2978536538
 30
0.0
 11
106.4133717009
 21
134.7548894834
 31
0.0
 11
106.225157271
 21
134.5558730827
 31
0.0
 11
106.1322265124
 21
134.2978536538
 31
0.0
  0
SPLINE
  5
836
330
1B
100
AcDbEntity
  8
0
  6
Continuous
100
AcDbSpline
210
0.0
220
0.0
230
1.0
 70
     8
 71
     3
 72
    22
 73
    18
 74
    16
 42
0.0000000001
 43
0.0000000001
 44
0.0000000001
 12
-0.2750992418379695
 22
-0.9614158346626991
 32
0.0
 13
-0.9007646780301996
 23
-0.4343074887831789
 33
0.0
 40
0.0
 40
0.0
 40
0.0
 40
0.0
 40
0.1762329192626844
 40
0.2650575639165029
 40
0.3532537587523004
 40
0.4420043531498553
 40
0.5323637154762194
 40
0.5763244277423907
 40
0.6191887728533215
 40
0.7063884484218171
 40
0.7991883935821087
 40
0.8934200242827107
 40
0.9841358732285411
 40
1.072112112655005
 40
1.159305314245463
 40
1.247588662098885
 40
1.42505062997783
 40
1.42505062997783
 40
1.42505062997783
 40
1.42505062997783
 10
106.1322265124
 20
134.2978536538
 30
0.0
 10
106.1160659982413
 20
134.2413759474107
 30
0.0
 10
106.1187138875695
 20
134.1470743647213
 30
0.0
 10
106.1651330486864
 20
134.0384322724827
 30
0.0
 10
106.21261283942
 20
133.9634137058807
 30
0.0
 10
106.2615934364614
 20
133.8890472745164
 30
0.0
 10
106.2926352005859
 20
133.8206427957299
 30
0.0
 10
106.3045053516293
 20
133.7624316542411
 30
0.0
 10
106.3032049828648
 20
133.7039043910297
 30
0.0
 10
106.2768167571439
 20
133.6325712483174
 30
0.0
 10
106.2235724885694
 20
133.5577417870226
 30
0.0
 10
106.1595362507555
 20
133.4906046530516
 30
0.0
 10
106.0904973382637
 20
133.4310995372483
 30
0.0
 10
106.0164120789939
 20
133.3819633929497
 30
0.0
 10
105.9366484645213
 20
133.3443443021789
 30
0.0
 10
105.8243456075962
 20
133.30931915656
 30
0.0
 10
105.7382688090197
 20
133.2857452524413
 30
0.0
 10
105.6849849849
 20
133.2600542319
 30
0.0
 11
106.1322265124
 21
134.2978536538
 31
0.0
 11
106.1338138176
 21
134.121627883
 31
0.0
 11
106.1673213117
 21
134.0393657086
 31
0.0
 11
106.2127155225
 21
133.963748684
 31
0.0
 11
106.2593601035
 21
133.8882440413
 31
0.0
 11
106.2947053355
 21
133.805084382
 31
0.0
 11
106.302921354
 21
133.7618982585
 31
0.0
 11
106.3019691768
 21
133.7190444904
 31
0.0
 11
106.27427979
 21
133.6363578453
 31
0.0
 11
106.222174553
 21
133.5595667384
 31
0.0
 11
106.157649979
 21
133.4908922921
 31
0.0
 11
106.0886218739
 21
133.432032408
 31
0.0
 11
106.0151278822
 21
133.3836748658
 31
0.0
 11
105.9363099443
 21
133.3463869714
 31
0.0
 11
105.8525541308
 21
133.3184779547
 31
0.0
 11
105.6849849849
 21
133.2600542319
 31
0.0
  0
SPLINE
  5
837
330
1B
100
AcDbEntity
  8
0
  6
Continuous
100
AcDbSpline
210
0.0
220
0.0
230
1.0
 70
     8
 71
     3
 72
     9
 73
     5
 74
     3
 42
0.0000000001
 43
0.0000000001
 44
0.0000000001
 12
-0.912979194300404
 22
-0.4080061160994837
 32
0.0
 13
-0.5265045773665565
 23
-0.8501722943098439
 33
0.0
 40
0.0
 40
0.0
 40
0.0
 40
0.0
 40
0.2701994877947215
 40
0.5264282761355053
 40
0.5264282761355053
 40
0.5264282761355053
 40
0.5264282761355053
 10
105.6849849849
 20
133.2600542319
 30
0.0
 10
105.6027561480109
 20
133.2233065507043
 30
0.0
 10
105.4807513239145
 20
133.0814034951294
 30
0.0
 10
105.3995225066048
 20
132.928870459784
 30
0.0
 10
105.3545539633
 20
132.8562575875
 30
0.0
 11
105.6849849849
 21
133.2600542319
 31
0.0
 11
105.4882557313
 21
133.0748371593
 31
0.0
 11
105.3545539633
 21
132.8562575875
 31
0.0
  0
SPLINE
  5
838
330
1B
100
AcDbEntity
  8
0
  6
Continuous
100
AcDbSpline
210
0.0
220
0.0
230
1.0
 70
     8
 71
     3
 72
    10
 73
     6
 74
     4
 42
0.0000000001
 43
0.0000000001
 44
0.0000000001
 12
-0.5265045773599939
 22
-0.8501722943139082
 32
0.0
 13
-0.3802310528533759
 23
-0.9248915322598716
 33
0.0
 40
0.0
 40
0.0
 40
0.0
 40
0.0
 40
0.0138581530860031
 40
0.1012392362371287
 40
0.1200388125425662
 40
0.1200388125425662
 40
0.1200388125425662
 40
0.1200388125425662
 10
105.3544395479
 20
132.856328444
 30
0.0
 10
105.3520074208888
 20
132.8524011713986
 30
0.0
 10
105.3344086002431
 20
132.8236125777418
 30
0.0
 10
105.3151476615423
 20
132.7883948117936
 30
0.0
 10
105.3010586866639
 20
132.7559187601117
 30
0.0
 10
105.2986759591
 20
132.7501229038
 30
0.0
 11
105.3544395479
 21
132.856328444
 31
0.0
 11
105.3472147626
 21
132.8445025874
 31
0.0
 11
105.3061400934
 21
132.7673772009
 31
0.0
 11
105.2986759591
 21
132.7501229038
 31
0.0
  0
SPLINE
  5
839
330
1B
100
AcDbEntity
  8
0
  6
Continuous
100
AcDbSpline
210
0.0
220
0.0
230
1.0
 70
     8
 71
     3
 72
    20
 73
    16
 74
    14
 42
0.0000000001
 43
0.0000000001
 44
0.0000000001
 12
-0.3802310529780303
 22
-0.9248915322086252
 32
0.0
 13
0.9554593947950364
 23
0.2951225929980671
 33
0.0
 40
0.0
 40
0.0
 40
0.0
 40
0.0
 40
0.0693581664028178
 40
0.1525147131089779
 40
0.2353912352862987
 40
0.3203445086002661
 40
0.4040018585033531
 40
0.4881481098965317
 40
0.5724648559447474
 40
0.6561944515377712
 40
0.7399376397108208
 40
0.9075828618610218
 40
0.9913324193955979
 40
1.075171582194033
 40
1.242961824993681
 40
1.242961824993681
 40
1.242961824993681
 40
1.242961824993681
 10
105.2986759591
 20
132.7501229038
 30
0.0
 10
105.289885249552
 20
132.7287399768682
 30
0.0
 10
105.2739123902576
 20
132.6803980877194
 30
0.0
 10
105.2680649987988
 20
132.5997046928536
 30
0.0
 10
105.3047661556975
 20
132.521108210236
 30
0.0
 10
105.3660305365052
 20
132.4618818351208
 30
0.0
 10
105.4435510361312
 20
132.4249205816316
 30
0.0
 10
105.5281954882481
 20
132.4153185764735
 30
0.0
 10
105.6121493409033
 20
132.4240142103094
 30
0.0
 10
105.6940176915967
 20
132.4426180741663
 30
0.0
 10
105.8039871859032
 20
132.4626741428741
 30
0.0
 10
105.9153949708359
 20
132.472190208681
 30
0.0
 10
106.0262984327706
 20
132.4861977347064
 30
0.0
 10
106.1360342506654
 20
132.5079472842748
 30
0.0
 10
106.2169902091207
 20
132.5303045338884
 30
0.0
 10
106.2704291304
 20
132.5468107644
 30
0.0
 11
105.2986759591
 21
132.7501229038
 31
0.0
 11
105.277877313
 21
132.6839566619
 31
0.0
 11
105.2751827868
 21
132.6008437821
 31
0.0
 11
105.3084478305
 21
132.524936241
 31
0.0
 11
105.3690467452
 21
132.4653977645
 31
0.0
 11
105.4446118588
 21
132.4295025587
 31
0.0
 11
105.52801911
 21
132.4183750221
 31
0.0
 11
105.6120169394
 21
132.4257015711
 31
0.0
 11
105.69413909
 21
132.4420293866
 31
0.0
 11
105.7765737806
 21
132.4567753471
 31
0.0
 11
105.943105049
 21
132.4760693139
 31
0.0
 11
106.0261170903
 21
132.4871593719
 31
0.0
 11
106.1084126327
 21
132.5031733945
 31
0.0
 11
106.2704291304
 21
132.5468107644
 31
0.0
  0
SPLINE
  5
83A
330
1B
100
AcDbEntity
  8
0
  6
Continuous
100
AcDbSpline
210
0.0
220
0.0
230
1.0
 70
     8
 71
     3
 72
     8
 73
     4
 74
     2
 42
0.0000000001
 43
0.0000000001
 44
0.0000000001
 12
0.9611456941487375
 22
0.276041581323071
 32
0.0
 13
0.9934901101614833
 23
0.1139183962813905
 33
0.0
 40
0.0
 40
0.0
 40
0.0
 40
0.0
 40
0.2838470356795241
 40
0.2838470356795241
 40
0.2838470356795241
 40
0.2838470356795241
 10
106.2704291304
 20
132.5468107644
 30
0.0
 10
106.3613685824468
 20
132.5729286259276
 30
0.0
 10
106.4547786058846
 20
132.5916277420354
 30
0.0
 10
106.5487783468
 20
132.6024062084
 30
0.0
 11
106.2704291304
 21
132.5468107644
 31
0.0
 11
106.5487783468
 21
132.6024062084
 31
0.0
  0
SPLINE
  5
83B
330
1B
100
AcDbEntity
  8
0
  6
Continuous
100
AcDbSpline
210
0.0
220
0.0
230
1.0
 70
     8
 71
     3
 72
    14
 73
    10
 74
     8
 42
0.0000000001
 43
0.0000000001
 44
0.0000000001
 12
0.9795453762128474
 22
0.2012233980928449
 32
0.0
 13
0.920321876381155
 23
-0.3911619151377985
 33
0.0
 40
0.0
 40
0.0
 40
0.0
 40
0.0
 40
0.3144510767642828
 40
0.4718072956790911
 40
0.6286259119876311
 40
0.7855900832552473
 40
0.9449593548763762
 40
1.104148807814858
 40
1.260631758133501
 40
1.260631758133501
 40
1.260631758133501
 40
1.260631758133501
 10
106.5487783468
 20
132.6024062084
 30
0.0
 10
106.6514513795632
 20
132.6234978464668
 30
0.0
 10
106.8075555533573
 20
132.6459853602012
 30
0.0
 10
107.0166530039737
 20
132.6596242143693
 30
0.0
 10
107.1734488558901
 20
132.6685358812648
 30
0.0
 10
107.3308975876628
 20
132.6776380729613
 30
0.0
 10
107.4893162451157
 20
132.6840382020536
 30
0.0
 10
107.6478680104403
 20
132.6776222473224
 30
0.0
 10
107.751437946247
 20
132.6519550821777
 30
0.0
 10
107.7994428404
 20
132.631551692
 30
0.0
 11
106.5487783468
 21
132.6024062084
 31
0.0
 11
106.8599018881
 21
132.6480310013
 31
0.0
 11
107.0168456543
 21
132.6594166889
 31
0.0
 11
107.1733975879
 21
132.6685583795
 31
0.0
 11
107.3301268976
 21
132.6771417671
 31
0.0
 11
107.4894253986
 21
132.681890695
 31
0.0
 11
107.6483161067
 21
132.6721426282
 31
0.0
 11
107.7994428404
 21
132.631551692
 31
0.0
  0
SPLINE
  5
83C
330
1B
100
AcDbEntity
  8
0
  6
Continuous
100
AcDbSpline
210
0.0
220
0.0
230
1.0
 70
     8
 71
     3
 72
     8
 73
     4
 74
     2
 42
0.0000000001
 43
0.0000000001
 44
0.0000000001
 12
0.9203218764543789
 22
-0.3911619149655179
 32
0.0
 13
0.9046675970121992
 23
-0.4261179870835929
 33
0.0
 40
0.0
 40
0.0
 40
0.0
 40
0.0
 40
0.0182367773378327
 40
0.0182367773378327
 40
0.0182367773378327
 40
0.0182367773378327
 10
107.7994428404
 20
132.631551692
 30
0.0
 10
107.80503740878
 20
132.6291738477512
 30
0.0
 10
107.8105885471229
 20
132.6266908417167
 30
0.0
 10
107.8160879543
 20
132.6241005021
 30
0.0
 11
107.7994428404
 21
132.631551692
 31
0.0
 11
107.8160879543
 21
132.6241005021
 31
0.0
  0
SPLINE
  5
83D
330
1B
100
AcDbEntity
  8
0
  6
Continuous
100
AcDbSpline
210
0.0
220
0.0
230
1.0
 70
     8
 71
     3
 72
     8
 73
     4
 74
     2
 42
0.0000000001
 43
0.0000000001
 44
0.0000000001
 12
0.9060386323520984
 22
-0.4231949866025579
 32
0.0
 13
0.847131605416262
 23
-0.5313831415324227
 33
0.0
 40
0.0
 40
0.0
 40
0.0
 40
0.0
 40
0.0734795153649555
 40
0.0734795153649555
 40
0.0734795153649555
 40
0.0734795153649555
 10
107.8160879543
 20
132.6241005021
 30
0.0
 10
107.8382797141691
 20
132.6137351145932
 30
0.0
 10
107.8598420504612
 20
132.601922046571
 30
0.0
 10
107.8805909904
 20
132.588906788
 30
0.0
 11
107.8160879543
 21
132.6241005021
 31
0.0
 11
107.8805909904
 21
132.588906788
 31
0.0
  0
SPLINE
  5
83E
330
1B
100
AcDbEntity
  8
0
  6
Continuous
100
AcDbSpline
210
0.0
220
0.0
230
1.0
 70
     8
 71
     3
 72
    14
 73
    10
 74
     8
 42
0.0000000001
 43
0.0000000001
 44
0.0000000001
 12
0.8471316050164803
 22
-0.5313831421697551
 32
0.0
 13
-0.1533472979766927
 23
-0.9881723565265563
 33
0.0
 40
0.0
 40
0.0
 40
0.0
 40
0.0
 40
0.1924617360617975
 40
0.4751136996569824
 40
0.757778480385473
 40
1.040415098430373
 40
1.322302553986284
 40
1.606386766345157
 40
2.171693720002517
 40
2.171693720002517
 40
2.171693720002517
 40
2.171693720002517
 10
107.8805909904
 20
132.588906788
 30
0.0
 10
107.9349377968581
 20
132.554816480648
 30
0.0
 10
108.0568570312465
 20
132.4496358871947
 30
0.0
 10
108.1849528747334
 20
132.2259667596299
 30
0.0
 10
108.2550838424231
 20
131.9503116600943
 30
0.0
 10
108.2734849103999
 20
131.6662541112266
 30
0.0
 10
108.2261787813235
 20
131.3857810564069
 30
0.0
 10
108.1296126579515
 20
131.0215111248525
 30
0.0
 10
108.0746234751569
 20
130.7432023642188
 30
0.0
 10
108.0457273772
 20
130.5569954627
 30
0.0
 11
107.8805909904
 21
132.588906788
 31
0.0
 11
108.0268860453
 21
132.463849694
 31
0.0
 11
108.1727495895
 21
132.2217423645
 31
0.0
 11
108.2464664433
 21
131.9488592325
 31
0.0
 11
108.262539334
 21
131.6666799986
 31
0.0
 11
108.2221434471
 21
131.3877020247
 31
0.0
 11
108.1555771195
 21
131.1115267837
 31
0.0
 11
108.0457273772
 21
130.5569954627
 31
0.0
  0
SPLINE
  5
83F
330
1B
100
AcDbEntity
  8
0
  6
Continuous
100
AcDbSpline
210
0.0
220
0.0
230
1.0
 70
     8
 71
     3
 72
    22
 73
    18
 74
    16
 42
0.0000000001
 43
0.0000000001
 44
0.0000000001
 12
-0.2211404622947483
 22
-0.9752419678910794
 32
0.0
 13
0.9843143193489614
 23
-0.1764236966073177
 33
0.0
 40
0.0
 40
0.0
 40
0.0
 40
0.0
 40
0.2115055280563238
 40
0.3178775949425672
 40
0.4247928417633259
 40
0.5308056986549078
 40
0.6364637130696794
 40
0.7431178350915866
 40
0.8499276294197782
 40
0.9559004353851388
 40
1.061890871558561
 40
1.168164488801755
 40
1.274376010104097
 40
1.380246286384329
 40
1.485972922181169
 40
1.697830686171677
 40
1.70148746196319
 40
1.70148746196319
 40
1.70148746196319
 40
1.70148746196319
 10
107.6848789857
 20
128.8931641012
 30
0.0
 10
107.6692881756159
 20
128.8244077453995
 30
0.0
 10
107.6474568652586
 20
128.7205163295609
 30
0.0
 10
107.6330258248991
 20
128.5794883803461
 30
0.0
 10
107.632607715567
 20
128.4728352112607
 30
0.0
 10
107.6476327226379
 20
128.3670904575672
 30
0.0
 10
107.6847209564369
 20
128.2667942400978
 30
0.0
 10
107.740605633975
 20
128.1756690006839
 30
0.0
 10
107.8094773082305
 20
128.0940313871316
 30
0.0
 10
107.8878717065558
 20
128.0219691666255
 30
0.0
 10
107.9725491226927
 20
127.9579108497296
 30
0.0
 10
108.06083688585
 20
127.8989006413297
 30
0.0
 10
108.1516624176261
 20
127.8439228300659
 30
0.0
 10
108.2460667438745
 20
127.7955672113438
 30
0.0
 10
108.3775205182807
 20
127.7435157402893
 30
0.0
 10
108.4823353781976
 20
127.719001439697
 30
0.0
 10
108.5530333769086
 20
127.7062667416009
 30
0.0
 10
108.5542331825
 20
127.7060516943
 30
0.0
 11
107.6848789857
 21
128.8931641012
 31
0.0
 11
107.6451206692
 21
128.6854290183
 31
0.0
 11
107.6347770421
 21
128.5795610534
 31
0.0
 11
107.6352086586
 21
128.4726466778
 31
0.0
 11
107.6513315663
 21
128.3678670153
 31
0.0
 11
107.6876866567
 21
128.2686605467
 31
0.0
 11
107.7427356566
 21
128.177311166
 31
0.0
 11
107.8112834757
 21
128.0953994534
 31
0.0
 11
107.8889353584
 21
128.0232855108
 31
0.0
 11
107.9730631878
 21
127.9588147354
 31
0.0
 11
108.0612833652
 21
127.8995586638
 31
0.0
 11
108.1523848701
 21
127.844956438
 31
0.0
 11
108.2468183689
 21
127.7970938252
 31
0.0
 11
108.3451318947
 21
127.7582020245
 31
0.0
 11
108.5506343281
 21
127.706699966
 31
0.0
 11
108.5542331825
 21
127.7060516943
 31
0.0
  0
SPLINE
  5
840
330
1B
100
AcDbEntity
  8
0
  6
Continuous
100
AcDbSpline
210
0.0
220
0.0
230
1.0
 70
     8
 71
     3
 72
    10
 73
     6
 74
     4
 42
0.0000000001
 43
0.0000000001
 44
0.0000000001
 12
0.9838592944761414
 22
-0.1789438142907138
 32
0.0
 13
0.8055988807202149
 23
-0.592461343365402
 33
0.0
 40
0.0
 40
0.0
 40
0.0
 40
0.0
 40
0.067557881768686
 40
0.1391419820467522
 40
0.2820697913378895
 40
0.2820697913378895
 40
0.2820697913378895
 40
0.2820697913378895
 10
108.5542331825
 20
127.7060516943
 30
0.0
 10
108.5763889991311
 20
127.7020220059503
 30
0.0
 10
108.621831633285
 20
127.6922597915997
 30
0.0
 10
108.7107624802267
 20
127.6612048396153
 30
0.0
 10
108.7738628842704
 20
127.6257274586323
 30
0.0
 10
108.812243712
 20
127.597501058
 30
0.0
 11
108.5542331825
 21
127.7060516943
 31
0.0
 11
108.6201456446
 21
127.6912322905
 31
0.0
 11
108.6877647116
 21
127.6677387767
 31
0.0
 11
108.812243712
 21
127.597501058
 31
0.0
  0
SPLINE
  5
841
330
1B
100
AcDbEntity
  8
0
  6
Continuous
100
AcDbSpline
210
0.0
220
0.0
230
1.0
 70
     8
 71
     3
 72
    13
 73
     9
 74
     7
 42
0.0000000001
 43
0.0000000001
 44
0.0000000001
 12
0.8107051085940582
 22
-0.5854547180606681
 32
0.0
 13
-0.313173182288343
 23
-0.9496960344738692
 33
0.0
 40
0.0
 40
0.0
 40
0.0
 40
0.0
 40
0.0581219004084374
 40
0.1173560144309378
 40
0.1490530028940033
 40
0.1816652085085615
 40
0.2122447567491302
 40
0.2407676197928833
 40
0.2407676197928833
 40
0.2407676197928833
 40
0.2407676197928833
 10
108.812243712
 20
127.597501058
 30
0.0
 10
108.8279502858608
 20
127.5861584777278
 30
0.0
 10
108.8588430170736
 20
127.5620356953889
 30
0.0
 10
108.8940376557171
 20
127.5267601349649
 30
0.0
 10
108.9202750144958
 20
127.4949917222242
 30
0.0
 10
108.9385703048037
 20
127.469129042449
 30
0.0
 10
108.9513833159518
 20
127.4409328170402
 30
0.0
 10
108.9512398837291
 20
127.4201242720748
 30
0.0
 10
108.9482623518
 20
127.4110949221
 30
0.0
 11
108.812243712
 21
127.597501058
 31
0.0
 11
108.8577696382
 21
127.5613687269
 31
0.0
 11
108.8996234286
 21
127.5194528529
 31
0.0
 11
108.9197749683
 21
127.4949862527
 31
0.0
 11
108.938068468
 21
127.4679880338
 31
0.0
 11
108.9494218551
 21
127.4395942075
 31
0.0
 11
108.9482623518
 21
127.4110949221
 31
0.0
  0
SPLINE
  5
842
330
1B
100
AcDbEntity
  8
0
  6
Continuous
100
AcDbSpline
210
0.0
220
0.0
230
1.0
 70
     8
 71
     3
 72
    13
 73
     9
 74
     7
 42
0.0000000001
 43
0.0000000001
 44
0.0000000001
 12
-0.2094354823025655
 22
-0.9778224679115796
 32
0.0
 13
-0.9918080753005079
 23
0.1277370023474094
 33
0.0
 40
0.0
 40
0.0
 40
0.0
 40
0.0
 40
0.0318727658463479
 40
0.0684070987338931
 40
0.1085067760769753
 40
0.1461815886533464
 40
0.2141711806603533
 40
0.2805865680702403
 40
0.2805865680702403
 40
0.2805865680702403
 40
0.2805865680702403
 10
108.9482623518
 20
127.4110949221
 30
0.0
 10
108.9460372557709
 20
127.4007062865803
 30
0.0
 10
108.9305361305569
 20
127.3807744162281
 30
0.0
 10
108.895594875338
 20
127.3690214585055
 30
0.0
 10
108.8579889232801
 20
127.3631381119834
 30
0.0
 10
108.809478189086
 20
127.3593681982511
 30
0.0
 10
108.7519886231345
 20
127.3611044608503
 30
0.0
 10
108.7075420844525
 20
127.3668914349675
 30
0.0
 10
108.6855849786
 20
127.3697193358
 30
0.0
 11
108.9482623518
 21
127.4110949221
 31
0.0
 11
108.930175451
 21
127.3848511186
 31
0.0
 11
108.8966216476
 21
127.3703977537
 31
0.0
 11
108.8571122509
 21
127.3635427048
 31
0.0
 11
108.8195497981
 21
127.36063519
 31
0.0
 11
108.7515794842
 21
127.3622541556
 31
0.0
 11
108.6855849786
 21
127.3697193358
 31
0.0
  0
SPLINE
  5
843
330
1B
100
AcDbEntity
  8
0
  6
Continuous
100
AcDbSpline
210
0.0
220
0.0
230
1.0
 70
     8
 71
     3
 72
     9
 73
     5
 74
     3
 42
0.0000000001
 43
0.0000000001
 44
0.0000000001
 12
-0.9922009802536711
 22
0.1246483645446429
 32
0.0
 13
-0.9801671717553643
 23
0.1981724385808739
 33
0.0
 40
0.0
 40
0.0
 40
0.0
 40
0.0
 40
0.1419308805543758
 40
0.2838955957427395
 40
0.2838955957427395
 40
0.2838955957427395
 40
0.2838955957427395
 10
108.6855849786
 20
127.3697193358
 30
0.0
 10
108.6386436589952
 20
127.3756164865132
 30
0.0
 10
108.5450678102757
 20
127.390130610201
 30
0.0
 10
108.4523948254251
 20
127.4093370146329
 30
0.0
 10
108.4060117743
 20
127.4187148459
 30
0.0
 11
108.6855849786
 21
127.3697193358
 31
0.0
 11
108.5453046248
 21
127.391301671
 31
0.0
 11
108.4060117743
 21
127.4187148459
 31
0.0
  0
SPLINE
  5
844
330
1B
100
AcDbEntity
  8
0
  6
Continuous
100
AcDbSpline
210
0.0
220
0.0
230
1.0
 70
     8
 71
     3
 72
     9
 73
     5
 74
     3
 42
0.0000000001
 43
0.0000000001
 44
0.0000000001
 12
-0.978504521473244
 22
0.2062253656959246
 32
0.0
 13
-0.9939231532849007
 23
0.1100761798219763
 33
0.0
 40
0.0
 40
0.0
 40
0.0
 40
0.0
 40
0.2839178325143638
 40
0.567832521900054
 40
0.567832521900054
 40
0.567832521900054
 40
0.567832521900054
 10
108.4060117743
 20
127.4187148459
 30
0.0
 10
108.3134068133526
 20
127.4382318655126
 30
0.0
 10
108.1277697229795
 20
127.4751163754939
 30
0.0
 10
107.9407364955794
 20
127.505328460699
 30
0.0
 10
107.8466733678
 20
127.5157458755
 30
0.0
 11
108.4060117743
 21
127.4187148459
 31
0.0
 11
108.1274196573
 21
127.473448455
 31
0.0
 11
107.8466733678
 21
127.5157458755
 31
0.0
  0
SPLINE
  5
845
330
1B
100
AcDbEntity
  8
0
  6
Continuous
100
AcDbSpline
210
0.0
220
0.0
230
1.0
 70
     8
 71
     3
 72
     9
 73
     5
 74
     3
 42
0.0000000001
 43
0.0000000001
 44
0.0000000001
 12
-0.9948163635998273
 22
0.1016877707200636
 32
0.0
 13
-0.9804600510004126
 23
-0.1967182970449582
 33
0.0
 40
0.0
 40
0.0
 40
0.0
 40
0.0
 40
0.2826634339562905
 40
0.5653412695946224
 40
0.5653412695946224
 40
0.5653412695946224
 40
0.5653412695946224
 10
107.8466733678
 20
127.5157458755
 30
0.0
 10
107.752940631303
 20
127.5253270136544
 30
0.0
 10
107.5621427055878
 20
127.534457619495
 30
0.0
 10
107.3789037444489
 20
127.4844463413797
 30
0.0
 10
107.2865189694
 20
127.4659103739
 30
0.0
 11
107.8466733678
 21
127.5157458755
 31
0.0
 11
107.5640372109
 21
127.5196726692
 31
0.0
 11
107.2865189694
 21
127.4659103739
 31
0.0
  0
SPLINE
  5
846
330
1B
100
AcDbEntity
  8
0
  6
Continuous
100
AcDbSpline
210
0.0
220
0.0
230
1.0
 70
     8
 71
     3
 72
    23
 73
    19
 74
    17
 42
0.0000000001
 43
0.0000000001
 44
0.0000000001
 12
-0.9796538453748346
 22
-0.200694651753104
 32
0.0
 13
-0.2297276900938531
 23
0.9732549452246018
 33
0.0
 40
0.0
 40
0.0
 40
0.0
 40
0.0
 40
0.1101668911142803
 40
0.2195117906355844
 40
0.2725990609321989
 40
0.3257932595103101
 40
0.3798834322804638
 40
0.4342792521940435
 40
0.5416242501914758
 40
0.6483929808260738
 40
0.8621546243428089
 40
0.9686854307938039
 40
1.075612615408958
 40
1.182640733739237
 40
1.289633790721428
 40
1.396327220116157
 40
1.503086161240561
 40
1.717202150734309
 40
1.717202150734309
 40
1.717202150734309
 40
1.717202150734309
 10
107.2865189694
 20
127.4659103739
 30
0.0
 10
107.2505438298957
 20
127.4585404052844
 30
0.0
 10
107.1779312248143
 20
127.4480126365824
 30
0.0
 10
107.0857939107743
 20
127.4537477347875
 30
0.0
 10
107.0175702407311
 20
127.4781959435852
 30
0.0
 10
106.9727283397797
 20
127.5082586594412
 30
0.0
 10
106.9354000628675
 20
127.5476483751808
 30
0.0
 10
106.8964617747636
 20
127.6085837209474
 30
0.0
 10
106.8698825680363
 20
127.6960688945362
 30
0.0
 10
106.87207314507
 20
127.84036216758
 30
0.0
 10
106.9174906344844
 20
127.9766777712782
 30
0.0
 10
106.9400760548956
 20
128.1174066244383
 30
0.0
 10
106.9514960407909
 20
128.2236194882764
 30
0.0
 10
106.9659904618486
 20
128.3296693371949
 30
0.0
 10
106.986381047866
 20
128.4346089813438
 30
0.0
 10
107.0035236486142
 20
128.5401497843492
 30
0.0
 10
107.010316043254
 20
128.6828385493556
 30
0.0
 10
106.9953581688929
 20
128.7898972907578
 30
0.0
 10
106.978962045
 20
128.8593604393
 30
0.0
 11
107.2865189694
 21
127.4659103739
 31
0.0
 11
107.1772609908
 21
127.4517881216
 31
0.0
 11
107.0683688656
 21
127.4617285502
 31
0.0
 11
107.0185795035
 21
127.4801480423
 31
0.0
 11
106.9742642541
 21
127.5095722064
 31
0.0
 11
106.936831648
 21
127.5486176516
 31
0.0
 11
106.9075039529
 21
127.5944302211
 31
0.0
 11
106.8754282784
 21
127.6968709342
 31
0.0
 11
106.8751255638
 21
127.8036392357
 31
0.0
 11
106.9212644675
 21
128.0123621185
 31
0.0
 11
106.9391388957
 21
128.1173826762
 31
0.0
 11
106.9520015996
 21
128.2235333882
 31
0.0
 11
106.9669777953
 21
128.3295085346999
 31
0.0
 11
106.985859966
 21
128.4348222464
 31
0.0
 11
107.0015143866
 21
128.5403609928
 31
0.0
 11
107.0063904882
 21
128.6470085204
 31
0.0
 11
106.978962045
 21
128.8593604393
 31
0.0
  0
SPLINE
  5
847
330
1B
100
AcDbEntity
  8
0
  6
Continuous
100
AcDbSpline
210
0.0
220
0.0
230
1.0
 70
     8
 71
     3
 72
    10
 73
     6
 74
     4
 42
0.0000000001
 43
0.0000000001
 44
0.0000000001
 12
-0.3743859705132326
 22
0.9272729614751338
 32
0.0
 13
0.5702189022908204
 23
0.8214927896641892
 33
0.0
 40
0.0
 40
0.0
 40
0.0
 40
0.0
 40
1.015492515809284
 40
1.711415474034641
 40
2.021018890263334
 40
2.021018890263334
 40
2.021018890263334
 40
2.021018890263334
 10
106.978962045
 20
128.8593604393
 30
0.0
 10
106.8522333279733
 20
129.1732400234634
 30
0.0
 10
106.7177445928798
 20
129.7424257244102
 30
0.0
 10
106.8116720519267
 20
130.4279515659637
 30
0.0
 10
106.9701783042509
 20
130.7273339201376
 30
0.0
 10
107.0290255443
 20
130.8121129115
 30
0.0
 11
106.978962045
 21
128.8593604393
 31
0.0
 11
106.7679866834
 21
129.8526954515
 31
0.0
 11
106.8831661538
 21
130.5390207777
 31
0.0
 11
107.0290255443
 21
130.8121129115
 31
0.0
  0
SPLINE
  5
848
330
1B
100
AcDbEntity
  8
0
  6
Continuous
100
AcDbSpline
210
0.0
220
0.0
230
1.0
 70
     8
 71
     3
 72
    13
 73
     9
 74
     7
 42
0.0000000001
 43
0.0000000001
 44
0.0000000001
 12
0.5057194996774899
 22
0.8626979701181342
 32
0.0
 13
-0.731425741528184
 23
0.6819210985370275
 33
0.0
 40
0.0
 40
0.0
 40
0.0
 40
0.0
 40
0.071165248046133
 40
0.1431712759737863
 40
0.1815198704702066
 40
0.2213460292034588
 40
0.2589401571662381
 40
0.2938851675731042
 40
0.2938851675731042
 40
0.2938851675731042
 40
0.2938851675731042
 10
107.0290255443
 20
130.8121129115
 30
0.0
 10
107.0410220955121
 20
130.8325776165108
 30
0.0
 10
107.0661487393349
 20
130.8731281473049
 30
0.0
 10
107.0925246215043
 20
130.927953033897
 30
0.0
 10
107.1063973249069
 20
130.976181384054
 30
0.0
 10
107.112278290915
 20
131.0144544303077
 30
0.0
 10
107.1100348877696
 20
131.0523824393593
 30
0.0
 10
107.0977368357832
 20
131.0748269582716
 30
0.0
 10
107.0892169424
 20
131.0827702049
 30
0.0
 11
107.0290255443
 21
130.8121129115
 31
0.0
 11
107.06493308
 21
130.8735550909
 31
0.0
 11
107.0949282807
 21
130.9390161938
 31
0.0
 11
107.1054787488
 21
130.9758849112
 31
0.0
 11
107.1109419124
 21
131.015334585
 31
0.0
 11
107.1070678164
 21
131.0527285663
 31
0.0
 11
107.0892169424
 21
131.0827702049
 31
0.0
  0
SPLINE
  5
849
330
1B
100
AcDbEntity
  8
0
  6
Continuous
100
AcDbSpline
210
0.0
220
0.0
230
1.0
 70
     8
 71
     3
 72
    28
 73
    24
 74
    22
 42
0.0000000001
 43
0.0000000001
 44
0.0000000001
 12
-0.68861110227018
 22
0.7251308501437848
 32
0.0
 13
0.3510236392080533
 23
-0.9363665973950238
 33
0.0
 40
0.0
 40
0.0
 40
0.0
 40
0.0
 40
0.087542752132716
 40
0.1752458498357308
 40
0.3501410331943086
 40
0.5251962314228826
 40
0.7002299657466062
 40
0.7878869426551955
 40
0.8755782091582385
 40
1.051050113566639
 40
1.226147679653236
 40
1.401316477777898
 40
1.575151249694352
 40
1.753339320579518
 40
1.84315775233143
 40
1.930425963175543
 40
2.01695686870434
 40
2.105150992342935
 40
2.192881256397418
 40
2.280682250051202
 40
2.45675261059692
 40
2.632466106141338
 40
2.807629741999116
 40
2.807629741999116
 40
2.807629741999116
 40
2.807629741999116
 10
107.0892169424
 20
131.0827702049
 30
0.0
 10
107.0691226387194
 20
131.103930188326
 30
0.0
 10
107.0090038481371
 20
131.1234645611269
 30
0.0
 10
106.8935315338367
 20
131.1289266747891
 30
0.0
 10
106.747395497208
 20
131.1063680299498
 30
0.0
 10
106.5814352163868
 20
131.0472662947746
 30
0.0
 10
106.4582500037043
 20
130.9680289567642
 30
0.0
 10
106.3571403258044
 20
130.9095432098783
 30
0.0
 10
106.2511413688649
 20
130.859825791794
 30
0.0
 10
106.1126700288892
 20
130.811861857923
 30
0.0
 10
105.941361002091
 20
130.7740581891449
 30
0.0
 10
105.7687067804429
 20
130.7464249575455
 30
0.0
 10
105.5934075467058
 20
130.7329080715895
 30
0.0
 10
105.4462610491315
 20
130.7251905281275
 30
0.0
 10
105.3288884833842
 20
130.7082659749651
 30
0.0
 10
105.2443484288367
 20
130.6815033788596
 30
0.0
 10
105.1709045418344
 20
130.6317044310484
 30
0.0
 10
105.1155845202023
 20
130.5624232547382
 30
0.0
 10
105.0792862590276
 20
130.4815772647757
 30
0.0
 10
105.0523973054569
 20
130.3670080741598
 30
0.0
 10
105.0511284354115
 20
130.2185252735391
 30
0.0
 10
105.0906132410038
 20
130.0463819600892
 30
0.0
 10
105.1320019841614
 20
129.9369026697318
 30
0.0
 10
105.1524975098
 20
129.8822302105
 30
0.0
 11
107.0892169424
 21
131.0827702049
 31
0.0
 11
107.0096389949
 21
131.119254225
 31
0.0
 11
106.9221657559
 21
131.1255997593
 31
0.0
 11
106.7490033584
 21
131.1010414765
 31
0.0
 11
106.5844672569
 21
131.0412736446
 31
0.0
 11
106.4328262204
 21
130.953856231
 31
0.0
 11
106.3565553088
 21
130.9106532954
 31
0.0
 11
106.2772604046
 21
130.8732089849
 31
0.0
 11
106.1116832798
 21
130.8151176346
 31
0.0
 11
105.941070457
 21
130.7757422318
 31
0.0
 11
105.7679959953
 21
130.7487359632
 31
0.0
 11
105.594810874
 21
130.7337212475
 31
0.0
 11
105.4171462947
 21
130.7200725894
 31
0.0
 11
105.3284869102
 21
130.7056898142
 31
0.0
 11
105.245880728
 21
130.677548043
 31
0.0
 11
105.1743511947
 21
130.6288538598
 31
0.0
 11
105.1187206111
 21
130.5604181848
 31
0.0
 11
105.0819777466
 21
130.4807528778
 31
0.0
 11
105.0612976698
 21
130.3954220574
 31
0.0
 11
105.0579850515
 21
130.2193828617
 31
0.0
 11
105.0944405563
 21
130.0474926971
 31
0.0
 11
105.1524975098
 21
129.8822302105
 31
0.0
  0
SPLINE
  5
84A
330
1B
100
AcDbEntity
  8
0
  6
Continuous
100
AcDbSpline
210
0.0
220
0.0
230
1.0
 70
     8
 71
     3
 72
     8
 73
     4
 74
     2
 42
0.0000000001
 43
0.0000000001
 44
0.0000000001
 12
0.3799761393027452
 22
-0.9249962884036783
 32
0.0
 13
0.1832031779269679
 23
-0.9830750711911374
 33
0.0
 40
0.0
 40
0.0
 40
0.0
 40
0.0
 40
0.74294244645763
 40
0.74294244645763
 40
0.74294244645763
 40
0.74294244645763
 10
105.1524975098
 20
129.8822302105
 30
0.0
 10
105.2465976439764
 20
129.6531572086764
 30
0.0
 10
105.314285232464
 20
129.4122094114474
 30
0.0
 10
105.3596550382
 20
129.1687533453
 30
0.0
 11
105.1524975098
 21
129.8822302105
 31
0.0
 11
105.3596550382
 21
129.1687533453
 31
0.0
  0
SPLINE
  5
84B
330
1B
100
AcDbEntity
  8
0
  6
Continuous
100
AcDbSpline
210
0.0
220
0.0
230
1.0
 70
     8
 71
     3
 72
     8
 73
     4
 74
     2
 42
0.0000000001
 43
0.0000000001
 44
0.0000000001
 12
0.1902717687530068
 22
-0.9817314571794074
 32
0.0
 13
0.185546708295865
 23
-0.982635445646334
 33
0.0
 40
0.0
 40
0.0
 40
0.0
 40
0.0
 40
0.5906267878452269
 40
0.5906267878452269
 40
0.5906267878452269
 40
0.5906267878452269
 10
105.3596550382
 20
129.1687533453
 30
0.0
 10
105.3971149060654
 20
128.9754743796065
 30
0.0
 10
105.434148309128
 20
128.7821120852616
 30
0.0
 10
105.4706779279
 20
128.5886551463
 30
0.0
 11
105.3596550382
 21
129.1687533453
 31
0.0
 11
105.4706779279
 21
128.5886551463
 31
0.0
  0
SPLINE
  5
84C
330
1B
100
AcDbEntity
  8
0
  6
Continuous
100
AcDbSpline
210
0.0
220
0.0
230
1.0
 70
     8
 71
     3
 72
    17
 73
    13
 74
    11
 42
0.0000000001
 43
0.0000000001
 44
0.0000000001
 12
0.3227706799665245
 22
-0.9464771989614687
 32
0.0
 13
-0.9977434670523235
 23
-0.0671414473660564
 33
0.0
 40
0.0
 40
0.0
 40
0.0
 40
0.0
 40
0.3673180334620382
 40
0.5512916781458116
 40
0.7351309361164513
 40
0.9196689071316768
 40
1.014559563703013
 40
1.107591399667487
 40
1.198202538403482
 40
1.290195257080097
 40
1.384747132416174
 40
1.478621598053723
 40
1.478621598053723
 40
1.478621598053723
 40
1.478621598053723
 10
105.4706779279
 20
128.5886551463
 30
0.0
 10
105.5101977583748
 20
128.4727690984869
 30
0.0
 10
105.552830262531
 20
128.2918432337996
 30
0.0
 10
105.56186694756
 20
128.0463033337803
 30
0.0
 10
105.5445165753258
 20
127.862648836741
 30
0.0
 10
105.5147405909107
 20
127.7106506149776
 30
0.0
 10
105.4750968802171
 20
127.592717984273
 30
0.0
 10
105.4320100864416
 20
127.5098121198448
 30
0.0
 10
105.3697387974791
 20
127.4403104405938
 30
0.0
 10
105.2883241106829
 20
127.3940234438053
 30
0.0
 10
105.198563564125
 20
127.3663775092929
 30
0.0
 10
105.136062064571
 20
127.3578284315312
 30
0.0
 10
105.1048411863
 20
127.3557274757
 30
0.0
 11
105.4706779279
 21
128.5886551463
 31
0.0
 11
105.5510909804
 21
128.2302471683
 31
0.0
 11
105.5578468938
 21
128.0463976113999
 31
0.0
 11
105.5415235965
 21
127.8632844695
 31
0.0
 11
105.5038400987
 21
127.682635039
 31
0.0
 11
105.4725869518
 21
127.5930388476
 31
0.0
 11
105.4282787495
 21
127.511236001
 31
0.0
 11
105.3670010123
 21
127.444487088
 31
0.0
 11
105.2878807769
 21
127.3975547043
 31
0.0
 11
105.1977959655
 21
127.3688356534
 31
0.0
 11
105.1048411863
 21
127.3557274757
 31
0.0
  0
SPLINE
  5
84D
330
1B
100
AcDbEntity
  8
0
  6
Continuous
100
AcDbSpline
210
0.0
220
0.0
230
1.0
 70
     8
 71
     3
 72
     9
 73
     5
 74
     3
 42
0.0000000001
 43
0.0000000001
 44
0.0000000001
 12
-0.9985764932243108
 22
-0.0533384212349606
 32
0.0
 13
-0.9977301629710212
 23
0.06733885875049811
 33
0.0
 40
0.0
 40
0.0
 40
0.0
 40
0.0
 40
0.2938323862125001
 40
0.5879927746301004
 40
0.5879927746301004
 40
0.5879927746301004
 40
0.5879927746301004
 10
105.1048411863
 20
127.3557274757
 30
0.0
 10
105.0070364816934
 20
127.3505032905039
 30
0.0
 10
104.8104682051711
 20
127.3631094472988
 30
0.0
 10
104.6164659459252
 20
127.3906442522181
 30
0.0
 10
104.5186350485
 20
127.3972470605
 30
0.0
 11
105.1048411863
 21
127.3557274757
 31
0.0
 11
104.8112186464
 21
127.3668304145
 31
0.0
 11
104.5186350485
 21
127.3972470605
 31
0.0
  0
SPLINE
  5
84E
330
1B
100
AcDbEntity
  8
0
  6
Continuous
100
AcDbSpline
210
0.0
220
0.0
230
1.0
 70
     8
 71
     3
 72
     8
 73
     4
 74
     2
 42
0.0000000001
 43
0.0000000001
 44
0.0000000001
 12
-0.9970464607786567
 22
0.0768007490116781
 32
0.0
 13
-0.9987130637386078
 23
-0.0507170219733354
 33
0.0
 40
0.0
 40
0.0
 40
0.0
 40
0.0
 40
0.5907631173721263
 40
0.5907631173721263
 40
0.5907631173721263
 40
0.5907631173721263
 10
104.5186350485
 20
127.3972470605
 30
0.0
 10
104.3222956233885
 20
127.4123707438009
 30
0.0
 10
104.1245713700982
 20
127.4133662478683
 30
0.0
 10
103.9279037558
 20
127.4033789992
 30
0.0
 11
104.5186350485
 21
127.3972470605
 31
0.0
 11
103.9279037558
 21
127.4033789992
 31
0.0
  0
SPLINE
  5
84F
330
1B
100
AcDbEntity
  8
0
  6
Continuous
100
AcDbSpline
210
0.0
220
0.0
230
1.0
 70
     8
 71
     3
 72
    10
 73
     6
 74
     4
 42
0.0000000001
 43
0.0000000001
 44
0.0000000001
 12
-0.9993384914127818
 22
-0.0363672872348961
 32
0.0
 13
-0.990834503734672
 23
0.1350814058590842
 33
0.0
 40
0.0
 40
0.0
 40
0.0
 40
0.0
 40
0.5914314537913709
 40
1.182855719825505
 40
1.306997072624912
 40
1.306997072624912
 40
1.306997072624912
 40
1.306997072624912
 10
103.9279037558
 20
127.4033789992
 30
0.0
 10
103.730890350198
 20
127.3962094133467
 30
0.0
 10
103.3366319514121
 20
127.3736913463004
 30
0.0
 10
102.9012229304215
 20
127.4105999411494
 30
0.0
 10
102.6647309046647
 20
127.4413220025129
 30
0.0
 10
102.6237297261
 20
127.446911732
 30
0.0
 11
103.9279037558
 21
127.4033789992
 31
0.0
 11
103.3366809187
 21
127.3876716307
 31
0.0
 11
102.7468443666
 21
127.4309787232
 31
0.0
 11
102.6237297261
 21
127.446911732
 31
0.0
  0
SPLINE
  5
850
330
1B
100
AcDbEntity
  8
0
  6
Continuous
100
AcDbSpline
210
0.0
220
0.0
230
1.0
 70
     8
 71
     3
 72
    11
 73
     7
 74
     5
 42
0.0000000001
 43
0.0000000001
 44
0.0000000001
 12
-0.9918593720210464
 22
0.1273380780992704
 32
0.0
 13
-0.9975334152648928
 23
-0.07019320073880948
 33
0.0
 40
0.0
 40
0.0
 40
0.0
 40
0.0
 40
0.3187385103169486
 40
0.7615861426134252
 40
1.204436223254415
 40
1.647315482038114
 40
1.647315482038114
 40
1.647315482038114
 40
1.647315482038114
 10
102.6237297261
 20
127.446911732
 30
0.0
 10
102.5183484665394
 20
127.4604409151067
 30
0.0
 10
102.2663321790158
 20
127.4909638420138
 30
0.0
 10
101.8630436106318
 20
127.4990187163353
 30
0.0
 10
101.4242492234497
 20
127.4311486513299
 30
0.0
 10
101.1284903964215
 20
127.427949093405
 30
0.0
 10
100.9812281099
 20
127.4175867225
 30
0.0
 11
102.6237297261
 21
127.446911732
 31
0.0
 11
102.3068773496
 21
127.48153556
 31
0.0
 11
101.8640545632
 21
127.4862265381
 31
0.0
 11
101.4234525423
 21
127.4416613824
 31
0.0
 11
100.9812281099
 21
127.4175867225
 31
0.0
  0
SPLINE
  5
851
330
1B
100
AcDbEntity
  8
0
  6
Continuous
100
AcDbSpline
210
0.0
220
0.0
230
1.0
 70
     8
 71
     3
 72
     8
 73
     4
 74
     2
 42
0.0000000001
 43
0.0000000001
 44
0.0000000001
 12
-0.9975334152490132
 22
-0.07019320096447938
 32
0.0
 13
-0.9971476629833249
 23
-0.0754754145857689
 33
0.0
 40
0.0
 40
0.0
 40
0.0
 40
0.0
 40
0.0188288457742502
 40
0.0188288457742502
 40
0.0188288457742502
 40
0.0188288457742502
 10
100.9812281099
 20
127.4175867225
 30
0.0
 10
100.9749673089565
 20
127.4171461701816
 30
0.0
 10
100.9687075986535
 20
127.4166897771803
 30
0.0
 10
100.9624492188
 20
127.4162160722
 30
0.0
 11
100.9812281099
 21
127.4175867225
 31
0.0
 11
100.9624492188
 21
127.4162160722
 31
0.0
  0
SPLINE
  5
852
330
1B
100
AcDbEntity
  8
0
  6
Continuous
100
AcDbSpline
210
0.0
220
0.0
230
1.0
 70
     8
 71
     3
 72
     8
 73
     4
 74
     2
 42
0.0000000001
 43
0.0000000001
 44
0.0000000001
 12
-0.9965491357302004
 22
-0.08300494006618291
 32
0.0
 13
-0.9804279512538018
 23
-0.1968782171807562
 33
0.0
 40
0.0
 40
0.0
 40
0.0
 40
0.0
 40
0.0997097861451102
 40
0.0997097861451102
 40
0.0997097861451102
 40
0.0997097861451102
 10
100.9624492188
 20
127.4162160722
 30
0.0
 10
100.9293273183978
 20
127.4134572705923
 30
0.0
 10
100.8962946599167
 20
127.4088914587439
 30
0.0
 10
100.8637085728
 20
127.4023478971
 30
0.0
 11
100.9624492188
 21
127.4162160722
 31
0.0
 11
100.8637085728
 21
127.4023478971
 31
0.0
  0
SPLINE
  5
853
330
1B
100
AcDbEntity
  8
0
  6
Continuous
100
AcDbSpline
210
0.0
220
0.0
230
1.0
 70
     8
 71
     3
 72
     9
 73
     5
 74
     3
 42
0.0000000001
 43
0.0000000001
 44
0.0000000001
 12
-0.9804279511670992
 22
-0.1968782176125241
 32
0.0
 13
-0.8960084752018461
 23
-0.444036949325687
 33
0.0
 40
0.0
 40
0.0
 40
0.0
 40
0.0
 40
0.1773406092897291
 40
0.1841549816145929
 40
0.1841549816145929
 40
0.1841549816145929
 40
0.1841549816145929
 10
100.8637085728
 20
127.4023478971
 30
0.0
 10
100.8057520093918
 20
127.3907097294109
 30
0.0
 10
100.7462983099874
 20
127.3719317643809
 30
0.0
 10
100.6911496016188
 20
127.3449844621329
 30
0.0
 10
100.6891143565
 20
127.3439758511
 30
0.0
 11
100.8637085728
 21
127.4023478971
 31
0.0
 11
100.6952368828
 21
127.3469675633
 31
0.0
 11
100.6891143565
 21
127.3439758511
 31
0.0
  0
SPLINE
  5
854
330
1B
100
AcDbEntity
  8
0
  6
Continuous
100
AcDbSpline
210
0.0
220
0.0
230
1.0
 70
     8
 71
     3
 72
    15
 73
    11
 74
     9
 42
0.0000000001
 43
0.0000000001
 44
0.0000000001
 12
-0.8980389954738123
 22
-0.4399158585552311
 32
0.0
 13
-0.1973016990384864
 23
0.9803428173636641
 33
0.0
 40
0.0
 40
0.0
 40
0.0
 40
0.0
 40
0.1232031009803334
 40
0.2538387684206905
 40
0.3180880148027049
 40
0.3826744933830234
 40
0.416515051642695
 40
0.4513975724654923
 40
0.4848835253586649
 40
0.5165650903717823
 40
0.5165650903717823
 40
0.5165650903717823
 40
0.5165650903717823
 10
100.6891143565
 20
127.3439758511
 30
0.0
 10
100.6522339601521
 20
127.3259095184519
 30
0.0
 10
100.5760724738872
 20
127.2872667755232
 30
0.0
 10
100.4671473453537
 20
127.2776360006846
 30
0.0
 10
100.3819543585628
 20
127.2948069855498
 30
0.0
 10
100.331660064224
 20
127.3159512090873
 30
0.0
 10
100.292821217194
 20
127.3375461297649
 30
0.0
 10
100.2639713620751
 20
127.3557455766276
 30
0.0
 10
100.2387590263316
 20
127.3780255620073
 30
0.0
 10
100.2283771811684
 20
127.3981740161322
 30
0.0
 10
100.2262935723
 20
127.4085269477
 30
0.0
 11
100.6891143565
 21
127.3439758511
 31
0.0
 11
100.5757672099
 21
127.2956909834
 31
0.0
 11
100.4456492502
 21
127.2840722842
 31
0.0
 11
100.382679137
 21
127.2968288709
 31
0.0
 11
100.3229098333
 21
127.3213042371
 31
0.0
 11
100.2932760934
 21
127.3376451319
 31
0.0
 11
100.2641158225
 21
127.3567885083
 31
0.0
 11
100.2398991527
 21
127.3799155908
 31
0.0
 11
100.2262935723
 21
127.4085269477
 31
0.0
  0
SPLINE
  5
855
330
1B
100
AcDbEntity
  8
0
  6
Continuous
100
AcDbSpline
210
0.0
220
0.0
230
1.0
 70
     8
 71
     3
 72
    15
 73
    11
 74
     9
 42
0.0000000001
 43
0.0000000001
 44
0.0000000001
 12
-0.2992484986163559
 22
0.954175212461452
 32
0.0
 13
0.9794869082005856
 23
0.2015078079471303
 33
0.0
 40
0.0
 40
0.0
 40
0.0
 40
0.0
 40
0.0167579561838767
 40
0.0339541615545783
 40
0.0534807214629642
 40
0.0749837600148264
 40
0.118206158299362
 40
0.1556405691788375
 40
0.2256755471050376
 40
0.2989025697454667
 40
0.2989025697454667
 40
0.2989025697454667
 40
0.2989025697454667
 10
100.2262935723
 20
127.4085269477
 30
0.0
 10
100.2246219745574
 20
127.4138569565007
 30
0.0
 10
100.224176188639
 20
127.4258590721288
 30
0.0
 10
100.2329472565704
 20
127.4419717591332
 30
0.0
 10
100.2469228910804
 20
127.4556277970908
 30
0.0
 10
100.270165543147
 20
127.4715381569258
 30
0.0
 10
100.3009743577202
 20
127.4864161542825
 30
0.0
 10
100.3485699728178
 20
127.5027076705941
 30
0.0
 10
100.4076353043984
 20
127.5149879674257
 30
0.0
 10
100.4541187516657
 20
127.5258511196951
 30
0.0
 10
100.478027055
 20
127.5307697253
 30
0.0
 11
100.2262935723
 21
127.4085269477
 31
0.0
 11
100.2256469822
 21
127.4252724252
 31
0.0
 11
100.233177222
 21
127.4407322107
 31
0.0
 11
100.2467816017
 21
127.4547396157
 31
0.0
 11
100.2643574315
 21
127.4671279519
 31
0.0
 11
100.3030504558
 21
127.4863899763
 31
0.0
 11
100.3384169737
 21
127.4986596352
 31
0.0
 11
100.4065093394
 21
127.5150403515
 31
0.0
 11
100.478027055
 21
127.5307697253
 31
0.0
  0
SPLINE
  5
856
330
1B
100
AcDbEntity
  8
0
  6
Continuous
100
AcDbSpline
210
0.0
220
0.0
230
1.0
 70
     8
 71
     3
 72
     9
 73
     5
 74
     3
 42
0.0000000001
 43
0.0000000001
 44
0.0000000001
 12
0.9865036962538814
 22
0.16373899131676
 32
0.0
 13
0.5908399997318523
 23
0.8067887547040209
 33
0.0
 40
0.0
 40
0.0
 40
0.0
 40
0.0
 40
0.7001600514180026
 40
0.8905026551291979
 40
0.8905026551291979
 40
0.8905026551291979
 40
0.8905026551291979
 10
100.478027055
 20
127.5307697253
 30
0.0
 10
100.7082638812311
 20
127.5689842254932
 30
0.0
 10
101.0026775930129
 20
127.7005538468359
 30
0.0
 10
101.1961241576914
 20
127.9271644919949
 30
0.0
 10
101.233611499
 20
127.9783532494
 30
0.0
 11
100.478027055
 21
127.5307697253
 31
0.0
 11
101.1088137865
 21
127.8346318601
 31
0.0
 11
101.233611499
 21
127.9783532494
 31
0.0
  0
SPLINE
  5
857
330
1B
100
AcDbEntity
  8
0
  6
Continuous
100
AcDbSpline
210
0.0
220
0.0
230
1.0
 70
     8
 71
     3
 72
    19
 73
    15
 74
    13
 42
0.0000000001
 43
0.0000000001
 44
0.0000000001
 12
0.6327197961456834
 22
0.7743808233455715
 32
0.0
 13
0.9654074783298106
 23
0.2607458547798538
 33
0.0
 40
0.0
 40
0.0
 40
0.0
 40
0.0
 40
0.1921033516411476
 40
0.2875816936101319
 40
0.3834473346498104
 40
0.4795268096299032
 40
0.5757461924683712
 40
0.6713037852754595
 40
0.7664266869154207
 40
0.8625790107955844
 40
0.9589554907227914
 40
1.149739298647519
 40
1.34173692809506
 40
1.533355050502254
 40
1.533355050502254
 40
1.533355050502254
 40
1.533355050502254
 10
101.233611499
 20
127.9783532494
 30
0.0
 10
101.2741273634964
 20
128.0279402999371
 30
0.0
 10
101.3349872554757
 20
128.1025609106261
 30
0.0
 10
101.433199325831
 20
128.1852680368977
 30
0.0
 10
101.5174978236289
 20
128.2321816280207
 30
0.0
 10
101.6101746640322
 20
128.2604366488408
 30
0.0
 10
101.7068184774309
 20
128.2661609530244
 30
0.0
 10
101.8019725676483
 20
128.2506473846038
 30
0.0
 10
101.8915506450111
 20
128.2160184484547
 30
0.0
 10
101.9768321156379
 20
128.1721365052389
 30
0.0
 10
102.0893464009796
 20
128.1116838639517
 30
0.0
 10
102.2375061816437
 20
128.0495559498122
 30
0.0
 10
102.4276845908705
 20
128.0157935575859
 30
0.0
 10
102.5574424545482
 20
128.0273020496939
 30
0.0
 10
102.619105644
 20
128.0439565934
 30
0.0
 11
101.233611499
 21
127.9783532494
 31
0.0
 11
101.361146448
 21
128.1220144289
 31
0.0
 11
101.4348705727
 21
128.1826845799
 31
0.0
 11
101.518791084
 21
128.2290264499
 31
0.0
 11
101.6108077478
 21
128.2566706011
 31
0.0
 11
101.7068440333
 21
128.2626036864
 31
0.0
 11
101.8011895175
 21
128.2474318983
 31
0.0
 11
101.8904805042
 21
128.2146372934
 31
0.0
 11
101.976624318
 21
128.1719229781
 31
0.0
 11
102.0621419801
 21
128.1274802582
 31
0.0
 11
102.2392116166
 21
128.0564534661
 31
0.0
 11
102.4284981557
 21
128.0243023257
 31
0.0
 11
102.619105644
 21
128.0439565934
 31
0.0
  0
SPLINE
  5
858
330
1B
100
AcDbEntity
  8
0
  6
Continuous
100
AcDbSpline
210
0.0
220
0.0
230
1.0
 70
     8
 71
     3
 72
    19
 73
    15
 74
    13
 42
0.0000000001
 43
0.0000000001
 44
0.0000000001
 12
0.9717277120712825
 22
0.2361043277720904
 32
0.0
 13
0.2926734601661727
 23
0.9562124480021998
 33
0.0
 40
0.0
 40
0.0
 40
0.0
 40
0.0
 40
0.2005728970866163
 40
0.4763213307641773
 40
1.094318112939851
 40
1.271601182528698
 40
1.438297986949183
 40
1.580734451704313
 40
1.776494648155666
 40
2.038705010733826
 40
2.340212063043719
 40
4.839059926522231
 40
4.938041072885723
 40
5.185975237299373
 40
5.185975237299373
 40
5.185975237299373
 40
5.185975237299373
 10
102.619105644
 20
128.0439565934
 30
0.0
 10
102.6840730581298
 20
128.0597419697453
 30
0.0
 10
102.8308899839223
 20
128.1287111290284
 30
0.0
 10
103.1141518686406
 20
128.3511430046945
 30
0.0
 10
103.4996057729549
 20
128.4727722041471
 30
0.0
 10
103.7962642928783
 20
128.3855150094383
 30
0.0
 10
103.9733496729532
 20
128.3088814773283
 30
0.0
 10
104.0841903844036
 20
128.4926045038643
 30
0.0
 10
103.9742489956125
 20
128.682632664559
 30
0.0
 10
103.8013608852547
 20
128.8611483422974
 30
0.0
 10
103.3051996657719
 20
129.7608570476522
 30
0.0
 10
102.7806994640793
 20
130.6749139091388
 30
0.0
 10
102.8424737692698
 20
131.6224556788537
 30
0.0
 10
102.8624190523025
 20
131.7373449574676
 30
0.0
 10
102.8866069689
 20
131.8163708689
 30
0.0
 11
102.619105644
 21
128.0439565934
 31
0.0
 11
102.8035477402
 21
128.1227639547
 31
0.0
 11
103.0341581109
 21
128.2739461481
 31
0.0
 11
103.6334794231
 21
128.4247240892
 31
0.0
 11
103.8046161144
 21
128.378447533
 31
0.0
 11
103.9691903382
 21
128.3519305674
 31
0.0
 11
104.0483297639
 21
128.4703581730999
 31
0.0
 11
103.9826906504
 21
128.6547858318
 31
0.0
 11
103.818311334
 21
128.8590741442
 31
0.0
 11
103.6605738919
 21
129.1160282295
 31
0.0
 11
102.8335586002
 21
131.4740541734
 31
0.0
 11
102.840251006
 21
131.572808814
 31
0.0
 11
102.8866069689
 21
131.8163708689
 31
0.0
  0
SPLINE
  5
859
330
1B
100
AcDbEntity
  8
0
  6
Continuous
100
AcDbSpline
210
0.0
220
0.0
230
1.0
 70
     8
 71
     3
 72
     9
 73
     5
 74
     3
 42
0.0000000001
 43
0.0000000001
 44
0.0000000001
 12
0.2381956261971437
 22
0.9712171969547032
 32
0.0
 13
0.4284775849535306
 23
0.9035524108718819
 33
0.0
 40
0.0
 40
0.0
 40
0.0
 40
0.0
 40
0.5905875512063132
 40
1.181174809053947
 40
1.181174809053947
 40
1.181174809053947
 40
1.181174809053947
 10
102.8866069689
 20
131.8163708689
 30
0.0
 10
102.9334987594279
 20
132.007567130913
 30
0.0
 10
103.0799267105345
 20
132.3755294360705
 30
0.0
 10
103.2432994244177
 20
132.7331196089472
 30
0.0
 10
103.3276505584
 20
132.9109951225
 30
0.0
 11
102.8866069689
 21
131.8163708689
 31
0.0
 11
103.0841629397
 21
132.3729364931
 31
0.0
 11
103.3276505584
 21
132.9109951225
 31
0.0
  0
SPLINE
  5
85A
330
1B
100
AcDbEntity
  8
0
  6
Continuous
100
AcDbSpline
210
0.0
220
0.0
230
1.0
 70
     8
 71
     3
 72
     9
 73
     5
 74
     3
 42
0.0000000001
 43
0.0000000001
 44
0.0000000001
 12
0.5241210596775792
 22
0.8516437722442709
 32
0.0
 13
0.1799680913382839
 23
0.98367244858238
 33
0.0
 40
0.0
 40
0.0
 40
0.0
 40
0.0
 40
0.2941807190779578
 40
0.5883575600807549
 40
0.5883575600807549
 40
0.5883575600807549
 40
0.5883575600807549
 10
103.3276505584
 20
132.9109951225
 30
0.0
 10
103.37904599514
 20
132.994507514939
 30
0.0
 10
103.4709306570248
 20
133.1684731378965
 30
0.0
 10
103.5321208556696
 20
133.3567674156982
 30
0.0
 10
103.5497683372
 20
133.4532253002
 30
0.0
 11
103.3276505584
 21
132.9109951225
 31
0.0
 11
103.4632575457
 21
133.1720564955
 31
0.0
 11
103.5497683372
 21
133.4532253002
 31
0.0
  0
SPLINE
  5
85B
330
1B
100
AcDbEntity
  8
0
  6
Continuous
100
AcDbSpline
210
0.0
220
0.0
230
1.0
 70
     8
 71
     3
 72
    11
 73
     7
 74
     5
 42
0.0000000001
 43
0.0000000001
 44
0.0000000001
 12
0.1815452983172565
 22
0.9833825830565124
 32
0.0
 13
0.0567577210508435
 23
0.9983879812483296
 33
0.0
 40
0.0
 40
0.0
 40
0.0
 40
0.0
 40
0.3173219491718447
 40
0.6393246958291965
 40
0.9576221755589551
 40
1.276321077648787
 40
1.276321077648787
 40
1.276321077648787
 40
1.276321077648787
 10
103.5497683372
 20
133.4532253002
 30
0.0
 10
103.5689711065083
 20
133.557241592879
 30
0.0
 10
103.5646427579275
 20
133.7737550527946
 30
0.0
 10
103.5109606296288
 20
134.0877083730246
 30
0.0
 10
103.4790827418341
 20
134.4064612739757
 30
0.0
 10
103.481303420472
 20
134.6192120616722
 30
0.0
 10
103.4873329616
 20
134.7252737795
 30
0.0
 11
103.5497683372
 21
133.4532253002
 31
0.0
 11
103.5569116919
 21
133.7704668358
 31
0.0
 11
103.5144477381
 21
134.0896573455
 31
0.0
 11
103.4849374515
 21
134.4065838805
 31
0.0
 11
103.4873329616
 21
134.7252737795
 31
0.0
  0
SPLINE
  5
85C
330
1B
100
AcDbEntity
  8
0
  6
Continuous
100
AcDbSpline
210
0.0
220
0.0
230
1.0
 70
     8
 71
     3
 72
    11
 73
     7
 74
     5
 42
0.0000000001
 43
0.0000000001
 44
0.0000000001
 12
0.0414648369513757
 22
0.9991399638171801
 32
0.0
 13
-0.0650529624903514
 23
0.9978818126768466
 33
0.0
 40
0.0
 40
0.0
 40
0.0
 40
0.0
 40
0.5900227628325946
 40
1.180033726560007
 40
1.770055077265541
 40
2.360076086065097
 40
2.360076086065097
 40
2.360076086065097
 40
2.360076086065097
 10
103.4873329616
 20
134.7252737795
 30
0.0
 10
103.4954880274862
 20
134.9217788868026
 30
0.0
 10
103.5235881636429
 20
135.3148550720026
 30
0.0
 10
103.4524546634969
 20
135.9055608398317
 30
0.0
 10
103.2712006848772
 20
136.4677919643559
 30
0.0
 10
103.2057581101513
 20
136.8582294092739
 30
0.0
 10
103.1929639053
 20
137.0544864872
 30
0.0
 11
103.4873329616
 21
134.7252737795
 31
0.0
 11
103.5047074797
 21
135.3150406714
 31
0.0
 11
103.4341020295
 21
135.9008117937
 31
0.0
 11
103.285049185
 21
136.4716957082
 31
0.0
 11
103.1929639053
 21
137.0544864872
 31
0.0
  0
SPLINE
  5
85D
330
1B
100
AcDbEntity
  8
0
  6
Continuous
100
AcDbSpline
210
0.0
220
0.0
230
1.0
 70
     8
 71
     3
 72
    15
 73
    11
 74
     9
 42
0.0000000001
 43
0.0000000001
 44
0.0000000001
 12
-0.3315731265560797
 22
0.9434295213453022
 32
0.0
 13
0.7728667534566487
 23
0.6345683425773617
 33
0.0
 40
0.0
 40
0.0
 40
0.0
 40
0.0
 40
0.6071139685288625
 40
0.9937666662287841
 40
1.464372839469705
 40
3.006070761652786
 40
3.715963644661156
 40
4.359905250918868
 40
5.527882329768923
 40
6.272509615683102
 40
6.272509615683102
 40
6.272509615683102
 40
6.272509615683102
 10
103.1929639053
 20
137.0544864872
 30
0.0
 10
103.1258630130597
 20
137.2454095674437
 30
0.0
 10
103.1043594706851
 20
137.5886151296821
 30
0.0
 10
103.3019220417266
 20
138.0778431085027
 30
0.0
 10
104.1289812727378
 20
138.3053890693915
 30
0.0
 10
104.9536780921724
 20
138.566567693707
 30
0.0
 10
105.8621628303212
 20
138.9730716212166
 30
0.0
 10
106.3709156333448
 20
139.6610722478773
 30
0.0
 10
106.9318720885948
 20
140.2978709292029
 30
0.0
 10
107.4061792967334
 20
140.7269825525799
 30
0.0
 10
107.5980118544
 20
140.8844881868
 30
0.0
 11
103.1929639053
 21
137.0544864872
 31
0.0
 11
103.1576537594
 21
137.6605727553
 31
0.0
 11
103.3271912552
 21
138.0080743325
 31
0.0
 11
103.7551129666
 21
138.2039140098
 31
0.0
 11
105.2170777406
 21
138.69329268
 31
0.0
 11
105.84115989
 21
139.0316259124
 31
0.0
 11
106.2692419817
 21
139.512673223
 31
0.0
 11
107.0451413994
 21
140.3856855656
 31
0.0
 11
107.5980118544
 21
140.8844881868
 31
0.0
  0
SPLINE
  5
85E
330
1B
100
AcDbEntity
  8
0
  6
Continuous
100
AcDbSpline
210
0.0
220
0.0
230
1.0
 70
     8
 71
     3
 72
    14
 73
    10
 74
     8
 42
0.0000000001
 43
0.0000000001
 44
0.0000000001
 12
0.8398507168490274
 22
0.5428174402210885
 32
0.0
 13
0.2729794480516434
 23
-0.9620198651490625
 33
0.0
 40
0.0
 40
0.0
 40
0.0
 40
0.0
 40
0.161340721981121
 40
0.3227379853549813
 40
0.4830060454771518
 40
0.6439778472920801
 40
0.8044236238367721
 40
0.9650292938460823
 40
1.283808563301461
 40
1.283808563301461
 40
1.283808563301461
 40
1.283808563301461
 10
107.5980118544
 20
140.8844881868
 30
0.0
 10
107.6431792280709
 20
140.9136810393698
 30
0.0
 10
107.7382911096015
 20
140.9651269917935
 30
0.0
 10
107.8935260473291
 20
141.0133184051451
 30
0.0
 10
108.0567809181904
 20
141.0165221998243
 30
0.0
 10
108.2134347700785
 20
140.9717015742779
 30
0.0
 10
108.3505993174901
 20
140.8840629324942
 30
0.0
 10
108.4957756229626
 20
140.7249958191036
 30
0.0
 10
108.5595854957246
 20
140.5735602908046
 30
0.0
 10
108.5885922254
 20
140.4713362942
 30
0.0
 11
107.5980118544
 21
140.8844881868
 31
0.0
 11
107.7404271835
 21
140.960308386
 31
0.0
 11
107.895254529
 21
141.0058887514
 31
0.0
 11
108.0555005481
 21
141.0085466562
 31
0.0
 11
108.2103279254
 21
140.9644966367
 31
0.0
 11
108.3459303073
 21
140.8787362656999
 31
0.0
 11
108.454839798
 21
140.7606985426
 31
0.0
 11
108.5885922254
 21
140.4713362942
 31
0.0
  0
SPLINE
  5
85F
330
1B
100
AcDbEntity
  8
0
  6
Continuous
100
AcDbSpline
210
0.0
220
0.0
230
1.0
 70
     8
 71
     3
 72
     8
 73
     4
 74
     2
 42
0.0000000001
 43
0.0000000001
 44
0.0000000001
 12
0.2729794496038648
 22
-0.9620198647086095
 32
0.0
 13
0.2543025815546751
 23
-0.9671247060305243
 33
0.0
 40
0.0
 40
0.0
 40
0.0
 40
0.0
 40
0.0251866020042811
 40
0.0251866020042811
 40
0.0251866020042811
 40
0.0251866020042811
 10
108.5885922254
 20
140.4713362942
 30
0.0
 10
108.5908840336509
 20
140.4632596237158
 30
0.0
 10
108.5930958959299
 20
140.4551598785531
 30
0.0
 10
108.5952309019
 20
140.4470403502
 30
0.0
 11
108.5885922254
 21
140.4713362942
 31
0.0
 11
108.5952309019
 21
140.4470403502
 31
0.0
  0
SPLINE
  5
860
330
1B
100
AcDbEntity
  8
0
  6
Continuous
100
AcDbSpline
210
0.0
220
0.0
230
1.0
 70
     8
 71
     3
 72
    10
 73
     6
 74
     4
 42
0.0000000001
 43
0.0000000001
 44
0.0000000001
 12
0.2578392139114504
 22
-0.9661878387609344
 32
0.0
 13
0.3159901099613757
 23
-0.9487624836631124
 33
0.0
 40
0.0
 40
0.0
 40
0.0
 40
0.0
 40
0.7128145481319409
 40
1.081809683551996
 40
1.451038268150406
 40
1.451038268150406
 40
1.451038268150406
 40
1.451038268150406
 10
108.5952309019
 20
140.4470403502
 30
0.0
 10
108.656494749485
 20
140.217469434301
 30
0.0
 10
108.6910733731212
 20
139.8564309437604
 30
0.0
 10
108.7803517947386
 20
139.3809293017682
 30
0.0
 10
108.8482921022506
 20
139.143916836721
 30
0.0
 10
108.8871829626
 20
139.0271467604
 30
0.0
 11
108.5952309019
 21
140.4470403502
 31
0.0
 11
108.7159485383
 21
139.7445221424
 31
0.0
 11
108.7859637257
 21
139.3822304319
 31
0.0
 11
108.8871829626
 21
139.0271467604
 31
0.0
  0
SPLINE
  5
861
330
1B
100
AcDbEntity
  8
0
  6
Continuous
100
AcDbSpline
210
0.0
220
0.0
230
1.0
 70
     8
 71
     3
 72
    11
 73
     7
 74
     5
 42
0.0000000001
 43
0.0000000001
 44
0.0000000001
 12
0.9903017614397665
 22
-0.138933154032059
 32
0.0
 13
0.1586561141476096
 23
0.9873339037243585
 33
0.0
 40
0.0
 40
0.0
 40
0.0
 40
0.0
 40
0.6975144020285136
 40
1.304828335996562
 40
1.646797528838593
 40
1.993086810872365
 40
1.993086810872365
 40
1.993086810872365
 40
1.993086810872365
 10
105.7310093246
 20
135.7457315749
 30
0.0
 10
105.9612592382528
 20
135.7134289496145
 30
0.0
 10
106.4033789604242
 20
135.721137795058
 30
0.0
 10
106.9351089170613
 20
135.9569401819448
 30
0.0
 10
107.1782646512125
 20
136.3269365227234
 30
0.0
 10
107.2446135680139
 20
136.5493586825839
 30
0.0
 10
107.2629272053
 20
136.6633263988
 30
0.0
 11
105.7310093246
 21
135.7457315749
 31
0.0
 11
106.4279960538
 21
135.7728579524
 31
0.0
 11
106.9682533402
 21
136.0502606901
 31
0.0
 11
107.1619441823
 21
136.3320882731
 31
0.0
 11
107.2629272053
 21
136.6633263988
 31
0.0
  0
SPLINE
  5
862
330
1B
100
AcDbEntity
  8
0
  6
Continuous
100
AcDbSpline
210
0.0
220
0.0
230
1.0
 70
     8
 71
     3
 72
    11
 73
     7
 74
     5
 42
0.0000000001
 43
0.0000000001
 44
0.0000000001
 12
0.2202321478741505
 22
0.975447487588511
 32
0.0
 13
-0.5389828861240613
 23
-0.8423167150575709
 33
0.0
 40
0.0
 40
0.0
 40
0.0
 40
0.0
 40
0.0765247660713191
 40
0.1530488470441534
 40
0.2295731481773085
 40
0.3060981158543117
 40
0.3060981158543117
 40
0.3060981158543117
 40
0.3060981158543117
 10
107.2629272053
 20
136.6633263988
 30
0.0
 10
107.2685449431658
 20
136.6882083624008
 30
0.0
 10
107.2588690941954
 20
136.7436175127521
 30
0.0
 10
107.1978492363276
 20
136.7986317620226
 30
0.0
 10
107.1158273139299
 20
136.8033516893838
 30
0.0
 10
107.069617825213
 20
136.7712836205645
 30
0.0
 10
107.0558692759
 20
136.7497975341
 30
0.0
 11
107.2629272053
 21
136.6633263988
 31
0.0
 11
107.251117962
 21
136.7389344777
 31
0.0
 11
107.1943489816
 21
136.7902493667
 31
0.0
 11
107.1179455148
 21
136.7945480787
 31
0.0
 11
107.0558692759
 21
136.7497975341
 31
0.0
  0
SPLINE
  5
863
330
1B
100
AcDbEntity
  8
0
  6
Continuous
100
AcDbSpline
210
0.0
220
0.0
230
1.0
 70
     8
 71
     3
 72
     9
 73
     5
 74
     3
 42
0.0000000001
 43
0.0000000001
 44
0.0000000001
 12
-0.5641123378047059
 22
-0.8256980503407462
 32
0.0
 13
-0.9980945714786418
 23
-0.0617027259111506
 33
0.0
 40
0.0
 40
0.0
 40
0.0
 40
0.0
 40
0.7727468994829886
 40
1.545493817198351
 40
1.545493817198351
 40
1.545493817198351
 40
1.545493817198351
 10
107.0558692759
 20
136.7497975341
 30
0.0
 10
106.9105639225671
 20
136.53711233133
 30
0.0
 10
106.51441349754
 20
136.1775553041408
 30
0.0
 10
106.0027142797329
 20
136.0214105074209
 30
0.0
 10
105.7456227785
 20
136.005516977
 30
0.0
 11
107.0558692759
 21
136.7497975341
 31
0.0
 11
106.4855263047
 21
136.2284083648
 31
0.0
 11
105.7456227785
 21
136.005516977
 31
0.0
  0
SPLINE
  5
864
330
1B
100
AcDbEntity
  8
0
  6
Continuous
100
AcDbSpline
210
0.0
220
0.0
230
1.0
 70
     8
 71
     3
 72
    11
 73
     7
 74
     5
 42
0.0000000001
 43
0.0000000001
 44
0.0000000001
 12
-0.9997864184188046
 22
-0.0206668223319187
 32
0.0
 13
0.9911692818355454
 23
-0.1326026196785309
 33
0.0
 40
0.0
 40
0.0
 40
0.0
 40
0.0
 40
0.0927301718626943
 40
0.1854591792156996
 40
0.2781880565923541
 40
0.3709181449390298
 40
0.3709181449390298
 40
0.3709181449390298
 40
0.3709181449390298
 10
105.7456227785
 20
136.005516977
 30
0.0
 10
105.7147193230314
 20
136.0048781643378
 30
0.0
 10
105.6525349453324
 20
135.9745983597024
 30
0.0
 10
105.6120688149496
 20
135.8827250631008
 30
0.0
 10
105.6419736639111
 20
135.7868913706655
 30
0.0
 10
105.7003722529096
 20
135.7498303257792
 30
0.0
 10
105.7310093246
 20
135.7457315749
 30
0.0
 11
105.7456227785
 21
136.005516977
 31
0.0
 11
105.6613363875
 21
135.9668557682
 31
0.0
 11
105.6237972587
 21
135.8820649514
 31
0.0
 11
105.6515889054
 21
135.7935987484
 31
0.0
 11
105.7310093246
 21
135.7457315749
 31
0.0
  0
SPLINE
  5
865
330
1B
100
AcDbEntity
  8
0
  6
Continuous
100
AcDbSpline
210
0.0
220
0.0
230
1.0
 70
     8
 71
     3
 72
    18
 73
    14
 74
    12
 42
0.0000000001
 43
0.0000000001
 44
0.0000000001
 12
0.5395858643439068
 22
-0.8419305761167242
 32
0.0
 13
-0.5892106348980239
 23
0.8079794723401501
 33
0.0
 40
0.0
 40
0.0
 40
0.0
 40
0.0
 40
0.2371720889180661
 40
0.5542941939402515
 40
0.7583016203917172
 40
0.9027174446298479
 40
1.688318133257377
 40
2.469019388325533
 40
3.220806149168995
 40
3.321550744543278
 40
3.378279271199998
 40
3.438448960167207
 40
3.512111202869902
 40
3.512111202869902
 40
3.512111202869902
 40
3.512111202869902
 10
104.3687897866
 20
136.2344207203
 30
0.0
 10
104.4114480221324
 20
136.1678599091461
 30
0.0
 10
104.5589884713177
 20
136.0185379566954
 30
0.0
 10
104.8702653528808
 20
136.1442439527376
 30
0.0
 10
104.9036957638983
 20
136.3858287909322
 30
0.0
 10
104.7653263905095
 20
136.7390828884865
 30
0.0
 10
104.832291610548
 20
137.3503125136642
 30
0.0
 10
105.2712703085973
 20
138.0176725993535
 30
0.0
 10
105.8038851905292
 20
138.2578684691368
 30
0.0
 10
106.0992295607004
 20
138.2926805583085
 30
0.0
 10
106.1764814737508
 20
138.2951340527818
 30
0.0
 10
106.2152939835059
 20
138.3571918189589
 30
0.0
 10
106.202607529497
 20
138.4058040687699
 30
0.0
 10
106.1881400039
 20
138.4256432621
 30
0.0
 11
104.3687897866
 21
136.2344207203
 31
0.0
 11
104.5523529073
 21
136.084236898
 31
0.0
 11
104.8471754617
 21
136.2010533819
 31
0.0
 11
104.8861142897
 21
136.4013102113
 31
0.0
 11
104.8471754617
 21
136.5403774539
 31
0.0
 11
104.8916769794
 21
137.3247167025
 31
0.0
 11
105.3311294661
 21
137.9699887084
 31
0.0
 11
106.0153403
 21
138.2814993319
 31
0.0
 11
106.1154687147
 21
138.2926247113
 31
0.0
 11
106.1710956117
 21
138.3037500907
 31
0.0
 11
106.20447175
 21
138.3538142981
 31
0.0
 11
106.1881400039
 21
138.4256432621
 31
0.0
  0
SPLINE
  5
866
330
1B
100
AcDbEntity
  8
0
  6
Continuous
100
AcDbSpline
210
0.0
220
0.0
230
1.0
 70
     8
 71
     3
 72
    14
 73
    10
 74
     8
 42
0.0000000001
 43
0.0000000001
 44
0.0000000001
 12
-0.5892106346545801
 22
0.8079794725176791
 32
0.0
 13
0.5395858642006768
 23
-0.8419305762085191
 33
0.0
 40
0.0
 40
0.0
 40
0.0
 40
0.0
 40
0.1075431024148326
 40
0.3766301315237504
 40
1.878700563093933
 40
2.125724074338137
 40
2.341739868383374
 40
3.172445211688692
 40
3.510363063984524
 40
3.510363063984524
 40
3.510363063984524
 40
3.510363063984524
 10
106.1881400039
 20
138.4256432621
 30
0.0
 10
106.1670181573578
 20
138.4546074684874
 30
0.0
 10
106.0370033622539
 20
138.5041808948311
 30
0.0
 10
105.4159194155825
 20
138.3400638519888
 30
0.0
 10
104.8807603383977
 20
137.9191094059797
 30
0.0
 10
104.3155193294558
 20
137.5787676071219
 30
0.0
 10
104.0623700349636
 20
137.2069746011786
 30
0.0
 10
104.2167457441922
 20
136.7072190809615
 30
0.0
 10
104.3080112211467
 20
136.3292551776649
 30
0.0
 10
104.3687897866
 20
136.2344207203
 30
0.0
 11
106.1881400039
 21
138.4256432621
 31
0.0
 11
106.0932179559
 21
138.4761934716
 31
0.0
 11
105.82620885
 21
138.4428173334
 31
0.0
 11
104.5189767691
 21
137.7029796025
 31
0.0
 11
104.3187199396
 21
137.5583496701
 31
0.0
 11
104.1963407661
 21
137.3803435995
 31
0.0
 11
104.2519676632
 21
136.5515028333
 31
0.0
 11
104.3687897866
 21
136.2344207203
 31
0.0
  0
SPLINE
  5
867
330
1B
100
AcDbEntity
  8
0
  6
Continuous
100
AcDbSpline
210
0.0
220
0.0
230
1.0
 70
     8
 71
     3
 72
    11
 73
     7
 74
     5
 42
0.0000000001
 43
0.0000000001
 44
0.0000000001
 12
-0.1098157870159896
 22
0.9939519570492624
 32
0.0
 13
-0.4660759615326576
 23
0.8847447078572489
 33
0.0
 40
0.0
 40
0.0
 40
0.0
 40
0.0
 40
0.1943210071326778
 40
2.252311089768012
 40
4.226558022587685
 40
4.943070250955343
 40
4.943070250955343
 40
4.943070250955343
 40
4.943070250955343
 10
110.7554899328
 20
132.4336448916
 30
0.0
 10
110.748376761356
 20
132.4980268067118
 30
0.0
 10
110.7298627232657
 20
133.2492277652866
 30
0.0
 10
110.7086999124672
 20
134.6706677387975
 30
0.0
 10
110.1642386882731
 20
136.1828376893785
 30
0.0
 10
109.7644996777621
 20
136.9845949389456
 30
0.0
 10
109.6531833025
 20
137.195905073
 30
0.0
 11
110.7554899328
 21
132.4336448916
 31
0.0
 11
110.7452359824
 21
132.6276951694
 31
0.0
 11
110.5931116835
 21
134.6800551227
 31
0.0
 11
109.9709204615
 21
136.5536957059
 31
0.0
 11
109.6531833025
 21
137.195905073
 31
0.0
  0
SPLINE
  5
868
330
1B
100
AcDbEntity
  8
0
  6
Continuous
100
AcDbSpline
210
0.0
220
0.0
230
1.0
 70
     8
 71
     3
 72
    14
 73
    10
 74
     8
 42
0.0000000001
 43
0.0000000001
 44
0.0000000001
 12
-0.0002278813782245
 22
-0.9999999740350384
 32
0.0
 13
-0.9999999735392219
 23
-0.0002300468553838
 33
0.0
 40
0.0
 40
0.0
 40
0.0
 40
0.0
 40
0.5686430193020554
 40
1.284286240909089
 40
1.999928856906317
 40
2.715570806594521
 40
3.431212047518008
 40
4.146852548618398
 40
4.702218255555588
 40
4.702218255555588
 40
4.702218255555588
 40
4.702218255555588
 10
86.672761382
 20
126.5452807953
 30
0.0
 10
86.67271818761502
 20
126.3557331271209
 30
0.0
 10
86.63208110881683
 20
125.9266844524016
 30
0.0
 10
86.42711153924847
 20
125.2855738466112
 30
0.0
 10
86.05041184963747
 20
124.669076597804
 30
0.0
 10
85.53838864566416
 20
124.159324750939
 30
0.0
 10
84.92023392009968
 20
123.7853684691938
 30
0.0
 10
84.28245255142481
 20
123.5845878753341
 30
0.0
 10
83.85790078301395
 20
123.5453341113115
 30
0.0
 10
83.67277888560003
 20
123.5452915246
 30
0.0
 11
86.672761382
 21
126.5452807953
 31
0.0
 11
86.6188948291
 21
125.9791948673
 31
0.0
 11
86.40100070489999
 21
125.2975297213
 31
0.0
 11
86.0278577238
 21
124.6868672372
 31
0.0
 11
85.52069977909999
 21
124.1819571271
 31
0.0
 11
84.90838690649999
 21
123.8115312482
 31
0.0
 11
84.22576303460004
 21
123.5966685564
 31
0.0
 11
83.67277888560003
 21
123.5452915246
 31
0.0
  0
SPLINE
  5
869
330
1B
100
AcDbEntity
  8
0
  6
Continuous
100
AcDbSpline
210
0.0
220
0.0
230
1.0
 70
     8
 71
     3
 72
    10
 73
     6
 74
     4
 42
0.0000000001
 43
0.0000000001
 44
0.0000000001
 12
0.3529629871070349
 22
-0.9356372853475214
 32
0.0
 13
0.0030502461786604
 23
-0.9999953479883041
 33
0.0
 40
0.0
 40
0.0
 40
0.0
 40
0.0
 40
0.4904501294277326
 40
0.9971106689393239
 40
1.512889986508265
 40
1.512889986508265
 40
1.512889986508265
 40
1.512889986508265
 10
93.20967577219999
 20
116.345170059
 30
0.0
 10
93.26737935310327
 20
116.1922089164346
 30
0.0
 10
93.36503612672001
 20
115.8733269694895
 30
0.0
 10
93.44959923044368
 20
115.3751430147105
 30
0.0
 10
93.47129630923585
 20
115.0342062718859
 30
0.0
 10
93.4718207272
 20
114.8622806325
 30
0.0
 11
93.20967577219999
 21
116.345170059
 31
0.0
 11
93.35330569499999
 21
115.8762225409
 31
0.0
 11
93.44038385459999
 21
115.3771010162
 31
0.0
 11
93.4718207272
 21
114.8622806325
 31
0.0
  0
SPLINE
  5
86A
330
1B
100
AcDbEntity
  8
0
  6
Continuous
100
AcDbSpline
210
0.0
220
0.0
230
1.0
 70
     8
 71
     3
 72
    10
 73
     6
 74
     4
 42
0.0000000001
 43
0.0000000001
 44
0.0000000001
 12
0.3125393110623658
 22
-0.9499048263066473
 32
0.0
 13
0.3475219097011205
 23
-0.9376718627951286
 33
0.0
 40
0.0
 40
0.0
 40
0.0
 40
0.0
 40
1.268145985848152
 40
2.565601564729776
 40
3.887030947141931
 40
3.887030947141931
 40
3.887030947141931
 40
3.887030947141931
 10
93.4718207272
 20
114.8622806325
 30
0.0
 10
93.60393588478117
 20
114.4607413016938
 30
0.0
 10
93.87541828655246
 20
113.6497547302092
 30
0.0
 10
94.30080944036567
 20
112.4258694221846
 30
0.0
 10
94.59814179156298
 20
111.6050676690196
 30
0.0
 10
94.75121701239999
 20
111.1920452855
 30
0.0
 11
93.4718207272
 21
114.8622806325
 31
0.0
 11
93.8745874223
 21
113.659794362
 31
0.0
 11
94.3008182391
 21
112.4343482106
 31
0.0
 11
94.75121701239999
 21
111.1920452855
 31
0.0
  0
SPLINE
  5
86B
330
1B
100
AcDbEntity
  8
0
  6
Continuous
100
AcDbSpline
210
0.0
220
0.0
230
1.0
 70
     8
 71
     3
 72
    38
 73
    34
 74
    32
 42
0.0000000001
 43
0.0000000001
 44
0.0000000001
 12
0.3475093203133213
 22
-0.9376765286042802
 32
0.0
 13
0.9924018676012085
 23
-0.1230387466680043
 33
0.0
 40
0.0
 40
0.0
 40
0.0
 40
0.0
 40
2.341951491119431
 40
4.354208026992388
 40
6.080886052627507
 40
7.557552214794193
 40
8.817006106075443
 40
9.900969746286481
 40
10.83042977091856
 40
11.63127299906464
 40
12.32781566436257
 40
12.93141091486336
 40
13.45751878236517
 40
13.91807651247294
 40
14.3203667460373
 40
14.67567111104941
 40
14.99414068549112
 40
15.27884924821936
 40
15.53001840568602
 40
15.75298208664023
 40
15.95282586056286
 40
16.13415647812222
 40
16.30119125899903
 40
16.45753198875565
 40
16.60110882803373
 40
16.73038406724555
 40
16.84715671364259
 40
16.95324698926618
 40
17.0503366960073
 40
17.13994717735511
 40
17.22226537583717
 40
17.29583817666342
 40
17.31843905124968
 40
17.31843905124968
 40
17.31843905124968
 40
17.31843905124968
 10
94.75121701239999
 20
111.1920452855
 30
0.0
 10
95.02250033602856
 20
110.4600476373825
 30
0.0
 10
95.54465067437133
 20
109.1055601696235
 30
0.0
 10
96.33092451113355
 20
107.2369640060395
 30
0.0
 10
97.0572997148513
 20
105.6570794817103
 30
0.0
 10
97.72558390385977
 20
104.3276822293119
 30
0.0
 10
98.339224143824
 20
103.2115887830622
 30
0.0
 10
98.90170682861631
 20
102.2764769122769
 30
0.0
 10
99.41769585536949
 20
101.4927231689362
 30
0.0
 10
99.89080651467816
 20
100.8362438818496
 30
0.0
 10
100.324839291682
 20
100.2863383900329
 30
0.0
 10
100.7232045874213
 20
99.82575931532919
 30
0.0
 10
101.0880444512796
 20
99.44094599883755
 30
0.0
 10
101.4218575893183
 20
99.11989038615269
 30
0.0
 10
101.7272765274493
 20
98.85210010020562
 30
0.0
 10
102.0075771273891
 20
98.62809865470658
 30
0.0
 10
102.2660145899652
 20
98.44006771583329
 30
0.0
 10
102.5036256117263
 20
98.28292150015669
 30
0.0
 10
102.7205149028009
 20
98.15261638047983
 30
0.0
 10
102.917763555981
 20
98.04495075481481
 30
0.0
 10
103.0982322502086
 20
97.95548229341586
 30
0.0
 10
103.2649264656038
 20
97.88051142255446
 30
0.0
 10
103.4207818320007
 20
97.81707592731281
 30
0.0
 10
103.5669425945549
 20
97.7634676071269
 30
0.0
 10
103.7028662298211
 20
97.71875153429411
 30
0.0
 10
103.8274795246288
 20
97.68208778533278
 30
0.0
 10
103.9410247982791
 20
97.65227102442702
 30
0.0
 10
104.0448881304634
 20
97.62799335025748
 30
0.0
 10
104.1404628627411
 20
97.60818218443573
 30
0.0
 10
104.2286808426914
 20
97.59205167541444
 30
0.0
 10
104.3094895880076
 20
97.57910184775381
 30
0.0
 10
104.3684186339451
 20
97.57086971531223
 30
0.0
 10
104.4002213211171
 20
97.56683168656089
 30
0.0
 10
104.4076977045
 20
97.56590475879999
 30
0.0
 11
94.75121701239999
 21
111.1920452855
 31
0.0
 11
95.59600762749999
 21
109.0077683792
 31
0.0
 11
96.3786447674
 21
107.1539465233
 31
0.0
 11
97.10186887709999
 21
105.5860294683
 31
0.0
 11
97.7667890144
 21
104.2675363263
 31
0.0
 11
98.37501314040001
 21
103.1646820672
 31
0.0
 11
98.93496286790003
 21
102.236547661
 31
0.0
 11
99.44706961610002
 21
101.4608914125
 31
0.0
 11
99.91612404920001
 21
100.8117860167
 31
0.0
 11
100.3483501503
 21
100.265569684
 31
0.0
 11
100.7437475196
 21
99.80951250910002
 31
0.0
 11
101.1061443353
 21
99.42812289699999
 31
0.0
 11
101.4384152217
 21
99.1092036583
 31
0.0
 11
101.7411427085
 21
98.8442630975
 31
0.0
 11
102.0188855582
 21
98.62267767100001
 31
0.0
 11
102.2765448781
 21
98.4355024998
 31
0.0
 11
102.5141177801
 21
98.27860099590001
 31
0.0
 11
102.729487597
 21
98.14936559970001
 31
0.0
 11
102.9252420882
 21
98.04262768610001
 31
0.0
 11
103.1043230133
 21
97.95392844010002
 31
0.0
 11
103.2697202046
 21
97.87960104290001
 31
0.0
 11
103.4244470757
 21
97.8166708166
 31
0.0
 11
103.5712382153
 21
97.7628676093
 31
0.0
 11
103.7076321945
 21
97.7180235326
 31
0.0
 11
103.8316559156
 21
97.68155156969999
 31
0.0
 11
103.9446023997
 21
97.65190460229999
 31
0.0
 11
104.0479099526
 21
97.62776550339999
 31
0.0
 11
104.1429799379
 21
97.6080650199
 31
0.0
 11
104.2311297283
 21
97.5919512736
 31
0.0
 11
104.3124113191
 21
97.57892864719997
 31
0.0
 11
104.3852768329
 21
97.56875151990001
 31
0.0
 11
104.4076977045
 21
97.56590475879999
 31
0.0
  0
SPLINE
  5
86C
330
1B
100
AcDbEntity
  8
0
  6
Continuous
100
AcDbSpline
210
0.0
220
0.0
230
1.0
 70
     8
 71
     3
 72
    14
 73
    10
 74
     8
 42
0.0000000001
 43
0.0000000001
 44
0.0000000001
 12
0.9924018675957835
 22
-0.1230387467117616
 32
0.0
 13
0.9978932214761764
 23
-0.0648777198420141
 33
0.0
 40
0.0
 40
0.0
 40
0.0
 40
0.0
 40
0.0422687537263811
 40
0.0981849620380553
 40
0.1442833633559602
 40
0.1798867617843161
 40
0.2046826518081427
 40
0.2184038259825217
 40
0.2222165703863148
 40
0.2222165703863148
 40
0.2222165703863148
 40
0.2222165703863148
 10
104.4076977045
 20
97.56590475879999
 30
0.0
 10
104.4216802345463
 20
97.56417119397213
 30
0.0
 10
104.4541822773871
 20
97.56032316036371
 30
0.0
 10
104.5020136288111
 20
97.55528219296321
 30
0.0
 10
104.5476950991716
 20
97.55108611901343
 30
0.0
 10
104.5830789596334
 20
97.5482199177566
 30
0.0
 10
104.6077204341603
 20
97.54642173113324
 30
0.0
 10
104.6217980307349
 20
97.54546651049745
 30
0.0
 10
104.6276301654348
 20
97.54508437815441
 30
0.0
 10
104.6288984027
 20
97.54500192409999
 30
0.0
 11
104.4076977045
 21
97.56590475879999
 31
0.0
 11
104.4496733322
 21
97.5609354308
 31
0.0
 11
104.505281635
 21
97.555075481
 31
0.0
 11
104.5511868124
 21
97.5508591684
 31
0.0
 11
104.5866739873
 21
97.54798472979999
 31
0.0
 11
104.6114041201
 21
97.5461800986
 31
0.0
 11
104.6250938163
 21
97.54525120750002
 31
0.0
 11
104.6288984027
 21
97.54500192409999
 31
0.0
  0
SPLINE
  5
86D
330
1B
100
AcDbEntity
  8
0
  6
Continuous
100
AcDbSpline
210
0.0
220
0.0
230
1.0
 70
     8
 71
     3
 72
    10
 73
     6
 74
     4
 42
0.0000000001
 43
0.0000000001
 44
0.0000000001
 12
0.9384906957331026
 22
0.3453045236054649
 32
0.0
 13
0.6966444473686984
 23
0.7174165553918874
 33
0.0
 40
0.0
 40
0.0
 40
0.0
 40
0.0
 40
0.9258289472906062
 40
1.824364659081526
 40
2.627551327040658
 40
2.627551327040658
 40
2.627551327040658
 40
2.627551327040658
 10
89.16665039750001
 20
116.4738877087
 30
0.0
 10
89.45627768179088
 20
116.5804520165615
 30
0.0
 10
90.01363616259965
 20
116.8289379008929
 30
0.0
 10
90.76333685441684
 20
117.2857010266608
 30
0.0
 10
91.20272835155524
 20
117.6499518583454
 30
0.0
 10
91.3892401957
 20
117.8420249959
 30
0.0
 11
89.16665039750001
 21
116.4738877087
 31
0.0
 11
90.01249060550001
 21
116.8503363535
 31
0.0
 11
90.77767578290001
 21
117.3213544738
 31
0.0
 11
91.3892401957
 21
117.8420249959
 31
0.0
  0
SPLINE
  5
86E
330
1B
100
AcDbEntity
  8
0
  6
Continuous
100
AcDbSpline
210
0.0
220
0.0
230
1.0
 70
     8
 71
     3
 72
    11
 73
     7
 74
     5
 42
0.0000000001
 43
0.0000000001
 44
0.0000000001
 12
0.6527561851626205
 22
0.7575680581518354
 32
0.0
 13
0.4567888423874572
 23
0.8895751533571107
 33
0.0
 40
0.0
 40
0.0
 40
0.0
 40
0.0
 40
0.7840381541576191
 40
1.557158365003962
 40
2.268044581660439
 40
2.870202175778428
 40
2.870202175778428
 40
2.870202175778428
 40
2.870202175778428
 10
91.50613824790001
 20
114.0414961472
 30
0.0
 10
91.67673349940996
 20
114.239483567854
 30
0.0
 10
92.01985362602517
 20
114.6290841800904
 30
0.0
 10
92.4837709705254
 20
115.2268706549278
 30
0.0
 10
92.88134724679236
 20
115.7970469720983
 30
0.0
 10
93.11798947238268
 20
116.1666152553225
 30
0.0
 10
93.2096757625
 20
116.3451700667
 30
0.0
 11
91.50613824790001
 21
114.0414961472
 31
0.0
 11
92.0160200509
 21
114.6370936406
 31
0.0
 11
92.49087496110001
 21
115.247198283
 31
0.0
 11
92.89808367809999
 21
115.8298991272
 31
0.0
 11
93.2096757625
 21
116.3451700667
 31
0.0
  0
SPLINE
  5
86F
330
1B
100
AcDbEntity
  8
0
  6
Continuous
100
AcDbSpline
210
0.0
220
0.0
230
1.0
 70
     8
 71
     3
 72
    10
 73
     6
 74
     4
 42
0.0000000001
 43
0.0000000001
 44
0.0000000001
 12
0.9547282433418248
 22
0.2974793797314921
 32
0.0
 13
0.8626921949121497
 23
0.5057293513705307
 33
0.0
 40
0.0
 40
0.0
 40
0.0
 40
0.0
 40
0.7551833861668941
 40
1.480585348702841
 40
2.13380255693022
 40
2.13380255693022
 40
2.13380255693022
 40
2.13380255693022
 10
91.50613824790001
 20
114.0414961472
 30
0.0
 10
91.74646988379203
 20
114.1163799756335
 30
0.0
 10
92.21483820315096
 20
114.2733318013181
 30
0.0
 10
92.8712108707587
 20
114.5481554936898
 30
0.0
 10
93.28397893309331
 20
114.7521635880597
 30
0.0
 10
93.4718207288
 20
114.8622806264
 30
0.0
 11
91.50613824790001
 21
114.0414961472
 31
0.0
 11
92.2208954459
 21
114.2852667251
 31
0.0
 11
92.8902854757
 21
114.5647752138
 31
0.0
 11
93.4718207288
 21
114.8622806264
 31
0.0
  0
SPLINE
  5
870
330
1B
100
AcDbEntity
  8
0
  6
Continuous
100
AcDbSpline
210
0.0
220
0.0
230
1.0
 70
     8
 71
     3
 72
    44
 73
    40
 74
    38
 42
0.0000000001
 43
0.0000000001
 44
0.0000000001
 12
0.4149937624209484
 22
-0.9098242561900102
 32
0.0
 13
0.9986104422020248
 23
-0.0526990011772193
 33
0.0
 40
0.0
 40
0.0
 40
0.0
 40
0.0
 40
2.304446657669927
 40
4.294515224385614
 40
6.011985903488531
 40
7.490223572289041
 40
8.759939690446668
 40
9.861149829745596
 40
10.81321296105699
 40
11.64070880568291
 40
12.36701761705573
 40
13.00233599835658
 40
13.56136546309049
 40
14.05537917594677
 40
14.49088422292702
 40
14.87894232949669
 40
15.22972065280331
 40
15.54582192816287
 40
15.82673667166733
 40
16.07775639445265
 40
16.30407719717967
 40
16.51051295593374
 40
16.70156520373087
 40
16.88113464737556
 40
17.04665226841707
 40
17.19615239081747
 40
17.33155044493615
 40
17.45483310584447
 40
17.56786328173204
 40
17.67234505755036
 40
17.76844479544697
 40
17.8544217846923
 40
17.93028762684551
 40
17.99572246486312
 40
18.04969246957807
 40
18.09138759323994
 40
18.12042564050773
 40
18.13649442210084
 40
18.14125216474049
 40
18.14125216474049
 40
18.14125216474049
 40
18.14125216474049
 10
93.0061200995
 20
110.5452805796
 30
0.0
 10
93.32489709575494
 20
109.846400090852
 30
0.0
 10
93.9387738390045
 20
108.5528469206473
 30
0.0
 10
94.86071097783082
 20
106.7730459884176
 30
0.0
 10
95.71240406603098
 20
105.2683493497591
 30
0.0
 10
96.49593125437681
 20
104.0023223117268
 30
0.0
 10
97.21536828100888
 20
102.9395025077472
 30
0.0
 10
97.87479734431071
 20
102.0490914625257
 30
0.0
 10
98.47966765731809
 20
101.3028854892173
 30
0.0
 10
99.03425108225181
 20
100.6778943453135
 30
0.0
 10
99.542988492973
 20
100.1544159890641
 30
0.0
 10
100.0098683095772
 20
99.71602307195701
 30
0.0
 10
100.4374281015446
 20
99.34977206238722
 30
0.0
 10
100.8285898918512
 20
99.04423164445237
 30
0.0
 10
101.1864582922992
 20
98.78939362161896
 30
0.0
 10
101.5149060766908
 20
98.57621583897948
 30
0.0
 10
101.8177328280954
 20
98.39726984680749
 30
0.0
 10
102.0961273605857
 20
98.24772863440124
 30
0.0
 10
102.350232733707
 20
98.12373035187034
 30
0.0
 10
102.5813415909228
 20
98.02126590802912
 30
0.0
 10
102.7928073911132
 20
97.93610992571851
 30
0.0
 10
102.9881503883556
 20
97.86474451344887
 30
0.0
 10
103.1708075436257
 20
97.80435335049398
 30
0.0
 10
103.3421047552748
 20
97.75331654581551
 30
0.0
 10
103.501397852169
 20
97.7107462347735
 30
0.0
 10
103.6474390076355
 20
97.67584016772831
 30
0.0
 10
103.7805171849386
 20
97.64745040277677
 30
0.0
 10
103.9022549134839
 20
97.62433283078548
 30
0.0
 10
104.0142832995645
 20
97.60546707510704
 30
0.0
 10
104.1176918583012
 20
97.59010562376116
 30
0.0
 10
104.2124166870804
 20
97.57777288542913
 30
0.0
 10
104.2978525214481
 20
97.56807628232011
 30
0.0
 10
104.3732483522727
 20
97.56064028594828
 30
0.0
 10
104.4381028155445
 20
97.55508702028754
 30
0.0
 10
104.4916547548546
 20
97.55109042967121
 30
0.0
 10
104.533133151484
 20
97.54836056533159
 30
0.0
 10
104.5620165485109
 20
97.54664802848033
 30
0.0
 10
104.5786128926731
 20
97.54573303551877
 30
0.0
 10
104.5855452608062
 20
97.54536415569498
 30
0.0
 10
104.5871289713
 20
97.54528057959999
 30
0.0
 11
93.0061200995
 21
110.5452805796
 31
0.0
 11
93.99657954229998
 21
108.4645440537
 31
0.0
 11
94.91414272500001
 21
106.6986304924
 31
0.0
 11
95.76205940559999
 21
105.2050633408
 31
0.0
 11
96.5416183067
 21
103.9490878135
 31
0.0
 11
97.2547083215
 21
102.898525273
 31
0.0
 11
97.91120071899999
 21
102.0143977353
 31
0.0
 11
98.511601752
 21
101.2755183097
 31
0.0
 11
99.0615277524
 21
100.6571892978
 31
0.0
 11
99.56827566950003
 21
100.1368710894
 31
0.0
 11
100.0318451113
 21
99.70243718389999
 31
0.0
 11
100.4567242363
 21
99.33913060320001
 31
0.0
 11
100.8462832768
 21
99.03533247540003
 31
0.0
 11
101.2012052317
 21
98.78295368889999
 31
0.0
 11
101.5268348354
 21
98.57187442590001
 31
0.0
 11
101.8289182046
 21
98.39357392069999
 31
0.0
 11
102.1074519742
 21
98.24411169980002
 31
0.0
 11
102.3599545398
 21
98.12100383049999
 31
0.0
 11
102.5894598213
 21
98.01932675839998
 31
0.0
 11
102.7994167772
 21
97.93483307569998
 31
0.0
 11
102.9933307311
 21
97.8640298203
 31
0.0
 11
103.1747346522
 21
97.8040833542
 31
0.0
 11
103.3468346162
 21
97.75283115930002
 31
0.0
 11
103.5067448038
 21
97.71011330850001
 31
0.0
 11
103.6521519292
 21
97.67537061889999
 31
0.0
 11
103.7845719519
 21
97.64712932560001
 31
0.0
 11
103.905691166
 21
97.62413475110002
 31
0.0
 11
104.0171525603
 21
97.6053683385
 31
0.0
 11
104.120500647
 21
97.59001860059999
 31
0.0
 11
104.2157963508
 21
97.57761342180002
 31
0.0
 11
104.301225019
 21
97.56791881869999
 31
0.0
 11
104.3767246233
 21
97.5604732995
 31
0.0
 11
104.4419209254
 21
97.55489116559998
 31
0.0
 11
104.4957412719
 21
97.55087473540002
 31
0.0
 11
104.5373463925
 21
97.54813661980001
 31
0.0
 11
104.5663335336
 21
97.5464179459
 31
0.0
 11
104.58237795
 21
97.54553338709999
 31
0.0
 11
104.5871289713
 21
97.54528057959999
 31
0.0
  0
SPLINE
  5
871
330
1B
100
AcDbEntity
  8
0
  6
Continuous
100
AcDbSpline
210
0.0
220
0.0
230
1.0
 70
     8
 71
     3
 72
    14
 73
    10
 74
     8
 42
0.0000000001
 43
0.0000000001
 44
0.0000000001
 12
0.5437706804125051
 22
-0.8392338453159055
 32
0.0
 13
0.3704423100525119
 23
-0.928855475799631
 33
0.0
 40
0.0
 40
0.0
 40
0.0
 40
0.0
 40
0.1683255470568264
 40
0.7020429809064536
 40
1.645106756731239
 40
3.033611073404241
 40
4.915348700085273
 40
7.274601892956416
 40
9.913366848824586
 40
9.913366848824586
 40
9.913366848824586
 40
9.913366848824586
 10
86.672779107
 20
126.5452805796
 30
0.0
 10
86.70328927275129
 20
126.4981924142262
 30
0.0
 10
86.83036843854453
 20
126.3016888787385
 30
0.0
 10
87.12645218906599
 20
125.8401198344356
 30
0.0
 10
87.63553224923112
 20
125.0319853128108
 30
0.0
 10
88.36692307327036
 20
123.8329419245952
 30
0.0
 10
89.30596220818029
 20
122.2079505010717
 30
0.0
 10
90.37638511309788
 20
120.1790411093845
 30
0.0
 10
91.06337905215418
 20
118.6590354198021
 30
0.0
 10
91.38921578079999
 20
117.8420249936
 30
0.0
 11
86.672779107
 21
126.5452805796
 31
0.0
 11
86.76418585349997
 21
126.4039359777
 31
0.0
 11
87.05233372200001
 21
125.9546864868
 31
0.0
 11
87.55483342479998
 21
125.156649311
 31
0.0
 11
88.27730304220002
 21
123.9709082392
 31
0.0
 11
89.21694406420001
 21
122.340567402
 31
0.0
 11
90.31269744499998
 21
120.2512133974
 31
0.0
 11
91.38921578079999
 21
117.8420249936
 31
0.0
  0
SPLINE
  5
872
330
1B
100
AcDbEntity
  8
0
  6
Continuous
100
AcDbSpline
210
0.0
220
0.0
230
1.0
 70
     8
 71
     3
 72
    14
 73
    10
 74
     8
 42
0.0000000001
 43
0.0000000001
 44
0.0000000001
 12
0.6805652950991157
 22
-0.7326874361599588
 32
0.0
 13
0.4963800352188584
 23
-0.8681053280772587
 33
0.0
 40
0.0
 40
0.0
 40
0.0
 40
0.0
 40
0.156628670260127
 40
0.6525208285964037
 40
1.526047822682712
 40
2.805236571171526
 40
4.52352981143423
 40
6.647338334154502
 40
8.972133881350857
 40
8.972133881350857
 40
8.972133881350857
 40
8.972133881350857
 10
83.672779107
 20
123.5452805796
 30
0.0
 10
83.70831111939886
 20
123.5070272933193
 30
0.0
 10
83.8561884104804
 20
123.347522975608
 30
0.0
 10
84.20052864300939
 20
122.9731022010892
 30
0.0
 10
84.79229905583217
 20
122.3178883658283
 30
0.0
 10
85.6418247984038
 20
121.3465622479855
 30
0.0
 10
86.73139143246154
 20
120.0319243989994
 30
0.0
 10
87.97267477976625
 20
118.3923737226824
 30
0.0
 10
88.78198969886869
 20
117.1466078829705
 30
0.0
 10
89.16665039740001
 20
116.4738854159
 30
0.0
 11
83.672779107
 21
123.5452805796
 31
0.0
 11
83.77926599849997
 21
123.4304194361
 31
0.0
 11
84.11492069620002
 21
123.0653920993
 31
0.0
 11
84.7002566191
 21
122.4169853853
 31
0.0
 11
85.541798727
 21
121.4535899655
 31
0.0
 11
86.63630223940002
 21
120.1289791846
 31
0.0
 11
87.91259411929997
 21
118.4314392945
 31
0.0
 11
89.16665039740001
 21
116.4738854159
 31
0.0
  0
SPLINE
  5
873
330
1B
100
AcDbEntity
  8
0
  6
Continuous
100
AcDbSpline
210
0.0
220
0.0
230
1.0
 70
     8
 71
     3
 72
    10
 73
     6
 74
     4
 42
0.0000000001
 43
0.0000000001
 44
0.0000000001
 12
0.4964700443551838
 22
-0.8680538549294981
 32
0.0
 13
0.8280180293018778
 23
-0.5607014741830404
 33
0.0
 40
0.0
 40
0.0
 40
0.0
 40
0.0
 40
0.9714052466334577
 40
2.103715797651161
 40
3.400675304530228
 40
3.400675304530228
 40
3.400675304530228
 40
3.400675304530228
 10
89.16665039740001
 20
116.4738854159
 30
0.0
 10
89.32740826602766
 20
116.1928080595537
 30
0.0
 10
89.72707890108903
 20
115.6125972987339
 30
0.0
 10
90.50743218991045
 20
114.7849325984735
 30
0.0
 10
91.14816962957657
 20
114.2838985163543
 30
0.0
 10
91.50613824790001
 20
114.0414961472
 30
0.0
 11
89.16665039740001
 21
116.4738854159
 31
0.0
 11
89.71422157140002
 21
115.6715176931
 31
0.0
 11
90.48774631889999
 21
114.8446037623
 31
0.0
 11
91.50613824790001
 21
114.0414961472
 31
0.0
  0
SPLINE
  5
874
330
1B
100
AcDbEntity
  8
0
  6
Continuous
100
AcDbSpline
210
0.0
220
0.0
230
1.0
 70
     8
 71
     3
 72
    10
 73
     6
 74
     4
 42
0.0000000001
 43
0.0000000001
 44
0.0000000001
 12
0.3753481583313482
 22
-0.9268838978196058
 32
0.0
 13
0.4149999845429228
 23
-0.9098214180977352
 33
0.0
 40
0.0
 40
0.0
 40
0.0
 40
0.0
 40
1.239004425261161
 40
2.508787161792347
 40
3.80466256704854
 40
3.80466256704854
 40
3.80466256704854
 40
3.80466256704854
 10
91.50613824790001
 20
114.0414961472
 30
0.0
 10
91.66115759096206
 20
113.6586917301661
 30
0.0
 10
91.9797416651997
 20
112.8854625706681
 30
0.0
 10
92.47856495244467
 20
111.7194195194152
 30
0.0
 10
92.82685734178304
 20
110.9382856458961
 30
0.0
 10
93.0061200995
 20
110.5452805796
 30
0.0
 11
91.50613824790001
 21
114.0414961472
 31
0.0
 11
91.97835493920002
 21
112.8960078835
 31
0.0
 11
92.47806196729999
 21
111.7286856983
 31
0.0
 11
93.0061200995
 21
110.5452805796
 31
0.0
  0
SPLINE
  5
875
330
1B
100
AcDbEntity
  8
0
  6
Continuous
100
AcDbSpline
210
0.0
220
0.0
230
1.0
 70
     8
 71
     3
 72
    10
 73
     6
 74
     4
 42
0.0000000001
 43
0.0000000001
 44
0.0000000001
 12
0.6237962613593107
 22
-0.7815869908808275
 32
0.0
 13
0.8756883511474505
 23
-0.4828767044128962
 33
0.0
 40
0.0
 40
0.0
 40
0.0
 40
0.0
 40
0.6678118283383063
 40
1.454009695157369
 40
2.370329519561641
 40
2.370329519561641
 40
2.370329519561641
 40
2.370329519561641
 10
91.38921578079999
 20
117.8420249936
 30
0.0
 10
91.52807528806964
 20
117.6680406478048
 30
0.0
 10
91.85604967841498
 20
117.3091262907995
 30
0.0
 10
92.46150662356506
 20
116.7982142588224
 30
0.0
 10
92.94220557348122
 20
116.4926598913322
 30
0.0
 10
93.20967577219999
 20
116.345170059
 30
0.0
 11
91.38921578079999
 21
117.8420249936
 31
0.0
 11
91.83850637240001
 21
117.3479494909
 31
0.0
 11
92.4380407645
 21
116.8393577111
 31
0.0
 11
93.20967577219999
 21
116.345170059
 31
0.0
  0
ENDSEC
  0
SECTION
  2
OBJECTS
  0
DICTIONARY
  5
876
330
0
100
AcDbDictionary
281
     1
  3
ACAD_COLOR
350
9EF
  3
ACAD_GROUP
350
877
  3
ACAD_LAYOUT
350
9F0
  3
ACAD_MATERIAL
350
9EE
  3
ACAD_MLINESTYLE
350
878
  3
ACAD_PLOTSETTINGS
350
9F1
  3
ACAD_PLOTSTYLENAME
350
9EC
  3
ACDBHEADERROUNDTRIPXREC
350
A09
  3
AcDbVariableDictionary
350
9FC
  3
DWGPROPS
350
A0C
  0
DICTIONARY
  5
9EF
102
{ACAD_REACTORS
330
876
102
}
330
876
100
AcDbDictionary
281
     1
  0
DICTIONARY
  5
877
102
{ACAD_REACTORS
330
876
102
}
330
876
100
AcDbDictionary
281
     1
  0
DICTIONARY
  5
9F0
102
{ACAD_REACTORS
330
876
102
}
330
876
100
AcDbDictionary
281
     1
  3
Layout1
350
9F3
  3
Model
350
9F2
  0
DICTIONARY
  5
9EE
102
{ACAD_REACTORS
330
876
102
}
330
876
100
AcDbDictionary
281
     1
  0
DICTIONARY
  5
878
102
{ACAD_REACTORS
330
876
102
}
330
876
100
AcDbDictionary
281
     1
  3
STANDARD
350
879
  0
DICTIONARY
  5
9F1
102
{ACAD_REACTORS
330
876
102
}
330
876
100
AcDbDictionary
281
     1
  0
ACDBDICTIONARYWDFLT
  5
9EC
102
{ACAD_REACTORS
330
876
102
}
330
876
100
AcDbDictionary
281
     1
  3
Normal
350
9ED
100
AcDbDictionaryWithDefault
340
9ED
  0
DICTIONARY
  5
A09
102
{ACAD_REACTORS
330
876
102
}
330
876
100
AcDbDictionary
281
     1
  3
COLORDICT
350
A0A
  3
MATERIALDICT
350
A0B
  0
DICTIONARY
  5
9FC
102
{ACAD_REACTORS
330
876
102
}
330
876
100
AcDbDictionary
281
     1
  0
XRECORD
  5
A0C
102
{ACAD_REACTORS
330
876
102
}
330
876
100
AcDbXrecord
280
     1
  1
DWGPROPS COOKIE
  2

  3

  4

  6

  7

  8

  9

300
=
301
=
302
=
303
=
304
=
305
=
306
=
307
=
308
=
309
=
 40
0.0
 41
2444972.0
 42
2453691.649026782
  1

 90
        0
  0
LAYOUT
  5
9F3
102
{ACAD_REACTORS
330
9F0
102
}
330
9F0
100
AcDbPlotSettings
  1

  2
Microsoft Office Document Image Writer
  4

  6

 40
0.0
 41
0.0
 42
0.0
 43
0.0
 44
0.0
 45
0.0
 46
0.0
 47
0.0
 48
0.0
 49
0.0
140
0.0
141
0.0
142
1.0
143
1.0
 70
   688
 72
     0
 73
     0
 74
     5
  7

 75
    16
147
1.0
148
0.0
149
0.0
100
AcDbLayout
  1
Layout1
 70
     0
 71
     1
 10
0.0
 20
0.0
 11
12.0
 21
9.0
 12
0.0
 22
0.0
 32
0.0
 14
1.000000000000000E+20
 24
1.000000000000000E+20
 34
1.000000000000000E+20
 15
-1.000000000000000E+20
 25
-1.000000000000000E+20
 35
-1.000000000000000E+20
146
0.0
 13
0.0
 23
0.0
 33
0.0
 16
1.0
 26
0.0
 36
0.0
 17
0.0
 27
1.0
 37
0.0
 76
     0
330
1C
  0
LAYOUT
  5
9F2
102
{ACAD_REACTORS
330
9F0
102
}
330
9F0
100
AcDbPlotSettings
  1

  2
Microsoft Office Document Image Writer
  4

  6

 40
0.0
 41
0.0
 42
0.0
 43
0.0
 44
0.0
 45
0.0
 46
0.0
 47
0.0
 48
0.0
 49
0.0
140
0.0
141
0.0
142
1.0
143
1.0
 70
  1712
 72
     0
 73
     0
 74
     0
  7

 75
     0
147
1.0
148
0.0
149
0.0
100
AcDbLayout
  1
Model
 70
     1
 71
     0
 10
0.0
 20
0.0
 11
12.0
 21
9.0
 12
0.0
 22
0.0
 32
0.0
 14
0.0
 24
0.0
 34
0.0
 15
0.0
 25
0.0
 35
0.0
146
0.0
 13
0.0
 23
0.0
 33
0.0
 16
1.0
 26
0.0
 36
0.0
 17
0.0
 27
1.0
 37
0.0
 76
     0
330
1B
  0
MLINESTYLE
  5
879
102
{ACAD_REACTORS
330
878
102
}
330
878
100
AcDbMlineStyle
  2
STANDARD
 70
     0
  3

 62
   256
 51
90.00000000000019
 52
90.00000000000019
 71
     2
 49
0.5
 62
   256
  6
BYLAYER
 49
-0.5
 62
   256
  6
BYLAYER
  0
ACDBPLACEHOLDER
  5
9ED
102
{ACAD_REACTORS
330
9EC
102
}
330
9EC
  0
XRECORD
  5
A0A
102
{ACAD_REACTORS
330
A09
102
}
330
A09
100
AcDbXrecord
280
     1
340
9EF
  0
XRECORD
  5
A0B
102
{ACAD_REACTORS
330
A09
102
}
330
A09
100
AcDbXrecord
280
     1
340
9EE
  0
ENDSEC
  0
EOF
