  0
SECTION
  2
HEADER
  9
$ACADVER
  1
AC1015
  9
$ACADMAINTVER
 70
     6
  9
$DWGCODEPAGE
  3
ANSI_1252
  9
$INSBASE
 10
0.0
 20
0.0
 30
0.0
  9
$EXTMIN
 10
53.64798451132355
 20
19.32833725488945
 30
-0.0008605300456423
  9
$EXTMAX
 10
152.0441825803
 20
98.04063806839531
 30
0.000573774241424
  9
$LIMMIN
 10
0.0
 20
0.0
  9
$LIMMAX
 10
420.0
 20
297.0
  9
$ORTHOMODE
 70
     1
  9
$REGENMODE
 70
     1
  9
$FILLMODE
 70
     1
  9
$QTEXTMODE
 70
     0
  9
$MIRRTEXT
 70
     0
  9
$LTSCALE
 40
1.0
  9
$ATTMODE
 70
     1
  9
$TEXTSIZE
 40
2.5
  9
$TRACEWID
 40
1.0
  9
$TEXTSTYLE
  7
Standard
  9
$CLAYER
  8
0
  9
$CELTYPE
  6
ByLayer
  9
$CECOLOR
 62
   256
  9
$CELTSCALE
 40
1.0
  9
$DISPSILH
 70
     0
  9
$DIMSCALE
 40
1.0
  9
$DIMASZ
 40
2.5
  9
$DIMEXO
 40
0.625
  9
$DIMDLI
 40
3.75
  9
$DIMRND
 40
0.0
  9
$DIMDLE
 40
0.0
  9
$DIMEXE
 40
1.25
  9
$DIMTP
 40
0.0
  9
$DIMTM
 40
0.0
  9
$DIMTXT
 40
2.5
  9
$DIMCEN
 40
2.5
  9
$DIMTSZ
 40
0.0
  9
$DIMTOL
 70
     0
  9
$DIMLIM
 70
     0
  9
$DIMTIH
 70
     0
  9
$DIMTOH
 70
     0
  9
$DIMSE1
 70
     0
  9
$DIMSE2
 70
     0
  9
$DIMTAD
 70
     1
  9
$DIMZIN
 70
     8
  9
$DIMBLK
  1

  9
$DIMASO
 70
     1
  9
$DIMSHO
 70
     1
  9
$DIMPOST
  1

  9
$DIMAPOST
  1

  9
$DIMALT
 70
     0
  9
$DIMALTD
 70
     3
  9
$DIMALTF
 40
0.03937007874016
  9
$DIMLFAC
 40
1.0
  9
$DIMTOFL
 70
     1
  9
$DIMTVP
 40
0.0
  9
$DIMTIX
 70
     0
  9
$DIMSOXD
 70
     0
  9
$DIMSAH
 70
     0
  9
$DIMBLK1
  1

  9
$DIMBLK2
  1

  9
$DIMSTYLE
  2
ISO-25
  9
$DIMCLRD
 70
     0
  9
$DIMCLRE
 70
     0
  9
$DIMCLRT
 70
     0
  9
$DIMTFAC
 40
1.0
  9
$DIMGAP
 40
0.625
  9
$DIMJUST
 70
     0
  9
$DIMSD1
 70
     0
  9
$DIMSD2
 70
     0
  9
$DIMTOLJ
 70
     0
  9
$DIMTZIN
 70
     8
  9
$DIMALTZ
 70
     0
  9
$DIMALTTZ
 70
     0
  9
$DIMUPT
 70
     0
  9
$DIMDEC
 70
     2
  9
$DIMTDEC
 70
     2
  9
$DIMALTU
 70
     2
  9
$DIMALTTD
 70
     3
  9
$DIMTXSTY
  7
Standard
  9
$DIMAUNIT
 70
     0
  9
$DIMADEC
 70
     0
  9
$DIMALTRND
 40
0.0
  9
$DIMAZIN
 70
     0
  9
$DIMDSEP
 70
    44
  9
$DIMATFIT
 70
     3
  9
$DIMFRAC
 70
     0
  9
$DIMLDRBLK
  1

  9
$DIMLUNIT
 70
     2
  9
$DIMLWD
 70
    -2
  9
$DIMLWE
 70
    -2
  9
$DIMTMOVE
 70
     0
  9
$LUNITS
 70
     2
  9
$LUPREC
 70
     4
  9
$SKETCHINC
 40
1.0
  9
$FILLETRAD
 40
0.0
  9
$AUNITS
 70
     0
  9
$AUPREC
 70
     0
  9
$MENU
  1
.
  9
$ELEVATION
 40
0.0
  9
$PELEVATION
 40
0.0
  9
$THICKNESS
 40
0.0
  9
$LIMCHECK
 70
     0
  9
$CHAMFERA
 40
0.0
  9
$CHAMFERB
 40
0.0
  9
$CHAMFERC
 40
0.0
  9
$CHAMFERD
 40
0.0
  9
$SKPOLY
 70
     0
  9
$TDCREATE
 40
2453308.69662904
  9
$TDUCREATE
 40
2453308.654962373
  9
$TDUPDATE
 40
2453691.690179387
  9
$TDUUPDATE
 40
2453691.64851272
  9
$TDINDWG
 40
1.1037412731
  9
$TDUSRTIMER
 40
1.1037409722
  9
$USRTIMER
 70
     1
  9
$ANGBASE
 50
0.0
  9
$ANGDIR
 70
     0
  9
$PDMODE
 70
     0
  9
$PDSIZE
 40
0.0
  9
$PLINEWID
 40
0.0
  9
$SPLFRAME
 70
     0
  9
$SPLINETYPE
 70
     6
  9
$SPLINESEGS
 70
     8
  9
$HANDSEED
  5
479F
  9
$SURFTAB1
 70
     6
  9
$SURFTAB2
 70
     6
  9
$SURFTYPE
 70
     6
  9
$SURFU
 70
     6
  9
$SURFV
 70
     6
  9
$UCSBASE
  2

  9
$UCSNAME
  2

  9
$UCSORG
 10
0.0
 20
0.0
 30
0.0
  9
$UCSXDIR
 10
1.0
 20
0.0
 30
0.0
  9
$UCSYDIR
 10
0.0
 20
1.0
 30
0.0
  9
$UCSORTHOREF
  2

  9
$UCSORTHOVIEW
 70
     0
  9
$UCSORGTOP
 10
0.0
 20
0.0
 30
0.0
  9
$UCSORGBOTTOM
 10
0.0
 20
0.0
 30
0.0
  9
$UCSORGLEFT
 10
0.0
 20
0.0
 30
0.0
  9
$UCSORGRIGHT
 10
0.0
 20
0.0
 30
0.0
  9
$UCSORGFRONT
 10
0.0
 20
0.0
 30
0.0
  9
$UCSORGBACK
 10
0.0
 20
0.0
 30
0.0
  9
$PUCSBASE
  2

  9
$PUCSNAME
  2

  9
$PUCSORG
 10
0.0
 20
0.0
 30
0.0
  9
$PUCSXDIR
 10
1.0
 20
0.0
 30
0.0
  9
$PUCSYDIR
 10
0.0
 20
1.0
 30
0.0
  9
$PUCSORTHOREF
  2

  9
$PUCSORTHOVIEW
 70
     0
  9
$PUCSORGTOP
 10
0.0
 20
0.0
 30
0.0
  9
$PUCSORGBOTTOM
 10
0.0
 20
0.0
 30
0.0
  9
$PUCSORGLEFT
 10
0.0
 20
0.0
 30
0.0
  9
$PUCSORGRIGHT
 10
0.0
 20
0.0
 30
0.0
  9
$PUCSORGFRONT
 10
0.0
 20
0.0
 30
0.0
  9
$PUCSORGBACK
 10
0.0
 20
0.0
 30
0.0
  9
$USERI1
 70
     0
  9
$USERI2
 70
     0
  9
$USERI3
 70
     0
  9
$USERI4
 70
     0
  9
$USERI5
 70
     0
  9
$USERR1
 40
0.0
  9
$USERR2
 40
0.0
  9
$USERR3
 40
0.0
  9
$USERR4
 40
0.0
  9
$USERR5
 40
0.0
  9
$WORLDVIEW
 70
     1
  9
$SHADEDGE
 70
     3
  9
$SHADEDIF
 70
    70
  9
$TILEMODE
 70
     1
  9
$MAXACTVP
 70
    64
  9
$PINSBASE
 10
0.0
 20
0.0
 30
0.0
  9
$PLIMCHECK
 70
     0
  9
$PEXTMIN
 10
26.66999878883363
 20
20.31999878883363
 30
0.0
  9
$PEXTMAX
 10
240.0299890995026
 20
182.8799890995025
 30
0.0
  9
$PLIMMIN
 10
-6.350006103515625
 20
-6.349999904632567
  9
$PLIMMAX
 10
273.0499877929688
 20
209.5499939918518
  9
$UNITMODE
 70
     0
  9
$VISRETAIN
 70
     1
  9
$PLINEGEN
 70
     0
  9
$PSLTSCALE
 70
     1
  9
$TREEDEPTH
 70
  3020
  9
$CMLSTYLE
  2
Standard
  9
$CMLJUST
 70
     0
  9
$CMLSCALE
 40
20.0
  9
$PROXYGRAPHICS
 70
     1
  9
$MEASUREMENT
 70
     1
  9
$CELWEIGHT
370
    -1
  9
$ENDCAPS
280
     0
  9
$JOINSTYLE
280
     0
  9
$LWDISPLAY
290
     0
  9
$INSUNITS
 70
     4
  9
$HYPERLINKBASE
  1

  9
$STYLESHEET
  1

  9
$XEDIT
290
     1
  9
$CEPSNTYPE
380
     0
  9
$PSTYLEMODE
290
     1
  9
$FINGERPRINTGUID
  2
{FDEAD578-A652-11D2-9A35-0060089B3A3F}
  9
$VERSIONGUID
  2
{3DA80A7C-A019-4F3D-B587-66B91498BC80}
  9
$EXTNAMES
290
     1
  9
$PSVPSCALE
 40
0.0
  9
$OLESTARTUP
290
     0
  0
ENDSEC
  0
SECTION
  2
CLASSES
  0
CLASS
  1
ACDBDICTIONARYWDFLT
  2
AcDbDictionaryWithDefault
  3
ObjectDBX Classes
 90
        0
280
     0
281
     0
  0
CLASS
  1
DICTIONARYVAR
  2
AcDbDictionaryVar
  3
ObjectDBX Classes
 90
        0
280
     0
281
     0
  0
CLASS
  1
DIMASSOC
  2
AcDbDimAssoc
  3
"AcDbDimAssoc|Product Desc:     AcDim ARX App For Dimension|Company:          Autodesk, Inc.|WEB Address:      www.autodesk.com"
 90
        0
280
     0
281
     0
  0
CLASS
  1
ACDBPLACEHOLDER
  2
AcDbPlaceHolder
  3
ObjectDBX Classes
 90
        0
280
     0
281
     0
  0
CLASS
  1
LAYOUT
  2
AcDbLayout
  3
ObjectDBX Classes
 90
        0
280
     0
281
     0
  0
ENDSEC
  0
SECTION
  2
TABLES
  0
TABLE
  2
VPORT
  5
8
330
0
100
AcDbSymbolTable
 70
     1
  0
VPORT
  5
478C
330
8
100
AcDbSymbolTableRecord
100
AcDbViewportTableRecord
  2
*Active
 70
     0
 10
0.0
 20
0.0
 11
1.0
 21
1.0
 12
102.8460835458117
 22
58.68448766164238
 13
0.0
 23
0.0
 14
10.0
 24
10.0
 15
10.0
 25
10.0
 16
0.0
 26
0.0
 36
1.0
 17
0.0
 27
0.0
 37
0.0
 40
79.32484790154869
 41
1.6
 42
50.0
 43
0.0
 44
0.0
 50
0.0
 51
0.0
 71
     0
 72
  1000
 73
     1
 74
     3
 75
     0
 76
     0
 77
     0
 78
     0
281
     0
 65
     1
110
0.0
120
0.0
130
0.0
111
1.0
121
0.0
131
0.0
112
0.0
122
1.0
132
0.0
 79
     0
146
0.0
  0
ENDTAB
  0
TABLE
  2
LTYPE
  5
5
330
0
100
AcDbSymbolTable
 70
     2
  0
LTYPE
  5
14
330
5
100
AcDbSymbolTableRecord
100
AcDbLinetypeTableRecord
  2
ByBlock
 70
     0
  3

 72
    65
 73
     0
 40
0.0
  0
LTYPE
  5
15
330
5
100
AcDbSymbolTableRecord
100
AcDbLinetypeTableRecord
  2
ByLayer
 70
     0
  3

 72
    65
 73
     0
 40
0.0
  0
LTYPE
  5
16
330
5
100
AcDbSymbolTableRecord
100
AcDbLinetypeTableRecord
  2
Continuous
 70
     0
  3
Solid line
 72
    65
 73
     0
 40
0.0
  0
LTYPE
  5
8B
330
5
100
AcDbSymbolTableRecord
100
AcDbLinetypeTableRecord
  2
CENTER
 70
     0
  3
____ _ ____ _ ____ _ ____ _ ____ _ ____ _ ____
 72
    65
 73
     4
 40
0.6
 49
0.375
 74
     0
 49
-0.075
 74
     0
 49
0.075
 74
     0
 49
-0.075
 74
     0
  0
ENDTAB
  0
TABLE
  2
LAYER
  5
2
330
0
100
AcDbSymbolTable
 70
     2
  0
LAYER
  5
10
330
2
100
AcDbSymbolTableRecord
100
AcDbLayerTableRecord
  2
0
 70
     0
 62
     7
  6
Continuous
370
    -3
390
F
  0
LAYER
  5
396
330
2
100
AcDbSymbolTableRecord
100
AcDbLayerTableRecord
  2
Defpoints
 70
     0
 62
     7
  6
Continuous
290
     0
370
    -3
390
F
  0
ENDTAB
  0
TABLE
  2
STYLE
  5
3
330
0
100
AcDbSymbolTable
 70
     1
  0
STYLE
  5
11
330
3
100
AcDbSymbolTableRecord
100
AcDbTextStyleTableRecord
  2
Standard
 70
     0
 40
0.0
 41
1.0
 50
0.0
 71
     0
 42
2.5
  3
verdana.TTF
  4

1001
ACAD
1000
Verdana
1071
       34
  0
ENDTAB
  0
TABLE
  2
VIEW
  5
6
330
0
100
AcDbSymbolTable
 70
     0
  0
ENDTAB
  0
TABLE
  2
UCS
  5
7
330
0
100
AcDbSymbolTable
 70
     0
  0
ENDTAB
  0
TABLE
  2
APPID
  5
9
330
0
100
AcDbSymbolTable
 70
     1
  0
APPID
  5
12
330
9
100
AcDbSymbolTableRecord
100
AcDbRegAppTableRecord
  2
ACAD
 70
     0
  0
ENDTAB
  0
TABLE
  2
DIMSTYLE
  5
A
330
0
100
AcDbSymbolTable
 70
     2
100
AcDbDimStyleTable
  0
DIMSTYLE
105
27
330
A
100
AcDbSymbolTableRecord
100
AcDbDimStyleTableRecord
  2
ISO-25
 70
     0
 41
2.5
 42
0.625
 43
3.75
 44
1.25
 73
     0
 74
     0
 77
     1
 78
     8
140
2.5
141
2.5
143
0.03937007874016
147
0.625
171
     3
172
     1
271
     2
272
     2
274
     3
278
    44
283
     0
284
     8
340
11
  0
DIMSTYLE
105
8D
330
A
100
AcDbSymbolTableRecord
100
AcDbDimStyleTableRecord
  2
STANDARD
 70
     0
 41
3.0
 47
0.01
 48
0.01
 71
     1
 73
     0
 74
     0
 77
     1
 78
     8
140
1.5
271
     2
272
     2
284
     8
340
11
  0
ENDTAB
  0
TABLE
  2
BLOCK_RECORD
  5
1
330
0
100
AcDbSymbolTable
 70
     1
  0
BLOCK_RECORD
  5
1F
330
1
100
AcDbSymbolTableRecord
100
AcDbBlockTableRecord
  2
*Model_Space
340
22
  0
BLOCK_RECORD
  5
50
330
1
100
AcDbSymbolTableRecord
100
AcDbBlockTableRecord
  2
*Paper_Space
340
51
  0
BLOCK_RECORD
  5
55
330
1
100
AcDbSymbolTableRecord
100
AcDbBlockTableRecord
  2
*Paper_Space0
340
56
  0
ENDTAB
  0
ENDSEC
  0
SECTION
  2
BLOCKS
  0
BLOCK
  5
20
330
1F
100
AcDbEntity
  8
0
100
AcDbBlockBegin
  2
*Model_Space
 70
     0
 71
     0
 10
0.0
 20
0.0
 30
0.0
  3
*Model_Space
  1

  0
ENDBLK
  5
21
330
1F
100
AcDbEntity
  8
0
100
AcDbBlockEnd
  0
BLOCK
  5
52
330
50
100
AcDbEntity
 67
     1
  8
0
100
AcDbBlockBegin
  2
*Paper_Space
 70
     0
 71
     0
 10
0.0
 20
0.0
 30
0.0
  3
*Paper_Space
  1

  0
ENDBLK
  5
53
330
50
100
AcDbEntity
 67
     1
  8
0
100
AcDbBlockEnd
  0
BLOCK
  5
57
330
55
100
AcDbEntity
  8
0
100
AcDbBlockBegin
  2
*Paper_Space0
 70
     0
 71
     0
 10
0.0
 20
0.0
 30
0.0
  3
*Paper_Space0
  1

  0
ENDBLK
  5
58
330
55
100
AcDbEntity
  8
0
100
AcDbBlockEnd
  0
ENDSEC
  0
SECTION
  2
ENTITIES
  0
SPLINE
  5
1257
330
1F
100
AcDbEntity
  8
0
  6
Continuous
100
AcDbSpline
210
0.0
220
0.0
230
1.0
 70
     8
 71
     3
 72
    18
 73
    14
 74
    12
 42
0.0000000001
 43
0.0000000001
 44
0.0000000001
 12
-2.453406802850000E-5
 22
-0.9999999996990399
 32
0.0
 13
-0.8798170641825501
 23
-0.4753124588869921
 33
0.0
 40
0.0
 40
0.0
 40
0.0
 40
0.0
 40
0.3907773542673665
 40
0.8579813277998335
 40
1.382332206383469
 40
1.947013554036775
 40
2.538042630924727
 40
3.143710058347228
 40
3.753601924179179
 40
4.357737570044613
 40
4.946098278131528
 40
5.508585243047085
 40
6.034197012517505
 40
6.034197012517505
 40
6.034197012517505
 40
6.034197012517505
 10
98.42391750059974
 20
36.09481799364846
 30
0.0
 10
98.42391430481368
 20
35.96455887559854
 30
0.0
 10
98.41494430418493
 20
35.67848907133629
 30
0.0
 10
98.36822256248702
 20
35.21963798773803
 30
0.0
 10
98.27306536401275
 20
34.70900038000074
 30
0.0
 10
98.11955678828245
 20
34.16950656422104
 30
0.0
 10
97.9024286438171
 20
33.62285696207285
 30
0.0
 10
97.62128825414443
 20
33.08896729865667
 30
0.0
 10
97.28067522738451
 20
32.5855487697957
 30
0.0
 10
96.88992700676168
 20
32.12754174180518
 30
0.0
 10
96.46259589688259
 20
31.7263039506401
 30
0.0
 10
96.01578282966884
 20
31.38903753049465
 30
0.0
 10
95.70496247430476
 20
31.20078260897073
 30
0.0
 10
95.55081507299968
 20
31.11750600144842
 30
0.0
 11
98.42391750059974
 21
36.09481799364846
 31
0.0
 11
98.41158839059965
 21
35.7042351808484
 31
0.0
 11
98.36413405759969
 21
35.23944744524853
 31
0.0
 11
98.26790058639963
 21
34.72400301284847
 31
0.0
 11
98.11316260779967
 21
34.18093655064854
 31
0.0
 11
97.8947908405997
 21
33.63172881124842
 31
0.0
 11
97.61242087379969
 21
33.09591145944843
 31
0.0
 11
97.27052449299971
 21
32.59086200364845
 31
0.0
 11
96.87833483939971
 21
32.1313327290485
 31
0.0
 11
96.44936965399971
 21
31.72864526644844
 31
0.0
 11
96.0003914781997
 21
31.38980875224843
 31
0.0
 11
95.55081507299968
 21
31.11750600144842
 31
0.0
  0
SPLINE
  5
1258
330
1F
100
AcDbEntity
  8
0
  6
Continuous
100
AcDbSpline
210
0.0
220
0.0
230
1.0
 70
     8
 71
     3
 72
    18
 73
    14
 74
    12
 42
0.0000000001
 43
0.0000000001
 44
0.0000000001
 12
0.007467364533859999
 22
-0.9999721188447798
 32
0.0
 13
-0.9288227817838672
 23
-0.370524277260315
 33
0.0
 40
0.0
 40
0.0
 40
0.0
 40
0.0
 40
0.1963155186903641
 40
0.4298279109358945
 40
0.6911897737883084
 40
0.9730452560065517
 40
1.269962477743762
 40
1.577795221468894
 40
1.892801872718877
 40
2.210847618703159
 40
2.526923759758
 40
2.835093401838921
 40
3.128129595807911
 40
3.128129595807911
 40
3.128129595807911
 40
3.128129595807911
 10
97.40933481379967
 20
36.09481799364846
 30
0.0
 10
97.40982346698024
 20
36.02938131191949
 30
0.0
 10
97.4055009309858
 20
35.88601179681401
 30
0.0
 10
97.37892349660569
 20
35.65681776854208
 30
0.0
 10
97.32309536122259
 20
35.40347284128111
 30
0.0
 10
97.23189336595036
 20
35.13799381860676
 30
0.0
 10
97.1021351999681
 20
34.87160646058011
 30
0.0
 10
96.93377491272848
 20
34.61439821105126
 30
0.0
 10
96.72987667992825
 20
34.37502489971325
 30
0.0
 10
96.49639571462754
 20
34.16042123238938
 30
0.0
 10
96.24170532539135
 20
33.97548306679661
 30
0.0
 10
95.97612461290359
 20
33.8229347635843
 30
0.0
 10
95.79320445054825
 20
33.74027357357559
 30
0.0
 10
95.7024782195997
 20
33.70408123224843
 30
0.0
 11
97.40933481379967
 21
36.09481799364846
 31
0.0
 11
97.40332898439974
 21
35.89859436384847
 31
0.0
 11
97.3763114935997
 21
35.66665020564848
 31
0.0
 11
97.31995575159969
 21
35.41143646444846
 31
0.0
 11
97.22834031999969
 21
35.14488604604844
 31
0.0
 11
97.09838339319973
 21
34.87791969284854
 31
0.0
 11
96.92996690279969
 21
34.62024376484851
 31
0.0
 11
96.72594475799968
 21
34.38023510924848
 31
0.0
 11
96.49203602479969
 21
34.16473615084851
 31
0.0
 11
96.23648884619969
 21
33.97872602624853
 31
0.0
 11
95.96941695019969
 21
33.82496930064849
 31
0.0
 11
95.7024782195997
 21
33.70408123224843
 31
0.0
  0
SPLINE
  5
1259
330
1F
100
AcDbEntity
  8
0
  6
Continuous
100
AcDbSpline
210
0.0
220
0.0
230
1.0
 70
     8
 71
     3
 72
    10
 73
     6
 74
     4
 42
0.0000000001
 43
0.0000000001
 44
0.0000000001
 12
-0.8798602550908501
 22
-0.4752325025831719
 32
0.0
 13
-0.9734075456762567
 23
0.2290802261665689
 33
0.0
 40
0.0
 40
0.0
 40
0.0
 40
0.0
 40
0.8459709392468021
 40
1.757327911374382
 40
2.713602798487747
 40
2.713602798487747
 40
2.713602798487747
 40
2.713602798487747
 10
95.55081507299968
 20
31.11750600144842
 30
0.0
 10
95.30270300419797
 20
30.98349503925812
 30
0.0
 10
94.75345406087482
 20
30.76266148259808
 30
0.0
 10
93.84861279083597
 20
30.63735248296914
 30
0.0
 10
93.22258614348533
 20
30.70883359077595
 30
0.0
 10
92.91230441319971
 20
30.7818548132484
 30
0.0
 11
95.55081507299968
 21
31.11750600144842
 31
0.0
 11
94.76537938999969
 21
30.80324875344854
 31
0.0
 11
93.86281152779971
 21
30.67698401264852
 31
0.0
 11
92.91230441319971
 21
30.7818548132484
 31
0.0
  0
SPLINE
  5
125A
330
1F
100
AcDbEntity
  8
0
  6
Continuous
100
AcDbSpline
210
0.0
220
0.0
230
1.0
 70
     8
 71
     3
 72
    12
 73
     8
 74
     6
 42
0.0000000001
 43
0.0000000001
 44
0.0000000001
 12
-0.7532042321814478
 22
-0.6577867318698026
 32
0.0
 13
0.3219712333141923
 23
-0.9467494520294892
 33
0.0
 40
0.0
 40
0.0
 40
0.0
 40
0.0
 40
0.3928616320071228
 40
0.8578328563784318
 40
1.406897338622694
 40
2.032233111914267
 40
2.714022926181397
 40
2.714022926181397
 40
2.714022926181397
 40
2.714022926181397
 10
95.70247601799969
 20
33.70408508684841
 30
0.0
 10
95.60384100336987
 20
33.61794536385008
 30
0.0
 10
95.43439253989578
 20
33.37643512865922
 30
0.0
 10
95.30674862910156
 20
32.91968083421816
 30
0.0
 10
95.28250726250711
 20
32.37018366576668
 30
0.0
 10
95.36204592511399
 20
31.75425989110742
 30
0.0
 10
95.47764377521283
 20
31.33266737913398
 30
0.0
 10
95.55081601099971
 20
31.11750600144842
 30
0.0
 11
95.70247601799969
 21
33.70408508684841
 31
0.0
 11
95.46785238999969
 21
33.38897873164842
 31
0.0
 11
95.33056907599968
 21
32.94473608264843
 31
0.0
 11
95.29843078699967
 21
32.39661297964847
 31
0.0
 11
95.37326458459968
 21
31.77577102544842
 31
0.0
 11
95.55081601099971
 21
31.11750600144842
 31
0.0
  0
SPLINE
  5
125B
330
1F
100
AcDbEntity
  8
0
  6
Continuous
100
AcDbSpline
210
0.0
220
0.0
230
1.0
 70
     8
 71
     3
 72
    10
 73
     6
 74
     4
 42
0.0000000001
 43
0.0000000001
 44
0.0000000001
 12
-0.9007158468809882
 22
-0.4344087512671269
 32
0.0
 13
-0.9786432646500373
 23
0.2055659518381316
 33
0.0
 40
0.0
 40
0.0
 40
0.0
 40
0.0
 40
0.4670897710245762
 40
0.9764571371954202
 40
1.511297027709584
 40
1.511297027709584
 40
1.511297027709584
 40
1.511297027709584
 10
95.70247814339969
 20
33.7040811958484
 30
0.0
 10
95.56223975717374
 20
33.63644523446159
 30
0.0
 10
95.25295360358759
 20
33.52605143075026
 30
0.0
 10
94.74902988860042
 20
33.46416059743306
 30
0.0
 10
94.39938398890564
 20
33.49960750225697
 30
0.0
 10
94.2249115033997
 20
33.53625579264849
 30
0.0
 11
95.70247814339969
 21
33.7040811958484
 31
0.0
 11
95.26261459319971
 21
33.54694141284847
 31
0.0
 11
94.75717417119967
 21
33.48381381564855
 31
0.0
 11
94.2249115033997
 21
33.53625579264849
 31
0.0
  0
SPLINE
  5
125C
330
1F
100
AcDbEntity
  8
0
  6
Continuous
100
AcDbSpline
210
0.0
220
0.0
230
1.0
 70
     8
 71
     3
 72
    16
 73
    12
 74
    10
 42
0.0000000001
 43
0.0000000001
 44
0.0000000001
 12
-0.9734344418132522
 22
0.2289659090164349
 32
0.0
 13
-0.9734347901566068
 23
-0.2289644280510903
 33
0.0
 40
0.0
 40
0.0
 40
0.0
 40
0.0
 40
2.895107579739919
 40
5.625905580131117
 40
8.04118547594795
 40
10.21027390719156
 40
12.2890768437577
 40
14.46298729564091
 40
16.88451260008461
 40
19.61854123335683
 40
22.51262538318087
 40
22.51262538318087
 40
22.51262538318087
 40
22.51262538318087
 10
92.91230441319971
 20
30.7818548132484
 30
0.0
 10
91.97290526957522
 20
31.00281512614691
 30
0.0
 10
90.16879289830766
 20
31.51998447107778
 30
0.0
 10
87.60972473801253
 20
32.31543151531712
 30
0.0
 10
85.25406367618803
 20
32.95163126265771
 30
0.0
 10
83.05518901808281
 20
33.30956470938584
 30
0.0
 10
80.90431528083003
 20
33.3107600156243
 30
0.0
 10
78.70148748562974
 20
32.95362208409095
 30
0.0
 10
76.34114693167415
 20
32.31640014185283
 30
0.0
 10
73.77940267762182
 20
31.52007939052904
 30
0.0
 10
71.97457453022616
 20
31.00273558728046
 30
0.0
 10
71.03550713119965
 20
30.7818548132484
 30
0.0
 11
92.91230441319971
 21
30.7818548132484
 31
0.0
 11
90.11972892499969
 21
31.54551052164845
 31
0.0
 11
87.5038362429997
 21
32.32932376164854
 31
0.0
 11
85.16462960919964
 21
32.93072986364848
 31
0.0
 11
83.0199352665997
 21
33.25512283424848
 31
0.0
 11
80.9411325981997
 21
33.25617873624856
 31
0.0
 11
78.79145488679967
 21
32.93249310184843
 31
0.0
 11
76.44609569939969
 21
32.32993598244843
 31
0.0
 11
73.82710199279967
 21
31.54521658524846
 31
0.0
 11
71.03550713119965
 21
30.7818548132484
 31
0.0
  0
SPLINE
  5
125D
330
1F
100
AcDbEntity
  8
0
  6
Continuous
100
AcDbSpline
210
0.0
220
0.0
230
1.0
 70
     8
 71
     3
 72
    12
 73
     8
 74
     6
 42
0.0000000001
 43
0.0000000001
 44
0.0000000001
 12
-0.8008730382234499
 22
-0.5988341812611742
 32
0.0
 13
-0.1674108753060373
 23
-0.9858872140510122
 33
0.0
 40
0.0
 40
0.0
 40
0.0
 40
0.0
 40
0.4712945378297758
 40
1.038799651108394
 40
1.686105726210595
 40
2.386681002403093
 40
3.108528816004355
 40
3.108528816004355
 40
3.108528816004355
 40
3.108528816004355
 10
94.22491225019967
 20
33.53626014344854
 30
0.0
 10
94.09909655406305
 20
33.44218438388382
 30
0.0
 10
93.85561661106894
 20
33.19011267705248
 30
0.0
 10
93.54757728779698
 20
32.71788540632217
 30
0.0
 10
93.27583322520462
 20
32.13808726935407
 30
0.0
 10
93.05621481781918
 20
31.48278105676058
 30
0.0
 10
92.95258600657057
 20
31.01907498988846
 30
0.0
 10
92.91230428179966
 20
30.7818548132484
 30
0.0
 11
94.22491225019967
 21
33.53626014344854
 31
0.0
 11
93.88922014379963
 21
33.20545906864845
 31
0.0
 11
93.57297785399969
 21
32.73423420964856
 31
0.0
 11
93.29450859279969
 21
32.14988839984846
 31
0.0
 11
93.06994699659973
 21
31.48627872004841
 31
0.0
 11
92.91230428179966
 21
30.7818548132484
 31
0.0
  0
SPLINE
  5
125E
330
1F
100
AcDbEntity
  8
0
  6
Continuous
100
AcDbSpline
210
0.0
220
0.0
230
1.0
 70
     8
 71
     3
 72
    16
 73
    12
 74
    10
 42
0.0000000001
 43
0.0000000001
 44
0.0000000001
 12
-0.9945305664350318
 22
0.1044459306359758
 32
0.0
 13
-0.9945306023308921
 23
-0.1044455888362603
 33
0.0
 40
0.0
 40
0.0
 40
0.0
 40
0.0
 40
3.150578126296965
 40
6.106578955832485
 40
8.74379168744373
 40
11.15139023369746
 40
13.47972839168648
 40
15.89287285533962
 40
18.53699421011698
 40
21.49649593435784
 40
24.64598503104636
 40
24.64598503104636
 40
24.64598503104636
 40
24.64598503104636
 10
94.22491225019967
 20
33.53625563824846
 30
0.0
 10
93.18046350068502
 20
33.64594399306261
 30
0.0
 10
91.16100692978114
 20
33.90402800225472
 30
0.0
 10
88.27422854378688
 20
34.30479818019716
 30
0.0
 10
85.62594829583792
 20
34.62332769106408
 30
0.0
 10
83.17306444467059
 20
34.80022331038366
 30
0.0
 10
80.78777079450816
 20
34.80081447953251
 30
0.0
 10
78.33067618938577
 20
34.62432913065697
 30
0.0
 10
75.67709504140051
 20
34.30529687916726
 30
0.0
 10
72.7872432258514
 20
33.90407560750698
 30
0.0
 10
70.76698705698776
 20
33.64590571932747
 30
0.0
 10
69.72289929419969
 20
33.53625563824846
 30
0.0
 11
94.22491225019967
 21
33.53625563824846
 31
0.0
 11
91.09755389739969
 21
33.91805697804854
 31
0.0
 11
88.16765272839967
 21
34.31000090784846
 31
0.0
 11
85.54763445619967
 21
34.61065892804845
 31
0.0
 11
83.14550599879971
 21
34.7728613758485
 31
0.0
 11
80.81716790119967
 21
34.77339167004846
 31
0.0
 11
78.40945728739968
 21
34.61154049564846
 31
0.0
 11
75.78255082439965
 21
34.31030939924847
 31
0.0
 11
72.84917817079969
 21
33.9179124944485
 31
0.0
 11
69.72289929419969
 21
33.53625563824846
 31
0.0
  0
SPLINE
  5
125F
330
1F
100
AcDbEntity
  8
0
  6
Continuous
100
AcDbSpline
210
0.0
220
0.0
230
1.0
 70
     8
 71
     3
 72
    11
 73
     7
 74
     5
 42
0.0000000001
 43
0.0000000001
 44
0.0000000001
 12
-0.9734671449859612
 22
-0.2288268289184676
 32
0.0
 13
-0.8798242739955261
 23
0.4752991130732787
 33
0.0
 40
0.0
 40
0.0
 40
0.0
 40
0.0
 40
0.6854580239032126
 40
1.362706059730661
 40
2.035164788031826
 40
2.716540407358804
 40
2.716540407358804
 40
2.716540407358804
 40
2.716540407358804
 10
71.03550713119965
 20
30.7818548132484
 30
0.0
 10
70.81308350935406
 20
30.72957108459291
 30
0.0
 10
70.36111164786205
 20
30.66252191415332
 30
0.0
 10
69.67938323441636
 20
30.68421994281865
 30
0.0
 10
69.01452628074718
 20
30.83079213685794
 30
0.0
 10
68.59682674106392
 20
31.0095535922698
 30
0.0
 10
68.39699647119971
 20
31.11750600144842
 30
0.0
 11
71.03550713119965
 21
30.7818548132484
 31
0.0
 11
70.35725002799967
 21
30.68275887744846
 31
0.0
 11
69.68037294519968
 21
30.7051713028485
 31
0.0
 11
69.0237281139997
 21
30.85014822144855
 31
0.0
 11
68.39699647119971
 21
31.11750600144842
 31
0.0
  0
SPLINE
  5
1260
330
1F
100
AcDbEntity
  8
0
  6
Continuous
100
AcDbSpline
210
0.0
220
0.0
230
1.0
 70
     8
 71
     3
 72
    12
 73
     8
 74
     6
 42
0.0000000001
 43
0.0000000001
 44
0.0000000001
 12
0.8008753017347585
 22
-0.5988311540586875
 32
0.0
 13
0.1674041190692761
 23
-0.9858883612857187
 33
0.0
 40
0.0
 40
0.0
 40
0.0
 40
0.0
 40
0.4712953668887268
 40
1.038802304877826
 40
1.686110935224816
 40
2.386688910873617
 40
3.108538847785964
 40
3.108538847785964
 40
3.108538847785964
 40
3.108538847785964
 10
69.72289929579964
 20
33.53627210024843
 30
0.0
 10
69.84871556885403
 20
33.44219665076294
 30
0.0
 10
70.09219645850862
 20
33.19012442461141
 30
0.0
 10
70.40023592226625
 20
32.71789512049556
 30
0.0
 10
70.67197903160074
 20
32.13809387285404
 30
0.0
 10
70.89159512269777
 20
31.48278425605479
 30
0.0
 10
70.99522149260335
 20
31.01907596411404
 30
0.0
 10
71.0355017101997
 20
30.78185481364847
 30
0.0
 11
69.72289929579964
 21
33.53627210024843
 31
0.0
 11
70.05859248199971
 21
33.2054709400485
 31
0.0
 11
70.37483508699967
 21
32.73424409504855
 31
0.0
 11
70.65330350579967
 21
32.14989505324843
 31
0.0
 11
70.87786282659971
 21
31.48628175364843
 31
0.0
 11
71.0355017101997
 21
30.78185481364847
 31
0.0
  0
SPLINE
  5
1261
330
1F
100
AcDbEntity
  8
0
  6
Continuous
100
AcDbSpline
210
0.0
220
0.0
230
1.0
 70
     8
 71
     3
 72
    11
 73
     7
 74
     5
 42
0.0000000001
 43
0.0000000001
 44
0.0000000001
 12
-0.978661931385947
 22
-0.2054770645496181
 32
0.0
 13
-0.9006978228521498
 23
0.4344461208359415
 33
0.0
 40
0.0
 40
0.0
 40
0.0
 40
0.0
 40
0.3836317010260433
 40
0.7624808773939644
 40
1.137258933942738
 40
1.512624194140088
 40
1.512624194140088
 40
1.512624194140088
 40
1.512624194140088
 10
69.72289929419969
 20
33.53625563824846
 30
0.0
 10
69.59775071371068
 20
33.50997979965013
 30
0.0
 10
69.34457029435734
 20
33.47659766646158
 30
0.0
 10
68.96401246876688
 20
33.48744003105381
 30
0.0
 10
68.59305285110057
 20
33.56021001597169
 30
0.0
 10
68.35803056307773
 20
33.64972240845207
 30
0.0
 10
68.24533367219971
 20
33.70408106884851
 30
0.0
 11
69.72289929419969
 21
33.53625563824846
 31
0.0
 11
69.34248446479965
 21
33.48667903484852
 31
0.0
 11
68.96380264519968
 21
33.4979386058485
 31
0.0
 11
68.59610547379968
 21
33.57044641104848
 31
0.0
 11
68.24533367219971
 21
33.70408106884851
 31
0.0
  0
SPLINE
  5
1262
330
1F
100
AcDbEntity
  8
0
  6
Continuous
100
AcDbSpline
210
0.0
220
0.0
230
1.0
 70
     8
 71
     3
 72
    18
 73
    14
 74
    12
 42
0.0000000001
 43
0.0000000001
 44
0.0000000001
 12
-0.8798308506126364
 22
0.4752869389224208
 32
0.0
 13
3.304916392410000E-5
 23
0.9999999994538764
 33
0.0
 40
0.0
 40
0.0
 40
0.0
 40
0.0
 40
0.735124672113613
 40
1.418340970497907
 40
2.065439373043134
 40
2.675687303336162
 40
3.247488375103844
 40
3.782126765113364
 40
4.282453578248168
 40
4.752464450094302
 40
5.197075725067851
 40
5.621999829652918
 40
6.033968074294765
 40
6.033968074294765
 40
6.033968074294765
 40
6.033968074294765
 10
68.39699647119971
 20
31.11750600144842
 30
0.0
 10
68.18140134934237
 20
31.23397105316016
 30
0.0
 10
67.7803852282882
 20
31.48776625863153
 30
0.0
 10
67.25121030777322
 20
31.93093434745011
 30
0.0
 10
66.80922363442409
 20
32.40539306071485
 30
0.0
 10
66.44725665141179
 20
32.89761175027042
 30
0.0
 10
66.15920873156406
 20
33.39323706940456
 30
0.0
 10
65.93698129673089
 20
33.88143458798354
 30
0.0
 10
65.77145053108174
 20
34.35567511568117
 30
0.0
 10
65.65383907758186
 20
34.81295200218174
 30
0.0
 10
65.5764636447777
 20
35.25313962825021
 30
0.0
 10
65.53314012291452
 20
35.67844092004976
 30
0.0
 10
65.52388950519767
 20
35.95749524550951
 30
0.0
 10
65.52389404359968
 20
36.09481799364846
 30
0.0
 11
68.39699647119971
 21
31.11750600144842
 31
0.0
 11
67.7758177499997
 21
31.51062847584853
 31
0.0
 11
67.2519366877997
 21
31.94918650284853
 31
0.0
 11
66.81077940719968
 21
32.42259604684841
 31
0.0
 11
66.44912999639968
 21
32.91413672684849
 31
0.0
 11
66.16168619579969
 21
33.40843676444843
 31
0.0
 11
65.94005674299967
 21
33.89497411524849
 31
0.0
 11
65.77504758299966
 21
34.3673075748485
 31
0.0
 11
65.65785265879971
 21
34.82247300564848
 31
0.0
 11
65.5807725121997
 21
35.26035179804853
 31
0.0
 11
65.53761116799967
 21
35.68307817884853
 31
0.0
 11
65.52389404359968
 21
36.09481799364846
 31
0.0
  0
SPLINE
  5
1263
330
1F
100
AcDbEntity
  8
0
  6
Continuous
100
AcDbSpline
210
0.0
220
0.0
230
1.0
 70
     8
 71
     3
 72
    25
 73
    21
 74
    19
 42
0.0000000001
 43
0.0000000001
 44
0.0000000001
 12
0.8172676962546475
 22
-0.5762581996454551
 32
0.0
 13
0.4481450597506333
 23
-0.8939608522866656
 33
0.0
 40
0.0
 40
0.0
 40
0.0
 40
0.0
 40
0.0432665931881379
 40
0.1750481796779883
 40
0.3996735555128521
 40
0.7295125873054675
 40
1.18571751042214
 40
1.79076835655589
 40
2.569725801449421
 40
3.554628229712719
 40
4.771868153079271
 40
6.250323946613756
 40
8.052151397672182
 40
10.20964368007787
 40
12.64184717545686
 40
15.18584231427975
 40
17.70678854130525
 40
20.136797119594
 40
22.43770828170437
 40
24.58438758805746
 40
24.58438758805746
 40
24.58438758805746
 40
24.58438758805746
 10
89.90359681279968
 20
90.34166294104851
 30
0.0
 10
89.91538360911289
 20
90.33335203135005
 30
0.0
 10
89.96303534470003
 20
90.2996775892384
 30
0.0
 10
90.07150908294827
 20
90.22233122606195
 30
0.0
 10
90.25662856264955
 20
90.08794860317923
 30
0.0
 10
90.52668907446426
 20
89.88652687612824
 30
0.0
 10
90.89344962763911
 20
89.60274553555502
 30
0.0
 10
91.36995103657432
 20
89.21636246147847
 30
0.0
 10
91.96923227275208
 20
88.70198820275164
 30
0.0
 10
92.70168098907176
 20
88.0301485822292
 30
0.0
 10
93.57443204973561
 20
87.16743319950187
 30
0.0
 10
94.59714118446411
 20
86.0706606775436
 30
0.0
 10
95.77515428867272
 20
84.69228305314923
 30
0.0
 10
97.08596122947225
 20
83.01183123614344
 30
0.0
 10
98.46571604538278
 20
81.07429119351133
 30
0.0
 10
99.83396372124129
 20
78.98240188890821
 30
0.0
 10
101.1298537341255
 20
76.84598722137972
 30
0.0
 10
102.3243450893005
 20
74.74413224879456
 30
0.0
 10
103.4094866089968
 20
72.72448724815521
 30
0.0
 10
104.0853510252626
 20
71.40487477361306
 30
0.0
 10
104.4060256005996
 20
70.76519235284854
 30
0.0
 11
89.90359681279968
 21
90.34166294104851
 31
0.0
 11
89.93893101839967
 21
90.31669311924848
 31
0.0
 11
90.04623038119968
 21
90.24018669284851
 31
0.0
 11
90.22801467619968
 21
90.10823583244849
 31
0.0
 11
90.49243007359966
 21
89.9110600618485
 31
0.0
 11
90.8532827537997
 21
89.63193952324853
 31
0.0
 11
91.3233433343997
 21
89.25098076304847
 31
0.0
 11
91.91462844239969
 21
88.7438746380485
 31
0.0
 11
92.6408188255997
 21
88.07853237984843
 31
0.0
 11
93.50714494499971
 21
87.22345806384851
 31
0.0
 11
94.51643931819969
 21
86.14310793464847
 31
0.0
 11
95.68863406219971
 21
84.7746994994485
 31
0.0
 11
97.01778519039972
 21
83.0752495216484
 31
0.0
 11
98.43112274459969
 21
81.09583273864847
 31
0.0
 11
99.82590251059969
 21
78.96827529624851
 31
0.0
 11
101.1350683313997
 21
76.81391814544848
 31
0.0
 11
102.3369522467997
 21
74.70194827244848
 31
0.0
 11
103.4268966763997
 21
72.67556891104844
 31
0.0
 11
104.4060256005996
 21
70.76519235284854
 31
0.0
  0
SPLINE
  5
1264
330
1F
100
AcDbEntity
  8
0
  6
Continuous
100
AcDbSpline
210
0.0
220
0.0
230
1.0
 70
     8
 71
     3
 72
    12
 73
     8
 74
     6
 42
0.0000000001
 43
0.0000000001
 44
0.0000000001
 12
0.7532055478777368
 22
-0.6577852253176554
 32
0.0
 13
-0.3219694007276512
 23
-0.9467500752548569
 33
0.0
 40
0.0
 40
0.0
 40
0.0
 40
0.0
 40
0.3928627452271521
 40
0.8578340835496202
 40
1.406897692517998
 40
2.03223193148637
 40
2.714019997542259
 40
2.714019997542259
 40
2.714019997542259
 40
2.714019997542259
 10
68.24533322059966
 20
33.70408104984847
 30
0.0
 10
68.34396868701951
 20
33.61794128005242
 30
0.0
 10
68.51341835680603
 20
33.37643151281203
 30
0.0
 10
68.64106470279084
 20
32.91967775273933
 30
0.0
 10
68.66530850525916
 20
32.37018142818905
 30
0.0
 10
68.58577216516636
 20
31.75425872291348
 30
0.0
 10
68.47017561488345
 20
31.33266696866389
 30
0.0
 10
68.39700398319968
 20
31.11750600104847
 30
0.0
 11
68.24533322059966
 21
33.70408104984847
 31
0.0
 11
68.47995864679967
 21
33.38897464564843
 31
0.0
 11
68.61724413879966
 21
32.94473255044841
 31
0.0
 11
68.64938480219968
 21
32.39661046144853
 31
0.0
 11
68.57455334939969
 21
31.77576977004856
 31
0.0
 11
68.39700398319968
 21
31.11750600104847
 31
0.0
  0
SPLINE
  5
1265
330
1F
100
AcDbEntity
  8
0
  6
Continuous
100
AcDbSpline
210
0.0
220
0.0
230
1.0
 70
     8
 71
     3
 72
    18
 73
    14
 74
    12
 42
0.0000000001
 43
0.0000000001
 44
0.0000000001
 12
-0.928827585965835
 22
0.3705122340070288
 32
0.0
 13
0.0075046311506574
 23
0.9999718398591495
 33
0.0
 40
0.0
 40
0.0
 40
0.0
 40
0.0
 40
0.4087933759770642
 40
0.7796450008852534
 40
1.122950974237083
 40
1.440088447646062
 40
1.732274342777472
 40
2.002111920163683
 40
2.252648300838374
 40
2.487097141467053
 40
2.70877743757897
 40
2.921151070348327
 40
3.128064088558671
 40
3.128064088558671
 40
3.128064088558671
 40
3.128064088558671
 10
68.2453333245997
 20
33.70408123224843
 30
0.0
 10
68.1187671364105
 20
33.75456888124194
 30
0.0
 10
67.88308494725331
 20
33.86613331495596
 30
0.0
 10
67.56727177966337
 20
34.06883535558768
 30
0.0
 10
67.30296502274614
 20
34.29008126050835
 30
0.0
 10
67.08618238257262
 20
34.52321241028597
 30
0.0
 10
66.91365168616447
 20
34.76095005486905
 30
0.0
 10
66.78073946510789
 20
34.99760949664029
 30
0.0
 10
66.68207282954109
 20
35.22957590240524
 30
0.0
 10
66.61241065095237
 20
35.45499401314964
 30
0.0
 10
66.56712306693731
 20
35.67350054422516
 30
0.0
 10
66.54246542751825
 20
35.88598085270535
 30
0.0
 10
66.53795912843903
 20
36.0258489298116
 30
0.0
 10
66.53847673039968
 20
36.09481799364846
 30
0.0
 11
68.2453333245997
 21
33.70408123224843
 31
0.0
 11
67.87612928019966
 21
33.87958165344844
 31
0.0
 11
67.56432956019967
 21
34.08035979544843
 31
0.0
 11
67.30138428899971
 21
34.30108309664844
 31
0.0
 11
67.08567370519967
 21
34.53355916224848
 31
0.0
 11
66.91422897119969
 21
34.77015861384848
 31
0.0
 11
66.78217981359967
 21
35.00547826484853
 31
0.0
 11
66.68412913279968
 21
35.2360309530485
 31
0.0
 11
66.61486761379966
 21
35.46001555264843
 31
0.0
 11
66.56980704819964
 21
35.67706784844848
 31
0.0
 11
66.54523739879971
 21
35.88801545384854
 31
0.0
 11
66.53847673039968
 21
36.09481799364846
 31
0.0
  0
SPLINE
  5
1266
330
1F
100
AcDbEntity
  8
0
  6
Continuous
100
AcDbSpline
210
0.0
220
0.0
230
1.0
 70
     8
 71
     3
 72
    25
 73
    21
 74
    19
 42
0.0000000001
 43
0.0000000001
 44
0.0000000001
 12
0.7351756015749781
 22
-0.6778767106553147
 32
0.0
 13
0.3579534817577192
 23
-0.9337394202332502
 33
0.0
 40
0.0
 40
0.0
 40
0.0
 40
0.0
 40
0.0407871218059221
 40
0.165488500307886
 40
0.3786336567247013
 40
0.6927561493956127
 40
1.129341400202802
 40
1.711972968566598
 40
2.467754632539368
 40
3.431833154185857
 40
4.635167732277989
 40
6.11224670308178
 40
7.932165281089731
 40
10.13524466186851
 40
12.6444205891158
 40
15.29237104536705
 40
17.93550939385287
 40
20.49818500994658
 40
22.93602804103156
 40
25.2183997525451
 40
25.2183997525451
 40
25.2183997525451
 40
25.2183997525451
 10
88.72006083659971
 20
90.52076741864845
 30
0.0
 10
88.73005606886977
 20
90.51155120532614
 30
0.0
 10
88.77056905866178
 20
90.47411272165196
 30
0.0
 10
88.86287910451821
 20
90.38804085015129
 30
0.0
 10
89.02049669828317
 20
90.23841484863374
 30
0.0
 10
89.25050538586388
 20
90.01407537463078
 30
0.0
 10
89.56293407776984
 20
89.6979274149252
 30
0.0
 10
89.96888880830208
 20
89.26740705285229
 30
0.0
 10
90.47946261201858
 20
88.69421378106198
 30
0.0
 10
91.10343846686826
 20
87.94555411514367
 30
0.0
 10
91.84678343473576
 20
86.98432466560577
 30
0.0
 10
92.71771267636986
 20
85.76243986940759
 30
0.0
 10
93.72065889325033
 20
84.22712358638272
 30
0.0
 10
94.8360229697976
 20
82.35639329508609
 30
0.0
 10
96.00926176673703
 20
80.20104275069375
 30
0.0
 10
97.17228698128648
 20
77.87506254970582
 30
0.0
 10
98.27380946146695
 20
75.49981634678321
 30
0.0
 10
99.28926252084746
 20
73.16280231670162
 30
0.0
 10
100.2118499895078
 20
70.91717327833297
 30
0.0
 10
100.7856203807992
 20
69.45204308727031
 30
0.0
 10
101.0579480143997
 20
68.7416629410485
 30
0.0
 11
88.72006083659971
 21
90.52076741864845
 31
0.0
 11
88.7500159759997
 21
90.49308567504841
 31
0.0
 11
88.84122274019968
 21
90.4080459198485
 31
0.0
 11
88.99581582739967
 21
90.26130862024841
 31
0.0
 11
89.22071447599966
 21
90.04200623024848
 31
0.0
 11
89.52766266139969
 21
89.73153965764846
 31
0.0
 11
89.92752322799971
 21
89.3077813872485
 31
0.0
 11
90.43051930219968
 21
88.74368842244849
 31
0.0
 11
91.04829681879973
 21
88.00355442384853
 31
0.0
 11
91.78531041619972
 21
87.05233149304856
 31
0.0
 11
92.64396998699971
 21
85.85047208884839
 31
0.0
 11
93.64123717059972
 21
84.3281180580484
 31
0.0
 11
94.77207066139972
 21
82.43741068404847
 31
0.0
 11
95.97456341459969
 21
80.23514480264839
 31
0.0
 11
97.1612810599997
 21
77.86800668904846
 31
0.0
 11
98.27515725859968
 21
75.4710377398485
 31
0.0
 11
99.29774272959969
 21
73.12122386044848
 31
0.0
 11
100.2250949915997
 21
70.86665152264845
 31
0.0
 11
101.0579480143997
 21
68.7416629410485
 31
0.0
  0
SPLINE
  5
1267
330
1F
100
AcDbEntity
  8
0
  6
Continuous
100
AcDbSpline
210
0.0
220
0.0
230
1.0
 70
     8
 71
     3
 72
    18
 73
    14
 74
    12
 42
0.0000000001
 43
0.0000000001
 44
0.0000000001
 12
-3.895977181040001E-5
 22
0.9999999992410681
 32
0.0
 13
0.8798312610931629
 23
0.4752861790576437
 33
0.0
 40
0.0
 40
0.0
 40
0.0
 40
0.0
 40
0.4100962922206486
 40
0.8336870232255972
 40
1.277430050745068
 40
1.747023930777058
 40
2.247347619259526
 40
2.782326723893848
 40
3.354708392062005
 40
3.965647116159919
 40
4.6134808075262
 40
5.297622702340849
 40
6.033962445641634
 40
6.033962445641634
 40
6.033962445641634
 40
6.033962445641634
 10
65.52389404359968
 20
50.98850788844845
 30
0.0
 10
65.52388871784703
 20
51.12520665241826
 30
0.0
 10
65.53306165965434
 20
51.40319136569754
 30
0.0
 10
65.57607193847299
 20
51.82715646749062
 30
0.0
 10
65.65302806514792
 20
52.26652875162181
 30
0.0
 10
65.77019583708548
 20
52.72347453793765
 30
0.0
 10
65.93534288962488
 20
53.19782051847331
 30
0.0
 10
66.15732035684303
 20
53.68646939931139
 30
0.0
 10
66.44529379024834
 20
54.18276280455082
 30
0.0
 10
66.80737021524212
 20
54.67573619853442
 30
0.0
 10
67.24967242407685
 20
55.15097937314967
 30
0.0
 10
67.77944740920202
 20
55.59493511819102
 30
0.0
 10
68.18104489621926
 20
55.84916251295459
 30
0.0
 10
68.39699647119971
 20
55.96581988064849
 30
0.0
 11
65.52389404359968
 21
50.98850788844845
 31
0.0
 11
65.53748567999969
 21
51.39837888804844
 31
0.0
 11
65.58033617739972
 21
51.81979666444839
 31
0.0
 11
65.65699895419972
 21
52.25686724584853
 31
0.0
 11
65.77375508299969
 21
52.71171493304848
 31
0.0
 11
65.9383903877997
 21
53.18417552364849
 31
0.0
 11
66.15978549019968
 21
53.67119385084845
 31
0.0
 11
66.44717643139967
 21
54.16619609424856
 31
0.0
 11
66.80894596639968
 21
54.65850588304853
 31
0.0
 11
67.25038359739965
 21
55.1326591384485
 31
0.0
 11
67.77483594779972
 21
55.57197663684849
 31
0.0
 11
68.39699647119971
 21
55.96581988064849
 31
0.0
  0
SPLINE
  5
1268
330
1F
100
AcDbEntity
  8
0
  6
Continuous
100
AcDbSpline
210
0.0
220
0.0
230
1.0
 70
     8
 71
     3
 72
    18
 73
    14
 74
    12
 42
0.0000000001
 43
0.0000000001
 44
0.0000000001
 12
-0.0075041722580936
 22
0.9999718433029606
 32
0.0
 13
0.9288275212197962
 23
0.3705123963171665
 33
0.0
 40
0.0
 40
0.0
 40
0.0
 40
0.0
 40
0.2059647518769273
 40
0.4176721547540868
 40
0.6389172669501573
 40
0.8731547649198378
 40
1.123684362981974
 40
1.393682154965518
 40
1.686142610795318
 40
2.003607897981618
 40
2.347266091254896
 40
2.718597062069419
 40
3.128061269455503
 40
3.128061269455503
 40
3.128061269455503
 40
3.128061269455503
 10
66.53847673039968
 20
50.98850788844845
 30
0.0
 10
66.53796153207395
 20
51.05716087264506
 30
0.0
 10
66.54242488773069
 20
51.19648949455164
 30
0.0
 10
66.56689448768107
 20
51.4083013535864
 30
0.0
 10
66.6119275215102
 20
51.62641164310455
 30
0.0
 10
66.68132047730229
 20
51.85168374828641
 30
0.0
 10
66.77975702372459
 20
52.08372688304611
 30
0.0
 10
66.91252290289748
 20
52.32063338282502
 30
0.0
 10
67.08501399114604
 20
52.55871655690345
 30
0.0
 10
67.30186459444602
 20
52.79222293828356
 30
0.0
 10
67.56636299984066
 20
53.01384712685631
 30
0.0
 10
67.88253814779438
 20
53.21691988143366
 30
0.0
 10
68.11855944967482
 20
53.32867412828691
 30
0.0
 10
68.2453333245997
 20
53.37924464984848
 30
0.0
 11
66.53847673039968
 21
50.98850788844845
 31
0.0
 11
66.54516800119967
 21
51.1943639204485
 31
0.0
 11
66.56955183919968
 21
51.40466240564842
 31
0.0
 11
66.61435971179969
 21
51.62132263324849
 31
0.0
 11
66.68335588099967
 21
51.84516796844854
 31
0.0
 11
66.78118336099971
 21
52.07580808564852
 31
0.0
 11
66.91309582739967
 21
52.31138802724853
 31
0.0
 11
67.08451236179968
 21
52.54834686324851
 31
0.0
 11
67.30029523319968
 21
52.78120295824852
 31
0.0
 11
67.5634026633997
 21
53.00228084944842
 31
0.0
 11
67.87554237319965
 21
53.20341635464842
 31
0.0
 11
68.2453333245997
 21
53.37924464984848
 31
0.0
  0
SPLINE
  5
1269
330
1F
100
AcDbEntity
  8
0
  6
Continuous
100
AcDbSpline
210
0.0
220
0.0
230
1.0
 70
     8
 71
     3
 72
    11
 73
     7
 74
     5
 42
0.0000000001
 43
0.0000000001
 44
0.0000000001
 12
0.8798086992970585
 22
0.4753279422053982
 32
0.0
 13
0.9734442442467653
 23
-0.2289242305716986
 33
0.0
 40
0.0
 40
0.0
 40
0.0
 40
0.0
 40
0.6140824719407546
 40
1.275194214335902
 40
1.979518241486962
 40
2.716505002920091
 40
2.716505002920091
 40
2.716505002920091
 40
2.716505002920091
 10
68.39699647119971
 20
55.96581988064849
 30
0.0
 10
68.57708817149948
 20
56.06311673322583
 30
0.0
 10
68.96843571156855
 20
56.23482190199039
 30
0.0
 10
69.61330920930779
 20
56.39078922656645
 30
0.0
 10
70.31739400969963
 20
56.42562311862881
 30
0.0
 10
70.79636862419861
 20
56.35770911108263
 30
0.0
 10
71.03550713119965
 20
56.30147106864843
 30
0.0
 11
68.39699647119971
 21
55.96581988064849
 31
0.0
 11
68.95958606139971
 21
56.21197071924847
 31
0.0
 11
69.6021508229997
 21
56.36746754584851
 31
0.0
 11
70.30556980379969
 21
56.40316170044844
 31
0.0
 11
71.03550713119965
 21
56.30147106864843
 31
0.0
  0
SPLINE
  5
126A
330
1F
100
AcDbEntity
  8
0
  6
Continuous
100
AcDbSpline
210
0.0
220
0.0
230
1.0
 70
     8
 71
     3
 72
    12
 73
     8
 74
     6
 42
0.0000000001
 43
0.0000000001
 44
0.0000000001
 12
0.7532035170026514
 22
0.6577875507904029
 32
0.0
 13
-0.3219705708827344
 23
0.9467496773093964
 33
0.0
 40
0.0
 40
0.0
 40
0.0
 40
0.0
 40
0.3928615525833295
 40
0.8578325800970246
 40
1.406896688730396
 40
2.032231943549841
 40
2.714021171732779
 40
2.714021171732779
 40
2.714021171732779
 40
2.714021171732779
 10
68.24533472219967
 20
53.3792422032484
 30
0.0
 10
68.34396962323331
 20
53.4653820160729
 30
0.0
 10
68.51341786972441
 20
53.70689224325366
 30
0.0
 10
68.64106175038211
 20
54.16364630058338
 30
0.0
 10
68.66530329287032
 20
54.7131430888889
 30
0.0
 10
68.58576501306249
 20
55.32906640986283
 30
0.0
 10
68.4701675299396
 20
55.75065863672342
 30
0.0
 10
68.39699550759968
 20
55.96581988064849
 30
0.0
 11
68.24533472219967
 21
53.3792422032484
 31
0.0
 11
68.4799580957997
 21
53.6943486488485
 31
0.0
 11
68.61724134299971
 21
54.13859111244846
 31
0.0
 11
68.64937978459966
 21
54.6867138322484
 31
0.0
 11
68.57454636219967
 21
55.3075553094485
 31
0.0
 11
68.39699550759968
 21
55.96581988064849
 31
0.0
  0
SPLINE
  5
126B
330
1F
100
AcDbEntity
  8
0
  6
Continuous
100
AcDbSpline
210
0.0
220
0.0
230
1.0
 70
     8
 71
     3
 72
    11
 73
     7
 74
     5
 42
0.0000000001
 43
0.0000000001
 44
0.0000000001
 12
0.9006923878698978
 22
0.4344573885126386
 32
0.0
 13
0.9786537415535465
 23
-0.2055160678468827
 33
0.0
 40
0.0
 40
0.0
 40
0.0
 40
0.0
 40
0.3383012927980179
 40
0.7067253665697229
 40
1.101147093270491
 40
1.512614514605386
 40
1.512614514605386
 40
1.512614514605386
 40
1.512614514605386
 10
68.24533344839966
 20
53.37924470884854
 30
0.0
 10
68.34690191480956
 20
53.4282372075817
 30
0.0
 10
68.5673407670821
 20
53.51434782321343
 30
0.0
 10
68.92778435937873
 20
53.59187819231558
 30
0.0
 10
69.32067859519458
 20
53.60908192911597
 30
0.0
 10
69.58867093179407
 20
53.57525803220836
 30
0.0
 10
69.72289897559966
 20
53.54707031004841
 30
0.0
 11
68.24533344839966
 21
53.37924470884854
 31
0.0
 11
68.56044192579968
 21
53.50234796704853
 31
0.0
 11
68.92056248919971
 21
53.58012635704847
 31
0.0
 11
69.31458345379969
 21
53.59790212564849
 31
0.0
 11
69.72289897559966
 21
53.54707031004841
 31
0.0
  0
SPLINE
  5
126C
330
1F
100
AcDbEntity
  8
0
  6
Continuous
100
AcDbSpline
210
0.0
220
0.0
230
1.0
 70
     8
 71
     3
 72
    16
 73
    12
 74
    10
 42
0.0000000001
 43
0.0000000001
 44
0.0000000001
 12
0.9734344568661828
 22
-0.2289658450198194
 32
0.0
 13
0.9734347961508253
 23
0.2289644025668648
 33
0.0
 40
0.0
 40
0.0
 40
0.0
 40
0.0
 40
2.89704413565616
 40
5.63450262392807
 40
8.056012020301509
 40
10.22879624094323
 40
12.30761886285422
 40
14.47788904032935
 40
16.89322455942303
 40
19.62056523124631
 40
22.51262525782916
 40
22.51262525782916
 40
22.51262525782916
 40
22.51262525782916
 10
71.03550713119965
 20
56.30147106864843
 30
0.0
 10
71.97553465943625
 20
56.08036301578836
 30
0.0
 10
73.78238952725195
 20
55.5623487585741
 30
0.0
 10
76.3461539607756
 20
54.76537511637865
 30
0.0
 10
78.7073561760896
 20
54.12836703585897
 30
0.0
 10
80.90995695542615
 20
53.77210299383325
 30
0.0
 10
83.06085524780941
 20
53.7742313176516
 30
0.0
 10
85.26000021811331
 20
54.13304897773573
 30
0.0
 10
87.61482042382258
 20
54.76947200282885
 30
0.0
 10
90.17184443976386
 20
55.56425868623316
 30
0.0
 10
91.97389379238884
 20
56.08074480325708
 30
0.0
 10
92.91230441319971
 20
56.30147106864843
 30
0.0
 11
71.03550713119965
 21
56.30147106864843
 31
0.0
 11
73.82993861359967
 21
55.53726074804853
 31
0.0
 11
76.4522353941997
 21
54.75161542764841
 31
0.0
 11
78.79769347319967
 21
54.1495073340484
 31
0.0
 11
80.94636989379967
 21
53.82673665844846
 31
0.0
 11
83.02519166059965
 21
53.82862219484855
 31
0.0
 11
85.17094095699969
 21
54.15394142304854
 31
0.0
 11
87.51008624159969
 21
54.75580935484845
 31
0.0
 11
90.12264948939971
 21
55.53868892184846
 31
0.0
 11
92.91230441319971
 21
56.30147106864843
 31
0.0
  0
SPLINE
  5
126D
330
1F
100
AcDbEntity
  8
0
  6
Continuous
100
AcDbSpline
210
0.0
220
0.0
230
1.0
 70
     8
 71
     3
 72
    12
 73
     8
 74
     6
 42
0.0000000001
 43
0.0000000001
 44
0.0000000001
 12
0.8008730505315805
 22
0.5988341648004398
 32
0.0
 13
0.1674108761071274
 23
0.9858872139149812
 33
0.0
 40
0.0
 40
0.0
 40
0.0
 40
0.0
 40
0.4712945296898498
 40
1.038799631898794
 40
1.686105693906954
 40
2.386680955573164
 40
3.108528753406396
 40
3.108528753406396
 40
3.108528753406396
 40
3.108528753406396
 10
69.72289929399965
 20
53.54706580944843
 30
0.0
 10
69.84871498989683
 20
53.64114156480238
 30
0.0
 10
70.0921949330065
 20
53.89321326272539
 30
0.0
 10
70.40023425698516
 20
54.36544052022159
 30
0.0
 10
70.67197831981255
 20
54.94523864291062
 30
0.0
 10
70.8915967268901
 20
55.60054484041469
 30
0.0
 10
70.99522553711593
 20
56.06425089722294
 30
0.0
 10
71.03550726119968
 20
56.30147106864843
 30
0.0
 11
69.72289929399965
 21
53.54706580944843
 31
0.0
 11
70.05859140059971
 21
53.87786687244852
 31
0.0
 11
70.37483369079969
 21
54.34909171784852
 31
0.0
 11
70.65330295219968
 21
54.93343751304847
 31
0.0
 11
70.87786454799971
 21
55.59704717764839
 31
0.0
 11
71.03550726119968
 21
56.30147106864843
 31
0.0
  0
SPLINE
  5
126E
330
1F
100
AcDbEntity
  8
0
  6
Continuous
100
AcDbSpline
210
0.0
220
0.0
230
1.0
 70
     8
 71
     3
 72
    16
 73
    12
 74
    10
 42
0.0000000001
 43
0.0000000001
 44
0.0000000001
 12
0.9945305857866302
 22
-0.1044457463705548
 32
0.0
 13
0.9945305868016282
 23
0.1044457367057611
 33
0.0
 40
0.0
 40
0.0
 40
0.0
 40
0.0
 40
3.152680970503857
 40
6.115910166242609
 40
8.760117899097541
 40
11.17211218120052
 40
13.50047193594234
 40
15.90928114992795
 40
18.54644990438495
 40
21.49869333441508
 40
24.64598500241234
 40
24.64598500241234
 40
24.64598500241234
 40
24.64598500241234
 10
69.72289929419969
 20
53.54707024384846
 30
0.0
 10
70.76804517833088
 20
53.43730887150429
 30
0.0
 10
72.79058426449632
 20
53.17880224737573
 30
0.0
 10
75.68274694612983
 20
52.7772467953551
 30
0.0
 10
78.33723987181729
 20
52.458332315362
 30
0.0
 10
80.79401974694845
 20
52.28228784761383
 30
0.0
 10
83.17934065226861
 20
52.28332968170945
 30
0.0
 10
85.63258756320066
 20
52.46067141716739
 30
0.0
 10
88.27997994878649
 20
52.77932339759433
 30
0.0
 10
91.16442035504758
 20
53.17975567918702
 30
0.0
 10
93.18155297372994
 20
53.43749651155117
 30
0.0
 10
94.22491225019967
 20
53.54707024384846
 30
0.0
 11
69.72289929419969
 21
53.54707024384846
 31
0.0
 11
72.85234214999969
 21
53.1649907834485
 31
0.0
 11
75.78941346379969
 21
52.77213029404845
 31
0.0
 11
78.41643259179966
 21
52.47112359044854
 31
0.0
 11
80.82302119379965
 21
52.30973053724847
 31
0.0
 11
83.15138075799969
 21
52.31067250304841
 31
0.0
 11
85.55469129199967
 21
52.47333874584843
 31
0.0
 11
88.17463880859968
 21
52.77422751224843
 31
0.0
 11
91.10081164079971
 21
53.16570398184854
 31
0.0
 11
94.22491225019967
 21
53.54707024384846
 31
0.0
  0
SPLINE
  5
126F
330
1F
100
AcDbEntity
  8
0
  6
Continuous
100
AcDbSpline
210
0.0
220
0.0
230
1.0
 70
     8
 71
     3
 72
    11
 73
     7
 74
     5
 42
0.0000000001
 43
0.0000000001
 44
0.0000000001
 12
0.9734671419814964
 22
0.2288268416999569
 32
0.0
 13
0.8798241655801987
 23
-0.4752993137604
 33
0.0
 40
0.0
 40
0.0
 40
0.0
 40
0.0
 40
0.6854018624075099
 40
1.362718175107104
 40
2.03522354805993
 40
2.716540383746761
 40
2.716540383746761
 40
2.716540383746761
 40
2.716540383746761
 10
92.91230441319971
 20
56.30147106864843
 30
0.0
 10
93.13470981056858
 20
56.35375051647176
 30
0.0
 10
93.58668464974433
 20
56.42080332230395
 30
0.0
 10
94.26843376858889
 20
56.39910894341156
 30
0.0
 10
94.93330820450564
 20
56.25252578278479
 30
0.0
 10
95.35100206751504
 20
56.07376302213361
 30
0.0
 10
95.55081507299968
 20
55.96581988064849
 30
0.0
 11
92.91230441319971
 21
56.30147106864843
 31
0.0
 11
93.59050523039969
 21
56.4005637754485
 31
0.0
 11
94.26745068399973
 21
56.37815305704839
 31
0.0
 11
94.92413962859968
 21
56.23315958584839
 31
0.0
 11
95.55081507299968
 21
55.96581988064849
 31
0.0
  0
SPLINE
  5
1270
330
1F
100
AcDbEntity
  8
0
  6
Continuous
100
AcDbSpline
210
0.0
220
0.0
230
1.0
 70
     8
 71
     3
 72
    12
 73
     8
 74
     6
 42
0.0000000001
 43
0.0000000001
 44
0.0000000001
 12
-0.8008753020505427
 22
0.5988311536363585
 32
0.0
 13
-0.1674041189748843
 23
0.9858883613017464
 33
0.0
 40
0.0
 40
0.0
 40
0.0
 40
0.0
 40
0.4712953670332303
 40
1.038802305022457
 40
1.686110935455294
 40
2.386688911168184
 40
3.108538848275797
 40
3.108538848275797
 40
3.108538848275797
 40
3.108538848275797
 10
94.22491224859974
 20
53.54705378184849
 30
0.0
 10
94.09909597545715
 20
53.64112923129648
 30
0.0
 10
93.85561508537187
 20
53.89320145711022
 30
0.0
 10
93.54757562180153
 20
54.36543076148933
 30
0.0
 10
93.27583251218296
 20
54.94523200901185
 30
0.0
 10
93.05621642082971
 20
55.60054162586985
 30
0.0
 10
92.95259005098419
 20
56.06424991791484
 30
0.0
 10
92.91230983339966
 20
56.30147106844844
 30
0.0
 11
94.22491224859974
 21
53.54705378184849
 31
0.0
 11
93.88921906199973
 21
53.87785494184845
 31
0.0
 11
93.5729764569997
 21
54.3490817868485
 31
0.0
 11
93.29450803799963
 21
54.93343082864838
 31
0.0
 11
93.0699487169997
 21
55.5970441282484
 31
0.0
 11
92.91230983339966
 21
56.30147106844844
 31
0.0
  0
SPLINE
  5
1271
330
1F
100
AcDbEntity
  8
0
  6
Continuous
100
AcDbSpline
210
0.0
220
0.0
230
1.0
 70
     8
 71
     3
 72
    11
 73
     7
 74
     5
 42
0.0000000001
 43
0.0000000001
 44
0.0000000001
 12
0.9786619304803786
 22
0.2054770688627288
 32
0.0
 13
0.9006977819619271
 23
-0.4344462056099294
 33
0.0
 40
0.0
 40
0.0
 40
0.0
 40
0.0
 40
0.3836013209946274
 40
0.7624884615218668
 40
1.137292448701487
 40
1.512624140907434
 40
1.512624140907434
 40
1.512624140907434
 40
1.512624140907434
 10
94.22491225019967
 20
53.54707024384846
 30
0.0
 10
94.35005091997948
 20
53.57334400219841
 30
0.0
 10
94.60323340633526
 20
53.60672796599276
 30
0.0
 10
94.98380288550709
 20
53.59588723662791
 30
0.0
 10
95.35477208331926
 20
53.52311181641038
 30
0.0
 10
95.58979101584303
 20
53.43359864568981
 30
0.0
 10
95.70247782339968
 20
53.37924483584846
 30
0.0
 11
94.22491225019967
 21
53.54707024384846
 31
0.0
 11
94.60529664439969
 21
53.59664529924839
 31
0.0
 11
94.98401646579968
 21
53.5853864300484
 31
0.0
 11
95.3517384091997
 21
53.51287021704842
 31
0.0
 11
95.70247782339968
 21
53.37924483584846
 31
0.0
  0
SPLINE
  5
1272
330
1F
100
AcDbEntity
  8
0
  6
Continuous
100
AcDbSpline
210
0.0
220
0.0
230
1.0
 70
     8
 71
     3
 72
    17
 73
    13
 74
    11
 42
0.0000000001
 43
0.0000000001
 44
0.0000000001
 12
0.8798384489676296
 22
-0.4752728729038044
 32
0.0
 13
-3.144315708760000E-5
 23
-0.999999999505664
 33
0.0
 40
0.0
 40
0.0
 40
0.0
 40
0.0
 40
0.8032844762463445
 40
1.546759634414371
 40
2.248049001473623
 40
2.904451105361259
 40
3.515200448907627
 40
4.082829559052184
 40
4.611835967021207
 40
5.108198707741527
 40
5.579126421132437
 40
6.033395421292714
 40
6.033395421292714
 40
6.033395421292714
 40
6.033395421292714
 10
95.55081507299968
 20
55.96581988064849
 30
0.0
 10
95.78640192888646
 20
55.83856010705361
 30
0.0
 10
96.22226742451676
 20
55.55878308925684
 30
0.0
 10
96.78950992325298
 20
55.06568126423862
 30
0.0
 10
97.25324440906758
 20
54.53814134325796
 30
0.0
 10
97.62263677664727
 20
53.99396125459722
 30
0.0
 10
97.90650011467264
 20
53.45084701797099
 30
0.0
 10
98.11619340751649
 20
52.92073474106117
 30
0.0
 10
98.26360711849134
 20
52.40984005222947
 30
0.0
 10
98.35949740967806
 20
51.91977606739902
 30
0.0
 10
98.41263904951384
 20
51.44845106544676
 30
0.0
 10
98.42392226181693
 20
51.13993088842702
 30
0.0
 10
98.42391750059974
 20
50.98850788844845
 30
0.0
 11
95.55081507299968
 21
55.96581988064849
 31
0.0
 11
96.22682880659973
 21
55.53191737804855
 31
0.0
 11
96.78805572319971
 21
55.04429082124852
 31
0.0
 11
97.25118067839971
 21
54.51767706124849
 31
0.0
 11
97.62000174099966
 21
53.97469018684842
 31
0.0
 11
97.9030743999997
 21
53.43350202144847
 31
0.0
 11
98.11204119219968
 21
52.90573721924852
 31
0.0
 11
98.25886228659971
 21
52.39751350284848
 31
0.0
 11
98.35432610919969
 21
51.91041738404852
 31
0.0
 11
98.40722434459968
 21
51.44247007084846
 31
0.0
 11
98.42391750059974
 21
50.98850788844845
 31
0.0
  0
SPLINE
  5
1273
330
1F
100
AcDbEntity
  8
0
  6
Continuous
100
AcDbSpline
210
0.0
220
0.0
230
1.0
 70
     8
 71
     3
 72
    12
 73
     8
 74
     6
 42
0.0000000001
 43
0.0000000001
 44
0.0000000001
 12
-0.7532060892407626
 22
0.6577846054223498
 32
0.0
 13
0.3219691126665003
 23
0.946750173218229
 33
0.0
 40
0.0
 40
0.0
 40
0.0
 40
0.0
 40
0.3928630383602502
 40
0.8578345291501658
 40
1.406898167709271
 40
2.032232355330209
 40
2.714020336066661
 40
2.714020336066661
 40
2.714020336066661
 40
2.714020336066661
 10
95.70247832539967
 20
53.37924483504844
 30
0.0
 10
95.60384271448947
 20
53.46538458793938
 30
0.0
 10
95.43439269929277
 20
53.70689428785385
 30
0.0
 10
95.3067458142161
 20
54.16364807274052
 30
0.0
 10
95.28250153325809
 20
54.71314442802014
 30
0.0
 10
95.36203747552206
 20
55.32906715568541
 30
0.0
 10
95.4776338421382
 20
55.75065891809499
 30
0.0
 10
95.55080539919968
 20
55.96581988104844
 30
0.0
 11
95.70247832539967
 21
53.37924483504844
 31
0.0
 11
95.46785241239969
 21
53.69435124224857
 31
0.0
 11
95.33056641759968
 21
54.1385933416484
 31
0.0
 11
95.29842527939967
 21
54.68671543244841
 31
0.0
 11
95.37325632799968
 21
55.30755612084839
 31
0.0
 11
95.55080539919968
 21
55.96581988104844
 31
0.0
  0
SPLINE
  5
1274
330
1F
100
AcDbEntity
  8
0
  6
Continuous
100
AcDbSpline
210
0.0
220
0.0
230
1.0
 70
     8
 71
     3
 72
    17
 73
    13
 74
    11
 42
0.0000000001
 43
0.0000000001
 44
0.0000000001
 12
0.928829797510941
 22
-0.3705066898934273
 32
0.0
 13
-0.0075082356311185
 23
-0.9999718128015948
 33
0.0
 40
0.0
 40
0.0
 40
0.0
 40
0.0
 40
0.4462260574279276
 40
0.8484122320225195
 40
1.218489964139671
 40
1.557474719672518
 40
1.867673220804588
 40
2.152783997955952
 40
2.416919169709132
 40
2.664366099790192
 40
2.899607677101657
 40
3.127713294281715
 40
3.127713294281715
 40
3.127713294281715
 40
3.127713294281715
 10
95.7024782195997
 20
53.37924464984848
 30
0.0
 10
95.84063423912133
 20
53.32413473668787
 30
0.0
 10
96.09657839381774
 20
53.20118428812629
 30
0.0
 10
96.43540728023223
 20
52.97497024895071
 30
0.0
 10
96.71303021794557
 20
52.72795453260812
 30
0.0
 10
96.93448078552738
 20
52.46894651397459
 30
0.0
 10
97.10456812678561
 20
52.20704621573918
 30
0.0
 10
97.229880112178
 20
51.94865718885812
 30
0.0
 10
97.31748244284455
 20
51.69737524819951
 30
0.0
 10
97.37384749989167
 20
51.45444259576319
 30
0.0
 10
97.4042949665116
 20
51.21912850221636
 30
0.0
 10
97.40990570404053
 20
51.06454095095571
 30
0.0
 10
97.40933481379967
 20
50.98850788844845
 30
0.0
 11
95.7024782195997
 21
53.37924464984848
 31
0.0
 11
96.1043249489997
 21
53.18524232924847
 31
0.0
 11
96.4384201437997
 21
52.96133583124856
 31
0.0
 11
96.71450835279968
 21
52.71489551664854
 31
0.0
 11
96.93450140379969
 21
52.45699297304849
 31
0.0
 11
97.10327712739969
 21
52.19672798264856
 31
0.0
 11
97.22763293979966
 21
51.94016651404854
 31
0.0
 11
97.31461460099968
 21
51.69076406904856
 31
0.0
 11
97.37062858219969
 21
51.44974038324846
 31
0.0
 11
97.40093088219973
 21
51.21645864304856
 31
0.0
 11
97.40933481379967
 21
50.98850788844845
 31
0.0
  0
SPLINE
  5
1275
330
1F
100
AcDbEntity
  8
0
  6
Continuous
100
AcDbSpline
210
0.0
220
0.0
230
1.0
 70
     8
 71
     3
 72
    12
 73
     8
 74
     6
 42
0.0000000001
 43
0.0000000001
 44
0.0000000001
 12
-0.0075959043424182
 22
-0.9999711507024695
 32
0.0
 13
-0.8664066385733709
 23
-0.4993390998469802
 33
0.0
 40
0.0
 40
0.0
 40
0.0
 40
0.0
 40
0.6246409268340112
 40
1.250177125740088
 40
1.876365467989827
 40
2.502851184489666
 40
3.129227216277652
 40
3.129227216277652
 40
3.129227216277652
 40
3.129227216277652
 10
97.21349634439969
 20
36.29065646304844
 30
0.0
 10
97.21191477349015
 20
36.08244882758775
 30
0.0
 10
97.16487743914894
 20
35.66477010745296
 30
0.0
 10
96.96623757245386
 20
35.06715005529474
 30
0.0
 10
96.6480613438779
 20
34.5225952898645
 30
0.0
 10
96.22453104835819
 20
34.05533500313689
 30
0.0
 10
95.88337700366115
 20
33.80833924687467
 30
0.0
 10
95.7024782195997
 20
33.70408123224843
 30
0.0
 11
97.21349634439969
 21
36.29065646304844
 31
0.0
 11
97.14361375259969
 21
35.66993695244855
 31
0.0
 11
96.94644374899968
 21
35.07628762344848
 31
0.0
 11
96.6305851091997
 21
34.53559810104844
 31
0.0
 11
96.20981273579969
 21
34.07144838084855
 31
0.0
 11
95.7024782195997
 21
33.70408123224843
 31
0.0
  0
SPLINE
  5
1276
330
1F
100
AcDbEntity
  8
0
  6
Continuous
100
AcDbSpline
210
0.0
220
0.0
230
1.0
 70
     8
 71
     3
 72
    12
 73
     8
 74
     6
 42
0.0000000001
 43
0.0000000001
 44
0.0000000001
 12
-0.8664173641052601
 22
0.4993204894422955
 32
0.0
 13
-0.0075959043424182
 23
0.9999711507024695
 33
0.0
 40
0.0
 40
0.0
 40
0.0
 40
0.0
 40
0.6263738743349986
 40
1.252860130267643
 40
1.879049012743369
 40
2.504585751014662
 40
3.129227216130386
 40
3.129227216130386
 40
3.129227216130386
 40
3.129227216130386
 10
68.2453333245997
 20
33.70408123224843
 30
0.0
 10
68.06443292421778
 20
33.80833500208404
 30
0.0
 10
67.72328253280421
 20
34.05533598970249
 30
0.0
 10
67.29975085898099
 20
34.52259346343451
 30
0.0
 10
66.98157446283213
 20
35.06714917515238
 30
0.0
 10
66.78293416394934
 20
35.66476952901112
 30
0.0
 10
66.73589677227213
 20
36.0824486481657
 30
0.0
 10
66.73431519999969
 20
36.29065646304844
 30
0.0
 11
68.2453333245997
 21
33.70408123224843
 31
0.0
 11
67.73800042399965
 21
34.07144693344844
 31
0.0
 11
67.31722739679971
 21
34.53559678904844
 31
0.0
 11
67.00136824199967
 21
35.07628663624848
 31
0.0
 11
66.80419790799969
 21
35.6699364238484
 31
0.0
 11
66.73431519999969
 21
36.29065646304844
 31
0.0
  0
SPLINE
  5
1277
330
1F
100
AcDbEntity
  8
0
  6
Continuous
100
AcDbSpline
210
0.0
220
0.0
230
1.0
 70
     8
 71
     3
 72
    12
 73
     8
 74
     6
 42
0.0000000001
 43
0.0000000001
 44
0.0000000001
 12
0.0075959043424182
 22
0.9999711507024695
 32
0.0
 13
0.8664072129366985
 23
0.4993381032639732
 33
0.0
 40
0.0
 40
0.0
 40
0.0
 40
0.0
 40
0.6246411060476075
 40
1.250177484636754
 40
1.876366006870676
 40
2.502851902858726
 40
3.129227216318659
 40
3.129227216318659
 40
3.129227216318659
 40
3.129227216318659
 10
66.73431519999969
 20
50.79266941884849
 30
0.0
 10
66.73589677136297
 20
51.00087711404532
 30
0.0
 10
66.78293413065913
 20
51.41855595671815
 30
0.0
 10
66.98157411433871
 20
52.016176156085
 30
0.0
 10
67.29975049758424
 20
52.56073106521519
 30
0.0
 10
67.72328088374063
 20
53.02799105432582
 30
0.0
 10
68.06443462807064
 20
53.27498696286366
 30
0.0
 10
68.2453333245997
 20
53.37924464984848
 30
0.0
 11
66.73431519999969
 21
50.79266941884849
 31
0.0
 11
66.80419783039969
 21
51.41338910544845
 31
0.0
 11
67.0013679439997
 21
52.00703858724843
 31
0.0
 11
67.3172267553997
 21
52.54772821784854
 31
0.0
 11
67.7379993463997
 21
53.01187798304841
 31
0.0
 11
68.2453333245997
 21
53.37924464984848
 31
0.0
  0
SPLINE
  5
1278
330
1F
100
AcDbEntity
  8
0
  6
Continuous
100
AcDbSpline
210
0.0
220
0.0
230
1.0
 70
     8
 71
     3
 72
    12
 73
     8
 74
     6
 42
0.0000000001
 43
0.0000000001
 44
0.0000000001
 12
0.8664182445328261
 22
-0.4993189617275275
 32
0.0
 13
0.0075959043424182
 23
-0.9999711507024695
 33
0.0
 40
0.0
 40
0.0
 40
0.0
 40
0.0
 40
0.6263734050888506
 40
1.252859778458646
 40
1.879048778490095
 40
2.504585634105533
 40
3.129227216340993
 40
3.129227216340993
 40
3.129227216340993
 40
3.129227216340993
 10
95.7024782195997
 20
53.37924464984848
 30
0.0
 10
95.88337866828607
 20
53.27499127708758
 30
0.0
 10
96.22452870919267
 20
53.02798992206762
 30
0.0
 10
96.64806050412929
 20
52.56073275026328
 30
0.0
 10
96.96623698498229
 20
52.01617691591517
 30
0.0
 10
97.16487736456338
 20
51.41855647367818
 30
0.0
 10
97.21191477183071
 20
51.00087727277003
 30
0.0
 10
97.21349634439969
 20
50.79266941884849
 30
0.0
 11
95.7024782195997
 21
53.37924464984848
 31
0.0
 11
96.20981076879968
 21
53.01187926344845
 31
0.0
 11
96.63058393819966
 21
52.54772937824849
 31
0.0
 11
96.94644320519969
 21
52.00703946044847
 31
0.0
 11
97.14361361099967
 21
51.41338957304856
 31
0.0
 11
97.21349634439969
 21
50.79266941884849
 31
0.0
  0
SPLINE
  5
1279
330
1F
100
AcDbEntity
  8
0
  6
Continuous
100
AcDbSpline
210
0.0
220
0.0
230
1.0
 70
     8
 71
     3
 72
    15
 73
    11
 74
     9
 42
0.0000000001
 43
0.0000000001
 44
0.0000000001
 12
0.1328428659957872
 22
0.9911371110769818
 32
0.0
 13
2.089715550600000E-6
 23
0.9999999999978166
 33
0.0
 40
0.0
 40
0.0
 40
0.0
 40
0.0
 40
0.0323726975302474
 40
0.1227012608549362
 40
0.2617742435832559
 40
0.4413604939265452
 40
0.6551794307633679
 40
0.8989613391542403
 40
1.170201592985903
 40
1.468142398292677
 40
1.468142398292677
 40
1.468142398292677
 40
1.468142398292677
 10
109.8499215441997
 20
62.68050579724853
 30
0.0
 10
109.851355038173
 20
62.69120105788449
 30
0.0
 10
109.8566967125517
 20
62.73175131911079
 30
0.0
 10
109.8674278122882
 20
62.81834825732875
 30
0.0
 10
109.8828749397547
 20
62.95380333594692
 30
0.0
 10
109.9001412319666
 20
63.13046359094645
 30
0.0
 10
109.9169671681909
 20
63.34220521615478
 30
0.0
 10
109.9311094600087
 20
63.58476052575632
 30
0.0
 10
109.9407396003284
 20
63.85560021729113
 30
0.0
 10
109.9429723932625
 20
64.04533623647976
 30
0.0
 10
109.9429726007997
 20
64.14464983824847
 30
0.0
 11
109.8499215441997
 21
62.68050579724853
 31
0.0
 11
109.8541519665997
 21
62.71260089144846
 31
0.0
 11
109.8653149077997
 21
62.80223703424849
 31
0.0
 11
109.8810204971997
 21
62.9404203508484
 31
0.0
 11
109.8985376995996
 21
63.11915022784842
 31
0.0
 11
109.9154763061997
 21
63.33229717564847
 31
0.0
 11
109.9297045193997
 21
63.57566351844844
 31
0.0
 11
109.9393992117997
 21
63.84673046264845
 31
0.0
 11
109.9429726007997
 21
64.14464983824847
 31
0.0
  0
SPLINE
  5
127A
330
1F
100
AcDbEntity
  8
0
  6
Continuous
100
AcDbSpline
210
0.0
220
0.0
230
1.0
 70
     8
 71
     3
 72
    12
 73
     8
 74
     6
 42
0.0000000001
 43
0.0000000001
 44
0.0000000001
 12
0.5743415490162623
 22
0.8186157737752189
 32
0.0
 13
0.9612052333249856
 23
0.2758341882882905
 33
0.0
 40
0.0
 40
0.0
 40
0.0
 40
0.0
 40
0.699156002772632
 40
1.481492191344634
 40
2.325352652291698
 40
3.202692312885272
 40
4.082373184406396
 40
4.082373184406396
 40
4.082373184406396
 40
4.082373184406396
 10
101.2579359309996
 20
68.14592186304844
 30
0.0
 10
101.3917873782118
 20
68.33670190711487
 30
0.0
 10
101.7194809304114
 20
68.71045785289813
 30
0.0
 10
102.3164554849131
 20
69.20832726166384
 30
0.0
 10
103.0228668798899
 20
69.65669462341526
 30
0.0
 10
103.8052795227181
 20
70.03409559352666
 30
0.0
 10
104.3592478288124
 20
70.22874362433228
 30
0.0
 10
104.6410991145997
 20
70.30962564404854
 30
0.0
 11
101.2579359309996
 21
68.14592186304844
 31
0.0
 11
101.7128062291997
 21
68.67687584224848
 31
0.0
 11
102.3102359553996
 21
69.18197745004841
 31
0.0
 11
103.0211405219997
 21
69.63663685524853
 31
0.0
 11
103.8109110159997
 21
70.01871989184849
 31
0.0
 11
104.6410991145997
 21
70.30962564404854
 31
0.0
  0
SPLINE
  5
127B
330
1F
100
AcDbEntity
  8
0
  6
Continuous
100
AcDbSpline
210
0.0
220
0.0
230
1.0
 70
     8
 71
     3
 72
     9
 73
     5
 74
     3
 42
0.0000000001
 43
0.0000000001
 44
0.0000000001
 12
0.4481719445506501
 22
-0.8939473743558338
 32
0.0
 13
0.4686503234656142
 23
-0.8833837638962894
 33
0.0
 40
0.0
 40
0.0
 40
0.0
 40
0.0
 40
0.2597348449548911
 40
0.5126492973079869
 40
0.5126492973079869
 40
0.5126492973079869
 40
0.5126492973079869
 10
104.4060256005996
 20
70.76519235284854
 30
0.0
 10
104.4448275574433
 20
70.68779592528983
 30
0.0
 10
104.522334304415
 20
70.53549586590769
 30
0.0
 10
104.6015896346316
 20
70.38409914980294
 30
0.0
 10
104.6410991145997
 20
70.30962564284846
 30
0.0
 11
104.4060256005996
 21
70.76519235284854
 31
0.0
 11
104.5238143251997
 21
70.53370151924854
 31
0.0
 11
104.6410991145997
 21
70.30962564284846
 31
0.0
  0
SPLINE
  5
127C
330
1F
100
AcDbEntity
  8
0
  6
Continuous
100
AcDbSpline
210
0.0
220
0.0
230
1.0
 70
     8
 71
     3
 72
    12
 73
     8
 74
     6
 42
0.0000000001
 43
0.0000000001
 44
0.0000000001
 12
0.6154957767816766
 22
0.7881401834470315
 32
0.0
 13
0.9616378193062716
 23
0.2743222639157797
 33
0.0
 40
0.0
 40
0.0
 40
0.0
 40
0.0
 40
0.6743492081252818
 40
1.432278202255693
 40
2.252401212390257
 40
3.107488704053069
 40
3.967388471170616
 40
3.967388471170616
 40
3.967388471170616
 40
3.967388471170616
 10
101.0579475661997
 20
68.74166294084853
 30
0.0
 10
101.1963005960921
 20
68.9188235103816
 30
0.0
 10
101.5289027771621
 20
69.26516803837421
 30
0.0
 10
102.1233064887913
 20
69.72685072424579
 30
0.0
 10
102.8203804189803
 20
70.14497466315569
 30
0.0
 10
103.5886129730432
 20
70.50035579931516
 30
0.0
 10
104.1303882218421
 20
70.68656251182971
 30
0.0
 10
104.4060256007997
 20
70.76519239544848
 30
0.0
 11
101.0579475661997
 21
68.74166294084853
 31
0.0
 11
101.5195519559997
 21
69.23326058304849
 31
0.0
 11
102.1151184063997
 21
69.7020430094485
 31
0.0
 11
102.8170064853997
 21
70.1262538960484
 31
0.0
 11
103.5926413589997
 21
70.48620550564851
 31
0.0
 11
104.4060256007997
 21
70.76519239544848
 31
0.0
  0
SPLINE
  5
127D
330
1F
100
AcDbEntity
  8
0
  6
Continuous
100
AcDbSpline
210
0.0
220
0.0
230
1.0
 70
     8
 71
     3
 72
     9
 73
     5
 74
     3
 42
0.0000000001
 43
0.0000000001
 44
0.0000000001
 12
0.3100791385660012
 22
-0.9507107487696596
 32
0.0
 13
0.3262629746078069
 23
-0.9452790441980958
 33
0.0
 40
0.0
 40
0.0
 40
0.0
 40
0.0
 40
0.318981349845676
 40
0.6263302295985558
 40
0.6263302295985558
 40
0.6263302295985558
 40
0.6263302295985558
 10
101.0579480143997
 20
68.7416629410485
 30
0.0
 10
101.090917835126
 20
68.64057660839673
 30
0.0
 10
101.1564283391075
 20
68.44233986518138
 30
0.0
 10
101.2240417082829
 20
68.24481182314453
 30
0.0
 10
101.2574672281997
 20
68.14796833804847
 30
0.0
 11
101.0579480143997
 21
68.7416629410485
 31
0.0
 11
101.1581904531996
 21
68.43884194604846
 31
0.0
 11
101.2574672281997
 21
68.14796833804847
 31
0.0
  0
SPLINE
  5
127E
330
1F
100
AcDbEntity
  8
0
  6
Continuous
100
AcDbSpline
210
0.0
220
0.0
230
1.0
 70
     8
 71
     3
 72
    10
 73
     6
 74
     4
 42
0.0000000001
 43
0.0000000001
 44
0.0000000001
 12
0.9999999999999885
 22
1.518603100000000E-7
 32
0.0
 13
0.9322529172289108
 23
-0.3618072668122981
 33
0.0
 40
0.0
 40
0.0
 40
0.0
 40
0.0
 40
0.8251903278739071
 40
1.625589426619562
 40
2.37850166398542
 40
2.37850166398542
 40
2.37850166398542
 40
2.37850166398542
 10
104.6410991145997
 20
70.30962564404854
 30
0.0
 10
104.9161625572243
 20
70.30962568581975
 30
0.0
 10
105.4585756246247
 20
70.27954568251256
 30
0.0
 10
106.2416327411118
 20
70.14550482646031
 30
0.0
 10
106.7389756702991
 20
69.99473422363209
 30
0.0
 10
106.9729438801997
 20
69.90393118404847
 30
0.0
 11
104.6410991145997
 21
70.30962564404854
 31
0.0
 11
105.4649842211997
 21
70.26323158904847
 31
0.0
 11
106.2535379011997
 21
70.12603898344852
 31
0.0
 11
106.9729438801997
 21
69.90393118404847
 31
0.0
  0
SPLINE
  5
127F
330
1F
100
AcDbEntity
  8
0
  6
Continuous
100
AcDbSpline
210
0.0
220
0.0
230
1.0
 70
     8
 71
     3
 72
    15
 73
    11
 74
     9
 42
0.0000000001
 43
0.0000000001
 44
0.0000000001
 12
0.6104922688634887
 22
0.7920222153815574
 32
0.0
 13
0.9988299772332364
 23
-0.0483598653870377
 33
0.0
 40
0.0
 40
0.0
 40
0.0
 40
0.0
 40
0.6456885370083758
 40
1.384105101579599
 40
2.195261395908663
 40
3.050347909592775
 40
3.923428146316325
 40
4.760038581548677
 40
5.503080763511044
 40
6.125414076820093
 40
6.125414076820093
 40
6.125414076820093
 40
6.125414076820093
 10
101.6610868061997
 20
66.5212346100484
 30
0.0
 10
101.7924827595122
 20
66.69170116522435
 30
0.0
 10
102.1243020565159
 20
67.01759914500777
 30
0.0
 10
102.7141020761903
 20
67.45292402440538
 30
0.0
 10
103.4157559840936
 20
67.84472334363197
 30
0.0
 10
104.1954407868906
 20
68.1776875224119
 30
0.0
 10
105.0130515733732
 20
68.43260407087178
 30
0.0
 10
105.8147719040415
 20
68.59879487790164
 30
0.0
 10
106.5469818556311
 20
68.67312997452208
 30
0.0
 10
107.002681705345
 20
68.66068696413429
 30
0.0
 10
107.2098834283996
 20
68.65065497904845
 30
0.0
 11
101.6610868061997
 21
66.5212346100484
 31
0.0
 11
102.1107872057997
 21
66.98457383504842
 31
0.0
 11
102.7026944135997
 21
67.42605416324841
 31
0.0
 11
103.4089616041997
 21
67.82500427204855
 31
0.0
 11
104.1948830035996
 21
68.16190262444843
 31
0.0
 11
105.0282817753997
 21
68.42212481204842
 31
0.0
 11
105.8478617371997
 21
68.59007035844843
 31
0.0
 11
106.5876183301997
 21
68.65986912124845
 31
0.0
 11
107.2098834283996
 21
68.65065497904845
 31
0.0
  0
SPLINE
  5
1280
330
1F
100
AcDbEntity
  8
0
  6
Continuous
100
AcDbSpline
210
0.0
220
0.0
230
1.0
 70
     8
 71
     3
 72
     9
 73
     5
 74
     3
 42
0.0000000001
 43
0.0000000001
 44
0.0000000001
 12
0.1673098396558593
 22
-0.98590436531863
 32
0.0
 13
0.2046774961833283
 23
-0.9788294655128256
 33
0.0
 40
0.0
 40
0.0
 40
0.0
 40
0.0
 40
0.6537230496937767
 40
1.275337038471481
 40
1.275337038471481
 40
1.275337038471481
 40
1.275337038471481
 10
106.9729438777997
 20
69.90405708624847
 30
0.0
 10
107.0094019773409
 20
69.6892209501143
 30
0.0
 10
107.0844247359016
 20
69.27075137135302
 30
0.0
 10
107.1674072059945
 20
68.85378757751199
 30
0.0
 10
107.2098173375997
 20
68.65096954804847
 30
0.0
 11
106.9729438777997
 21
69.90405708624847
 31
0.0
 11
107.0884049677997
 21
69.2606112358485
 31
0.0
 11
107.2098173375997
 21
68.65096954804847
 31
0.0
  0
SPLINE
  5
1281
330
1F
100
AcDbEntity
  8
0
  6
Continuous
100
AcDbSpline
210
0.0
220
0.0
230
1.0
 70
     8
 71
     3
 72
    15
 73
    11
 74
     9
 42
0.0000000001
 43
0.0000000001
 44
0.0000000001
 12
0.7269185363673231
 22
0.6867237009784858
 32
0.0
 13
0.999407942857112
 23
-0.03440586801863129
 33
0.0
 40
0.0
 40
0.0
 40
0.0
 40
0.0
 40
0.619561945101913
 40
1.341279705635768
 40
2.141364467833338
 40
2.989863014911527
 40
3.852623895908573
 40
4.695801100642743
 40
5.468085758819171
 40
6.102369237685338
 40
6.102369237685338
 40
6.102369237685338
 40
6.102369237685338
 10
101.2579359309996
 20
68.14592186304844
 30
0.0
 10
101.4080596184404
 20
68.28774448702372
 30
0.0
 10
101.7686203313612
 20
68.5564526895775
 30
0.0
 10
102.3883980536571
 20
68.91226670457398
 30
0.0
 10
103.111632729529
 20
69.2336937158058
 30
0.0
 10
103.9035804112334
 20
69.50761639644541
 30
0.0
 10
104.7292603772998
 20
69.71968487878593
 30
0.0
 10
105.5437344165298
 20
69.86148488578739
 30
0.0
 10
106.2925222646937
 20
69.92769235817283
 30
0.0
 10
106.7616412312657
 20
69.91120554193523
 30
0.0
 10
106.9729438801997
 20
69.90393118404847
 30
0.0
 11
101.2579359309996
 21
68.14592186304844
 31
0.0
 11
101.7470580773996
 21
68.52620666384847
 31
0.0
 11
102.3710873065997
 21
68.88878637504854
 31
0.0
 11
103.1008306887997
 21
69.21682634644844
 31
0.0
 11
103.9024003717996
 21
69.49509928384848
 31
0.0
 11
104.7379548757997
 21
69.7100527872485
 31
0.0
 11
105.5688729109997
 21
69.85331135544845
 31
0.0
 11
106.3387452359997
 21
69.91430476864844
 31
0.0
 11
106.9729438801997
 21
69.90393118404847
 31
0.0
  0
SPLINE
  5
1282
330
1F
100
AcDbEntity
  8
0
  6
Continuous
100
AcDbSpline
210
0.0
220
0.0
230
1.0
 70
     8
 71
     3
 72
     9
 73
     5
 74
     3
 42
0.0000000001
 43
0.0000000001
 44
0.0000000001
 12
0.2190312505349794
 22
-0.9757178440968901
 32
0.0
 13
0.2628168809941498
 23
-0.9648457322621618
 33
0.0
 40
0.0
 40
0.0
 40
0.0
 40
0.0
 40
0.8580306623229778
 40
1.676164829733353
 40
1.676164829733353
 40
1.676164829733353
 40
1.676164829733353
 10
101.2574672281997
 20
68.14796833804847
 30
0.0
 10
101.3201124045217
 20
67.86890306204487
 30
0.0
 10
101.4486478095624
 20
67.32511081896732
 30
0.0
 10
101.5894136044951
 20
66.78435902999631
 30
0.0
 10
101.6610867611996
 20
66.5212346100484
 30
0.0
 11
101.2574672281997
 21
68.14796833804847
 31
0.0
 11
101.4549121265997
 21
67.31296406884847
 31
0.0
 11
101.6610867611996
 21
66.5212346100484
 31
0.0
  0
SPLINE
  5
1283
330
1F
100
AcDbEntity
  8
0
  6
Continuous
100
AcDbSpline
210
0.0
220
0.0
230
1.0
 70
     8
 71
     3
 72
    10
 73
     6
 74
     4
 42
0.0000000001
 43
0.0000000001
 44
0.0000000001
 12
-0.6342172111992385
 22
0.7731549191582893
 32
0.0
 13
9.699794300000000E-8
 23
0.9999999999999953
 33
0.0
 40
0.0
 40
0.0
 40
0.0
 40
0.0
 40
0.9642700147366246
 40
1.956752248828806
 40
2.965011329624294
 40
2.965011329624294
 40
2.965011329624294
 40
2.965011329624294
 10
102.6109069437997
 20
63.76623914724849
 30
0.0
 10
102.4070547306033
 20
64.01474918234531
 30
0.0
 10
102.0560571969684
 20
64.57342713412334
 30
0.0
 10
101.7340174997617
 20
65.51579295637171
 30
0.0
 10
101.6610867736
 20
66.18514824978324
 30
0.0
 10
101.6610868061997
 20
66.5212346100484
 30
0.0
 11
102.6109069437997
 21
63.76623914724849
 31
0.0
 11
102.0947438727997
 21
64.58072815604849
 31
0.0
 11
101.7712581825997
 21
65.51901275744854
 31
0.0
 11
101.6610868061997
 21
66.5212346100484
 31
0.0
  0
SPLINE
  5
1284
330
1F
100
AcDbEntity
  8
0
  6
Continuous
100
AcDbSpline
210
0.0
220
0.0
230
1.0
 70
     8
 71
     3
 72
    15
 73
    11
 74
     9
 42
0.0000000001
 43
0.0000000001
 44
0.0000000001
 12
0.6203438968977105
 22
-0.7843299366859351
 32
0.0
 13
0.3828307224008247
 23
-0.9238185092246544
 33
0.0
 40
0.0
 40
0.0
 40
0.0
 40
0.0
 40
0.4757388416176024
 40
0.9886934845747858
 40
1.532357783183121
 40
2.100658164234728
 40
2.681981174505566
 40
3.254008595359569
 40
3.784682937650008
 40
4.250628327055902
 40
4.250628327055902
 40
4.250628327055902
 40
4.250628327055902
 10
107.2098173375997
 20
68.65096954804847
 30
0.0
 10
107.3081912332379
 20
68.52659080954014
 30
0.0
 10
107.5062971494643
 20
68.26304930169967
 30
0.0
 10
107.7957679672824
 20
67.84205385498366
 30
0.0
 10
108.0856310026
 20
67.38435912333998
 30
0.0
 10
108.3707040591591
 20
66.89708180505829
 30
0.0
 10
108.6436738517879
 20
66.39215535619073
 30
0.0
 10
108.8946336914356
 20
65.8899313127787
 30
0.0
 10
109.1141603763754
 20
65.41528570476578
 30
0.0
 10
109.2453292378579
 20
65.11002495272217
 30
0.0
 10
109.3047886411997
 20
64.96654196104849
 30
0.0
 11
107.2098173375997
 21
68.65096954804847
 31
0.0
 11
107.4962154385997
 21
68.27109644664847
 31
0.0
 11
107.7873471727997
 21
67.8487639010484
 31
0.0
 11
108.0785698411997
 21
67.38967760524849
 31
0.0
 11
108.3657575055996
 21
66.89928126704854
 31
0.0
 11
108.6423561245997
 21
66.38797935404841
 31
0.0
 11
108.8981026799997
 21
65.87630653904851
 31
0.0
 11
109.1208643775996
 21
65.39465055844846
 31
0.0
 11
109.3047886411997
 21
64.96654196104849
 31
0.0
  0
SPLINE
  5
1285
330
1F
100
AcDbEntity
  8
0
  6
Continuous
100
AcDbSpline
210
0.0
220
0.0
230
1.0
 70
     8
 71
     3
 72
    16
 73
    12
 74
    10
 42
0.0000000001
 43
0.0000000001
 44
0.0000000001
 12
0.7369318054101207
 22
0.6759670954824503
 32
0.0
 13
0.6556003362246833
 23
0.7551080711673545
 33
0.0
 40
0.0
 40
0.0
 40
0.0
 40
0.0
 40
0.4245876966836707
 40
1.017434581475833
 40
1.748412336192715
 40
2.580247689046734
 40
3.470480007523742
 40
4.373655151113351
 40
5.243660418273123
 40
6.036083759482564
 40
6.710494889406973
 40
6.710494889406973
 40
6.710494889406973
 40
6.710494889406973
 10
102.6109069437997
 20
63.76623914724849
 30
0.0
 10
102.7152043364237
 20
63.86190825128344
 30
0.0
 10
102.9589795785385
 20
64.09780262859997
 30
0.0
 10
103.3704854308846
 20
64.51049475198485
 30
0.0
 10
103.8714729976656
 20
65.02562953239185
 30
0.0
 10
104.4363671473872
 20
65.61682008710477
 30
0.0
 10
105.036157744272
 20
66.25402723935537
 30
0.0
 10
105.6401869303066
 20
66.90468591388434
 30
0.0
 10
106.21759336248
 20
67.53554707510631
 30
0.0
 10
106.7389121618134
 20
68.11433574299747
 30
0.0
 10
107.0625020405556
 20
68.48090388321812
 30
0.0
 10
107.2098834283996
 20
68.65065497904845
 30
0.0
 11
102.6109069437997
 21
63.76623914724849
 31
0.0
 11
102.9179140695997
 21
64.05953309004849
 31
0.0
 11
103.3371906975997
 21
64.47866855504844
 31
0.0
 11
103.8473073121997
 21
65.0022232488484
 31
0.0
 11
104.4221911365996
 21
65.6034375556485
 31
0.0
 11
105.0324570345997
 21
66.25158037524852
 31
0.0
 11
105.6469131603996
 21
66.91352373344851
 31
0.0
 11
106.2341569117997
 21
67.55543801224849
 31
0.0
 11
106.7641762731996
 21
68.14451714804841
 31
0.0
 11
107.2098834283996
 21
68.65065497904845
 31
0.0
  0
SPLINE
  5
1286
330
1F
100
AcDbEntity
  8
0
  6
Continuous
100
AcDbSpline
210
0.0
220
0.0
230
1.0
 70
     8
 71
     3
 72
    15
 73
    11
 74
     9
 42
0.0000000001
 43
0.0000000001
 44
0.0000000001
 12
0.7861360538401363
 22
-0.6180534805764453
 32
0.0
 13
0.731854793086876
 23
-0.6814606091593014
 33
0.0
 40
0.0
 40
0.0
 40
0.0
 40
0.0
 40
0.4450530674128879
 40
0.9201665766342226
 40
1.420579882578908
 40
1.937344662595449
 40
2.462879995694298
 40
2.972039309615643
 40
3.438422490277862
 40
3.842790677537594
 40
3.842790677537594
 40
3.842790677537594
 40
3.842790677537594
 10
102.6109223771997
 20
63.76623914724849
 30
0.0
 10
102.7275464645882
 20
63.67455028146324
 30
0.0
 10
102.9681923786902
 20
63.48436753395832
 30
0.0
 10
103.3374368857466
 20
63.18790278894476
 30
0.0
 10
103.7224647256208
 20
62.87294487153805
 30
0.0
 10
104.1171458283407
 20
62.54328192508299
 30
0.0
 10
104.510286022851
 20
62.20727507758119
 30
0.0
 10
104.8867149153574
 20
61.87761823268203
 30
0.0
 10
105.2289900981863
 20
61.57032260105345
 30
0.0
 10
105.4426294280604
 20
61.3738332477867
 30
0.0
 10
105.5412756933997
 20
61.28197958404848
 30
0.0
 11
102.6109223771997
 21
63.76623914724849
 31
0.0
 11
102.9599866263997
 21
63.49014788924842
 31
0.0
 11
103.3304179235996
 21
63.19263570344856
 31
0.0
 11
103.7177102959996
 21
62.8757475606485
 31
0.0
 11
104.1142780345997
 21
62.5444171114484
 31
0.0
 11
104.5137342699997
 21
62.2029173276485
 31
0.0
 11
104.8967162849997
 21
61.86740580304853
 31
0.0
 11
105.2437001837996
 21
61.55577229204847
 31
0.0
 11
105.5412756933997
 21
61.28197958404848
 31
0.0
  0
SPLINE
  5
1287
330
1F
100
AcDbEntity
  8
0
  6
Continuous
100
AcDbSpline
210
0.0
220
0.0
230
1.0
 70
     8
 71
     3
 72
     9
 73
     5
 74
     3
 42
0.0000000001
 43
0.0000000001
 44
0.0000000001
 12
0.6381535647128011
 22
-0.7699091036248014
 32
0.0
 13
0.6015680964050397
 23
-0.7988215228620327
 33
0.0
 40
0.0
 40
0.0
 40
0.0
 40
0.0
 40
0.280333903578662
 40
0.5410723692563844
 40
0.5410723692563844
 40
0.5410723692563844
 40
0.5410723692563844
 10
109.3047886411997
 20
64.96654196104849
 30
0.0
 10
109.3644206678259
 20
64.89459808624186
 30
0.0
 10
109.4778946074187
 20
64.75438593689168
 30
0.0
 10
109.5880742761805
 20
64.61157297798893
 30
0.0
 10
109.6403582569996
 20
64.54214514524847
 30
0.0
 11
109.3047886411997
 21
64.96654196104849
 31
0.0
 11
109.4811198709997
 21
64.74860987324848
 31
0.0
 11
109.6403582569996
 21
64.54214514524847
 31
0.0
  0
SPLINE
  5
1288
330
1F
100
AcDbEntity
  8
0
  6
Continuous
100
AcDbSpline
210
0.0
220
0.0
230
1.0
 70
     8
 71
     3
 72
    13
 73
     9
 74
     7
 42
0.0000000001
 43
0.0000000001
 44
0.0000000001
 12
0.124882534292193
 22
0.9921715338734323
 32
0.0
 13
0.9847873828804709
 23
0.1737636628280872
 33
0.0
 40
0.0
 40
0.0
 40
0.0
 40
0.0
 40
0.8679593813621453
 40
1.779453797261446
 40
2.725643810617411
 40
3.690963042915264
 40
4.656406752363945
 40
5.602948405655153
 40
5.602948405655153
 40
5.602948405655153
 40
5.602948405655153
 10
105.5412754727997
 20
61.28197956824852
 30
0.0
 10
105.5774064618688
 20
61.5690344318305
 30
0.0
 10
105.729625779894
 20
62.14958897377356
 30
0.0
 10
106.1584123564683
 20
62.95836792804938
 30
0.0
 10
106.7672049013384
 20
63.68455786327833
 30
0.0
 10
107.5210396083154
 20
64.28730158964933
 30
0.0
 10
108.3767667004952
 20
64.73311101258578
 30
0.0
 10
108.994074548689
 20
64.91171789961676
 30
0.0
 10
109.3047886411997
 20
64.96654274784851
 30
0.0
 11
105.5412754727997
 21
61.28197956824852
 31
0.0
 11
105.7562876437996
 21
62.12288577824847
 31
0.0
 11
106.1790452209997
 21
62.93041169184846
 31
0.0
 11
106.7847980481996
 21
63.65728104304844
 31
0.0
 11
107.5380825913997
 21
64.26093957004855
 31
0.0
 11
108.3947981353997
 21
64.70604633564847
 31
0.0
 11
109.3047886411997
 21
64.96654274784851
 31
0.0
  0
SPLINE
  5
1289
330
1F
100
AcDbEntity
  8
0
  6
Continuous
100
AcDbSpline
210
0.0
220
0.0
230
1.0
 70
     8
 71
     3
 72
     9
 73
     5
 74
     3
 42
0.0000000001
 43
0.0000000001
 44
0.0000000001
 12
0.7318734101571561
 22
-0.6814406148043536
 32
0.0
 13
0.7132819088194821
 23
-0.7008772492746759
 33
0.0
 40
0.0
 40
0.0
 40
0.0
 40
0.0
 40
0.2025057072532661
 40
0.3916698384248776
 40
0.3916698384248776
 40
0.3916698384248776
 40
0.3916698384248776
 10
105.5412756933997
 20
61.28197958404848
 30
0.0
 10
105.5906785409143
 20
61.23598104616446
 30
0.0
 10
105.6856066927262
 20
61.1463431472143
 30
0.0
 10
105.7793200612122
 20
61.05543729642079
 30
0.0
 10
105.8242958453996
 20
61.01124368444846
 30
0.0
 11
105.5412756933997
 21
61.28197958404848
 31
0.0
 11
105.6885155229997
 21
61.14295083144849
 31
0.0
 11
105.8242958453996
 21
61.01124368444846
 31
0.0
  0
SPLINE
  5
128A
330
1F
100
AcDbEntity
  8
0
  6
Continuous
100
AcDbSpline
210
0.0
220
0.0
230
1.0
 70
     8
 71
     3
 72
     9
 73
     5
 74
     3
 42
0.0000000001
 43
0.0000000001
 44
0.0000000001
 12
0.6015472312032472
 22
-0.7988372353813429
 32
0.0
 13
0.6091806455652762
 23
-0.7930314880688367
 33
0.0
 40
0.0
 40
0.0
 40
0.0
 40
0.0
 40
0.2583007952453374
 40
0.4995997469996792
 40
0.4995997469996792
 40
0.4995997469996792
 40
0.4995997469996792
 10
109.6403582569996
 20
64.54214514524847
 30
0.0
 10
109.6921516330654
 20
64.47336504752494
 30
0.0
 10
109.7925501610766
 20
64.34049684715605
 30
0.0
 10
109.8939813183316
 20
64.20841603417487
 30
0.0
 10
109.9429795353996
 20
64.14463014524847
 30
0.0
 11
109.6403582569996
 21
64.54214514524847
 31
0.0
 11
109.7962428431997
 21
64.33618569144846
 31
0.0
 11
109.9429795353996
 21
64.14463014524847
 31
0.0
  0
SPLINE
  5
128B
330
1F
100
AcDbEntity
  8
0
  6
Continuous
100
AcDbSpline
210
0.0
220
0.0
230
1.0
 70
     8
 71
     3
 72
    13
 73
     9
 74
     7
 42
0.0000000001
 43
0.0000000001
 44
0.0000000001
 12
0.150490977768431
 22
0.9886113825008802
 32
0.0
 13
0.9916143608809734
 23
0.1292321914022156
 33
0.0
 40
0.0
 40
0.0
 40
0.0
 40
0.0
 40
0.8741176668924674
 40
1.781111396763474
 40
2.714632036553414
 40
3.663143619879446
 40
4.612349848767487
 40
5.547829297217565
 40
5.547829297217565
 40
5.547829297217565
 40
5.547829297217565
 10
105.8242894925997
 20
61.01124368444846
 30
0.0
 10
105.8681384333915
 20
61.29929790949346
 30
0.0
 10
106.0327700646828
 20
61.87678255292796
 30
0.0
 10
106.4765250932594
 20
62.67341514399975
 30
0.0
 10
107.095844071177
 20
63.37596900520717
 30
0.0
 10
107.8561868810902
 20
63.94596612167257
 30
0.0
 10
108.7152840255478
 20
64.3526870783642
 30
0.0
 10
109.3311466385356
 20
64.50185606553687
 30
0.0
 10
109.6403582569996
 20
64.54215408524851
 30
0.0
 11
105.8242894925997
 21
61.01124368444846
 31
0.0
 11
106.0602050515996
 21
61.85292387584855
 31
0.0
 11
106.4983752485997
 21
62.6470551650484
 31
0.0
 11
107.1140463477997
 21
63.34877439844854
 31
0.0
 11
107.8724369841997
 21
63.91843909484851
 31
0.0
 11
108.7307030809996
 21
64.32386698244839
 31
0.0
 11
109.6403582569996
 21
64.54215408524851
 31
0.0
  0
SPLINE
  5
128C
330
1F
100
AcDbEntity
  8
0
  6
Continuous
100
AcDbSpline
210
0.0
220
0.0
230
1.0
 70
     8
 71
     3
 72
    11
 73
     7
 74
     5
 42
0.0000000001
 43
0.0000000001
 44
0.0000000001
 12
0.4535308612569618
 22
-0.8912405723975533
 32
0.0
 13
0.4818842698519649
 23
-0.8762348717491441
 33
0.0
 40
0.0
 40
0.0
 40
0.0
 40
0.0
 40
1.10768776697196
 40
1.871731574546528
 40
2.313084848822096
 40
2.455428784547562
 40
2.455428784547562
 40
2.455428784547562
 40
2.455428784547562
 10
105.8242958453996
 20
61.01124368444846
 30
0.0
 10
105.9917527077191
 20
60.68217159129051
 30
0.0
 10
106.2791211600773
 20
60.12834703562378
 30
0.0
 10
106.6426570099115
 20
59.44838981569646
 30
0.0
 10
106.8574274793517
 20
59.05380315442908
 30
0.0
 10
106.9510413376881
 20
58.88323851447007
 30
0.0
 10
106.9739057721997
 20
58.84166294104852
 30
0.0
 11
105.8242958453996
 21
61.01124368444846
 31
0.0
 11
106.3342633733996
 21
60.02793025044844
 31
0.0
 11
106.6944337049997
 21
59.35410514544855
 31
0.0
 11
106.9054184325997
 21
58.96644787744843
 31
0.0
 11
106.9739057721997
 21
58.84166294104852
 31
0.0
  0
ARC
  5
128D
330
1F
100
AcDbEntity
  8
0
  6
Continuous
100
AcDbCircle
 10
55.17390577219971
 20
66.5212346100484
 30
0.0
 40
4.0
100
AcDbArc
 50
316.4688478326011
 51
0.0
  0
ARC
  5
128E
330
1F
100
AcDbEntity
  8
0
  6
Continuous
100
AcDbCircle
 10
60.97390577219972
 20
61.01124368444846
 30
0.0
 40
4.0
100
AcDbArc
 50
136.4688478326011
 51
180.0
  0
ARC
  5
128F
330
1F
100
AcDbEntity
  8
0
  6
Continuous
100
AcDbCircle
 10
81.97390577219969
 20
68.7416629410485
 30
0.0
 40
22.8
100
AcDbArc
 50
72.78944691200098
 51
180.0
  0
ARC
  5
1290
330
1F
100
AcDbEntity
  8
0
  6
Continuous
100
AcDbCircle
 10
109.3047886411997
 20
87.84166294104853
 30
0.0
 40
4.0
100
AcDbArc
 50
90.0
 51
125.6590876961003
  0
ARC
  5
1291
330
1F
100
AcDbEntity
  8
0
  6
Continuous
100
AcDbCircle
 10
104.6410991145997
 20
94.34166294104851
 30
0.0
 40
4.0
100
AcDbArc
 50
270.0
 51
305.6590876961004
  0
ARC
  5
1292
330
1F
100
AcDbEntity
  8
0
  6
Continuous
100
AcDbCircle
 10
89.90359777539969
 20
94.34166234704846
 30
0.0
 40
3.999999860399998
100
AcDbArc
 50
252.7894311247004
 51
269.999986126701
  0
ARC
  5
1293
330
1F
100
AcDbEntity
  8
0
  6
Continuous
100
AcDbCircle
 10
110.9738994747996
 20
58.84167113204853
 30
0.0
 40
3.999998234399998
100
AcDbArc
 50
106.3195670478006
 51
180.0001184079019
  0
ARC
  5
1294
330
1F
100
AcDbEntity
  8
0
  6
Continuous
100
AcDbCircle
 10
114.5739057721997
 20
65.68166294104844
 30
0.0
 40
0.3
100
AcDbArc
 50
270.0
 51
0.0
  0
ARC
  5
1295
330
1F
100
AcDbEntity
  8
0
  6
Continuous
100
AcDbCircle
 10
114.5739057721997
 20
89.00166294104849
 30
0.0
 40
0.3
100
AcDbArc
 50
0.0
 51
90.0
  0
ARC
  5
1296
330
1F
100
AcDbEntity
  8
0
  6
Continuous
100
AcDbCircle
 10
121.4739057721997
 20
65.68166294104844
 30
0.0
 40
0.3
100
AcDbArc
 50
180.0
 51
270.0
  0
ARC
  5
1297
330
1F
100
AcDbEntity
  8
0
  6
Continuous
100
AcDbCircle
 10
121.4739057721997
 20
89.00166294104849
 30
0.0
 40
0.3
100
AcDbArc
 50
90.0
 51
180.0
  0
ARC
  5
1298
330
1F
100
AcDbEntity
  8
0
  6
Continuous
100
AcDbCircle
 10
122.4739057721997
 20
65.68166294104844
 30
0.0
 40
0.3
100
AcDbArc
 50
270.0
 51
0.0
  0
ARC
  5
1299
330
1F
100
AcDbEntity
  8
0
  6
Continuous
100
AcDbCircle
 10
122.4739057721997
 20
89.00166294104849
 30
0.0
 40
0.3
100
AcDbArc
 50
0.0
 51
90.0
  0
ARC
  5
129A
330
1F
100
AcDbEntity
  8
0
  6
Continuous
100
AcDbCircle
 10
129.3739057721997
 20
65.68166294104844
 30
0.0
 40
0.3
100
AcDbArc
 50
180.0
 51
270.0
  0
ARC
  5
129B
330
1F
100
AcDbEntity
  8
0
  6
Continuous
100
AcDbCircle
 10
129.3739057721997
 20
89.00166294104849
 30
0.0
 40
0.3
100
AcDbArc
 50
90.0
 51
180.0
  0
ARC
  5
129C
330
1F
100
AcDbEntity
  8
0
  6
Continuous
100
AcDbCircle
 10
130.3739057721997
 20
65.68166294104844
 30
0.0
 40
0.3
100
AcDbArc
 50
270.0
 51
0.0
  0
ARC
  5
129D
330
1F
100
AcDbEntity
  8
0
  6
Continuous
100
AcDbCircle
 10
130.3739057721997
 20
89.00166294104849
 30
0.0
 40
0.3
100
AcDbArc
 50
0.0
 51
90.0
  0
ARC
  5
129E
330
1F
100
AcDbEntity
  8
0
  6
Continuous
100
AcDbCircle
 10
137.2739057721996
 20
65.68166294104844
 30
0.0
 40
0.3
100
AcDbArc
 50
180.0
 51
270.0
  0
ARC
  5
129F
330
1F
100
AcDbEntity
  8
0
  6
Continuous
100
AcDbCircle
 10
137.2739057721996
 20
89.00166294104849
 30
0.0
 40
0.3
100
AcDbArc
 50
90.0
 51
180.0
  0
ARC
  5
12A0
330
1F
100
AcDbEntity
  8
0
  6
Continuous
100
AcDbCircle
 10
115.1739057721997
 20
66.04166294104846
 30
0.0
 40
0.3
100
AcDbArc
 50
90.0
 51
179.9999999985995
  0
ARC
  5
12A1
330
1F
100
AcDbEntity
  8
0
  6
Continuous
100
AcDbCircle
 10
115.1739057721997
 20
88.64166294104849
 30
0.0
 40
0.3
100
AcDbArc
 50
180.0000000039018
 51
270.0
  0
ARC
  5
12A2
330
1F
100
AcDbEntity
  8
0
  6
Continuous
100
AcDbCircle
 10
123.0739057721996
 20
66.04166294104846
 30
0.0
 40
0.3
100
AcDbArc
 50
90.0
 51
179.9999999985995
  0
ARC
  5
12A3
330
1F
100
AcDbEntity
  8
0
  6
Continuous
100
AcDbCircle
 10
123.0739057721996
 20
88.64166294104849
 30
0.0
 40
0.3
100
AcDbArc
 50
180.0000000039018
 51
270.0
  0
ARC
  5
12A4
330
1F
100
AcDbEntity
  8
0
  6
Continuous
100
AcDbCircle
 10
130.9739057721997
 20
66.04166294104846
 30
0.0
 40
0.3
100
AcDbArc
 50
90.0
 51
179.9999999985995
  0
ARC
  5
12A5
330
1F
100
AcDbEntity
  8
0
  6
Continuous
100
AcDbCircle
 10
130.9739057721997
 20
88.64166294104849
 30
0.0
 40
0.3
100
AcDbArc
 50
180.0000000039018
 51
270.0
  0
ARC
  5
12A6
330
1F
100
AcDbEntity
  8
0
  6
Continuous
100
AcDbCircle
 10
120.8739057721997
 20
66.04166294104846
 30
0.0
 40
0.3
100
AcDbArc
 50
0.000000001599132
 51
90.0
  0
ARC
  5
12A7
330
1F
100
AcDbEntity
  8
0
  6
Continuous
100
AcDbCircle
 10
120.8739057721997
 20
88.64166294104849
 30
0.0
 40
0.3
100
AcDbArc
 50
270.0
 51
359.9999999988015
  0
ARC
  5
12A8
330
1F
100
AcDbEntity
  8
0
  6
Continuous
100
AcDbCircle
 10
128.7739057721996
 20
66.04166294104846
 30
0.0
 40
0.3
100
AcDbArc
 50
0.000000001599132
 51
90.0
  0
ARC
  5
12A9
330
1F
100
AcDbEntity
  8
0
  6
Continuous
100
AcDbCircle
 10
128.7739057721996
 20
88.64166294104849
 30
0.0
 40
0.3
100
AcDbArc
 50
270.0
 51
359.9999999988015
  0
ARC
  5
12AA
330
1F
100
AcDbEntity
  8
0
  6
Continuous
100
AcDbCircle
 10
136.6739057721997
 20
66.04166294104846
 30
0.0
 40
0.3
100
AcDbArc
 50
0.000000001599132
 51
90.0
  0
ARC
  5
12AB
330
1F
100
AcDbEntity
  8
0
  6
Continuous
100
AcDbCircle
 10
136.6739057721997
 20
88.64166294104849
 30
0.0
 40
0.3
100
AcDbArc
 50
270.0
 51
359.9999999988015
  0
ARC
  5
12AC
330
1F
100
AcDbEntity
  8
0
  6
Continuous
100
AcDbCircle
 10
141.6739057721996
 20
66.52288829164854
 30
0.0
 40
0.3
100
AcDbArc
 50
285.0000000123014
 51
0.0
  0
ARC
  5
12AD
330
1F
100
AcDbEntity
  8
0
  6
Continuous
100
AcDbCircle
 10
141.6739057721996
 20
88.16043759024841
 30
0.0
 40
0.3
100
AcDbArc
 50
0.0
 51
74.99999999020042
  0
ARC
  5
12AE
330
1F
100
AcDbEntity
  8
0
  6
Continuous
100
AcDbCircle
 10
105.8082203471996
 20
29.74166294104851
 30
0.0
 40
0.4
100
AcDbArc
 50
270.0
 51
314.9999999932006
  0
ARC
  5
12AF
330
1F
100
AcDbEntity
  8
0
  6
Continuous
100
AcDbCircle
 10
58.13959119719971
 20
29.74166294104851
 30
0.0
 40
0.4
100
AcDbArc
 50
225.0000000052001
 51
270.0
  0
ARC
  5
12B0
330
1F
100
AcDbEntity
  8
0
  6
Continuous
100
AcDbCircle
 10
111.1739057721997
 20
64.38166294104849
 30
0.0
 40
1.0
100
AcDbArc
 50
90.0
 51
180.0
  0
ARC
  5
12B1
330
1F
100
AcDbEntity
  8
0
  6
Continuous
100
AcDbCircle
 10
111.1739057721997
 20
90.30166294104858
 30
0.0
 40
1.0
100
AcDbArc
 50
180.0
 51
270.0
  0
LINE
  5
12B2
330
1F
100
AcDbEntity
  8
0
  6
Continuous
100
AcDbLine
 10
141.9739057721996
 20
88.16043759024841
 30
0.0
 11
141.9739057721996
 21
66.52288829164854
 31
0.0
  0
LINE
  5
12B3
330
1F
100
AcDbEntity
  8
0
  6
Continuous
100
AcDbLine
 10
141.7515514855997
 20
66.23311054384838
 30
0.0
 11
141.7515514855997
 21
88.45021533824844
 31
0.0
  0
LINE
  5
12B4
330
1F
100
AcDbEntity
  8
0
  6
Continuous
100
AcDbLine
 10
138.6120557363996
 20
89.2914406888485
 30
0.0
 11
141.7515514855997
 21
88.45021533824844
 31
0.0
  0
LINE
  5
12B5
330
1F
100
AcDbEntity
  8
0
  6
Continuous
100
AcDbLine
 10
138.6120557363996
 20
65.39188519304842
 30
0.0
 11
138.6120557363996
 21
89.2914406888485
 31
0.0
  0
LINE
  5
12B6
330
1F
100
AcDbEntity
  8
0
  6
Continuous
100
AcDbLine
 10
138.5344100227997
 20
65.38166294104849
 30
0.0
 11
138.5344100227997
 21
89.30166294104855
 31
0.0
  0
LINE
  5
12B7
330
1F
100
AcDbEntity
  8
0
  6
Continuous
100
AcDbLine
 10
137.2739057721996
 20
65.38166294104849
 30
0.0
 11
137.2739057721996
 21
89.30166294104855
 31
0.0
  0
LINE
  5
12B8
330
1F
100
AcDbEntity
  8
0
  6
Continuous
100
AcDbLine
 10
136.9739057721997
 20
89.00166294104849
 30
0.0
 11
136.9739057721997
 21
65.68166294104844
 31
0.0
  0
LINE
  5
12B9
330
1F
100
AcDbEntity
  8
0
  6
Continuous
100
AcDbLine
 10
136.6739057721997
 20
88.34166294104853
 30
0.0
 11
136.6739057721997
 21
66.34166294104853
 31
0.0
  0
LINE
  5
12BA
330
1F
100
AcDbEntity
  8
0
  6
Continuous
100
AcDbLine
 10
138.5344100227997
 20
89.30166294104855
 30
0.0
 11
138.6120557363996
 21
89.2914406888485
 31
0.0
  0
LINE
  5
12BB
330
1F
100
AcDbEntity
  8
0
  6
Continuous
100
AcDbLine
 10
109.3047886411997
 20
91.84166294104851
 30
0.0
 11
109.9429656643997
 21
91.84166294104851
 31
0.0
  0
LINE
  5
12BC
330
1F
100
AcDbEntity
  8
0
  6
Continuous
100
AcDbLine
 10
89.90359681279968
 20
90.34166294104851
 30
0.0
 11
104.6410991145997
 21
90.34166294104851
 31
0.0
  0
LINE
  5
12BD
330
1F
100
AcDbEntity
  8
0
  6
Continuous
100
AcDbLine
 10
137.2739057721996
 20
89.30166294104855
 30
0.0
 11
138.5344100227997
 21
89.30166294104855
 31
0.0
  0
LINE
  5
12BE
330
1F
100
AcDbEntity
  8
0
  6
Continuous
100
AcDbLine
 10
129.3739057721997
 20
89.30166294104855
 30
0.0
 11
130.3739057721997
 21
89.30166294104855
 31
0.0
  0
LINE
  5
12BF
330
1F
100
AcDbEntity
  8
0
  6
Continuous
100
AcDbLine
 10
121.4739057721997
 20
89.30166294104855
 30
0.0
 11
122.4739057721997
 21
89.30166294104855
 31
0.0
  0
LINE
  5
12C0
330
1F
100
AcDbEntity
  8
0
  6
Continuous
100
AcDbLine
 10
111.1739057721997
 20
89.30166294104855
 30
0.0
 11
114.5739057721997
 21
89.30166294104855
 31
0.0
  0
LINE
  5
12C1
330
1F
100
AcDbEntity
  8
0
  6
Continuous
100
AcDbLine
 10
130.9739057721997
 20
88.34166294104853
 30
0.0
 11
130.9739057721997
 21
66.34166294104853
 31
0.0
  0
LINE
  5
12C2
330
1F
100
AcDbEntity
  8
0
  6
Continuous
100
AcDbLine
 10
130.6739057721997
 20
89.00166294104849
 30
0.0
 11
130.6739057721997
 21
65.68166294104844
 31
0.0
  0
LINE
  5
12C3
330
1F
100
AcDbEntity
  8
0
  6
Continuous
100
AcDbLine
 10
130.3739057721997
 20
65.38166294104849
 30
0.0
 11
130.3739057721997
 21
89.30166294104855
 31
0.0
  0
LINE
  5
12C4
330
1F
100
AcDbEntity
  8
0
  6
Continuous
100
AcDbLine
 10
129.3739057721997
 20
65.38166294104849
 30
0.0
 11
129.3739057721997
 21
89.30166294104855
 31
0.0
  0
LINE
  5
12C5
330
1F
100
AcDbEntity
  8
0
  6
Continuous
100
AcDbLine
 10
129.0739057721997
 20
89.00166294104849
 30
0.0
 11
129.0739057721997
 21
65.68166294104844
 31
0.0
  0
LINE
  5
12C6
330
1F
100
AcDbEntity
  8
0
  6
Continuous
100
AcDbLine
 10
128.7739057721996
 20
88.34166294104853
 30
0.0
 11
128.7739057721996
 21
66.34166294104853
 31
0.0
  0
LINE
  5
12C7
330
1F
100
AcDbEntity
  8
0
  6
Continuous
100
AcDbLine
 10
130.9739057721997
 20
88.34166294104853
 30
0.0
 11
136.6739057721997
 21
88.34166294104853
 31
0.0
  0
LINE
  5
12C8
330
1F
100
AcDbEntity
  8
0
  6
Continuous
100
AcDbLine
 10
123.0739057721996
 20
88.34166294104853
 30
0.0
 11
128.7739057721996
 21
88.34166294104853
 31
0.0
  0
LINE
  5
12C9
330
1F
100
AcDbEntity
  8
0
  6
Continuous
100
AcDbLine
 10
115.1739057721997
 20
88.34166294104853
 30
0.0
 11
120.8739057721997
 21
88.34166294104853
 31
0.0
  0
LINE
  5
12CA
330
1F
100
AcDbEntity
  8
0
  6
Continuous
100
AcDbLine
 10
106.0910630595996
 20
29.45882022844853
 30
0.0
 11
106.9739057721997
 21
30.34166294104853
 31
0.0
  0
LINE
  5
12CB
330
1F
100
AcDbEntity
  8
0
  6
Continuous
100
AcDbLine
 10
110.1739057721997
 20
91.44166294104844
 30
0.0
 11
109.9429656643997
 21
91.84166294104851
 31
0.0
  0
LINE
  5
12CC
330
1F
100
AcDbEntity
  8
0
  6
Continuous
100
AcDbLine
 10
123.0739057721996
 20
88.34166294104853
 30
0.0
 11
123.0739057721996
 21
66.34166294104853
 31
0.0
  0
LINE
  5
12CD
330
1F
100
AcDbEntity
  8
0
  6
Continuous
100
AcDbLine
 10
122.7739057721996
 20
89.00166294104849
 30
0.0
 11
122.7739057721996
 21
65.68166294104844
 31
0.0
  0
LINE
  5
12CE
330
1F
100
AcDbEntity
  8
0
  6
Continuous
100
AcDbLine
 10
122.4739057721997
 20
65.38166294104849
 30
0.0
 11
122.4739057721997
 21
89.30166294104855
 31
0.0
  0
LINE
  5
12CF
330
1F
100
AcDbEntity
  8
0
  6
Continuous
100
AcDbLine
 10
121.4739057721997
 20
65.38166294104849
 30
0.0
 11
121.4739057721997
 21
89.30166294104855
 31
0.0
  0
LINE
  5
12D0
330
1F
100
AcDbEntity
  8
0
  6
Continuous
100
AcDbLine
 10
121.1739057721997
 20
89.00166294104849
 30
0.0
 11
121.1739057721997
 21
65.68166294104844
 31
0.0
  0
LINE
  5
12D1
330
1F
100
AcDbEntity
  8
0
  6
Continuous
100
AcDbLine
 10
120.8739057721997
 20
88.34166294104853
 30
0.0
 11
120.8739057721997
 21
66.34166294104853
 31
0.0
  0
LINE
  5
12D2
330
1F
100
AcDbEntity
  8
0
  6
CENTER
 48
25.0
100
AcDbLine
 10
71.76013586799967
 20
77.34166294104851
 30
0.0
 11
151.9739057721997
 21
77.34166294104851
 31
0.0
  0
LINE
  5
12D3
330
1F
100
AcDbEntity
  8
0
  6
Continuous
100
AcDbLine
 10
115.1739057721997
 20
88.34166294104853
 30
0.0
 11
115.1739057721997
 21
66.34166294104853
 31
0.0
  0
LINE
  5
12D4
330
1F
100
AcDbEntity
  8
0
  6
Continuous
100
AcDbLine
 10
114.8739057721997
 20
89.00166294104849
 30
0.0
 11
114.8739057721997
 21
65.68166294104844
 31
0.0
  0
LINE
  5
12D5
330
1F
100
AcDbEntity
  8
0
  6
Continuous
100
AcDbLine
 10
114.5739057721997
 20
65.38166294104849
 30
0.0
 11
114.5739057721997
 21
89.30166294104855
 31
0.0
  0
LINE
  5
12D6
330
1F
100
AcDbEntity
  8
0
  6
Continuous
100
AcDbLine
 10
111.1739057721997
 20
65.38166294104849
 30
0.0
 11
111.1739057721997
 21
89.30166294104855
 31
0.0
  0
LINE
  5
12D7
330
1F
100
AcDbEntity
  8
0
  6
Continuous
100
AcDbLine
 10
59.17390577219971
 20
68.7416629410485
 30
0.0
 11
101.0579480143997
 21
68.7416629410485
 31
0.0
  0
LINE
  5
12D8
330
1F
100
AcDbEntity
  8
0
  6
Continuous
100
AcDbLine
 10
110.1739057721997
 20
63.24166294104849
 30
0.0
 11
109.8499215441997
 21
62.68050579724853
 31
0.0
  0
LINE
  5
12D9
330
1F
100
AcDbEntity
  8
0
  6
Continuous
100
AcDbLine
 10
110.1739057721997
 20
91.44166294104844
 30
0.0
 11
110.1739057721997
 21
63.24166294104849
 31
0.0
  0
LINE
  5
12DA
330
1F
100
AcDbEntity
  8
0
  6
Continuous
100
AcDbLine
 10
109.9429656643997
 20
91.84166294104851
 30
0.0
 11
109.9429795353996
 21
64.14463014524847
 31
0.0
  0
LINE
  5
12DB
330
1F
100
AcDbEntity
  8
0
  6
Continuous
100
AcDbLine
 10
109.3047886411997
 20
64.96654196104849
 30
0.0
 11
109.3047886411997
 21
91.84166294104851
 31
0.0
  0
LINE
  5
12DC
330
1F
100
AcDbEntity
  8
0
  6
Continuous
100
AcDbLine
 10
59.17390577219971
 20
66.5212346100484
 30
0.0
 11
101.6610867611996
 21
66.5212346100484
 31
0.0
  0
LINE
  5
12DD
330
1F
100
AcDbEntity
  8
0
  6
Continuous
100
AcDbLine
 10
130.9739057721997
 20
66.34166294104853
 30
0.0
 11
136.6739057721997
 21
66.34166294104853
 31
0.0
  0
LINE
  5
12DE
330
1F
100
AcDbEntity
  8
0
  6
Continuous
100
AcDbLine
 10
123.0739057721996
 20
66.34166294104853
 30
0.0
 11
128.7739057721996
 21
66.34166294104853
 31
0.0
  0
LINE
  5
12DF
330
1F
100
AcDbEntity
  8
0
  6
Continuous
100
AcDbLine
 10
115.1739057721997
 20
66.34166294104853
 30
0.0
 11
120.8739057721997
 21
66.34166294104853
 31
0.0
  0
LINE
  5
12E0
330
1F
100
AcDbEntity
  8
0
  6
Continuous
100
AcDbLine
 10
137.2739057721996
 20
65.38166294104849
 30
0.0
 11
138.5344100227997
 21
65.38166294104849
 31
0.0
  0
LINE
  5
12E1
330
1F
100
AcDbEntity
  8
0
  6
Continuous
100
AcDbLine
 10
129.3739057721997
 20
65.38166294104849
 30
0.0
 11
130.3739057721997
 21
65.38166294104849
 31
0.0
  0
LINE
  5
12E2
330
1F
100
AcDbEntity
  8
0
  6
Continuous
100
AcDbLine
 10
121.4739057721997
 20
65.38166294104849
 30
0.0
 11
122.4739057721997
 21
65.38166294104849
 31
0.0
  0
LINE
  5
12E3
330
1F
100
AcDbEntity
  8
0
  6
Continuous
100
AcDbLine
 10
111.1739057721997
 20
65.38166294104849
 30
0.0
 11
114.5739057721997
 21
65.38166294104849
 31
0.0
  0
LINE
  5
12E4
330
1F
100
AcDbEntity
  8
0
  6
Continuous
100
AcDbLine
 10
97.21349634439969
 20
50.79266941884849
 30
0.0
 11
97.40933481379967
 21
50.98850788844845
 31
0.0
  0
LINE
  5
12E5
330
1F
100
AcDbEntity
  8
0
  6
Continuous
100
AcDbLine
 10
106.9739057721997
 20
30.34166294104853
 30
0.0
 11
106.9739057721997
 21
58.84166294104852
 31
0.0
  0
LINE
  5
12E6
330
1F
100
AcDbEntity
  8
0
  6
Continuous
100
AcDbLine
 10
106.9729438777997
 20
91.0916629410485
 30
0.0
 11
106.9729438777997
 21
69.9039311846484
 31
0.0
  0
LINE
  5
12E7
330
1F
100
AcDbEntity
  8
0
  6
Continuous
100
AcDbLine
 10
104.6410991145997
 20
70.30962564284846
 30
0.0
 11
104.6410991145997
 21
90.34166294104851
 31
0.0
  0
LINE
  5
12E8
330
1F
100
AcDbEntity
  8
0
  6
Continuous
100
AcDbLine
 10
58.07390577219968
 20
63.76623914724849
 30
0.0
 11
102.6109223771997
 21
63.76623914724849
 31
0.0
  0
LINE
  5
12E9
330
1F
100
AcDbEntity
  8
0
  6
Continuous
100
AcDbLine
 10
56.9739057721997
 20
61.01124368444846
 30
0.0
 11
105.8242958453996
 21
61.01124368444846
 31
0.0
  0
LINE
  5
12EA
330
1F
100
AcDbEntity
  8
0
  6
Continuous
100
AcDbLine
 10
138.5344100227997
 20
65.38166294104849
 30
0.0
 11
138.6120557363996
 21
65.39188519304842
 31
0.0
  0
LINE
  5
12EB
330
1F
100
AcDbEntity
  8
0
  6
Continuous
100
AcDbLine
 10
98.42391750059974
 20
50.98850788844845
 30
0.0
 11
98.42391750059974
 21
36.09481799364846
 31
0.0
  0
LINE
  5
12EC
330
1F
100
AcDbEntity
  8
0
  6
Continuous
100
AcDbLine
 10
97.40933481379967
 20
50.98850788844845
 30
0.0
 11
97.40933481379967
 21
36.09481799364846
 31
0.0
  0
LINE
  5
12ED
330
1F
100
AcDbEntity
  8
0
  6
Continuous
100
AcDbLine
 10
97.21349634439969
 20
36.29065646304844
 30
0.0
 11
97.21349634439969
 21
50.79266941884849
 31
0.0
  0
LINE
  5
12EE
330
1F
100
AcDbEntity
  8
0
  6
Continuous
100
AcDbLine
 10
138.6120557363996
 20
65.39188519304842
 30
0.0
 11
141.7515514855997
 21
66.23311054384838
 31
0.0
  0
LINE
  5
12EF
330
1F
100
AcDbEntity
  8
0
  6
Continuous
100
AcDbLine
 10
66.73431519999969
 20
36.29065646304844
 30
0.0
 11
66.53847673039968
 21
36.09481799364846
 31
0.0
  0
LINE
  5
12F0
330
1F
100
AcDbEntity
  8
0
  6
Continuous
100
AcDbLine
 10
94.22491225019967
 20
33.53625563824846
 30
0.0
 11
94.22491225019967
 21
53.54707024384846
 31
0.0
  0
LINE
  5
12F1
330
1F
100
AcDbEntity
  8
0
  6
Continuous
100
AcDbLine
 10
97.40933481379967
 20
50.98850788844845
 30
0.0
 11
98.42391750059974
 21
50.98850788844845
 31
0.0
  0
LINE
  5
12F2
330
1F
100
AcDbEntity
  8
0
  6
Continuous
100
AcDbLine
 10
66.53847673039968
 20
50.98850788844845
 30
0.0
 11
65.52389404359968
 21
50.98850788844845
 31
0.0
  0
LINE
  5
12F3
330
1F
100
AcDbEntity
  8
0
  6
Continuous
100
AcDbLine
 10
66.73431519999969
 20
50.79266941884849
 30
0.0
 11
97.21349634439969
 21
50.79266941884849
 31
0.0
  0
LINE
  5
12F4
330
1F
100
AcDbEntity
  8
0
  6
Continuous
100
AcDbLine
 10
97.21349634439969
 20
36.29065646304844
 30
0.0
 11
97.40933481379967
 21
36.09481799364846
 31
0.0
  0
LINE
  5
12F5
330
1F
100
AcDbEntity
  8
0
  6
CENTER
 48
25.0
100
AcDbLine
 10
81.97390577219969
 20
19.34166294104852
 30
0.0
 11
81.97390577219969
 21
82.61659381324851
 31
0.0
  0
LINE
  5
12F6
330
1F
100
AcDbEntity
  8
0
  6
Continuous
100
AcDbLine
 10
66.73431519999969
 20
36.29065646304844
 30
0.0
 11
97.21349634439969
 21
36.29065646304844
 31
0.0
  0
LINE
  5
12F7
330
1F
100
AcDbEntity
  8
0
  6
Continuous
100
AcDbLine
 10
97.40933481379967
 20
36.09481799364846
 30
0.0
 11
98.42391750059974
 21
36.09481799364846
 31
0.0
  0
LINE
  5
12F8
330
1F
100
AcDbEntity
  8
0
  6
Continuous
100
AcDbLine
 10
66.53847673039968
 20
36.09481799364846
 30
0.0
 11
65.52389404359968
 21
36.09481799364846
 31
0.0
  0
LINE
  5
12F9
330
1F
100
AcDbEntity
  8
0
  6
Continuous
100
AcDbLine
 10
66.73431519999969
 20
50.79266941884849
 30
0.0
 11
66.53847673039968
 21
50.98850788844845
 31
0.0
  0
LINE
  5
12FA
330
1F
100
AcDbEntity
  8
0
  6
Continuous
100
AcDbLine
 10
56.9739057721997
 20
30.34166294104853
 30
0.0
 11
106.9739057721997
 21
30.34166294104853
 31
0.0
  0
LINE
  5
12FB
330
1F
100
AcDbEntity
  8
0
  6
Continuous
100
AcDbLine
 10
106.0910630595996
 20
29.45882022844853
 30
0.0
 11
57.85674848459968
 21
29.45882022844853
 31
0.0
  0
LINE
  5
12FC
330
1F
100
AcDbEntity
  8
0
  6
Continuous
100
AcDbLine
 10
69.72289929419969
 20
33.53625563824846
 30
0.0
 11
69.72289929419969
 21
53.54707024384846
 31
0.0
  0
LINE
  5
12FD
330
1F
100
AcDbEntity
  8
0
  6
Continuous
100
AcDbLine
 10
105.8082203471996
 20
29.34166294104853
 30
0.0
 11
58.13959119719971
 21
29.34166294104853
 31
0.0
  0
LINE
  5
12FE
330
1F
100
AcDbEntity
  8
0
  6
Continuous
100
AcDbLine
 10
66.73431519999969
 20
50.79266941884849
 30
0.0
 11
66.73431519999969
 21
36.29065646304844
 31
0.0
  0
LINE
  5
12FF
330
1F
100
AcDbEntity
  8
0
  6
Continuous
100
AcDbLine
 10
66.53847673039968
 20
36.09481799364846
 30
0.0
 11
66.53847673039968
 21
50.98850788844845
 31
0.0
  0
LINE
  5
1300
330
1F
100
AcDbEntity
  8
0
  6
Continuous
100
AcDbLine
 10
65.52389404359968
 20
36.09481799364846
 30
0.0
 11
65.52389404359968
 21
50.98850788844845
 31
0.0
  0
LINE
  5
1301
330
1F
100
AcDbEntity
  8
0
  6
Continuous
100
AcDbLine
 10
59.17390577219971
 20
66.5212346100484
 30
0.0
 11
59.17390577219971
 21
68.7416629410485
 31
0.0
  0
LINE
  5
1302
330
1F
100
AcDbEntity
  8
0
  6
Continuous
100
AcDbLine
 10
56.9739057721997
 20
30.34166294104853
 30
0.0
 11
56.9739057721997
 21
61.01124368444846
 31
0.0
  0
LINE
  5
1303
330
1F
100
AcDbEntity
  8
0
  6
Continuous
100
AcDbLine
 10
57.85674848459968
 20
29.45882022844853
 30
0.0
 11
56.9739057721997
 21
30.34166294104853
 31
0.0
  0
VIEWPORT
  5
86E
330
50
100
AcDbEntity
 67
     1
  8
0
100
AcDbViewport
 10
133.3499908447265
 20
101.5999970436096
 30
0.0
 40
467.3964992866515
 41
228.4221935424805
 68
     1
 69
     1
 12
133.3499908447265
 22
101.5999970436096
 13
0.0
 23
0.0
 14
10.0
 24
10.0
 15
10.0
 25
10.0
 16
0.0
 26
0.0
 36
1.0
 17
0.0
 27
0.0
 37
0.0
 42
50.0
 43
0.0
 44
0.0
 45
228.4221935424805
 50
0.0
 51
0.0
 72
  1000
 90
    32800
  1

281
     0
 71
     1
 74
     0
110
0.0
120
0.0
130
0.0
111
1.0
121
0.0
131
0.0
112
0.0
122
1.0
132
0.0
 79
     0
146
0.0
  0
VIEWPORT
  5
870
330
50
100
AcDbEntity
 67
     1
  8
0
100
AcDbViewport
 10
133.3499939441681
 20
101.5999939441681
 30
0.0
 40
213.3599903106689
 41
162.5599903106689
 68
     2
 69
     2
 12
232.2178593412737
 22
236.3528153148605
 13
0.0
 23
0.0
 14
10.0
 24
10.0
 15
10.0
 25
10.0
 16
0.0
 26
0.0
 36
1.0
 17
0.0
 27
0.0
 37
0.0
 42
50.0
 43
0.0
 44
0.0
 45
372.3835153371155
 50
0.0
 51
0.0
 72
  1000
 90
    32864
  1

281
     0
 71
     1
 74
     0
110
0.0
120
0.0
130
0.0
111
1.0
121
0.0
131
0.0
112
0.0
122
1.0
132
0.0
 79
     0
146
0.0
  0
ENDSEC
  0
SECTION
  2
OBJECTS
  0
DICTIONARY
  5
C
330
0
100
AcDbDictionary
281
     1
  3
ACAD_COLOR
350
6B
  3
ACAD_GROUP
350
D
  3
ACAD_LAYOUT
350
1A
  3
ACAD_MATERIAL
350
6A
  3
ACAD_MLINESTYLE
350
17
  3
ACAD_PLOTSETTINGS
350
19
  3
ACAD_PLOTSTYLENAME
350
E
  3
ACDBHEADERROUNDTRIPXREC
350
479B
  3
AcDbVariableDictionary
350
5E
  3
DWGPROPS
350
479E
  0
DICTIONARY
  5
6B
102
{ACAD_REACTORS
330
C
102
}
330
C
100
AcDbDictionary
281
     1
  0
DICTIONARY
  5
D
102
{ACAD_REACTORS
330
C
102
}
330
C
100
AcDbDictionary
281
     1
  0
DICTIONARY
  5
1A
102
{ACAD_REACTORS
330
C
102
}
330
C
100
AcDbDictionary
281
     1
  3
Layout1
350
51
  3
Layout2
350
56
  3
Model
350
22
  0
DICTIONARY
  5
6A
102
{ACAD_REACTORS
330
C
102
}
330
C
100
AcDbDictionary
281
     1
  0
DICTIONARY
  5
17
102
{ACAD_REACTORS
330
C
102
}
330
C
100
AcDbDictionary
281
     1
  3
Standard
350
18
  0
DICTIONARY
  5
19
102
{ACAD_REACTORS
330
C
102
}
330
C
100
AcDbDictionary
281
     1
  0
ACDBDICTIONARYWDFLT
  5
E
102
{ACAD_REACTORS
330
C
102
}
330
C
100
AcDbDictionary
281
     1
  3
Normal
350
F
100
AcDbDictionaryWithDefault
340
F
  0
DICTIONARY
  5
479B
102
{ACAD_REACTORS
330
C
102
}
330
C
100
AcDbDictionary
281
     1
  3
COLORDICT
350
479C
  3
MATERIALDICT
350
479D
  0
DICTIONARY
  5
5E
102
{ACAD_REACTORS
330
C
102
}
330
C
100
AcDbDictionary
281
     1
  3
DIMASSOC
350
5F
  3
HIDETEXT
350
63
  0
XRECORD
  5
479E
102
{ACAD_REACTORS
330
C
102
}
330
C
100
AcDbXrecord
280
     1
  1
DWGPROPS COOKIE
  2

  3

  4

  6

  7

  8

  9

300
=
301
=
302
=
303
=
304
=
305
=
306
=
307
=
308
=
309
=
 40
0.0
 41
2453308.654962373
 42
2453691.64851272
  1

 90
        0
  0
LAYOUT
  5
51
102
{ACAD_REACTORS
330
1A
102
}
330
1A
100
AcDbPlotSettings
  1

  2
none_device
  4
Letter_(8.50_x_11.00_Inches)
  6

 40
6.349999904632567
 41
6.349999904632567
 42
6.350006103515625
 43
6.350006103515625
 44
215.8999938964844
 45
279.3999938964844
 46
0.0
 47
0.0
 48
0.0
 49
0.0
140
0.0
141
0.0
142
1.0
143
1.0
 70
   688
 72
     1
 73
     1
 74
     5
  7

 75
    16
147
1.0
148
0.0
149
0.0
100
AcDbLayout
  1
Layout1
 70
     1
 71
     1
 10
-6.350006103515625
 20
-6.349999904632567
 11
273.0499877929688
 21
209.5499939918518
 12
0.0
 22
0.0
 32
0.0
 14
26.66999878883363
 24
20.31999878883363
 34
0.0
 15
240.0299890995026
 25
182.8799890995025
 35
0.0
146
0.0
 13
0.0
 23
0.0
 33
0.0
 16
1.0
 26
0.0
 36
0.0
 17
0.0
 27
1.0
 37
0.0
 76
     0
330
50
331
86E
  0
LAYOUT
  5
56
102
{ACAD_REACTORS
330
1A
102
}
330
1A
100
AcDbPlotSettings
  1

  2
None
  4

  6

 40
0.0
 41
0.0
 42
0.0
 43
0.0
 44
0.0
 45
0.0
 46
0.0
 47
0.0
 48
0.0
 49
0.0
140
0.0
141
0.0
142
1.0
143
1.0
 70
   688
 72
     0
 73
     0
 74
     5
  7

 75
    16
147
1.0
148
0.0
149
0.0
100
AcDbLayout
  1
Layout2
 70
     1
 71
     2
 10
0.0
 20
0.0
 11
12.0
 21
9.0
 12
0.0
 22
0.0
 32
0.0
 14
0.0
 24
0.0
 34
0.0
 15
0.0
 25
0.0
 35
0.0
146
0.0
 13
0.0
 23
0.0
 33
0.0
 16
1.0
 26
0.0
 36
0.0
 17
0.0
 27
1.0
 37
0.0
 76
     0
330
55
  0
LAYOUT
  5
22
102
{ACAD_REACTORS
330
1A
102
}
330
1A
100
AcDbPlotSettings
  1

  2
\\alderaan\HP LaserJet 5Si/5Si MX PS Tecnico
  4
A3
  6

 40
5.746749877929687
 41
5.704421997070312
 42
5.746734619140625
 43
5.74676513671875
 44
297.0530090332031
 45
420.1583251953125
 46
10.34
 47
0.0
 48
-69.22767503670229
 49
-366.6080453569757
140
1188.996887231578
141
448.8355352667507
142
1.0
143
3.078548048453406
 70
 11956
 72
     1
 73
     1
 74
     4
  7

 75
     0
147
0.3248284529787921
148
69.22767503670229
149
366.6080453569757
100
AcDbLayout
  1
Model
 70
     1
 71
     0
 10
0.0
 20
0.0
 11
12.0
 21
9.0
 12
0.0
 22
0.0
 32
0.0
 14
0.0
 24
0.0
 34
0.0
 15
0.0
 25
0.0
 35
0.0
146
0.0
 13
0.0
 23
0.0
 33
0.0
 16
1.0
 26
0.0
 36
0.0
 17
0.0
 27
1.0
 37
0.0
 76
     0
330
1F
  0
MLINESTYLE
  5
18
102
{ACAD_REACTORS
330
17
102
}
330
17
100
AcDbMlineStyle
  2
STANDARD
 70
     0
  3

 62
   256
 51
90.0
 52
90.0
 71
     2
 49
0.5
 62
   256
  6
BYLAYER
 49
-0.5
 62
   256
  6
BYLAYER
  0
ACDBPLACEHOLDER
  5
F
102
{ACAD_REACTORS
330
E
102
}
330
E
  0
XRECORD
  5
479C
102
{ACAD_REACTORS
330
479B
102
}
330
479B
100
AcDbXrecord
280
     1
340
6B
  0
XRECORD
  5
479D
102
{ACAD_REACTORS
330
479B
102
}
330
479B
100
AcDbXrecord
280
     1
340
6A
  0
DICTIONARYVAR
  5
5F
102
{ACAD_REACTORS
330
5E
102
}
330
5E
100
DictionaryVariables
280
     0
  1
2
  0
DICTIONARYVAR
  5
63
102
{ACAD_REACTORS
330
5E
102
}
330
5E
100
DictionaryVariables
280
     0
  1
1
  0
ENDSEC
  0
EOF
