  0
SECTION
  2
HEADER
  9
$ACADVER
  1
AC1015
  9
$ACADMAINTVER
 70
     6
  9
$DWGCODEPAGE
  3
ANSI_1252
  9
$INSBASE
 10
0.0
 20
0.0
 30
0.0
  9
$EXTMIN
 10
449.0365623000898
 20
25.6688725496706
 30
-0.0008605300456423
  9
$EXTMAX
 10
550.7697533841633
 20
90.93155304091351
 30
0.000573774241424
  9
$LIMMIN
 10
0.0
 20
0.0
  9
$LIMMAX
 10
420.0
 20
297.0
  9
$ORTHOMODE
 70
     1
  9
$REGENMODE
 70
     1
  9
$FILLMODE
 70
     1
  9
$QTEXTMODE
 70
     0
  9
$MIRRTEXT
 70
     0
  9
$LTSCALE
 40
1.0
  9
$ATTMODE
 70
     1
  9
$TEXTSIZE
 40
2.5
  9
$TRACEWID
 40
1.0
  9
$TEXTSTYLE
  7
Standard
  9
$CLAYER
  8
0
  9
$CELTYPE
  6
ByLayer
  9
$CECOLOR
 62
   256
  9
$CELTSCALE
 40
1.0
  9
$DISPSILH
 70
     0
  9
$DIMSCALE
 40
1.0
  9
$DIMASZ
 40
2.5
  9
$DIMEXO
 40
0.625
  9
$DIMDLI
 40
3.75
  9
$DIMRND
 40
0.0
  9
$DIMDLE
 40
0.0
  9
$DIMEXE
 40
1.25
  9
$DIMTP
 40
0.0
  9
$DIMTM
 40
0.0
  9
$DIMTXT
 40
2.5
  9
$DIMCEN
 40
2.5
  9
$DIMTSZ
 40
0.0
  9
$DIMTOL
 70
     0
  9
$DIMLIM
 70
     0
  9
$DIMTIH
 70
     0
  9
$DIMTOH
 70
     0
  9
$DIMSE1
 70
     0
  9
$DIMSE2
 70
     0
  9
$DIMTAD
 70
     1
  9
$DIMZIN
 70
     8
  9
$DIMBLK
  1

  9
$DIMASO
 70
     1
  9
$DIMSHO
 70
     1
  9
$DIMPOST
  1

  9
$DIMAPOST
  1

  9
$DIMALT
 70
     0
  9
$DIMALTD
 70
     3
  9
$DIMALTF
 40
0.03937007874016
  9
$DIMLFAC
 40
1.0
  9
$DIMTOFL
 70
     1
  9
$DIMTVP
 40
0.0
  9
$DIMTIX
 70
     0
  9
$DIMSOXD
 70
     0
  9
$DIMSAH
 70
     0
  9
$DIMBLK1
  1

  9
$DIMBLK2
  1

  9
$DIMSTYLE
  2
ISO-25
  9
$DIMCLRD
 70
     0
  9
$DIMCLRE
 70
     0
  9
$DIMCLRT
 70
     0
  9
$DIMTFAC
 40
1.0
  9
$DIMGAP
 40
0.625
  9
$DIMJUST
 70
     0
  9
$DIMSD1
 70
     0
  9
$DIMSD2
 70
     0
  9
$DIMTOLJ
 70
     0
  9
$DIMTZIN
 70
     8
  9
$DIMALTZ
 70
     0
  9
$DIMALTTZ
 70
     0
  9
$DIMUPT
 70
     0
  9
$DIMDEC
 70
     2
  9
$DIMTDEC
 70
     2
  9
$DIMALTU
 70
     2
  9
$DIMALTTD
 70
     3
  9
$DIMTXSTY
  7
Standard
  9
$DIMAUNIT
 70
     0
  9
$DIMADEC
 70
     0
  9
$DIMALTRND
 40
0.0
  9
$DIMAZIN
 70
     0
  9
$DIMDSEP
 70
    44
  9
$DIMATFIT
 70
     3
  9
$DIMFRAC
 70
     0
  9
$DIMLDRBLK
  1

  9
$DIMLUNIT
 70
     2
  9
$DIMLWD
 70
    -2
  9
$DIMLWE
 70
    -2
  9
$DIMTMOVE
 70
     0
  9
$LUNITS
 70
     2
  9
$LUPREC
 70
     4
  9
$SKETCHINC
 40
1.0
  9
$FILLETRAD
 40
0.0
  9
$AUNITS
 70
     0
  9
$AUPREC
 70
     0
  9
$MENU
  1
.
  9
$ELEVATION
 40
0.0
  9
$PELEVATION
 40
0.0
  9
$THICKNESS
 40
0.0
  9
$LIMCHECK
 70
     0
  9
$CHAMFERA
 40
0.0
  9
$CHAMFERB
 40
0.0
  9
$CHAMFERC
 40
0.0
  9
$CHAMFERD
 40
0.0
  9
$SKPOLY
 70
     0
  9
$TDCREATE
 40
2453308.69662904
  9
$TDUCREATE
 40
2453308.654962373
  9
$TDUPDATE
 40
2453691.689978507
  9
$TDUUPDATE
 40
2453691.64831184
  9
$TDINDWG
 40
1.1035242477
  9
$TDUSRTIMER
 40
1.1035239468
  9
$USRTIMER
 70
     1
  9
$ANGBASE
 50
0.0
  9
$ANGDIR
 70
     0
  9
$PDMODE
 70
     0
  9
$PDSIZE
 40
0.0
  9
$PLINEWID
 40
0.0
  9
$SPLFRAME
 70
     0
  9
$SPLINETYPE
 70
     6
  9
$SPLINESEGS
 70
     8
  9
$HANDSEED
  5
479F
  9
$SURFTAB1
 70
     6
  9
$SURFTAB2
 70
     6
  9
$SURFTYPE
 70
     6
  9
$SURFU
 70
     6
  9
$SURFV
 70
     6
  9
$UCSBASE
  2

  9
$UCSNAME
  2

  9
$UCSORG
 10
0.0
 20
0.0
 30
0.0
  9
$UCSXDIR
 10
1.0
 20
0.0
 30
0.0
  9
$UCSYDIR
 10
0.0
 20
1.0
 30
0.0
  9
$UCSORTHOREF
  2

  9
$UCSORTHOVIEW
 70
     0
  9
$UCSORGTOP
 10
0.0
 20
0.0
 30
0.0
  9
$UCSORGBOTTOM
 10
0.0
 20
0.0
 30
0.0
  9
$UCSORGLEFT
 10
0.0
 20
0.0
 30
0.0
  9
$UCSORGRIGHT
 10
0.0
 20
0.0
 30
0.0
  9
$UCSORGFRONT
 10
0.0
 20
0.0
 30
0.0
  9
$UCSORGBACK
 10
0.0
 20
0.0
 30
0.0
  9
$PUCSBASE
  2

  9
$PUCSNAME
  2

  9
$PUCSORG
 10
0.0
 20
0.0
 30
0.0
  9
$PUCSXDIR
 10
1.0
 20
0.0
 30
0.0
  9
$PUCSYDIR
 10
0.0
 20
1.0
 30
0.0
  9
$PUCSORTHOREF
  2

  9
$PUCSORTHOVIEW
 70
     0
  9
$PUCSORGTOP
 10
0.0
 20
0.0
 30
0.0
  9
$PUCSORGBOTTOM
 10
0.0
 20
0.0
 30
0.0
  9
$PUCSORGLEFT
 10
0.0
 20
0.0
 30
0.0
  9
$PUCSORGRIGHT
 10
0.0
 20
0.0
 30
0.0
  9
$PUCSORGFRONT
 10
0.0
 20
0.0
 30
0.0
  9
$PUCSORGBACK
 10
0.0
 20
0.0
 30
0.0
  9
$USERI1
 70
     0
  9
$USERI2
 70
     0
  9
$USERI3
 70
     0
  9
$USERI4
 70
     0
  9
$USERI5
 70
     0
  9
$USERR1
 40
0.0
  9
$USERR2
 40
0.0
  9
$USERR3
 40
0.0
  9
$USERR4
 40
0.0
  9
$USERR5
 40
0.0
  9
$WORLDVIEW
 70
     1
  9
$SHADEDGE
 70
     3
  9
$SHADEDIF
 70
    70
  9
$TILEMODE
 70
     1
  9
$MAXACTVP
 70
    64
  9
$PINSBASE
 10
0.0
 20
0.0
 30
0.0
  9
$PLIMCHECK
 70
     0
  9
$PEXTMIN
 10
26.66999878883363
 20
20.31999878883363
 30
0.0
  9
$PEXTMAX
 10
240.0299890995026
 20
182.8799890995025
 30
0.0
  9
$PLIMMIN
 10
-6.350006103515625
 20
-6.349999904632567
  9
$PLIMMAX
 10
273.0499877929688
 20
209.5499939918518
  9
$UNITMODE
 70
     0
  9
$VISRETAIN
 70
     1
  9
$PLINEGEN
 70
     0
  9
$PSLTSCALE
 70
     1
  9
$TREEDEPTH
 70
  3020
  9
$CMLSTYLE
  2
Standard
  9
$CMLJUST
 70
     0
  9
$CMLSCALE
 40
20.0
  9
$PROXYGRAPHICS
 70
     1
  9
$MEASUREMENT
 70
     1
  9
$CELWEIGHT
370
    -1
  9
$ENDCAPS
280
     0
  9
$JOINSTYLE
280
     0
  9
$LWDISPLAY
290
     0
  9
$INSUNITS
 70
     4
  9
$HYPERLINKBASE
  1

  9
$STYLESHEET
  1

  9
$XEDIT
290
     1
  9
$CEPSNTYPE
380
     0
  9
$PSTYLEMODE
290
     1
  9
$FINGERPRINTGUID
  2
{FDEAD578-A652-11D2-9A35-0060089B3A3F}
  9
$VERSIONGUID
  2
{C043D7FC-9AFD-46E0-84EC-C04A0D5996DD}
  9
$EXTNAMES
290
     1
  9
$PSVPSCALE
 40
0.0
  9
$OLESTARTUP
290
     0
  0
ENDSEC
  0
SECTION
  2
CLASSES
  0
CLASS
  1
ACDBDICTIONARYWDFLT
  2
AcDbDictionaryWithDefault
  3
ObjectDBX Classes
 90
        0
280
     0
281
     0
  0
CLASS
  1
DICTIONARYVAR
  2
AcDbDictionaryVar
  3
ObjectDBX Classes
 90
        0
280
     0
281
     0
  0
CLASS
  1
DIMASSOC
  2
AcDbDimAssoc
  3
"AcDbDimAssoc|Product Desc:     AcDim ARX App For Dimension|Company:          Autodesk, Inc.|WEB Address:      www.autodesk.com"
 90
        0
280
     0
281
     0
  0
CLASS
  1
ACDBPLACEHOLDER
  2
AcDbPlaceHolder
  3
ObjectDBX Classes
 90
        0
280
     0
281
     0
  0
CLASS
  1
LAYOUT
  2
AcDbLayout
  3
ObjectDBX Classes
 90
        0
280
     0
281
     0
  0
ENDSEC
  0
SECTION
  2
TABLES
  0
TABLE
  2
VPORT
  5
8
330
0
100
AcDbSymbolTable
 70
     1
  0
VPORT
  5
478C
330
8
100
AcDbSymbolTableRecord
100
AcDbViewportTableRecord
  2
*Active
 70
     0
 10
0.0
 20
0.0
 11
1.0
 21
1.0
 12
499.9031578421265
 22
58.30021279529205
 13
0.0
 23
0.0
 14
10.0
 24
10.0
 15
10.0
 25
10.0
 16
0.0
 26
0.0
 36
1.0
 17
0.0
 27
0.0
 37
0.0
 40
65.77056127327595
 41
1.6
 42
50.0
 43
0.0
 44
0.0
 50
0.0
 51
0.0
 71
     0
 72
  1000
 73
     1
 74
     3
 75
     0
 76
     0
 77
     0
 78
     0
281
     0
 65
     1
110
0.0
120
0.0
130
0.0
111
1.0
121
0.0
131
0.0
112
0.0
122
1.0
132
0.0
 79
     0
146
0.0
  0
ENDTAB
  0
TABLE
  2
LTYPE
  5
5
330
0
100
AcDbSymbolTable
 70
     2
  0
LTYPE
  5
14
330
5
100
AcDbSymbolTableRecord
100
AcDbLinetypeTableRecord
  2
ByBlock
 70
     0
  3

 72
    65
 73
     0
 40
0.0
  0
LTYPE
  5
15
330
5
100
AcDbSymbolTableRecord
100
AcDbLinetypeTableRecord
  2
ByLayer
 70
     0
  3

 72
    65
 73
     0
 40
0.0
  0
LTYPE
  5
16
330
5
100
AcDbSymbolTableRecord
100
AcDbLinetypeTableRecord
  2
Continuous
 70
     0
  3
Solid line
 72
    65
 73
     0
 40
0.0
  0
LTYPE
  5
8B
330
5
100
AcDbSymbolTableRecord
100
AcDbLinetypeTableRecord
  2
CENTER
 70
     0
  3
____ _ ____ _ ____ _ ____ _ ____ _ ____ _ ____
 72
    65
 73
     4
 40
0.6
 49
0.375
 74
     0
 49
-0.075
 74
     0
 49
0.075
 74
     0
 49
-0.075
 74
     0
  0
ENDTAB
  0
TABLE
  2
LAYER
  5
2
330
0
100
AcDbSymbolTable
 70
     2
  0
LAYER
  5
10
330
2
100
AcDbSymbolTableRecord
100
AcDbLayerTableRecord
  2
0
 70
     0
 62
     7
  6
Continuous
370
    -3
390
F
  0
LAYER
  5
396
330
2
100
AcDbSymbolTableRecord
100
AcDbLayerTableRecord
  2
Defpoints
 70
     0
 62
     7
  6
Continuous
290
     0
370
    -3
390
F
  0
ENDTAB
  0
TABLE
  2
STYLE
  5
3
330
0
100
AcDbSymbolTable
 70
     1
  0
STYLE
  5
11
330
3
100
AcDbSymbolTableRecord
100
AcDbTextStyleTableRecord
  2
Standard
 70
     0
 40
0.0
 41
1.0
 50
0.0
 71
     0
 42
2.5
  3
verdana.TTF
  4

1001
ACAD
1000
Verdana
1071
       34
  0
ENDTAB
  0
TABLE
  2
VIEW
  5
6
330
0
100
AcDbSymbolTable
 70
     0
  0
ENDTAB
  0
TABLE
  2
UCS
  5
7
330
0
100
AcDbSymbolTable
 70
     0
  0
ENDTAB
  0
TABLE
  2
APPID
  5
9
330
0
100
AcDbSymbolTable
 70
     1
  0
APPID
  5
12
330
9
100
AcDbSymbolTableRecord
100
AcDbRegAppTableRecord
  2
ACAD
 70
     0
  0
ENDTAB
  0
TABLE
  2
DIMSTYLE
  5
A
330
0
100
AcDbSymbolTable
 70
     2
100
AcDbDimStyleTable
  0
DIMSTYLE
105
27
330
A
100
AcDbSymbolTableRecord
100
AcDbDimStyleTableRecord
  2
ISO-25
 70
     0
 41
2.5
 42
0.625
 43
3.75
 44
1.25
 73
     0
 74
     0
 77
     1
 78
     8
140
2.5
141
2.5
143
0.03937007874016
147
0.625
171
     3
172
     1
271
     2
272
     2
274
     3
278
    44
283
     0
284
     8
340
11
  0
DIMSTYLE
105
8D
330
A
100
AcDbSymbolTableRecord
100
AcDbDimStyleTableRecord
  2
STANDARD
 70
     0
 41
3.0
 47
0.01
 48
0.01
 71
     1
 73
     0
 74
     0
 77
     1
 78
     8
140
1.5
271
     2
272
     2
284
     8
340
11
  0
ENDTAB
  0
TABLE
  2
BLOCK_RECORD
  5
1
330
0
100
AcDbSymbolTable
 70
     1
  0
BLOCK_RECORD
  5
1F
330
1
100
AcDbSymbolTableRecord
100
AcDbBlockTableRecord
  2
*Model_Space
340
22
  0
BLOCK_RECORD
  5
50
330
1
100
AcDbSymbolTableRecord
100
AcDbBlockTableRecord
  2
*Paper_Space
340
51
  0
BLOCK_RECORD
  5
55
330
1
100
AcDbSymbolTableRecord
100
AcDbBlockTableRecord
  2
*Paper_Space0
340
56
  0
ENDTAB
  0
ENDSEC
  0
SECTION
  2
BLOCKS
  0
BLOCK
  5
20
330
1F
100
AcDbEntity
  8
0
100
AcDbBlockBegin
  2
*Model_Space
 70
     0
 71
     0
 10
0.0
 20
0.0
 30
0.0
  3
*Model_Space
  1

  0
ENDBLK
  5
21
330
1F
100
AcDbEntity
  8
0
100
AcDbBlockEnd
  0
BLOCK
  5
52
330
50
100
AcDbEntity
 67
     1
  8
0
100
AcDbBlockBegin
  2
*Paper_Space
 70
     0
 71
     0
 10
0.0
 20
0.0
 30
0.0
  3
*Paper_Space
  1

  0
ENDBLK
  5
53
330
50
100
AcDbEntity
 67
     1
  8
0
100
AcDbBlockEnd
  0
BLOCK
  5
57
330
55
100
AcDbEntity
  8
0
100
AcDbBlockBegin
  2
*Paper_Space0
 70
     0
 71
     0
 10
0.0
 20
0.0
 30
0.0
  3
*Paper_Space0
  1

  0
ENDBLK
  5
58
330
55
100
AcDbEntity
  8
0
100
AcDbBlockEnd
  0
ENDSEC
  0
SECTION
  2
ENTITIES
  0
SPLINE
  5
1844
330
1F
100
AcDbEntity
  8
0
  6
Continuous
100
AcDbSpline
210
0.0
220
0.0
230
1.0
 70
     8
 71
     3
 72
    15
 73
    11
 74
     9
 42
0.0000000001
 43
0.0000000001
 44
0.0000000001
 12
0.3977607583645823
 22
0.917489171110609
 32
0.0
 13
-1.363095738000000E-7
 23
0.9999999999999908
 33
0.0
 40
0.0
 40
0.0
 40
0.0
 40
0.0
 40
0.2119427364157548
 40
0.4423094402500107
 40
0.6925907746764634
 40
0.9637967789776807
 40
1.256855106431788
 40
1.572741131650949
 40
1.91213907692788
 40
2.275702222845424
 40
2.275702222845424
 40
2.275702222845424
 40
2.275702222845424
 10
514.131346163586
 20
60.96915012923767
 30
0.0
 10
514.1594469981083
 20
61.03396851775667
 30
0.0
 10
514.2160956689377
 20
61.17011556535865
 30
0.0
 10
514.2979632587703
 20
61.38602100343282
 30
0.0
 10
514.3783524807163
 20
61.62346171821847
 30
0.0
 10
514.4547298725424
 20
61.88410606955254
 30
0.0
 10
514.5236952363262
 20
62.16940051685423
 30
0.0
 10
514.5807893606088
 20
62.4805135871613
 30
0.0
 10
514.6203331878179
 20
62.81807616406269
 30
0.0
 10
514.6300877897048
 20
63.05249877733188
 30
0.0
 10
514.6300877731858
 20
63.17368649263773
 30
0.0
 11
514.131346163586
 21
60.96915012923767
 31
0.0
 11
514.212733664386
 21
61.16484325183768
 31
0.0
 11
514.2943634263859
 21
61.38026237863773
 31
0.0
 11
514.374535082786
 21
61.61735571863771
 31
0.0
 11
514.4506720645861
 21
61.87765527063771
 31
0.0
 11
514.5193464227862
 21
62.16255352583772
 31
0.0
 11
514.5761163887859
 21
62.4732964290377
 31
0.0
 11
514.6153091533859
 21
62.81042384183769
 31
0.0
 11
514.6300877731858
 21
63.17368649263773
 31
0.0
  0
SPLINE
  5
1845
330
1F
100
AcDbEntity
  8
0
  6
Continuous
100
AcDbSpline
210
0.0
220
0.0
230
1.0
 70
     8
 71
     3
 72
    10
 73
     6
 74
     4
 42
0.0000000001
 43
0.0000000001
 44
0.0000000001
 12
0.9999999999974742
 22
2.247562220200001E-6
 32
0.0
 13
0.9174891905072344
 23
0.3977607136236308
 33
0.0
 40
0.0
 40
0.0
 40
0.0
 40
0.0
 40
0.7670443929674401
 40
1.562502643646396
 40
2.274108344638918
 40
2.274108344638918
 40
2.274108344638918
 40
2.274108344638918
 10
511.9268735591861
 20
60.47040805543764
 30
0.0
 10
512.1825550235079
 20
60.47040863009764
 30
0.0
 10
512.7041567080594
 20
60.51643237947972
 30
0.0
 10
513.4425637118247
 20
60.69753615145663
 30
0.0
 10
513.9137159840648
 20
60.87480053208919
 30
0.0
 10
514.131346163586
 20
60.96915012923767
 30
0.0
 11
511.9268735591861
 21
60.47040805543764
 31
0.0
 11
512.691236315786
 21
60.53449141603772
 31
0.0
 11
513.4647220311859
 21
60.72016229863772
 31
0.0
 11
514.131346163586
 21
60.96915012923767
 31
0.0
  0
SPLINE
  5
1846
330
1F
100
AcDbEntity
  8
0
  6
Continuous
100
AcDbSpline
210
0.0
220
0.0
230
1.0
 70
    24
 71
     3
 72
     9
 73
     5
 74
     3
 42
0.0000000001
 43
0.0000000001
 44
0.0000000001
 12
0.7071067811865476
 22
-0.7071067811865476
 32
0.0
 13
0.7071067811865476
 23
-0.7071067811865476
 33
0.0
 40
0.0
 40
0.0
 40
0.0
 40
0.0
 40
0.0362422273153033
 40
0.0484134289343366
 40
0.0484134289343366
 40
0.0484134289343366
 40
0.0484134289343366
 10
514.131346163586
 20
60.96915012923767
 30
0.0
 10
514.1398885384861
 20
60.96060775433769
 30
0.0
 10
514.1512996930028
 20
60.94919659958762
 30
0.0
 10
514.1627108476527
 20
60.93778544497106
 30
0.0
 10
514.165579627386
 20
60.93491666523772
 30
0.0
 11
514.131346163586
 21
60.96915012923767
 31
0.0
 11
514.156973288186
 21
60.94352300443772
 31
0.0
 11
514.165579627386
 21
60.93491666523772
 31
0.0
  0
SPLINE
  5
1847
330
1F
100
AcDbEntity
  8
0
  6
Continuous
100
AcDbSpline
210
0.0
220
0.0
230
1.0
 70
     8
 71
     3
 72
    11
 73
     7
 74
     5
 42
0.0000000001
 43
0.0000000001
 44
0.0000000001
 12
-3.411028560000000E-8
 22
-0.9999999999999994
 32
0.0
 13
0.3977602457077384
 23
-0.917489393363498
 33
0.0
 40
0.0
 40
0.0
 40
0.0
 40
0.0
 40
0.5799379199537981
 40
1.165485337250478
 40
1.739006518445901
 40
2.274973623404906
 40
2.274973623404906
 40
2.274973623404906
 40
2.274973623404906
 10
483.091968008786
 20
63.17368558443781
 30
0.0
 10
483.0919680021921
 20
62.98037294445322
 30
0.0
 10
483.1178240574199
 20
62.59150771707277
 30
0.0
 10
483.2248269530666
 20
62.02065941147923
 30
0.0
 10
483.3851287419102
 20
61.47801332838658
 30
0.0
 10
483.5196475057993
 20
61.13306485636818
 30
0.0
 10
483.5907096415859
 20
60.96915014503764
 30
0.0
 11
483.091968008786
 21
63.17368558443781
 31
0.0
 11
483.129053891186
 21
62.59493466363772
 31
0.0
 11
483.235340635186
 21
62.01911446083767
 31
0.0
 11
483.3965878341861
 21
61.46872742783779
 31
0.0
 11
483.5907096415859
 21
60.96915014503764
 31
0.0
  0
SPLINE
  5
1848
330
1F
100
AcDbEntity
  8
0
  6
Continuous
100
AcDbSpline
210
0.0
220
0.0
230
1.0
 70
     8
 71
     3
 72
    10
 73
     6
 74
     4
 42
0.0000000001
 43
0.0000000001
 44
0.0000000001
 12
0.9174894100626349
 22
-0.3977602071888518
 32
0.0
 13
0.9999999999974498
 23
-2.258470652100000E-6
 33
0.0
 40
0.0
 40
0.0
 40
0.0
 40
0.0
 40
0.7092143058001622
 40
1.505724068150079
 40
2.274105264642159
 40
2.274105264642159
 40
2.274105264642159
 40
2.274105264642159
 10
483.5907096415859
 20
60.96915014503764
 30
0.0
 10
483.8076085132647
 20
60.87511773529885
 30
0.0
 10
484.2783046836076
 20
60.69793810343951
 30
0.0
 10
485.0166542587102
 20
60.51658446784731
 30
0.0
 10
485.5390548334892
 20
60.47040863089313
 30
0.0
 10
485.7951818989859
 20
60.47040805243767
 30
0.0
 11
483.5907096415859
 21
60.96915014503764
 31
0.0
 11
484.2550485031861
 21
60.72087850243764
 31
0.0
 11
485.029495915986
 21
60.53470920763771
 31
0.0
 11
485.7951818989859
 21
60.47040805243767
 31
0.0
  0
SPLINE
  5
1849
330
1F
100
AcDbEntity
  8
0
  6
Continuous
100
AcDbSpline
 70
     0
 71
     3
 72
     9
 73
     5
 74
     3
 42
0.0000000001
 43
0.0000000001
 44
0.0000000001
 12
0.7071067811865476
 22
0.7071067811865476
 32
0.0
 13
0.7071067811865476
 23
0.7071067811865476
 33
0.0
 40
0.0
 40
0.0
 40
0.0
 40
0.0
 40
0.0121713075437358
 40
0.0484134514203115
 40
0.0484134514203115
 40
0.0484134514203115
 40
0.0484134514203115
 10
483.5564761617859
 20
60.93491666523772
 30
0.0
 10
483.5593449664859
 20
60.93778546993775
 30
0.0
 10
483.5707561266849
 20
60.94919662960525
 30
0.0
 10
483.5821672863526
 20
60.96060778980435
 30
0.0
 10
483.5907096415859
 20
60.96915014503764
 30
0.0
 11
483.5564761617859
 21
60.93491666523772
 31
0.0
 11
483.565082575986
 21
60.94352307923776
 31
0.0
 11
483.5907096415859
 21
60.96915014503764
 31
0.0
  0
ARC
  5
184A
330
1F
100
AcDbEntity
  8
0
  6
Continuous
100
AcDbCircle
 10
488.4591041059859
 20
92.23946839803779
 30
0.0
 40
3.0
100
AcDbArc
 50
228.5903778907005
 51
270.0
  0
ARC
  5
184B
330
1F
100
AcDbEntity
  8
0
  6
Continuous
100
AcDbCircle
 10
509.2629516833859
 20
92.23946839803779
 30
0.0
 40
3.0
100
AcDbArc
 50
270.0
 51
311.4096221093
  0
ARC
  5
184C
330
1F
100
AcDbEntity
  8
0
  6
Continuous
100
AcDbCircle
 10
484.4904771393861
 20
87.73946839803777
 30
0.0
 40
3.0
100
AcDbArc
 50
48.5903778907005
 51
90.0
  0
ARC
  5
184D
330
1F
100
AcDbEntity
  8
0
  6
Continuous
100
AcDbCircle
 10
513.231578649986
 20
87.73946839803777
 30
0.0
 40
3.0
100
AcDbArc
 50
90.0
 51
131.4096221092995
  0
ARC
  5
184E
330
1F
100
AcDbEntity
  8
0
  6
Continuous
100
AcDbCircle
 10
478.461027894586
 20
87.89946839803775
 30
0.0
 40
0.3
100
AcDbArc
 50
90.0
 51
180.0
  0
ARC
  5
184F
330
1F
100
AcDbEntity
  8
0
  6
Continuous
100
AcDbCircle
 10
478.461027894586
 20
64.5794683980377
 30
0.0
 40
0.3
100
AcDbArc
 50
180.0
 51
270.0
  0
ARC
  5
1850
330
1F
100
AcDbEntity
  8
0
  6
Continuous
100
AcDbCircle
 10
471.561027894586
 20
87.89946839803775
 30
0.0
 40
0.3
100
AcDbArc
 50
0.0
 51
90.0
  0
ARC
  5
1851
330
1F
100
AcDbEntity
  8
0
  6
Continuous
100
AcDbCircle
 10
471.561027894586
 20
64.5794683980377
 30
0.0
 40
0.3
100
AcDbArc
 50
270.0
 51
0.0
  0
ARC
  5
1852
330
1F
100
AcDbEntity
  8
0
  6
Continuous
100
AcDbCircle
 10
470.5610278945861
 20
87.89946839803775
 30
0.0
 40
0.3
100
AcDbArc
 50
90.0
 51
180.0
  0
ARC
  5
1853
330
1F
100
AcDbEntity
  8
0
  6
Continuous
100
AcDbCircle
 10
470.5610278945861
 20
64.5794683980377
 30
0.0
 40
0.3
100
AcDbArc
 50
180.0
 51
270.0
  0
ARC
  5
1854
330
1F
100
AcDbEntity
  8
0
  6
Continuous
100
AcDbCircle
 10
463.661027894586
 20
87.89946839803775
 30
0.0
 40
0.3
100
AcDbArc
 50
0.0
 51
90.0
  0
ARC
  5
1855
330
1F
100
AcDbEntity
  8
0
  6
Continuous
100
AcDbCircle
 10
463.661027894586
 20
64.5794683980377
 30
0.0
 40
0.3
100
AcDbArc
 50
270.0
 51
0.0
  0
ARC
  5
1856
330
1F
100
AcDbEntity
  8
0
  6
Continuous
100
AcDbCircle
 10
462.661027894586
 20
87.89946839803775
 30
0.0
 40
0.3
100
AcDbArc
 50
90.0
 51
180.0
  0
ARC
  5
1857
330
1F
100
AcDbEntity
  8
0
  6
Continuous
100
AcDbCircle
 10
462.661027894586
 20
64.5794683980377
 30
0.0
 40
0.3
100
AcDbArc
 50
180.0
 51
270.0
  0
ARC
  5
1858
330
1F
100
AcDbEntity
  8
0
  6
Continuous
100
AcDbCircle
 10
455.7610278945861
 20
87.89946839803775
 30
0.0
 40
0.3
100
AcDbArc
 50
0.0
 51
90.0
  0
ARC
  5
1859
330
1F
100
AcDbEntity
  8
0
  6
Continuous
100
AcDbCircle
 10
455.7610278945861
 20
64.5794683980377
 30
0.0
 40
0.3
100
AcDbArc
 50
270.0
 51
0.0
  0
ARC
  5
185A
330
1F
100
AcDbEntity
  8
0
  6
Continuous
100
AcDbCircle
 10
477.861027894586
 20
87.53946839803774
 30
0.0
 40
0.3
100
AcDbArc
 50
270.0
 51
359.9999999985996
  0
ARC
  5
185B
330
1F
100
AcDbEntity
  8
0
  6
Continuous
100
AcDbCircle
 10
477.861027894586
 20
64.93946839803772
 30
0.0
 40
0.3
100
AcDbArc
 50
0.0000000038984949
 51
90.0
  0
ARC
  5
185C
330
1F
100
AcDbEntity
  8
0
  6
Continuous
100
AcDbCircle
 10
469.961027894586
 20
87.53946839803774
 30
0.0
 40
0.3
100
AcDbArc
 50
270.0
 51
359.9999999985996
  0
ARC
  5
185D
330
1F
100
AcDbEntity
  8
0
  6
Continuous
100
AcDbCircle
 10
469.961027894586
 20
64.93946839803772
 30
0.0
 40
0.3
100
AcDbArc
 50
0.0000000038984949
 51
90.0
  0
ARC
  5
185E
330
1F
100
AcDbEntity
  8
0
  6
Continuous
100
AcDbCircle
 10
462.0610278945861
 20
87.53946839803774
 30
0.0
 40
0.3
100
AcDbArc
 50
270.0
 51
359.9999999985996
  0
ARC
  5
185F
330
1F
100
AcDbEntity
  8
0
  6
Continuous
100
AcDbCircle
 10
462.0610278945861
 20
64.93946839803772
 30
0.0
 40
0.3
100
AcDbArc
 50
0.0000000038984949
 51
90.0
  0
ARC
  5
1860
330
1F
100
AcDbEntity
  8
0
  6
Continuous
100
AcDbCircle
 10
472.161027894586
 20
87.53946839803774
 30
0.0
 40
0.3
100
AcDbArc
 50
180.0000000015991
 51
270.0
  0
ARC
  5
1861
330
1F
100
AcDbEntity
  8
0
  6
Continuous
100
AcDbCircle
 10
472.161027894586
 20
64.93946839803772
 30
0.0
 40
0.3
100
AcDbArc
 50
90.0
 51
179.9999999988014
  0
ARC
  5
1862
330
1F
100
AcDbEntity
  8
0
  6
Continuous
100
AcDbCircle
 10
464.2610278945861
 20
87.53946839803774
 30
0.0
 40
0.3
100
AcDbArc
 50
180.0000000015991
 51
270.0
  0
ARC
  5
1863
330
1F
100
AcDbEntity
  8
0
  6
Continuous
100
AcDbCircle
 10
464.2610278945861
 20
64.93946839803772
 30
0.0
 40
0.3
100
AcDbArc
 50
90.0
 51
179.9999999988014
  0
ARC
  5
1864
330
1F
100
AcDbEntity
  8
0
  6
Continuous
100
AcDbCircle
 10
456.3610278945859
 20
87.53946839803774
 30
0.0
 40
0.3
100
AcDbArc
 50
180.0000000015991
 51
270.0
  0
ARC
  5
1865
330
1F
100
AcDbEntity
  8
0
  6
Continuous
100
AcDbCircle
 10
456.3610278945859
 20
64.93946839803772
 30
0.0
 40
0.3
100
AcDbArc
 50
90.0
 51
179.9999999988014
  0
ARC
  5
1866
330
1F
100
AcDbEntity
  8
0
  6
Continuous
100
AcDbCircle
 10
451.4610278945861
 20
86.98151034863776
 30
0.0
 40
0.4
100
AcDbArc
 50
105.0000000068019
 51
180.0
  0
ARC
  5
1867
330
1F
100
AcDbEntity
  8
0
  6
Continuous
100
AcDbCircle
 10
451.4610278945861
 20
65.4974264474377
 30
0.0
 40
0.4
100
AcDbArc
 50
180.0
 51
254.9999999946006
  0
ARC
  5
1868
330
1F
100
AcDbEntity
  8
0
  6
Continuous
100
AcDbCircle
 10
488.1189859441859
 20
28.83946839803769
 30
0.0
 40
0.4
100
AcDbArc
 50
195.0000000068021
 51
270.0
  0
ARC
  5
1869
330
1F
100
AcDbEntity
  8
0
  6
Continuous
100
AcDbCircle
 10
509.6030698451859
 20
28.83946839803769
 30
0.0
 40
0.4
100
AcDbArc
 50
270.0
 51
344.9999999946002
  0
ARC
  5
186A
330
1F
100
AcDbEntity
  8
0
  6
Continuous
100
AcDbCircle
 10
546.2610278945861
 20
65.4974264474377
 30
0.0
 40
0.4
100
AcDbArc
 50
285.000000006802
 51
0.0
  0
ARC
  5
186B
330
1F
100
AcDbEntity
  8
0
  6
Continuous
100
AcDbCircle
 10
546.2610278945861
 20
86.98151034863776
 30
0.0
 40
0.4
100
AcDbArc
 50
0.0
 51
74.99999999460054
  0
ARC
  5
186C
330
1F
100
AcDbEntity
  8
0
  6
Continuous
100
AcDbCircle
 10
519.2610278945862
 20
64.5794683980377
 30
0.0
 40
0.3
100
AcDbArc
 50
270.0
 51
0.0
  0
ARC
  5
186D
330
1F
100
AcDbEntity
  8
0
  6
Continuous
100
AcDbCircle
 10
519.2610278945862
 20
87.89946839803775
 30
0.0
 40
0.3
100
AcDbArc
 50
0.0
 51
90.0
  0
ARC
  5
186E
330
1F
100
AcDbEntity
  8
0
  6
Continuous
100
AcDbCircle
 10
526.161027894586
 20
64.5794683980377
 30
0.0
 40
0.3
100
AcDbArc
 50
180.0
 51
270.0
  0
ARC
  5
186F
330
1F
100
AcDbEntity
  8
0
  6
Continuous
100
AcDbCircle
 10
526.161027894586
 20
87.89946839803775
 30
0.0
 40
0.3
100
AcDbArc
 50
90.0
 51
180.0
  0
ARC
  5
1870
330
1F
100
AcDbEntity
  8
0
  6
Continuous
100
AcDbCircle
 10
527.161027894586
 20
64.5794683980377
 30
0.0
 40
0.3
100
AcDbArc
 50
270.0
 51
0.0
  0
ARC
  5
1871
330
1F
100
AcDbEntity
  8
0
  6
Continuous
100
AcDbCircle
 10
527.161027894586
 20
87.89946839803775
 30
0.0
 40
0.3
100
AcDbArc
 50
0.0
 51
90.0
  0
ARC
  5
1872
330
1F
100
AcDbEntity
  8
0
  6
Continuous
100
AcDbCircle
 10
534.0610278945862
 20
64.5794683980377
 30
0.0
 40
0.3
100
AcDbArc
 50
180.0
 51
270.0
  0
ARC
  5
1873
330
1F
100
AcDbEntity
  8
0
  6
Continuous
100
AcDbCircle
 10
534.0610278945862
 20
87.89946839803775
 30
0.0
 40
0.3
100
AcDbArc
 50
90.0
 51
180.0
  0
ARC
  5
1874
330
1F
100
AcDbEntity
  8
0
  6
Continuous
100
AcDbCircle
 10
535.0610278945862
 20
64.5794683980377
 30
0.0
 40
0.3
100
AcDbArc
 50
270.0
 51
0.0
  0
ARC
  5
1875
330
1F
100
AcDbEntity
  8
0
  6
Continuous
100
AcDbCircle
 10
535.0610278945862
 20
87.89946839803775
 30
0.0
 40
0.3
100
AcDbArc
 50
0.0
 51
90.0
  0
ARC
  5
1876
330
1F
100
AcDbEntity
  8
0
  6
Continuous
100
AcDbCircle
 10
541.9610278945859
 20
64.5794683980377
 30
0.0
 40
0.3
100
AcDbArc
 50
180.0
 51
270.0
  0
ARC
  5
1877
330
1F
100
AcDbEntity
  8
0
  6
Continuous
100
AcDbCircle
 10
541.9610278945859
 20
87.89946839803775
 30
0.0
 40
0.3
100
AcDbArc
 50
90.0
 51
180.0
  0
ARC
  5
1878
330
1F
100
AcDbEntity
  8
0
  6
Continuous
100
AcDbCircle
 10
525.561027894586
 20
64.93946839803772
 30
0.0
 40
0.3
100
AcDbArc
 50
0.000000001599132
 51
90.0
  0
ARC
  5
1879
330
1F
100
AcDbEntity
  8
0
  6
Continuous
100
AcDbCircle
 10
525.561027894586
 20
87.53946839803774
 30
0.0
 40
0.3
100
AcDbArc
 50
270.0
 51
359.9999999988015
  0
ARC
  5
187A
330
1F
100
AcDbEntity
  8
0
  6
Continuous
100
AcDbCircle
 10
533.4610278945859
 20
64.93946839803772
 30
0.0
 40
0.3
100
AcDbArc
 50
0.000000001599132
 51
90.0
  0
ARC
  5
187B
330
1F
100
AcDbEntity
  8
0
  6
Continuous
100
AcDbCircle
 10
533.4610278945859
 20
87.53946839803774
 30
0.0
 40
0.3
100
AcDbArc
 50
270.0
 51
359.9999999988015
  0
ARC
  5
187C
330
1F
100
AcDbEntity
  8
0
  6
Continuous
100
AcDbCircle
 10
541.3610278945862
 20
64.93946839803772
 30
0.0
 40
0.3
100
AcDbArc
 50
0.0000000011985348
 51
90.0
  0
ARC
  5
187D
330
1F
100
AcDbEntity
  8
0
  6
Continuous
100
AcDbCircle
 10
541.3610278945862
 20
87.53946839803774
 30
0.0
 40
0.3
100
AcDbArc
 50
270.0
 51
359.9999999984009
  0
ARC
  5
187E
330
1F
100
AcDbEntity
  8
0
  6
Continuous
100
AcDbCircle
 10
535.6610278945861
 20
64.93946839803772
 30
0.0
 40
0.3
100
AcDbArc
 50
90.0
 51
179.9999999961015
  0
ARC
  5
187F
330
1F
100
AcDbEntity
  8
0
  6
Continuous
100
AcDbCircle
 10
535.6610278945861
 20
87.53946839803774
 30
0.0
 40
0.3
100
AcDbArc
 50
180.0000000014005
 51
270.0
  0
ARC
  5
1880
330
1F
100
AcDbEntity
  8
0
  6
Continuous
100
AcDbCircle
 10
527.7610278945862
 20
64.93946839803772
 30
0.0
 40
0.3
100
AcDbArc
 50
90.0
 51
179.9999999961015
  0
ARC
  5
1881
330
1F
100
AcDbEntity
  8
0
  6
Continuous
100
AcDbCircle
 10
527.7610278945862
 20
87.53946839803774
 30
0.0
 40
0.3
100
AcDbArc
 50
180.0000000014005
 51
270.0
  0
ARC
  5
1882
330
1F
100
AcDbEntity
  8
0
  6
Continuous
100
AcDbCircle
 10
519.861027894586
 20
64.93946839803772
 30
0.0
 40
0.3
100
AcDbArc
 50
90.0
 51
179.9999999961015
  0
ARC
  5
1883
330
1F
100
AcDbEntity
  8
0
  6
Continuous
100
AcDbCircle
 10
519.861027894586
 20
87.53946839803774
 30
0.0
 40
0.3
100
AcDbArc
 50
180.0000000014005
 51
270.0
  0
ARC
  5
1884
330
1F
100
AcDbEntity
  8
0
  6
Continuous
100
AcDbCircle
 10
487.2010278945861
 20
55.83946839803768
 30
0.0
 40
0.3
100
AcDbArc
 50
180.0
 51
270.0
  0
ARC
  5
1885
330
1F
100
AcDbEntity
  8
0
  6
Continuous
100
AcDbCircle
 10
510.521027894586
 20
55.83946839803768
 30
0.0
 40
0.3
100
AcDbArc
 50
270.0
 51
0.0
  0
ARC
  5
1886
330
1F
100
AcDbEntity
  8
0
  6
Continuous
100
AcDbCircle
 10
487.2010278945861
 20
47.93946839803772
 30
0.0
 40
0.3
100
AcDbArc
 50
180.0
 51
270.0
  0
ARC
  5
1887
330
1F
100
AcDbEntity
  8
0
  6
Continuous
100
AcDbCircle
 10
510.521027894586
 20
47.93946839803772
 30
0.0
 40
0.3
100
AcDbArc
 50
270.0
 51
0.0
  0
ARC
  5
1888
330
1F
100
AcDbEntity
  8
0
  6
Continuous
100
AcDbCircle
 10
487.2010278945861
 20
48.93946839803771
 30
0.0
 40
0.3
100
AcDbArc
 50
90.0
 51
180.0
  0
ARC
  5
1889
330
1F
100
AcDbEntity
  8
0
  6
Continuous
100
AcDbCircle
 10
510.521027894586
 20
48.93946839803771
 30
0.0
 40
0.3
100
AcDbArc
 50
0.0
 51
90.0
  0
ARC
  5
188A
330
1F
100
AcDbEntity
  8
0
  6
Continuous
100
AcDbCircle
 10
487.2010278945861
 20
40.03946839803774
 30
0.0
 40
0.3
100
AcDbArc
 50
180.0
 51
270.0
  0
ARC
  5
188B
330
1F
100
AcDbEntity
  8
0
  6
Continuous
100
AcDbCircle
 10
510.521027894586
 20
40.03946839803774
 30
0.0
 40
0.3
100
AcDbArc
 50
270.0
 51
0.0
  0
ARC
  5
188C
330
1F
100
AcDbEntity
  8
0
  6
Continuous
100
AcDbCircle
 10
487.2010278945861
 20
41.03946839803774
 30
0.0
 40
0.3
100
AcDbArc
 50
90.0
 51
180.0
  0
ARC
  5
188D
330
1F
100
AcDbEntity
  8
0
  6
Continuous
100
AcDbCircle
 10
510.521027894586
 20
41.03946839803774
 30
0.0
 40
0.3
100
AcDbArc
 50
0.0
 51
90.0
  0
ARC
  5
188E
330
1F
100
AcDbEntity
  8
0
  6
Continuous
100
AcDbCircle
 10
487.2010278945861
 20
33.13946839803765
 30
0.0
 40
0.3
100
AcDbArc
 50
90.0
 51
180.0
  0
ARC
  5
188F
330
1F
100
AcDbEntity
  8
0
  6
Continuous
100
AcDbCircle
 10
510.521027894586
 20
33.13946839803765
 30
0.0
 40
0.3
100
AcDbArc
 50
0.0
 51
90.0
  0
ARC
  5
1890
330
1F
100
AcDbEntity
  8
0
  6
Continuous
100
AcDbCircle
 10
487.5610278945861
 20
33.73946839803779
 30
0.0
 40
0.3
100
AcDbArc
 50
270.0000000011986
 51
0.0
  0
ARC
  5
1891
330
1F
100
AcDbEntity
  8
0
  6
Continuous
100
AcDbCircle
 10
510.161027894586
 20
33.73946839803779
 30
0.0
 40
0.3
100
AcDbArc
 50
180.0
 51
269.9999999984009
  0
ARC
  5
1892
330
1F
100
AcDbEntity
  8
0
  6
Continuous
100
AcDbCircle
 10
487.5610278945861
 20
41.63946839803765
 30
0.0
 40
0.3
100
AcDbArc
 50
270.0000000011986
 51
0.0
  0
ARC
  5
1893
330
1F
100
AcDbEntity
  8
0
  6
Continuous
100
AcDbCircle
 10
510.161027894586
 20
41.63946839803765
 30
0.0
 40
0.3
100
AcDbArc
 50
180.0
 51
269.9999999984009
  0
ARC
  5
1894
330
1F
100
AcDbEntity
  8
0
  6
Continuous
100
AcDbCircle
 10
487.5610278945861
 20
49.53946839803774
 30
0.0
 40
0.3
100
AcDbArc
 50
270.0000000011986
 51
0.0
  0
ARC
  5
1895
330
1F
100
AcDbEntity
  8
0
  6
Continuous
100
AcDbCircle
 10
510.161027894586
 20
49.53946839803774
 30
0.0
 40
0.3
100
AcDbArc
 50
180.0
 51
269.9999999984009
  0
ARC
  5
1896
330
1F
100
AcDbEntity
  8
0
  6
Continuous
100
AcDbCircle
 10
487.5610278945861
 20
39.43946839803772
 30
0.0
 40
0.3
100
AcDbArc
 50
0.0
 51
89.99999999609824
  0
ARC
  5
1897
330
1F
100
AcDbEntity
  8
0
  6
Continuous
100
AcDbCircle
 10
510.161027894586
 20
39.43946839803772
 30
0.0
 40
0.3
100
AcDbArc
 50
90.00000000140047
 51
180.0
  0
ARC
  5
1898
330
1F
100
AcDbEntity
  8
0
  6
Continuous
100
AcDbCircle
 10
487.5610278945861
 20
47.3394683980377
 30
0.0
 40
0.3
100
AcDbArc
 50
0.0
 51
89.99999999609824
  0
ARC
  5
1899
330
1F
100
AcDbEntity
  8
0
  6
Continuous
100
AcDbCircle
 10
510.161027894586
 20
47.3394683980377
 30
0.0
 40
0.3
100
AcDbArc
 50
90.00000000140047
 51
180.0
  0
ARC
  5
189A
330
1F
100
AcDbEntity
  8
0
  6
Continuous
100
AcDbCircle
 10
487.5610278945861
 20
55.23946839803778
 30
0.0
 40
0.3
100
AcDbArc
 50
0.0
 51
89.99999999609824
  0
ARC
  5
189B
330
1F
100
AcDbEntity
  8
0
  6
Continuous
100
AcDbCircle
 10
510.161027894586
 20
55.23946839803778
 30
0.0
 40
0.3
100
AcDbArc
 50
90.00000000140047
 51
180.0
  0
ARC
  5
189C
330
1F
100
AcDbEntity
  8
0
  6
Continuous
100
AcDbCircle
 10
481.861027894586
 20
89.1994683980377
 30
0.0
 40
1.0
100
AcDbArc
 50
270.0
 51
359.9999999999023
  0
ARC
  5
189D
330
1F
100
AcDbEntity
  8
0
  6
Continuous
100
AcDbCircle
 10
481.861027894586
 20
63.27946839803775
 30
0.0
 40
1.0
100
AcDbArc
 50
0.0000000001009635
 51
90.0
  0
ARC
  5
189E
330
1F
100
AcDbEntity
  8
0
  6
Continuous
100
AcDbCircle
 10
485.901027894586
 20
59.23946839803779
 30
0.0
 40
1.0
100
AcDbArc
 50
0.0
 51
89.99999999989903
  0
ARC
  5
189F
330
1F
100
AcDbEntity
  8
0
  6
Continuous
100
AcDbCircle
 10
511.8210278945861
 20
59.23946839803779
 30
0.0
 40
1.0
100
AcDbArc
 50
90.00000000010095
 51
180.0
  0
ARC
  5
18A0
330
1F
100
AcDbEntity
  8
0
  6
Continuous
100
AcDbCircle
 10
515.861027894586
 20
63.27946839803775
 30
0.0
 40
1.0
100
AcDbArc
 50
90.0
 51
179.9999999997003
  0
ARC
  5
18A1
330
1F
100
AcDbEntity
  8
0
  6
Continuous
100
AcDbCircle
 10
515.861027894586
 20
89.1994683980377
 30
0.0
 40
1.0
100
AcDbArc
 50
180.0000000001009
 51
270.0
  0
LINE
  5
18A2
330
1F
100
AcDbEntity
  8
0
  6
Continuous
100
AcDbLine
 10
546.6610278945861
 20
65.4974264474377
 30
0.0
 11
546.6610278945861
 21
86.98151034863776
 31
0.0
  0
LINE
  5
18A3
330
1F
100
AcDbEntity
  8
0
  6
Continuous
100
AcDbLine
 10
541.6610278945861
 20
87.89946839803775
 30
0.0
 11
541.6610278945861
 21
64.5794683980377
 31
0.0
  0
LINE
  5
18A4
330
1F
100
AcDbEntity
  8
0
  6
Continuous
100
AcDbLine
 10
543.3118945135861
 20
88.18583872843777
 30
0.0
 11
546.364555512786
 21
87.3678806790378
 31
0.0
  0
LINE
  5
18A5
330
1F
100
AcDbEntity
  8
0
  6
Continuous
100
AcDbLine
 10
454.410161275586
 20
88.18583872843777
 30
0.0
 11
451.3575002765861
 21
87.3678806790378
 31
0.0
  0
LINE
  5
18A6
330
1F
100
AcDbEntity
  8
0
  6
Continuous
100
AcDbLine
 10
535.361027894586
 20
64.5794683980377
 30
0.0
 11
535.361027894586
 21
87.89946839803775
 31
0.0
  0
LINE
  5
18A7
330
1F
100
AcDbEntity
  8
0
  6
Continuous
100
AcDbLine
 10
533.7610278945861
 20
87.89946839803775
 30
0.0
 11
533.7610278945861
 21
64.5794683980377
 31
0.0
  0
LINE
  5
18A8
330
1F
100
AcDbEntity
  8
0
  6
Continuous
100
AcDbLine
 10
543.208366895586
 20
88.1994683980377
 30
0.0
 11
543.3118945137861
 21
88.18583872843777
 31
0.0
  0
LINE
  5
18A9
330
1F
100
AcDbEntity
  8
0
  6
Continuous
100
AcDbLine
 10
484.4904771393861
 20
90.73946839803779
 30
0.0
 11
483.091968002386
 21
90.73946839803779
 31
0.0
  0
LINE
  5
18AA
330
1F
100
AcDbEntity
  8
0
  6
Continuous
100
AcDbLine
 10
514.6300877869861
 20
90.73946839803779
 30
0.0
 11
513.231578649986
 21
90.73946839803779
 31
0.0
  0
LINE
  5
18AB
330
1F
100
AcDbEntity
  8
0
  6
Continuous
100
AcDbLine
 10
454.513688893786
 20
88.1994683980377
 30
0.0
 11
454.410161275586
 21
88.18583872843777
 31
0.0
  0
LINE
  5
18AC
330
1F
100
AcDbEntity
  8
0
  6
Continuous
100
AcDbLine
 10
514.861027894586
 20
90.33946839803768
 30
0.0
 11
514.6300877869861
 21
90.73946839803779
 31
0.0
  0
LINE
  5
18AD
330
1F
100
AcDbEntity
  8
0
  6
Continuous
100
AcDbLine
 10
509.2629516833859
 20
89.23946839803782
 30
0.0
 11
488.4591041059859
 21
89.23946839803782
 31
0.0
  0
LINE
  5
18AE
330
1F
100
AcDbEntity
  8
0
  6
Continuous
100
AcDbLine
 10
541.9610278945859
 20
88.1994683980377
 30
0.0
 11
543.208366895586
 21
88.1994683980377
 31
0.0
  0
LINE
  5
18AF
330
1F
100
AcDbEntity
  8
0
  6
Continuous
100
AcDbLine
 10
534.0610278945862
 20
88.1994683980377
 30
0.0
 11
535.0610278945862
 21
88.1994683980377
 31
0.0
  0
LINE
  5
18B0
330
1F
100
AcDbEntity
  8
0
  6
Continuous
100
AcDbLine
 10
526.161027894586
 20
88.1994683980377
 30
0.0
 11
527.161027894586
 21
88.1994683980377
 31
0.0
  0
LINE
  5
18B1
330
1F
100
AcDbEntity
  8
0
  6
Continuous
100
AcDbLine
 10
515.861027894586
 20
88.1994683980377
 30
0.0
 11
519.2610278945862
 21
88.1994683980377
 31
0.0
  0
LINE
  5
18B2
330
1F
100
AcDbEntity
  8
0
  6
Continuous
100
AcDbLine
 10
455.7610278945861
 20
88.1994683980377
 30
0.0
 11
454.513688893786
 21
88.1994683980377
 31
0.0
  0
LINE
  5
18B3
330
1F
100
AcDbEntity
  8
0
  6
Continuous
100
AcDbLine
 10
463.661027894586
 20
88.1994683980377
 30
0.0
 11
462.661027894586
 21
88.1994683980377
 31
0.0
  0
LINE
  5
18B4
330
1F
100
AcDbEntity
  8
0
  6
Continuous
100
AcDbLine
 10
471.561027894586
 20
88.1994683980377
 30
0.0
 11
470.5610278945861
 21
88.1994683980377
 31
0.0
  0
LINE
  5
18B5
330
1F
100
AcDbEntity
  8
0
  6
Continuous
100
AcDbLine
 10
481.861027894586
 20
88.1994683980377
 30
0.0
 11
478.461027894586
 21
88.1994683980377
 31
0.0
  0
LINE
  5
18B6
330
1F
100
AcDbEntity
  8
0
  6
Continuous
100
AcDbLine
 10
535.6610278945861
 20
87.23946839803779
 30
0.0
 11
541.3610278945862
 21
87.23946839803779
 31
0.0
  0
LINE
  5
18B7
330
1F
100
AcDbEntity
  8
0
  6
Continuous
100
AcDbLine
 10
527.7610278945862
 20
87.23946839803779
 30
0.0
 11
533.4610278945859
 21
87.23946839803779
 31
0.0
  0
LINE
  5
18B8
330
1F
100
AcDbEntity
  8
0
  6
Continuous
100
AcDbLine
 10
519.861027894586
 20
87.23946839803779
 30
0.0
 11
525.561027894586
 21
87.23946839803779
 31
0.0
  0
LINE
  5
18B9
330
1F
100
AcDbEntity
  8
0
  6
Continuous
100
AcDbLine
 10
462.0610278945861
 20
87.23946839803779
 30
0.0
 11
456.3610278945859
 21
87.23946839803779
 31
0.0
  0
LINE
  5
18BA
330
1F
100
AcDbEntity
  8
0
  6
Continuous
100
AcDbLine
 10
469.961027894586
 20
87.23946839803779
 30
0.0
 11
464.2610278945861
 21
87.23946839803779
 31
0.0
  0
LINE
  5
18BB
330
1F
100
AcDbEntity
  8
0
  6
Continuous
100
AcDbLine
 10
477.861027894586
 20
87.23946839803779
 30
0.0
 11
472.161027894586
 21
87.23946839803779
 31
0.0
  0
LINE
  5
18BC
330
1F
100
AcDbEntity
  8
0
  6
Continuous
100
AcDbLine
 10
527.4610278945861
 20
64.5794683980377
 30
0.0
 11
527.4610278945861
 21
87.89946839803775
 31
0.0
  0
LINE
  5
18BD
330
1F
100
AcDbEntity
  8
0
  6
Continuous
100
AcDbLine
 10
525.8610278945861
 20
87.89946839803775
 30
0.0
 11
525.8610278945861
 21
64.5794683980377
 31
0.0
  0
LINE
  5
18BE
330
1F
100
AcDbEntity
  8
0
  6
Continuous
100
AcDbLine
 10
519.5610278945861
 20
64.5794683980377
 30
0.0
 11
519.5610278945861
 21
87.89946839803775
 31
0.0
  0
LINE
  5
18BF
330
1F
100
AcDbEntity
  8
0
  6
CENTER
 48
25.0
100
AcDbLine
 10
449.1202910551861
 20
76.23946839803777
 30
0.0
 11
550.7094584797862
 21
76.23946839803777
 31
0.0
  0
LINE
  5
18C0
330
1F
100
AcDbEntity
  8
0
  6
Continuous
100
AcDbLine
 10
510.8073982251861
 20
31.78860177903772
 30
0.0
 11
509.9894401757859
 21
28.73594078003765
 31
0.0
  0
LINE
  5
18C1
330
1F
100
AcDbEntity
  8
0
  6
Continuous
100
AcDbLine
 10
514.861027894586
 20
62.13946839803765
 30
0.0
 11
514.861027894586
 21
90.33946839803768
 31
0.0
  0
LINE
  5
18C2
330
1F
100
AcDbEntity
  8
0
  6
Continuous
100
AcDbLine
 10
514.630087731986
 20
63.1736859146377
 30
0.0
 11
514.6300877869861
 21
90.73946839803779
 31
0.0
  0
LINE
  5
18C3
330
1F
100
AcDbEntity
  8
0
  6
Continuous
100
AcDbLine
 10
514.861027894586
 20
62.13946839803765
 30
0.0
 11
514.1655796273861
 21
60.93491666523772
 31
0.0
  0
LINE
  5
18C4
330
1F
100
AcDbEntity
  8
0
  6
Continuous
100
AcDbLine
 10
510.821027894586
 20
31.89212939703765
 30
0.0
 11
510.8073982251861
 21
31.78860177903772
 31
0.0
  0
LINE
  5
18C5
330
1F
100
AcDbEntity
  8
0
  6
Continuous
100
AcDbLine
 10
510.821027894586
 20
33.13946839803765
 30
0.0
 11
510.821027894586
 21
31.89212939703765
 31
0.0
  0
LINE
  5
18C6
330
1F
100
AcDbEntity
  8
0
  6
Continuous
100
AcDbLine
 10
510.821027894586
 20
41.03946839803774
 30
0.0
 11
510.821027894586
 21
40.03946839803774
 31
0.0
  0
LINE
  5
18C7
330
1F
100
AcDbEntity
  8
0
  6
Continuous
100
AcDbLine
 10
510.821027894586
 20
48.93946839803771
 30
0.0
 11
510.821027894586
 21
47.93946839803772
 31
0.0
  0
LINE
  5
18C8
330
1F
100
AcDbEntity
  8
0
  6
Continuous
100
AcDbLine
 10
510.821027894586
 20
59.23946839803779
 30
0.0
 11
510.821027894586
 21
55.83946839803768
 31
0.0
  0
LINE
  5
18C9
330
1F
100
AcDbEntity
  8
0
  6
Continuous
100
AcDbLine
 10
509.861027894586
 20
39.43946839803772
 30
0.0
 11
509.861027894586
 21
33.73946839803779
 31
0.0
  0
LINE
  5
18CA
330
1F
100
AcDbEntity
  8
0
  6
Continuous
100
AcDbLine
 10
509.861027894586
 20
47.3394683980377
 30
0.0
 11
509.861027894586
 21
41.63946839803765
 31
0.0
  0
LINE
  5
18CB
330
1F
100
AcDbEntity
  8
0
  6
Continuous
100
AcDbLine
 10
509.861027894586
 20
55.23946839803778
 30
0.0
 11
509.861027894586
 21
49.53946839803774
 31
0.0
  0
LINE
  5
18CC
330
1F
100
AcDbEntity
  8
0
  6
Continuous
100
AcDbLine
 10
535.6610278945861
 20
65.23946839803777
 30
0.0
 11
541.3610278945862
 21
65.23946839803777
 31
0.0
  0
LINE
  5
18CD
330
1F
100
AcDbEntity
  8
0
  6
Continuous
100
AcDbLine
 10
527.7610278945862
 20
65.23946839803777
 30
0.0
 11
533.4610278945859
 21
65.23946839803777
 31
0.0
  0
LINE
  5
18CE
330
1F
100
AcDbEntity
  8
0
  6
Continuous
100
AcDbLine
 10
519.861027894586
 20
65.23946839803777
 30
0.0
 11
525.561027894586
 21
65.23946839803777
 31
0.0
  0
LINE
  5
18CF
330
1F
100
AcDbEntity
  8
0
  6
Continuous
100
AcDbLine
 10
462.0610278945861
 20
65.23946839803777
 30
0.0
 11
456.3610278945859
 21
65.23946839803777
 31
0.0
  0
LINE
  5
18D0
330
1F
100
AcDbEntity
  8
0
  6
Continuous
100
AcDbLine
 10
469.961027894586
 20
65.23946839803777
 30
0.0
 11
464.2610278945861
 21
65.23946839803777
 31
0.0
  0
LINE
  5
18D1
330
1F
100
AcDbEntity
  8
0
  6
Continuous
100
AcDbLine
 10
477.861027894586
 20
65.23946839803777
 30
0.0
 11
472.161027894586
 21
65.23946839803777
 31
0.0
  0
LINE
  5
18D2
330
1F
100
AcDbEntity
  8
0
  6
Continuous
100
AcDbLine
 10
541.9610278945859
 20
64.27946839803775
 30
0.0
 11
543.208366895586
 21
64.27946839803775
 31
0.0
  0
LINE
  5
18D3
330
1F
100
AcDbEntity
  8
0
  6
Continuous
100
AcDbLine
 10
534.0610278945862
 20
64.27946839803775
 30
0.0
 11
535.0610278945862
 21
64.27946839803775
 31
0.0
  0
LINE
  5
18D4
330
1F
100
AcDbEntity
  8
0
  6
Continuous
100
AcDbLine
 10
526.161027894586
 20
64.27946839803775
 30
0.0
 11
527.161027894586
 21
64.27946839803775
 31
0.0
  0
LINE
  5
18D5
330
1F
100
AcDbEntity
  8
0
  6
Continuous
100
AcDbLine
 10
515.861027894586
 20
64.27946839803775
 30
0.0
 11
519.2610278945862
 21
64.27946839803775
 31
0.0
  0
LINE
  5
18D6
330
1F
100
AcDbEntity
  8
0
  6
Continuous
100
AcDbLine
 10
455.7610278945861
 20
64.27946839803775
 30
0.0
 11
454.513688893786
 21
64.27946839803775
 31
0.0
  0
LINE
  5
18D7
330
1F
100
AcDbEntity
  8
0
  6
Continuous
100
AcDbLine
 10
463.661027894586
 20
64.27946839803775
 30
0.0
 11
462.661027894586
 21
64.27946839803775
 31
0.0
  0
LINE
  5
18D8
330
1F
100
AcDbEntity
  8
0
  6
Continuous
100
AcDbLine
 10
471.561027894586
 20
64.27946839803775
 30
0.0
 11
470.5610278945861
 21
64.27946839803775
 31
0.0
  0
LINE
  5
18D9
330
1F
100
AcDbEntity
  8
0
  6
Continuous
100
AcDbLine
 10
481.861027894586
 20
64.27946839803775
 30
0.0
 11
478.461027894586
 21
64.27946839803775
 31
0.0
  0
LINE
  5
18DA
330
1F
100
AcDbEntity
  8
0
  6
Continuous
100
AcDbLine
 10
514.154728054186
 20
60.92865150643768
 30
0.0
 11
512.9610278945859
 21
60.23946839803778
 31
0.0
  0
LINE
  5
18DB
330
1F
100
AcDbEntity
  8
0
  6
Continuous
100
AcDbLine
 10
485.7951903957861
 20
60.47040669283767
 30
0.0
 11
511.9268650997861
 21
60.47040670463768
 31
0.0
  0
LINE
  5
18DC
330
1F
100
AcDbEntity
  8
0
  6
Continuous
100
AcDbLine
 10
512.9610278945859
 20
60.23946839803778
 30
0.0
 11
484.7610278945861
 21
60.23946839803778
 31
0.0
  0
LINE
  5
18DD
330
1F
100
AcDbEntity
  8
0
  6
Continuous
100
AcDbLine
 10
454.513688893786
 20
64.27946839803775
 30
0.0
 11
454.410161275586
 21
64.29309806743771
 31
0.0
  0
LINE
  5
18DE
330
1F
100
AcDbEntity
  8
0
  6
Continuous
100
AcDbLine
 10
543.208366895586
 20
64.27946839803775
 30
0.0
 11
543.3118945137861
 21
64.29309806743771
 31
0.0
  0
LINE
  5
18DF
330
1F
100
AcDbEntity
  8
0
  6
CENTER
 48
25.0
100
AcDbLine
 10
498.861027894586
 20
25.67157913023772
 30
0.0
 11
498.861027894586
 21
82.25970952583764
 31
0.0
  0
LINE
  5
18E0
330
1F
100
AcDbEntity
  8
0
  6
Continuous
100
AcDbLine
 10
483.5673277401861
 20
60.92865150363781
 30
0.0
 11
484.7610278945861
 21
60.23946839803778
 31
0.0
  0
LINE
  5
18E1
330
1F
100
AcDbEntity
  8
0
  6
Continuous
100
AcDbLine
 10
454.410161275586
 20
64.29309806743771
 30
0.0
 11
451.3575002765861
 21
65.11105611703778
 31
0.0
  0
LINE
  5
18E2
330
1F
100
AcDbEntity
  8
0
  6
Continuous
100
AcDbLine
 10
487.2010278945861
 20
55.53946839803774
 30
0.0
 11
510.521027894586
 21
55.53946839803774
 31
0.0
  0
LINE
  5
18E3
330
1F
100
AcDbEntity
  8
0
  6
Continuous
100
AcDbLine
 10
543.3118945135861
 20
64.29309806743771
 30
0.0
 11
546.364555512786
 21
65.11105611703778
 31
0.0
  0
LINE
  5
18E4
330
1F
100
AcDbEntity
  8
0
  6
Continuous
100
AcDbLine
 10
510.521027894586
 20
49.23946839803779
 30
0.0
 11
487.2010278945861
 21
49.23946839803779
 31
0.0
  0
LINE
  5
18E5
330
1F
100
AcDbEntity
  8
0
  6
Continuous
100
AcDbLine
 10
483.5564761617859
 20
60.93491666523772
 30
0.0
 11
482.861027894586
 21
62.13946839803765
 31
0.0
  0
LINE
  5
18E6
330
1F
100
AcDbEntity
  8
0
  6
Continuous
100
AcDbLine
 10
510.521027894586
 20
47.63946839803764
 30
0.0
 11
487.2010278945861
 21
47.63946839803764
 31
0.0
  0
LINE
  5
18E7
330
1F
100
AcDbEntity
  8
0
  6
Continuous
100
AcDbLine
 10
487.8610278945861
 20
39.43946839803772
 30
0.0
 11
487.8610278945861
 21
33.73946839803779
 31
0.0
  0
LINE
  5
18E8
330
1F
100
AcDbEntity
  8
0
  6
Continuous
100
AcDbLine
 10
487.8610278945861
 20
47.3394683980377
 30
0.0
 11
487.8610278945861
 21
41.63946839803765
 31
0.0
  0
LINE
  5
18E9
330
1F
100
AcDbEntity
  8
0
  6
Continuous
100
AcDbLine
 10
487.8610278945861
 20
55.23946839803778
 30
0.0
 11
487.8610278945861
 21
49.53946839803774
 31
0.0
  0
LINE
  5
18EA
330
1F
100
AcDbEntity
  8
0
  6
Continuous
100
AcDbLine
 10
486.901027894586
 20
33.13946839803765
 30
0.0
 11
486.901027894586
 21
31.89212939703765
 31
0.0
  0
LINE
  5
18EB
330
1F
100
AcDbEntity
  8
0
  6
Continuous
100
AcDbLine
 10
486.901027894586
 20
41.03946839803774
 30
0.0
 11
486.901027894586
 21
40.03946839803774
 31
0.0
  0
LINE
  5
18EC
330
1F
100
AcDbEntity
  8
0
  6
Continuous
100
AcDbLine
 10
486.901027894586
 20
48.93946839803771
 30
0.0
 11
486.901027894586
 21
47.93946839803772
 31
0.0
  0
LINE
  5
18ED
330
1F
100
AcDbEntity
  8
0
  6
Continuous
100
AcDbLine
 10
486.901027894586
 20
59.23946839803779
 30
0.0
 11
486.901027894586
 21
55.83946839803768
 31
0.0
  0
LINE
  5
18EE
330
1F
100
AcDbEntity
  8
0
  6
Continuous
100
AcDbLine
 10
486.901027894586
 20
31.89212939703765
 30
0.0
 11
486.9146575641861
 21
31.78860177903772
 31
0.0
  0
LINE
  5
18EF
330
1F
100
AcDbEntity
  8
0
  6
Continuous
100
AcDbLine
 10
510.521027894586
 20
41.33946839803768
 30
0.0
 11
487.2010278945861
 21
41.33946839803768
 31
0.0
  0
LINE
  5
18F0
330
1F
100
AcDbEntity
  8
0
  6
Continuous
100
AcDbLine
 10
483.0919680279861
 20
63.17368545403775
 30
0.0
 11
483.091968002386
 21
90.73946839803779
 31
0.0
  0
LINE
  5
18F1
330
1F
100
AcDbEntity
  8
0
  6
Continuous
100
AcDbLine
 10
482.861027894586
 20
62.13946839803765
 30
0.0
 11
482.861027894586
 21
90.33946839803768
 31
0.0
  0
LINE
  5
18F2
330
1F
100
AcDbEntity
  8
0
  6
Continuous
100
AcDbLine
 10
486.9146575641861
 20
31.78860177903772
 30
0.0
 11
487.7326156135859
 21
28.73594078003765
 31
0.0
  0
LINE
  5
18F3
330
1F
100
AcDbEntity
  8
0
  6
Continuous
100
AcDbLine
 10
487.2010278945861
 20
39.7394683980378
 30
0.0
 11
510.521027894586
 21
39.7394683980378
 31
0.0
  0
LINE
  5
18F4
330
1F
100
AcDbEntity
  8
0
  6
Continuous
100
AcDbLine
 10
478.161027894586
 20
87.89946839803775
 30
0.0
 11
478.161027894586
 21
64.5794683980377
 31
0.0
  0
LINE
  5
18F5
330
1F
100
AcDbEntity
  8
0
  6
Continuous
100
AcDbLine
 10
510.521027894586
 20
33.43946839803772
 30
0.0
 11
487.2010278945861
 21
33.43946839803772
 31
0.0
  0
LINE
  5
18F6
330
1F
100
AcDbEntity
  8
0
  6
Continuous
100
AcDbLine
 10
483.091968002386
 20
90.73946839803779
 30
0.0
 11
482.861027894586
 21
90.33946839803768
 31
0.0
  0
LINE
  5
18F7
330
1F
100
AcDbEntity
  8
0
  6
Continuous
100
AcDbLine
 10
471.8610278945861
 20
64.5794683980377
 30
0.0
 11
471.8610278945861
 21
87.89946839803775
 31
0.0
  0
LINE
  5
18F8
330
1F
100
AcDbEntity
  8
0
  6
Continuous
100
AcDbLine
 10
470.2610278945861
 20
87.89946839803775
 30
0.0
 11
470.2610278945861
 21
64.5794683980377
 31
0.0
  0
LINE
  5
18F9
330
1F
100
AcDbEntity
  8
0
  6
Continuous
100
AcDbLine
 10
488.1189859441859
 20
28.43946839803772
 30
0.0
 11
509.6030698451859
 21
28.43946839803772
 31
0.0
  0
LINE
  5
18FA
330
1F
100
AcDbEntity
  8
0
  6
Continuous
100
AcDbLine
 10
463.9610278945861
 20
64.5794683980377
 30
0.0
 11
463.9610278945861
 21
87.89946839803775
 31
0.0
  0
LINE
  5
18FB
330
1F
100
AcDbEntity
  8
0
  6
Continuous
100
AcDbLine
 10
462.361027894586
 20
87.89946839803775
 30
0.0
 11
462.361027894586
 21
64.5794683980377
 31
0.0
  0
LINE
  5
18FC
330
1F
100
AcDbEntity
  8
0
  6
Continuous
100
AcDbLine
 10
456.0610278945861
 20
64.5794683980377
 30
0.0
 11
456.0610278945861
 21
87.89946839803775
 31
0.0
  0
LINE
  5
18FD
330
1F
100
AcDbEntity
  8
0
  6
Continuous
100
AcDbLine
 10
451.0610278945859
 20
86.98151034863776
 30
0.0
 11
451.0610278945859
 21
65.4974264474377
 31
0.0
  0
VIEWPORT
  5
86E
330
50
100
AcDbEntity
 67
     1
  8
0
100
AcDbViewport
 10
133.3499908447265
 20
101.5999970436096
 30
0.0
 40
467.3964992866515
 41
228.4221935424805
 68
     1
 69
     1
 12
133.3499908447265
 22
101.5999970436096
 13
0.0
 23
0.0
 14
10.0
 24
10.0
 15
10.0
 25
10.0
 16
0.0
 26
0.0
 36
1.0
 17
0.0
 27
0.0
 37
0.0
 42
50.0
 43
0.0
 44
0.0
 45
228.4221935424805
 50
0.0
 51
0.0
 72
  1000
 90
    32800
  1

281
     0
 71
     1
 74
     0
110
0.0
120
0.0
130
0.0
111
1.0
121
0.0
131
0.0
112
0.0
122
1.0
132
0.0
 79
     0
146
0.0
  0
VIEWPORT
  5
870
330
50
100
AcDbEntity
 67
     1
  8
0
100
AcDbViewport
 10
133.3499939441681
 20
101.5999939441681
 30
0.0
 40
213.3599903106689
 41
162.5599903106689
 68
     2
 69
     2
 12
232.2178593412737
 22
236.3528153148605
 13
0.0
 23
0.0
 14
10.0
 24
10.0
 15
10.0
 25
10.0
 16
0.0
 26
0.0
 36
1.0
 17
0.0
 27
0.0
 37
0.0
 42
50.0
 43
0.0
 44
0.0
 45
372.3835153371155
 50
0.0
 51
0.0
 72
  1000
 90
    32864
  1

281
     0
 71
     1
 74
     0
110
0.0
120
0.0
130
0.0
111
1.0
121
0.0
131
0.0
112
0.0
122
1.0
132
0.0
 79
     0
146
0.0
  0
ENDSEC
  0
SECTION
  2
OBJECTS
  0
DICTIONARY
  5
C
330
0
100
AcDbDictionary
281
     1
  3
ACAD_COLOR
350
6B
  3
ACAD_GROUP
350
D
  3
ACAD_LAYOUT
350
1A
  3
ACAD_MATERIAL
350
6A
  3
ACAD_MLINESTYLE
350
17
  3
ACAD_PLOTSETTINGS
350
19
  3
ACAD_PLOTSTYLENAME
350
E
  3
ACDBHEADERROUNDTRIPXREC
350
479B
  3
AcDbVariableDictionary
350
5E
  3
DWGPROPS
350
479E
  0
DICTIONARY
  5
6B
102
{ACAD_REACTORS
330
C
102
}
330
C
100
AcDbDictionary
281
     1
  0
DICTIONARY
  5
D
102
{ACAD_REACTORS
330
C
102
}
330
C
100
AcDbDictionary
281
     1
  0
DICTIONARY
  5
1A
102
{ACAD_REACTORS
330
C
102
}
330
C
100
AcDbDictionary
281
     1
  3
Layout1
350
51
  3
Layout2
350
56
  3
Model
350
22
  0
DICTIONARY
  5
6A
102
{ACAD_REACTORS
330
C
102
}
330
C
100
AcDbDictionary
281
     1
  0
DICTIONARY
  5
17
102
{ACAD_REACTORS
330
C
102
}
330
C
100
AcDbDictionary
281
     1
  3
Standard
350
18
  0
DICTIONARY
  5
19
102
{ACAD_REACTORS
330
C
102
}
330
C
100
AcDbDictionary
281
     1
  0
ACDBDICTIONARYWDFLT
  5
E
102
{ACAD_REACTORS
330
C
102
}
330
C
100
AcDbDictionary
281
     1
  3
Normal
350
F
100
AcDbDictionaryWithDefault
340
F
  0
DICTIONARY
  5
479B
102
{ACAD_REACTORS
330
C
102
}
330
C
100
AcDbDictionary
281
     1
  3
COLORDICT
350
479C
  3
MATERIALDICT
350
479D
  0
DICTIONARY
  5
5E
102
{ACAD_REACTORS
330
C
102
}
330
C
100
AcDbDictionary
281
     1
  3
DIMASSOC
350
5F
  3
HIDETEXT
350
63
  0
XRECORD
  5
479E
102
{ACAD_REACTORS
330
C
102
}
330
C
100
AcDbXrecord
280
     1
  1
DWGPROPS COOKIE
  2

  3

  4

  6

  7

  8

  9

300
=
301
=
302
=
303
=
304
=
305
=
306
=
307
=
308
=
309
=
 40
0.0
 41
2453308.654962373
 42
2453691.64831184
  1

 90
        0
  0
LAYOUT
  5
51
102
{ACAD_REACTORS
330
1A
102
}
330
1A
100
AcDbPlotSettings
  1

  2
none_device
  4
Letter_(8.50_x_11.00_Inches)
  6

 40
6.349999904632567
 41
6.349999904632567
 42
6.350006103515625
 43
6.350006103515625
 44
215.8999938964844
 45
279.3999938964844
 46
0.0
 47
0.0
 48
0.0
 49
0.0
140
0.0
141
0.0
142
1.0
143
1.0
 70
   688
 72
     1
 73
     1
 74
     5
  7

 75
    16
147
1.0
148
0.0
149
0.0
100
AcDbLayout
  1
Layout1
 70
     1
 71
     1
 10
-6.350006103515625
 20
-6.349999904632567
 11
273.0499877929688
 21
209.5499939918518
 12
0.0
 22
0.0
 32
0.0
 14
26.66999878883363
 24
20.31999878883363
 34
0.0
 15
240.0299890995026
 25
182.8799890995025
 35
0.0
146
0.0
 13
0.0
 23
0.0
 33
0.0
 16
1.0
 26
0.0
 36
0.0
 17
0.0
 27
1.0
 37
0.0
 76
     0
330
50
331
86E
  0
LAYOUT
  5
56
102
{ACAD_REACTORS
330
1A
102
}
330
1A
100
AcDbPlotSettings
  1

  2
None
  4

  6

 40
0.0
 41
0.0
 42
0.0
 43
0.0
 44
0.0
 45
0.0
 46
0.0
 47
0.0
 48
0.0
 49
0.0
140
0.0
141
0.0
142
1.0
143
1.0
 70
   688
 72
     0
 73
     0
 74
     5
  7

 75
    16
147
1.0
148
0.0
149
0.0
100
AcDbLayout
  1
Layout2
 70
     1
 71
     2
 10
0.0
 20
0.0
 11
12.0
 21
9.0
 12
0.0
 22
0.0
 32
0.0
 14
0.0
 24
0.0
 34
0.0
 15
0.0
 25
0.0
 35
0.0
146
0.0
 13
0.0
 23
0.0
 33
0.0
 16
1.0
 26
0.0
 36
0.0
 17
0.0
 27
1.0
 37
0.0
 76
     0
330
55
  0
LAYOUT
  5
22
102
{ACAD_REACTORS
330
1A
102
}
330
1A
100
AcDbPlotSettings
  1

  2
\\alderaan\HP LaserJet 5Si/5Si MX PS Tecnico
  4
A3
  6

 40
5.746749877929687
 41
5.704421997070312
 42
5.746734619140625
 43
5.74676513671875
 44
297.0530090332031
 45
420.1583251953125
 46
10.34
 47
0.0
 48
-69.22767503670229
 49
-366.6080453569757
140
1188.996887231578
141
448.8355352667507
142
1.0
143
3.078548048453406
 70
 11956
 72
     1
 73
     1
 74
     4
  7

 75
     0
147
0.3248284529787921
148
69.22767503670229
149
366.6080453569757
100
AcDbLayout
  1
Model
 70
     1
 71
     0
 10
0.0
 20
0.0
 11
12.0
 21
9.0
 12
0.0
 22
0.0
 32
0.0
 14
0.0
 24
0.0
 34
0.0
 15
0.0
 25
0.0
 35
0.0
146
0.0
 13
0.0
 23
0.0
 33
0.0
 16
1.0
 26
0.0
 36
0.0
 17
0.0
 27
1.0
 37
0.0
 76
     0
330
1F
  0
MLINESTYLE
  5
18
102
{ACAD_REACTORS
330
17
102
}
330
17
100
AcDbMlineStyle
  2
STANDARD
 70
     0
  3

 62
   256
 51
90.0
 52
90.0
 71
     2
 49
0.5
 62
   256
  6
BYLAYER
 49
-0.5
 62
   256
  6
BYLAYER
  0
ACDBPLACEHOLDER
  5
F
102
{ACAD_REACTORS
330
E
102
}
330
E
  0
XRECORD
  5
479C
102
{ACAD_REACTORS
330
479B
102
}
330
479B
100
AcDbXrecord
280
     1
340
6B
  0
XRECORD
  5
479D
102
{ACAD_REACTORS
330
479B
102
}
330
479B
100
AcDbXrecord
280
     1
340
6A
  0
DICTIONARYVAR
  5
5F
102
{ACAD_REACTORS
330
5E
102
}
330
5E
100
DictionaryVariables
280
     0
  1
2
  0
DICTIONARYVAR
  5
63
102
{ACAD_REACTORS
330
5E
102
}
330
5E
100
DictionaryVariables
280
     0
  1
1
  0
ENDSEC
  0
EOF
