  0
SECTION
  2
HEADER
  9
$ACADVER
  1
AC1015
  9
$ACADMAINTVER
 70
     6
  9
$DWGCODEPAGE
  3
ANSI_1252
  9
$INSBASE
 10
0.0
 20
0.0
 30
0.0
  9
$EXTMIN
 10
677.3049223327924
 20
21.05757415346625
 30
-0.0008605300456423
  9
$EXTMAX
 10
785.2611544450192
 20
90.41918655244628
 30
0.000573774241424
  9
$LIMMIN
 10
0.0
 20
0.0
  9
$LIMMAX
 10
420.0
 20
297.0
  9
$ORTHOMODE
 70
     1
  9
$REGENMODE
 70
     1
  9
$FILLMODE
 70
     1
  9
$QTEXTMODE
 70
     0
  9
$MIRRTEXT
 70
     0
  9
$LTSCALE
 40
1.0
  9
$ATTMODE
 70
     1
  9
$TEXTSIZE
 40
2.5
  9
$TRACEWID
 40
1.0
  9
$TEXTSTYLE
  7
Standard
  9
$CLAYER
  8
0
  9
$CELTYPE
  6
ByLayer
  9
$CECOLOR
 62
   256
  9
$CELTSCALE
 40
1.0
  9
$DISPSILH
 70
     0
  9
$DIMSCALE
 40
1.0
  9
$DIMASZ
 40
2.5
  9
$DIMEXO
 40
0.625
  9
$DIMDLI
 40
3.75
  9
$DIMRND
 40
0.0
  9
$DIMDLE
 40
0.0
  9
$DIMEXE
 40
1.25
  9
$DIMTP
 40
0.0
  9
$DIMTM
 40
0.0
  9
$DIMTXT
 40
2.5
  9
$DIMCEN
 40
2.5
  9
$DIMTSZ
 40
0.0
  9
$DIMTOL
 70
     0
  9
$DIMLIM
 70
     0
  9
$DIMTIH
 70
     0
  9
$DIMTOH
 70
     0
  9
$DIMSE1
 70
     0
  9
$DIMSE2
 70
     0
  9
$DIMTAD
 70
     1
  9
$DIMZIN
 70
     8
  9
$DIMBLK
  1

  9
$DIMASO
 70
     1
  9
$DIMSHO
 70
     1
  9
$DIMPOST
  1

  9
$DIMAPOST
  1

  9
$DIMALT
 70
     0
  9
$DIMALTD
 70
     3
  9
$DIMALTF
 40
0.03937007874016
  9
$DIMLFAC
 40
1.0
  9
$DIMTOFL
 70
     1
  9
$DIMTVP
 40
0.0
  9
$DIMTIX
 70
     0
  9
$DIMSOXD
 70
     0
  9
$DIMSAH
 70
     0
  9
$DIMBLK1
  1

  9
$DIMBLK2
  1

  9
$DIMSTYLE
  2
ISO-25
  9
$DIMCLRD
 70
     0
  9
$DIMCLRE
 70
     0
  9
$DIMCLRT
 70
     0
  9
$DIMTFAC
 40
1.0
  9
$DIMGAP
 40
0.625
  9
$DIMJUST
 70
     0
  9
$DIMSD1
 70
     0
  9
$DIMSD2
 70
     0
  9
$DIMTOLJ
 70
     0
  9
$DIMTZIN
 70
     8
  9
$DIMALTZ
 70
     0
  9
$DIMALTTZ
 70
     0
  9
$DIMUPT
 70
     0
  9
$DIMDEC
 70
     2
  9
$DIMTDEC
 70
     2
  9
$DIMALTU
 70
     2
  9
$DIMALTTD
 70
     3
  9
$DIMTXSTY
  7
Standard
  9
$DIMAUNIT
 70
     0
  9
$DIMADEC
 70
     0
  9
$DIMALTRND
 40
0.0
  9
$DIMAZIN
 70
     0
  9
$DIMDSEP
 70
    44
  9
$DIMATFIT
 70
     3
  9
$DIMFRAC
 70
     0
  9
$DIMLDRBLK
  1

  9
$DIMLUNIT
 70
     2
  9
$DIMLWD
 70
    -2
  9
$DIMLWE
 70
    -2
  9
$DIMTMOVE
 70
     0
  9
$LUNITS
 70
     2
  9
$LUPREC
 70
     4
  9
$SKETCHINC
 40
1.0
  9
$FILLETRAD
 40
0.0
  9
$AUNITS
 70
     0
  9
$AUPREC
 70
     0
  9
$MENU
  1
.
  9
$ELEVATION
 40
0.0
  9
$PELEVATION
 40
0.0
  9
$THICKNESS
 40
0.0
  9
$LIMCHECK
 70
     0
  9
$CHAMFERA
 40
0.0
  9
$CHAMFERB
 40
0.0
  9
$CHAMFERC
 40
0.0
  9
$CHAMFERD
 40
0.0
  9
$SKPOLY
 70
     0
  9
$TDCREATE
 40
2453308.69662904
  9
$TDUCREATE
 40
2453308.654962373
  9
$TDUPDATE
 40
2453691.68987228
  9
$TDUUPDATE
 40
2453691.648205613
  9
$TDINDWG
 40
1.1034081713
  9
$TDUSRTIMER
 40
1.1034078704
  9
$USRTIMER
 70
     1
  9
$ANGBASE
 50
0.0
  9
$ANGDIR
 70
     0
  9
$PDMODE
 70
     0
  9
$PDSIZE
 40
0.0
  9
$PLINEWID
 40
0.0
  9
$SPLFRAME
 70
     0
  9
$SPLINETYPE
 70
     6
  9
$SPLINESEGS
 70
     8
  9
$HANDSEED
  5
479F
  9
$SURFTAB1
 70
     6
  9
$SURFTAB2
 70
     6
  9
$SURFTYPE
 70
     6
  9
$SURFU
 70
     6
  9
$SURFV
 70
     6
  9
$UCSBASE
  2

  9
$UCSNAME
  2

  9
$UCSORG
 10
0.0
 20
0.0
 30
0.0
  9
$UCSXDIR
 10
1.0
 20
0.0
 30
0.0
  9
$UCSYDIR
 10
0.0
 20
1.0
 30
0.0
  9
$UCSORTHOREF
  2

  9
$UCSORTHOVIEW
 70
     0
  9
$UCSORGTOP
 10
0.0
 20
0.0
 30
0.0
  9
$UCSORGBOTTOM
 10
0.0
 20
0.0
 30
0.0
  9
$UCSORGLEFT
 10
0.0
 20
0.0
 30
0.0
  9
$UCSORGRIGHT
 10
0.0
 20
0.0
 30
0.0
  9
$UCSORGFRONT
 10
0.0
 20
0.0
 30
0.0
  9
$UCSORGBACK
 10
0.0
 20
0.0
 30
0.0
  9
$PUCSBASE
  2

  9
$PUCSNAME
  2

  9
$PUCSORG
 10
0.0
 20
0.0
 30
0.0
  9
$PUCSXDIR
 10
1.0
 20
0.0
 30
0.0
  9
$PUCSYDIR
 10
0.0
 20
1.0
 30
0.0
  9
$PUCSORTHOREF
  2

  9
$PUCSORTHOVIEW
 70
     0
  9
$PUCSORGTOP
 10
0.0
 20
0.0
 30
0.0
  9
$PUCSORGBOTTOM
 10
0.0
 20
0.0
 30
0.0
  9
$PUCSORGLEFT
 10
0.0
 20
0.0
 30
0.0
  9
$PUCSORGRIGHT
 10
0.0
 20
0.0
 30
0.0
  9
$PUCSORGFRONT
 10
0.0
 20
0.0
 30
0.0
  9
$PUCSORGBACK
 10
0.0
 20
0.0
 30
0.0
  9
$USERI1
 70
     0
  9
$USERI2
 70
     0
  9
$USERI3
 70
     0
  9
$USERI4
 70
     0
  9
$USERI5
 70
     0
  9
$USERR1
 40
0.0
  9
$USERR2
 40
0.0
  9
$USERR3
 40
0.0
  9
$USERR4
 40
0.0
  9
$USERR5
 40
0.0
  9
$WORLDVIEW
 70
     1
  9
$SHADEDGE
 70
     3
  9
$SHADEDIF
 70
    70
  9
$TILEMODE
 70
     1
  9
$MAXACTVP
 70
    64
  9
$PINSBASE
 10
0.0
 20
0.0
 30
0.0
  9
$PLIMCHECK
 70
     0
  9
$PEXTMIN
 10
26.66999878883363
 20
20.31999878883363
 30
0.0
  9
$PEXTMAX
 10
240.0299890995026
 20
182.8799890995025
 30
0.0
  9
$PLIMMIN
 10
-6.350006103515625
 20
-6.349999904632567
  9
$PLIMMAX
 10
273.0499877929688
 20
209.5499939918518
  9
$UNITMODE
 70
     0
  9
$VISRETAIN
 70
     1
  9
$PLINEGEN
 70
     0
  9
$PSLTSCALE
 70
     1
  9
$TREEDEPTH
 70
  3020
  9
$CMLSTYLE
  2
Standard
  9
$CMLJUST
 70
     0
  9
$CMLSCALE
 40
20.0
  9
$PROXYGRAPHICS
 70
     1
  9
$MEASUREMENT
 70
     1
  9
$CELWEIGHT
370
    -1
  9
$ENDCAPS
280
     0
  9
$JOINSTYLE
280
     0
  9
$LWDISPLAY
290
     0
  9
$INSUNITS
 70
     4
  9
$HYPERLINKBASE
  1

  9
$STYLESHEET
  1

  9
$XEDIT
290
     1
  9
$CEPSNTYPE
380
     0
  9
$PSTYLEMODE
290
     1
  9
$FINGERPRINTGUID
  2
{FDEAD578-A652-11D2-9A35-0060089B3A3F}
  9
$VERSIONGUID
  2
{AF4D8556-0399-4689-8686-8BF3343101BE}
  9
$EXTNAMES
290
     1
  9
$PSVPSCALE
 40
0.0
  9
$OLESTARTUP
290
     0
  0
ENDSEC
  0
SECTION
  2
CLASSES
  0
CLASS
  1
ACDBDICTIONARYWDFLT
  2
AcDbDictionaryWithDefault
  3
ObjectDBX Classes
 90
        0
280
     0
281
     0
  0
CLASS
  1
DICTIONARYVAR
  2
AcDbDictionaryVar
  3
ObjectDBX Classes
 90
        0
280
     0
281
     0
  0
CLASS
  1
DIMASSOC
  2
AcDbDimAssoc
  3
"AcDbDimAssoc|Product Desc:     AcDim ARX App For Dimension|Company:          Autodesk, Inc.|WEB Address:      www.autodesk.com"
 90
        0
280
     0
281
     0
  0
CLASS
  1
ACDBPLACEHOLDER
  2
AcDbPlaceHolder
  3
ObjectDBX Classes
 90
        0
280
     0
281
     0
  0
CLASS
  1
LAYOUT
  2
AcDbLayout
  3
ObjectDBX Classes
 90
        0
280
     0
281
     0
  0
ENDSEC
  0
SECTION
  2
TABLES
  0
TABLE
  2
VPORT
  5
8
330
0
100
AcDbSymbolTable
 70
     1
  0
VPORT
  5
478C
330
8
100
AcDbSymbolTableRecord
100
AcDbViewportTableRecord
  2
*Active
 70
     0
 10
0.0
 20
0.0
 11
1.0
 21
1.0
 12
731.2830383889059
 22
55.73838035295626
 13
0.0
 23
0.0
 14
10.0
 24
10.0
 15
10.0
 25
10.0
 16
0.0
 26
0.0
 36
1.0
 17
0.0
 27
0.0
 37
0.0
 40
69.90139148379697
 41
1.6
 42
50.0
 43
0.0
 44
0.0
 50
0.0
 51
0.0
 71
     0
 72
  1000
 73
     1
 74
     3
 75
     0
 76
     0
 77
     0
 78
     0
281
     0
 65
     1
110
0.0
120
0.0
130
0.0
111
1.0
121
0.0
131
0.0
112
0.0
122
1.0
132
0.0
 79
     0
146
0.0
  0
ENDTAB
  0
TABLE
  2
LTYPE
  5
5
330
0
100
AcDbSymbolTable
 70
     2
  0
LTYPE
  5
14
330
5
100
AcDbSymbolTableRecord
100
AcDbLinetypeTableRecord
  2
ByBlock
 70
     0
  3

 72
    65
 73
     0
 40
0.0
  0
LTYPE
  5
15
330
5
100
AcDbSymbolTableRecord
100
AcDbLinetypeTableRecord
  2
ByLayer
 70
     0
  3

 72
    65
 73
     0
 40
0.0
  0
LTYPE
  5
16
330
5
100
AcDbSymbolTableRecord
100
AcDbLinetypeTableRecord
  2
Continuous
 70
     0
  3
Solid line
 72
    65
 73
     0
 40
0.0
  0
LTYPE
  5
8B
330
5
100
AcDbSymbolTableRecord
100
AcDbLinetypeTableRecord
  2
CENTER
 70
     0
  3
____ _ ____ _ ____ _ ____ _ ____ _ ____ _ ____
 72
    65
 73
     4
 40
0.6
 49
0.375
 74
     0
 49
-0.075
 74
     0
 49
0.075
 74
     0
 49
-0.075
 74
     0
  0
ENDTAB
  0
TABLE
  2
LAYER
  5
2
330
0
100
AcDbSymbolTable
 70
     2
  0
LAYER
  5
10
330
2
100
AcDbSymbolTableRecord
100
AcDbLayerTableRecord
  2
0
 70
     0
 62
     7
  6
Continuous
370
    -3
390
F
  0
LAYER
  5
396
330
2
100
AcDbSymbolTableRecord
100
AcDbLayerTableRecord
  2
Defpoints
 70
     0
 62
     7
  6
Continuous
290
     0
370
    -3
390
F
  0
ENDTAB
  0
TABLE
  2
STYLE
  5
3
330
0
100
AcDbSymbolTable
 70
     1
  0
STYLE
  5
11
330
3
100
AcDbSymbolTableRecord
100
AcDbTextStyleTableRecord
  2
Standard
 70
     0
 40
0.0
 41
1.0
 50
0.0
 71
     0
 42
2.5
  3
verdana.TTF
  4

1001
ACAD
1000
Verdana
1071
       34
  0
ENDTAB
  0
TABLE
  2
VIEW
  5
6
330
0
100
AcDbSymbolTable
 70
     0
  0
ENDTAB
  0
TABLE
  2
UCS
  5
7
330
0
100
AcDbSymbolTable
 70
     0
  0
ENDTAB
  0
TABLE
  2
APPID
  5
9
330
0
100
AcDbSymbolTable
 70
     1
  0
APPID
  5
12
330
9
100
AcDbSymbolTableRecord
100
AcDbRegAppTableRecord
  2
ACAD
 70
     0
  0
ENDTAB
  0
TABLE
  2
DIMSTYLE
  5
A
330
0
100
AcDbSymbolTable
 70
     2
100
AcDbDimStyleTable
  0
DIMSTYLE
105
27
330
A
100
AcDbSymbolTableRecord
100
AcDbDimStyleTableRecord
  2
ISO-25
 70
     0
 41
2.5
 42
0.625
 43
3.75
 44
1.25
 73
     0
 74
     0
 77
     1
 78
     8
140
2.5
141
2.5
143
0.03937007874016
147
0.625
171
     3
172
     1
271
     2
272
     2
274
     3
278
    44
283
     0
284
     8
340
11
  0
DIMSTYLE
105
8D
330
A
100
AcDbSymbolTableRecord
100
AcDbDimStyleTableRecord
  2
STANDARD
 70
     0
 41
3.0
 47
0.01
 48
0.01
 71
     1
 73
     0
 74
     0
 77
     1
 78
     8
140
1.5
271
     2
272
     2
284
     8
340
11
  0
ENDTAB
  0
TABLE
  2
BLOCK_RECORD
  5
1
330
0
100
AcDbSymbolTable
 70
     1
  0
BLOCK_RECORD
  5
1F
330
1
100
AcDbSymbolTableRecord
100
AcDbBlockTableRecord
  2
*Model_Space
340
22
  0
BLOCK_RECORD
  5
50
330
1
100
AcDbSymbolTableRecord
100
AcDbBlockTableRecord
  2
*Paper_Space
340
51
  0
BLOCK_RECORD
  5
55
330
1
100
AcDbSymbolTableRecord
100
AcDbBlockTableRecord
  2
*Paper_Space0
340
56
  0
ENDTAB
  0
ENDSEC
  0
SECTION
  2
BLOCKS
  0
BLOCK
  5
20
330
1F
100
AcDbEntity
  8
0
100
AcDbBlockBegin
  2
*Model_Space
 70
     0
 71
     0
 10
0.0
 20
0.0
 30
0.0
  3
*Model_Space
  1

  0
ENDBLK
  5
21
330
1F
100
AcDbEntity
  8
0
100
AcDbBlockEnd
  0
BLOCK
  5
52
330
50
100
AcDbEntity
 67
     1
  8
0
100
AcDbBlockBegin
  2
*Paper_Space
 70
     0
 71
     0
 10
0.0
 20
0.0
 30
0.0
  3
*Paper_Space
  1

  0
ENDBLK
  5
53
330
50
100
AcDbEntity
 67
     1
  8
0
100
AcDbBlockEnd
  0
BLOCK
  5
57
330
55
100
AcDbEntity
  8
0
100
AcDbBlockBegin
  2
*Paper_Space0
 70
     0
 71
     0
 10
0.0
 20
0.0
 30
0.0
  3
*Paper_Space0
  1

  0
ENDBLK
  5
58
330
55
100
AcDbEntity
  8
0
100
AcDbBlockEnd
  0
ENDSEC
  0
SECTION
  2
ENTITIES
  0
SPLINE
  5
1B3D
330
1F
100
AcDbEntity
  8
0
  6
Continuous
100
AcDbSpline
210
0.0
220
0.0
230
1.0
 70
     8
 71
     3
 72
    15
 73
    11
 74
     9
 42
0.0000000001
 43
0.0000000001
 44
0.0000000001
 12
0.3977607583645823
 22
0.917489171110609
 32
0.0
 13
-1.363095738000000E-7
 23
0.9999999999999908
 33
0.0
 40
0.0
 40
0.0
 40
0.0
 40
0.0
 40
0.2119427364157548
 40
0.4423094405079514
 40
0.6925907748702578
 40
0.9637967789795214
 40
1.256855106674844
 40
1.57274113169734
 40
1.912139076974304
 40
2.275702222891851
 40
2.275702222891851
 40
2.275702222891851
 40
2.275702222891851
 10
746.6515154163662
 20
57.51286608967046
 30
0.0
 10
746.6796162508884
 20
57.57768447818946
 30
0.0
 10
746.7362649216959
 20
57.7138315258911
 30
0.0
 10
746.818132511821
 20
57.9297369639266
 30
0.0
 10
746.8985217333906
 20
58.16717767884293
 30
0.0
 10
746.9748991253618
 20
58.42782203012065
 30
0.0
 10
747.0438644893069
 20
58.71311647733722
 30
0.0
 10
747.1009586135998
 20
59.0242295476591
 30
0.0
 10
747.1405024407973
 20
59.36179212449551
 30
0.0
 10
747.1502570426851
 20
59.59621473776468
 30
0.0
 10
747.1502570261661
 20
59.71740245307053
 30
0.0
 11
746.6515154163662
 21
57.51286608967046
 31
0.0
 11
746.7329029171661
 21
57.70855921227047
 31
0.0
 11
746.8145326793663
 21
57.9239783392705
 31
0.0
 11
746.8947043355661
 21
58.1610716792705
 31
0.0
 11
746.9708413173662
 21
58.4213712310705
 31
0.0
 11
747.039515675766
 21
58.70626948647049
 31
0.0
 11
747.096285641766
 21
59.01701238947049
 31
0.0
 11
747.1354784063663
 21
59.35413980227048
 31
0.0
 11
747.1502570261661
 21
59.71740245307053
 31
0.0
  0
SPLINE
  5
1B3E
330
1F
100
AcDbEntity
  8
0
  6
Continuous
100
AcDbSpline
210
0.0
220
0.0
230
1.0
 70
     8
 71
     3
 72
    10
 73
     6
 74
     4
 42
0.0000000001
 43
0.0000000001
 44
0.0000000001
 12
0.9999999999974742
 22
2.247562220200001E-6
 32
0.0
 13
0.9174891905072344
 23
0.3977607136236308
 33
0.0
 40
0.0
 40
0.0
 40
0.0
 40
0.0
 40
0.7670443931666023
 40
1.562502643892456
 40
2.274108344627569
 40
2.274108344627569
 40
2.274108344627569
 40
2.274108344627569
 10
744.4470428119663
 20
57.01412401587043
 30
0.0
 10
744.7027242763545
 20
57.01412459053043
 30
0.0
 10
745.224325961014
 20
57.06014833980322
 30
0.0
 10
745.9627329646701
 20
57.24125211218841
 30
0.0
 10
746.4338852369236
 20
57.41851649255612
 30
0.0
 10
746.6515154163662
 20
57.51286608967046
 30
0.0
 11
744.4470428119663
 21
57.01412401587043
 31
0.0
 11
745.2114055687661
 21
57.0782073764705
 31
0.0
 11
745.9848912841662
 21
57.26387825927048
 31
0.0
 11
746.6515154163662
 21
57.51286608967046
 31
0.0
  0
SPLINE
  5
1B3F
330
1F
100
AcDbEntity
  8
0
  6
Continuous
100
AcDbSpline
210
0.0
220
0.0
230
1.0
 70
    24
 71
     3
 72
     9
 73
     5
 74
     3
 42
0.0000000001
 43
0.0000000001
 44
0.0000000001
 12
0.7071067811865476
 22
-0.7071067811865476
 32
0.0
 13
0.7071067811865476
 23
-0.7071067811865476
 33
0.0
 40
0.0
 40
0.0
 40
0.0
 40
0.0
 40
0.0362422274566167
 40
0.0484134290755846
 40
0.0484134290755846
 40
0.0484134290755846
 40
0.0484134290755846
 10
746.6515154163662
 20
57.51286608967046
 30
0.0
 10
746.6600577912996
 20
57.50432371473717
 30
0.0
 10
746.6714689459664
 20
57.49291256007059
 30
0.0
 10
746.6828801006326
 20
57.48150140540383
 30
0.0
 10
746.685748880366
 20
57.47863262567051
 30
0.0
 11
746.6515154163662
 21
57.51286608967046
 31
0.0
 11
746.6771425411661
 21
57.48723896487053
 31
0.0
 11
746.685748880366
 21
57.47863262567051
 31
0.0
  0
SPLINE
  5
1B40
330
1F
100
AcDbEntity
  8
0
  6
Continuous
100
AcDbSpline
210
0.0
220
0.0
230
1.0
 70
     8
 71
     3
 72
     9
 73
     5
 74
     3
 42
0.0000000001
 43
0.0000000001
 44
0.0000000001
 12
0.7071067811865476
 22
0.7071067811865476
 32
0.0
 13
0.7071067811865476
 23
0.7071067811865476
 33
0.0
 40
0.0
 40
0.0
 40
0.0
 40
0.0
 40
0.0121713075436554
 40
0.0484134514205225
 40
0.0484134514205225
 40
0.0484134514205225
 40
0.0484134514205225
 10
716.076645414766
 20
57.47863262567051
 30
0.0
 10
716.079514219466
 20
57.48150143037051
 30
0.0
 10
716.0909253791338
 20
57.49291259056924
 30
0.0
 10
716.1023365393329
 20
57.50432375023708
 30
0.0
 10
716.1108788945662
 20
57.51286610547044
 30
0.0
 11
716.076645414766
 21
57.47863262567051
 31
0.0
 11
716.0852518287661
 21
57.4872390398704
 31
0.0
 11
716.1108788945662
 21
57.51286610547044
 31
0.0
  0
SPLINE
  5
1B41
330
1F
100
AcDbEntity
  8
0
  6
Continuous
100
AcDbSpline
210
0.0
220
0.0
230
1.0
 70
     8
 71
     3
 72
    11
 73
     7
 74
     5
 42
0.0000000001
 43
0.0000000001
 44
0.0000000001
 12
-3.411028560000000E-8
 22
-0.9999999999999994
 32
0.0
 13
0.3977602457077384
 23
-0.917489393363498
 33
0.0
 40
0.0
 40
0.0
 40
0.0
 40
0.0
 40
0.5799379199536418
 40
1.165485337053574
 40
1.739006518441051
 40
2.274973623472551
 40
2.274973623472551
 40
2.274973623472551
 40
2.274973623472551
 10
715.6121372615663
 20
59.71740154487047
 30
0.0
 10
715.6121372549724
 20
59.52408890488592
 30
0.0
 10
715.6379933101655
 20
59.13522367756358
 30
0.0
 10
715.7449962059359
 20
58.56437537200421
 30
0.0
 10
715.9052979945664
 20
58.02172928881645
 30
0.0
 10
716.03981675877
 20
57.67678081682315
 30
0.0
 10
716.1108788945662
 20
57.51286610547044
 30
0.0
 11
715.6121372615663
 21
59.71740154487047
 31
0.0
 11
715.6492231439661
 21
59.13865062407052
 31
0.0
 11
715.7555098879661
 21
58.56283042147055
 31
0.0
 11
715.916757086966
 21
58.01244338827046
 31
0.0
 11
716.1108788945662
 21
57.51286610547044
 31
0.0
  0
SPLINE
  5
1B42
330
1F
100
AcDbEntity
  8
0
  6
Continuous
100
AcDbSpline
210
0.0
220
0.0
230
1.0
 70
     8
 71
     3
 72
    10
 73
     6
 74
     4
 42
0.0000000001
 43
0.0000000001
 44
0.0000000001
 12
0.9174894100626349
 22
-0.3977602071888518
 32
0.0
 13
0.9999999999974498
 23
-2.258470652100000E-6
 33
0.0
 40
0.0
 40
0.0
 40
0.0
 40
0.0
 40
0.7092143056125793
 40
1.505724068110297
 40
2.274105264403104
 40
2.274105264403104
 40
2.274105264403104
 40
2.274105264403104
 10
716.1108788945662
 20
57.51286610547044
 30
0.0
 10
716.3277777661878
 20
57.41883369575652
 30
0.0
 10
716.7984739364616
 20
57.24165406372031
 30
0.0
 10
717.5368235116032
 20
57.06030042861066
 30
0.0
 10
718.0592240863358
 20
57.01412459152591
 30
0.0
 10
718.3153511517661
 20
57.01412401307044
 30
0.0
 11
716.1108788945662
 21
57.51286610547044
 31
0.0
 11
716.7752177559662
 21
57.26459446287043
 31
0.0
 11
717.5496651689662
 21
57.07842516827049
 31
0.0
 11
718.3153511517661
 21
57.01412401307044
 31
0.0
  0
ARC
  5
1B43
330
1F
100
AcDbEntity
  8
0
  6
Continuous
100
AcDbCircle
 10
720.9792733589661
 20
88.78318435847046
 30
0.0
 40
3.0
100
AcDbArc
 50
228.5903778906981
 51
270.0
  0
ARC
  5
1B44
330
1F
100
AcDbEntity
  8
0
  6
Continuous
100
AcDbCircle
 10
741.783120936166
 20
88.78318435847046
 30
0.0
 40
3.0
100
AcDbArc
 50
270.0
 51
311.4096221093022
  0
ARC
  5
1B45
330
1F
100
AcDbEntity
  8
0
  6
Continuous
100
AcDbCircle
 10
717.0106463923661
 20
84.28318435847044
 30
0.0
 40
3.0
100
AcDbArc
 50
48.59037789069791
 51
90.0
  0
ARC
  5
1B46
330
1F
100
AcDbEntity
  8
0
  6
Continuous
100
AcDbCircle
 10
745.7517479027659
 20
84.28318435847044
 30
0.0
 40
3.0
100
AcDbArc
 50
90.0
 51
131.4096221093022
  0
ARC
  5
1B47
330
1F
100
AcDbEntity
  8
0
  6
Continuous
100
AcDbCircle
 10
710.9811971475663
 20
84.44318435847042
 30
0.0
 40
0.3
100
AcDbArc
 50
90.0
 51
180.0
  0
ARC
  5
1B48
330
1F
100
AcDbEntity
  8
0
  6
Continuous
100
AcDbCircle
 10
710.9811971475663
 20
61.1231843584705
 30
0.0
 40
0.3
100
AcDbArc
 50
180.0
 51
270.0
  0
ARC
  5
1B49
330
1F
100
AcDbEntity
  8
0
  6
Continuous
100
AcDbCircle
 10
704.0811971475662
 20
84.44318435847042
 30
0.0
 40
0.3
100
AcDbArc
 50
0.0
 51
90.0
  0
ARC
  5
1B4A
330
1F
100
AcDbEntity
  8
0
  6
Continuous
100
AcDbCircle
 10
704.0811971475662
 20
61.1231843584705
 30
0.0
 40
0.3
100
AcDbArc
 50
270.0
 51
0.0
  0
ARC
  5
1B4B
330
1F
100
AcDbEntity
  8
0
  6
Continuous
100
AcDbCircle
 10
703.0811971475659
 20
84.44318435847042
 30
0.0
 40
0.3
100
AcDbArc
 50
90.0
 51
180.0
  0
ARC
  5
1B4C
330
1F
100
AcDbEntity
  8
0
  6
Continuous
100
AcDbCircle
 10
703.0811971475659
 20
61.1231843584705
 30
0.0
 40
0.3
100
AcDbArc
 50
180.0
 51
270.0
  0
ARC
  5
1B4D
330
1F
100
AcDbEntity
  8
0
  6
Continuous
100
AcDbCircle
 10
696.181197147566
 20
84.44318435847042
 30
0.0
 40
0.3
100
AcDbArc
 50
0.0
 51
90.0
  0
ARC
  5
1B4E
330
1F
100
AcDbEntity
  8
0
  6
Continuous
100
AcDbCircle
 10
696.181197147566
 20
61.1231843584705
 30
0.0
 40
0.3
100
AcDbArc
 50
270.0
 51
0.0
  0
ARC
  5
1B4F
330
1F
100
AcDbEntity
  8
0
  6
Continuous
100
AcDbCircle
 10
695.181197147566
 20
84.44318435847042
 30
0.0
 40
0.3
100
AcDbArc
 50
90.0
 51
180.0
  0
ARC
  5
1B50
330
1F
100
AcDbEntity
  8
0
  6
Continuous
100
AcDbCircle
 10
695.181197147566
 20
61.1231843584705
 30
0.0
 40
0.3
100
AcDbArc
 50
180.0
 51
270.0
  0
ARC
  5
1B51
330
1F
100
AcDbEntity
  8
0
  6
Continuous
100
AcDbCircle
 10
688.2811971475661
 20
84.44318435847042
 30
0.0
 40
0.3
100
AcDbArc
 50
0.0
 51
90.0
  0
ARC
  5
1B52
330
1F
100
AcDbEntity
  8
0
  6
Continuous
100
AcDbCircle
 10
688.2811971475661
 20
61.1231843584705
 30
0.0
 40
0.3
100
AcDbArc
 50
270.0
 51
0.0
  0
ARC
  5
1B53
330
1F
100
AcDbEntity
  8
0
  6
Continuous
100
AcDbCircle
 10
710.3811971475661
 20
84.08318435847053
 30
0.0
 40
0.3
100
AcDbArc
 50
270.0
 51
359.9999999985996
  0
ARC
  5
1B54
330
1F
100
AcDbEntity
  8
0
  6
Continuous
100
AcDbCircle
 10
710.3811971475661
 20
61.48318435847051
 30
0.0
 40
0.3
100
AcDbArc
 50
0.0000000038984949
 51
90.0
  0
ARC
  5
1B55
330
1F
100
AcDbEntity
  8
0
  6
Continuous
100
AcDbCircle
 10
702.4811971475663
 20
84.08318435847053
 30
0.0
 40
0.3
100
AcDbArc
 50
270.0
 51
359.9999999985996
  0
ARC
  5
1B56
330
1F
100
AcDbEntity
  8
0
  6
Continuous
100
AcDbCircle
 10
702.4811971475663
 20
61.48318435847051
 30
0.0
 40
0.3
100
AcDbArc
 50
0.0000000038984949
 51
90.0
  0
ARC
  5
1B57
330
1F
100
AcDbEntity
  8
0
  6
Continuous
100
AcDbCircle
 10
694.5811971475659
 20
84.08318435847053
 30
0.0
 40
0.3
100
AcDbArc
 50
270.0
 51
359.9999999985996
  0
ARC
  5
1B58
330
1F
100
AcDbEntity
  8
0
  6
Continuous
100
AcDbCircle
 10
694.5811971475659
 20
61.48318435847051
 30
0.0
 40
0.3
100
AcDbArc
 50
0.0000000038984949
 51
90.0
  0
ARC
  5
1B59
330
1F
100
AcDbEntity
  8
0
  6
Continuous
100
AcDbCircle
 10
704.681197147566
 20
84.08318435847053
 30
0.0
 40
0.3
100
AcDbArc
 50
180.0000000015991
 51
270.0
  0
ARC
  5
1B5A
330
1F
100
AcDbEntity
  8
0
  6
Continuous
100
AcDbCircle
 10
704.681197147566
 20
61.48318435847051
 30
0.0
 40
0.3
100
AcDbArc
 50
90.0
 51
179.9999999988014
  0
ARC
  5
1B5B
330
1F
100
AcDbEntity
  8
0
  6
Continuous
100
AcDbCircle
 10
696.7811971475661
 20
84.08318435847053
 30
0.0
 40
0.3
100
AcDbArc
 50
180.0000000015991
 51
270.0
  0
ARC
  5
1B5C
330
1F
100
AcDbEntity
  8
0
  6
Continuous
100
AcDbCircle
 10
696.7811971475661
 20
61.48318435847051
 30
0.0
 40
0.3
100
AcDbArc
 50
90.0
 51
179.9999999988014
  0
ARC
  5
1B5D
330
1F
100
AcDbEntity
  8
0
  6
Continuous
100
AcDbCircle
 10
688.8811971475661
 20
84.08318435847053
 30
0.0
 40
0.3
100
AcDbArc
 50
180.0000000015991
 51
270.0
  0
ARC
  5
1B5E
330
1F
100
AcDbEntity
  8
0
  6
Continuous
100
AcDbCircle
 10
688.8811971475661
 20
61.48318435847051
 30
0.0
 40
0.3
100
AcDbArc
 50
90.0
 51
179.9999999988014
  0
ARC
  5
1B5F
330
1F
100
AcDbEntity
  8
0
  6
Continuous
100
AcDbCircle
 10
683.9811971475662
 20
83.52522630907055
 30
0.0
 40
0.4
100
AcDbArc
 50
105.0000000067988
 51
180.0
  0
ARC
  5
1B60
330
1F
100
AcDbEntity
  8
0
  6
Continuous
100
AcDbCircle
 10
683.9811971475662
 20
62.04114240807047
 30
0.0
 40
0.4
100
AcDbArc
 50
180.0
 51
254.9999999945974
  0
ARC
  5
1B61
330
1F
100
AcDbEntity
  8
0
  6
Continuous
100
AcDbCircle
 10
723.8391551969661
 20
25.38318435847049
 30
0.0
 40
0.4
100
AcDbArc
 50
195.0000000112997
 51
270.0
  0
ARC
  5
1B62
330
1F
100
AcDbEntity
  8
0
  6
Continuous
100
AcDbCircle
 10
738.9232390981661
 20
25.38318435847049
 30
0.0
 40
0.4
100
AcDbArc
 50
270.0
 51
344.9999999911004
  0
ARC
  5
1B63
330
1F
100
AcDbEntity
  8
0
  6
Continuous
100
AcDbCircle
 10
778.7811971475662
 20
62.04114240807047
 30
0.0
 40
0.4
100
AcDbArc
 50
285.0000000067988
 51
0.0
  0
ARC
  5
1B64
330
1F
100
AcDbEntity
  8
0
  6
Continuous
100
AcDbCircle
 10
778.7811971475662
 20
83.52522630907055
 30
0.0
 40
0.4
100
AcDbArc
 50
0.0
 51
74.99999999459736
  0
ARC
  5
1B65
330
1F
100
AcDbEntity
  8
0
  6
Continuous
100
AcDbCircle
 10
751.7811971475662
 20
61.1231843584705
 30
0.0
 40
0.3
100
AcDbArc
 50
270.0
 51
0.0
  0
ARC
  5
1B66
330
1F
100
AcDbEntity
  8
0
  6
Continuous
100
AcDbCircle
 10
751.7811971475662
 20
84.44318435847042
 30
0.0
 40
0.3
100
AcDbArc
 50
0.0
 51
90.0
  0
ARC
  5
1B67
330
1F
100
AcDbEntity
  8
0
  6
Continuous
100
AcDbCircle
 10
758.681197147566
 20
61.1231843584705
 30
0.0
 40
0.3
100
AcDbArc
 50
180.0
 51
270.0
  0
ARC
  5
1B68
330
1F
100
AcDbEntity
  8
0
  6
Continuous
100
AcDbCircle
 10
758.681197147566
 20
84.44318435847042
 30
0.0
 40
0.3
100
AcDbArc
 50
90.0
 51
180.0
  0
ARC
  5
1B69
330
1F
100
AcDbEntity
  8
0
  6
Continuous
100
AcDbCircle
 10
759.681197147566
 20
61.1231843584705
 30
0.0
 40
0.3
100
AcDbArc
 50
270.0
 51
0.0
  0
ARC
  5
1B6A
330
1F
100
AcDbEntity
  8
0
  6
Continuous
100
AcDbCircle
 10
759.681197147566
 20
84.44318435847042
 30
0.0
 40
0.3
100
AcDbArc
 50
0.0
 51
90.0
  0
ARC
  5
1B6B
330
1F
100
AcDbEntity
  8
0
  6
Continuous
100
AcDbCircle
 10
766.5811971475662
 20
61.1231843584705
 30
0.0
 40
0.3
100
AcDbArc
 50
180.0
 51
270.0
  0
ARC
  5
1B6C
330
1F
100
AcDbEntity
  8
0
  6
Continuous
100
AcDbCircle
 10
766.5811971475662
 20
84.44318435847042
 30
0.0
 40
0.3
100
AcDbArc
 50
90.0
 51
180.0
  0
ARC
  5
1B6D
330
1F
100
AcDbEntity
  8
0
  6
Continuous
100
AcDbCircle
 10
767.5811971475662
 20
61.1231843584705
 30
0.0
 40
0.3
100
AcDbArc
 50
270.0
 51
0.0
  0
ARC
  5
1B6E
330
1F
100
AcDbEntity
  8
0
  6
Continuous
100
AcDbCircle
 10
767.5811971475662
 20
84.44318435847042
 30
0.0
 40
0.3
100
AcDbArc
 50
0.0
 51
90.0
  0
ARC
  5
1B6F
330
1F
100
AcDbEntity
  8
0
  6
Continuous
100
AcDbCircle
 10
774.4811971475662
 20
61.1231843584705
 30
0.0
 40
0.3
100
AcDbArc
 50
180.0
 51
270.0
  0
ARC
  5
1B70
330
1F
100
AcDbEntity
  8
0
  6
Continuous
100
AcDbCircle
 10
774.4811971475662
 20
84.44318435847042
 30
0.0
 40
0.3
100
AcDbArc
 50
90.0
 51
180.0
  0
ARC
  5
1B71
330
1F
100
AcDbEntity
  8
0
  6
Continuous
100
AcDbCircle
 10
758.0811971475659
 20
61.48318435847051
 30
0.0
 40
0.3
100
AcDbArc
 50
0.000000001599132
 51
90.0
  0
ARC
  5
1B72
330
1F
100
AcDbEntity
  8
0
  6
Continuous
100
AcDbCircle
 10
758.0811971475659
 20
84.08318435847053
 30
0.0
 40
0.3
100
AcDbArc
 50
270.0
 51
359.9999999988015
  0
ARC
  5
1B73
330
1F
100
AcDbEntity
  8
0
  6
Continuous
100
AcDbCircle
 10
765.9811971475662
 20
61.48318435847051
 30
0.0
 40
0.3
100
AcDbArc
 50
0.000000001599132
 51
90.0
  0
ARC
  5
1B74
330
1F
100
AcDbEntity
  8
0
  6
Continuous
100
AcDbCircle
 10
765.9811971475662
 20
84.08318435847053
 30
0.0
 40
0.3
100
AcDbArc
 50
270.0
 51
359.9999999988015
  0
ARC
  5
1B75
330
1F
100
AcDbEntity
  8
0
  6
Continuous
100
AcDbCircle
 10
773.8811971475661
 20
61.48318435847051
 30
0.0
 40
0.3
100
AcDbArc
 50
0.0000000011985348
 51
90.0
  0
ARC
  5
1B76
330
1F
100
AcDbEntity
  8
0
  6
Continuous
100
AcDbCircle
 10
773.8811971475661
 20
84.08318435847053
 30
0.0
 40
0.3
100
AcDbArc
 50
270.0
 51
359.9999999984009
  0
ARC
  5
1B77
330
1F
100
AcDbEntity
  8
0
  6
Continuous
100
AcDbCircle
 10
768.1811971475661
 20
61.48318435847051
 30
0.0
 40
0.3
100
AcDbArc
 50
90.0
 51
179.9999999961015
  0
ARC
  5
1B78
330
1F
100
AcDbEntity
  8
0
  6
Continuous
100
AcDbCircle
 10
768.1811971475661
 20
84.08318435847053
 30
0.0
 40
0.3
100
AcDbArc
 50
180.0000000014005
 51
270.0
  0
ARC
  5
1B79
330
1F
100
AcDbEntity
  8
0
  6
Continuous
100
AcDbCircle
 10
760.2811971475662
 20
61.48318435847051
 30
0.0
 40
0.3
100
AcDbArc
 50
90.0
 51
179.9999999961015
  0
ARC
  5
1B7A
330
1F
100
AcDbEntity
  8
0
  6
Continuous
100
AcDbCircle
 10
760.2811971475662
 20
84.08318435847053
 30
0.0
 40
0.3
100
AcDbArc
 50
180.0000000014005
 51
270.0
  0
ARC
  5
1B7B
330
1F
100
AcDbEntity
  8
0
  6
Continuous
100
AcDbCircle
 10
752.3811971475661
 20
61.48318435847051
 30
0.0
 40
0.3
100
AcDbArc
 50
90.0
 51
179.9999999961015
  0
ARC
  5
1B7C
330
1F
100
AcDbEntity
  8
0
  6
Continuous
100
AcDbCircle
 10
752.3811971475661
 20
84.08318435847053
 30
0.0
 40
0.3
100
AcDbArc
 50
180.0000000014005
 51
270.0
  0
ARC
  5
1B7D
330
1F
100
AcDbEntity
  8
0
  6
Continuous
100
AcDbCircle
 10
722.9211971475661
 20
52.38318435847048
 30
0.0
 40
0.3
100
AcDbArc
 50
180.0
 51
270.0
  0
ARC
  5
1B7E
330
1F
100
AcDbEntity
  8
0
  6
Continuous
100
AcDbCircle
 10
739.8411971475661
 20
52.38318435847048
 30
0.0
 40
0.3
100
AcDbArc
 50
270.0
 51
0.0
  0
ARC
  5
1B7F
330
1F
100
AcDbEntity
  8
0
  6
Continuous
100
AcDbCircle
 10
722.9211971475661
 20
44.48318435847051
 30
0.0
 40
0.3
100
AcDbArc
 50
180.0
 51
270.0
  0
ARC
  5
1B80
330
1F
100
AcDbEntity
  8
0
  6
Continuous
100
AcDbCircle
 10
739.8411971475661
 20
44.48318435847051
 30
0.0
 40
0.3
100
AcDbArc
 50
270.0
 51
0.0
  0
ARC
  5
1B81
330
1F
100
AcDbEntity
  8
0
  6
Continuous
100
AcDbCircle
 10
722.9211971475661
 20
45.4831843584705
 30
0.0
 40
0.3
100
AcDbArc
 50
90.0
 51
180.0
  0
ARC
  5
1B82
330
1F
100
AcDbEntity
  8
0
  6
Continuous
100
AcDbCircle
 10
739.8411971475661
 20
45.4831843584705
 30
0.0
 40
0.3
100
AcDbArc
 50
0.0
 51
90.0
  0
ARC
  5
1B83
330
1F
100
AcDbEntity
  8
0
  6
Continuous
100
AcDbCircle
 10
722.9211971475661
 20
36.58318435847053
 30
0.0
 40
0.3
100
AcDbArc
 50
180.0
 51
270.0
  0
ARC
  5
1B84
330
1F
100
AcDbEntity
  8
0
  6
Continuous
100
AcDbCircle
 10
739.8411971475661
 20
36.58318435847053
 30
0.0
 40
0.3
100
AcDbArc
 50
270.0
 51
0.0
  0
ARC
  5
1B85
330
1F
100
AcDbEntity
  8
0
  6
Continuous
100
AcDbCircle
 10
722.9211971475661
 20
37.58318435847054
 30
0.0
 40
0.3
100
AcDbArc
 50
90.0
 51
180.0
  0
ARC
  5
1B86
330
1F
100
AcDbEntity
  8
0
  6
Continuous
100
AcDbCircle
 10
739.8411971475661
 20
37.58318435847054
 30
0.0
 40
0.3
100
AcDbArc
 50
0.0
 51
90.0
  0
ARC
  5
1B87
330
1F
100
AcDbEntity
  8
0
  6
Continuous
100
AcDbCircle
 10
722.9211971475661
 20
29.68318435847044
 30
0.0
 40
0.3
100
AcDbArc
 50
90.0
 51
180.0
  0
ARC
  5
1B88
330
1F
100
AcDbEntity
  8
0
  6
Continuous
100
AcDbCircle
 10
739.8411971475661
 20
29.68318435847044
 30
0.0
 40
0.3
100
AcDbArc
 50
0.0
 51
90.0
  0
ARC
  5
1B89
330
1F
100
AcDbEntity
  8
0
  6
Continuous
100
AcDbCircle
 10
723.2811971475662
 20
30.28318435847046
 30
0.0
 40
0.3
100
AcDbArc
 50
270.0000000042991
 51
0.0
  0
ARC
  5
1B8A
330
1F
100
AcDbEntity
  8
0
  6
Continuous
100
AcDbCircle
 10
739.4811971475662
 20
30.28318435847046
 30
0.0
 40
0.3
100
AcDbArc
 50
180.0
 51
269.9999999943981
  0
ARC
  5
1B8B
330
1F
100
AcDbEntity
  8
0
  6
Continuous
100
AcDbCircle
 10
723.2811971475662
 20
38.18318435847043
 30
0.0
 40
0.3
100
AcDbArc
 50
270.0000000042991
 51
0.0
  0
ARC
  5
1B8C
330
1F
100
AcDbEntity
  8
0
  6
Continuous
100
AcDbCircle
 10
739.4811971475662
 20
38.18318435847043
 30
0.0
 40
0.3
100
AcDbArc
 50
180.0
 51
269.9999999943981
  0
ARC
  5
1B8D
330
1F
100
AcDbEntity
  8
0
  6
Continuous
100
AcDbCircle
 10
723.2811971475662
 20
46.08318435847053
 30
0.0
 40
0.3
100
AcDbArc
 50
270.0000000042991
 51
0.0
  0
ARC
  5
1B8E
330
1F
100
AcDbEntity
  8
0
  6
Continuous
100
AcDbCircle
 10
739.4811971475662
 20
46.08318435847053
 30
0.0
 40
0.3
100
AcDbArc
 50
180.0
 51
269.9999999943981
  0
ARC
  5
1B8F
330
1F
100
AcDbEntity
  8
0
  6
Continuous
100
AcDbCircle
 10
723.2811971475662
 20
35.98318435847051
 30
0.0
 40
0.3
100
AcDbArc
 50
0.0
 51
89.99999998660118
  0
ARC
  5
1B90
330
1F
100
AcDbEntity
  8
0
  6
Continuous
100
AcDbCircle
 10
739.4811971475662
 20
35.98318435847051
 30
0.0
 40
0.3
100
AcDbArc
 50
90.00000000489833
 51
180.0
  0
ARC
  5
1B91
330
1F
100
AcDbEntity
  8
0
  6
Continuous
100
AcDbCircle
 10
723.2811971475662
 20
43.88318435847049
 30
0.0
 40
0.3
100
AcDbArc
 50
0.0
 51
89.99999998660118
  0
ARC
  5
1B92
330
1F
100
AcDbEntity
  8
0
  6
Continuous
100
AcDbCircle
 10
739.4811971475662
 20
43.88318435847049
 30
0.0
 40
0.3
100
AcDbArc
 50
90.00000000489833
 51
180.0
  0
ARC
  5
1B93
330
1F
100
AcDbEntity
  8
0
  6
Continuous
100
AcDbCircle
 10
723.2811971475662
 20
51.78318435847046
 30
0.0
 40
0.3
100
AcDbArc
 50
0.0
 51
89.99999998660118
  0
ARC
  5
1B94
330
1F
100
AcDbEntity
  8
0
  6
Continuous
100
AcDbCircle
 10
739.4811971475662
 20
51.78318435847046
 30
0.0
 40
0.3
100
AcDbArc
 50
90.00000000489833
 51
180.0
  0
ARC
  5
1B95
330
1F
100
AcDbEntity
  8
0
  6
Continuous
100
AcDbCircle
 10
714.3811971475661
 20
85.7431843584705
 30
0.0
 40
1.0
100
AcDbArc
 50
270.0
 51
359.9999999999023
  0
ARC
  5
1B96
330
1F
100
AcDbEntity
  8
0
  6
Continuous
100
AcDbCircle
 10
714.3811971475661
 20
59.82318435847053
 30
0.0
 40
1.0
100
AcDbArc
 50
0.0000000001009635
 51
90.0
  0
ARC
  5
1B97
330
1F
100
AcDbEntity
  8
0
  6
Continuous
100
AcDbCircle
 10
721.621197147566
 20
55.78318435847045
 30
0.0
 40
1.0
100
AcDbArc
 50
0.0
 51
89.99999999990229
  0
ARC
  5
1B98
330
1F
100
AcDbEntity
  8
0
  6
Continuous
100
AcDbCircle
 10
741.141197147566
 20
55.78318435847045
 30
0.0
 40
1.0
100
AcDbArc
 50
98.99999458889748
 51
180.0
  0
ARC
  5
1B99
330
1F
100
AcDbEntity
  8
0
  6
Continuous
100
AcDbCircle
 10
748.3811971475661
 20
59.82318435847053
 30
0.0
 40
1.0
100
AcDbArc
 50
90.0
 51
179.9999999997003
  0
ARC
  5
1B9A
330
1F
100
AcDbEntity
  8
0
  6
Continuous
100
AcDbCircle
 10
748.3811971475661
 20
85.7431843584705
 30
0.0
 40
1.0
100
AcDbArc
 50
180.0000000001009
 51
270.0
  0
LINE
  5
1B9B
330
1F
100
AcDbEntity
  8
0
  6
Continuous
100
AcDbLine
 10
779.181197147566
 20
62.04114240807047
 30
0.0
 11
779.181197147566
 21
83.52522630907055
 31
0.0
  0
LINE
  5
1B9C
330
1F
100
AcDbEntity
  8
0
  6
Continuous
100
AcDbLine
 10
774.1811971475661
 20
84.44318435847042
 30
0.0
 11
774.1811971475661
 21
61.1231843584705
 31
0.0
  0
LINE
  5
1B9D
330
1F
100
AcDbEntity
  8
0
  6
Continuous
100
AcDbLine
 10
775.8320637665661
 20
84.72955468907043
 30
0.0
 11
778.8847247655662
 21
83.91159663967044
 31
0.0
  0
LINE
  5
1B9E
330
1F
100
AcDbEntity
  8
0
  6
Continuous
100
AcDbLine
 10
686.9303305285662
 20
84.72955468907043
 30
0.0
 11
683.8776695295662
 21
83.91159663967044
 31
0.0
  0
LINE
  5
1B9F
330
1F
100
AcDbEntity
  8
0
  6
Continuous
100
AcDbLine
 10
767.8811971475661
 20
61.1231843584705
 30
0.0
 11
767.8811971475661
 21
84.44318435847042
 31
0.0
  0
LINE
  5
1BA0
330
1F
100
AcDbEntity
  8
0
  6
Continuous
100
AcDbLine
 10
766.2811971475662
 20
84.44318435847042
 30
0.0
 11
766.2811971475662
 21
61.1231843584705
 31
0.0
  0
LINE
  5
1BA1
330
1F
100
AcDbEntity
  8
0
  6
Continuous
100
AcDbLine
 10
775.7285361485663
 20
84.74318435847052
 30
0.0
 11
775.8320637665661
 21
84.72955468907043
 31
0.0
  0
LINE
  5
1BA2
330
1F
100
AcDbEntity
  8
0
  6
Continuous
100
AcDbLine
 10
717.0106463923661
 20
87.28318435847048
 30
0.0
 11
715.6121372551662
 21
87.28318435847048
 31
0.0
  0
LINE
  5
1BA3
330
1F
100
AcDbEntity
  8
0
  6
Continuous
100
AcDbLine
 10
747.1502570397659
 20
87.28318435847048
 30
0.0
 11
745.7517479027659
 21
87.28318435847048
 31
0.0
  0
LINE
  5
1BA4
330
1F
100
AcDbEntity
  8
0
  6
Continuous
100
AcDbLine
 10
687.0338581465662
 20
84.74318435847052
 30
0.0
 11
686.9303305285662
 21
84.72955468907043
 31
0.0
  0
LINE
  5
1BA5
330
1F
100
AcDbEntity
  8
0
  6
Continuous
100
AcDbLine
 10
747.3811971475661
 20
86.88318435847047
 30
0.0
 11
747.1502570397659
 21
87.28318435847048
 31
0.0
  0
LINE
  5
1BA6
330
1F
100
AcDbEntity
  8
0
  6
Continuous
100
AcDbLine
 10
741.783120936166
 20
85.78318435847045
 30
0.0
 11
720.9792733589661
 21
85.78318435847045
 31
0.0
  0
LINE
  5
1BA7
330
1F
100
AcDbEntity
  8
0
  6
Continuous
100
AcDbLine
 10
774.4811971475662
 20
84.74318435847052
 30
0.0
 11
775.7285361485663
 21
84.74318435847052
 31
0.0
  0
LINE
  5
1BA8
330
1F
100
AcDbEntity
  8
0
  6
Continuous
100
AcDbLine
 10
766.5811971475662
 20
84.74318435847052
 30
0.0
 11
767.5811971475662
 21
84.74318435847052
 31
0.0
  0
LINE
  5
1BA9
330
1F
100
AcDbEntity
  8
0
  6
Continuous
100
AcDbLine
 10
758.681197147566
 20
84.74318435847052
 30
0.0
 11
759.681197147566
 21
84.74318435847052
 31
0.0
  0
LINE
  5
1BAA
330
1F
100
AcDbEntity
  8
0
  6
Continuous
100
AcDbLine
 10
748.3811971475661
 20
84.74318435847052
 30
0.0
 11
751.7811971475662
 21
84.74318435847052
 31
0.0
  0
LINE
  5
1BAB
330
1F
100
AcDbEntity
  8
0
  6
Continuous
100
AcDbLine
 10
688.2811971475661
 20
84.74318435847052
 30
0.0
 11
687.0338581465662
 21
84.74318435847052
 31
0.0
  0
LINE
  5
1BAC
330
1F
100
AcDbEntity
  8
0
  6
Continuous
100
AcDbLine
 10
696.181197147566
 20
84.74318435847052
 30
0.0
 11
695.181197147566
 21
84.74318435847052
 31
0.0
  0
LINE
  5
1BAD
330
1F
100
AcDbEntity
  8
0
  6
Continuous
100
AcDbLine
 10
704.0811971475662
 20
84.74318435847052
 30
0.0
 11
703.0811971475659
 21
84.74318435847052
 31
0.0
  0
LINE
  5
1BAE
330
1F
100
AcDbEntity
  8
0
  6
Continuous
100
AcDbLine
 10
714.3811971475661
 20
84.74318435847052
 30
0.0
 11
710.9811971475663
 21
84.74318435847052
 31
0.0
  0
LINE
  5
1BAF
330
1F
100
AcDbEntity
  8
0
  6
Continuous
100
AcDbLine
 10
768.1811971475661
 20
83.78318435847046
 30
0.0
 11
773.8811971475661
 21
83.78318435847046
 31
0.0
  0
LINE
  5
1BB0
330
1F
100
AcDbEntity
  8
0
  6
Continuous
100
AcDbLine
 10
760.2811971475662
 20
83.78318435847046
 30
0.0
 11
765.9811971475662
 21
83.78318435847046
 31
0.0
  0
LINE
  5
1BB1
330
1F
100
AcDbEntity
  8
0
  6
Continuous
100
AcDbLine
 10
752.3811971475661
 20
83.78318435847046
 30
0.0
 11
758.0811971475659
 21
83.78318435847046
 31
0.0
  0
LINE
  5
1BB2
330
1F
100
AcDbEntity
  8
0
  6
Continuous
100
AcDbLine
 10
694.5811971475659
 20
83.78318435847046
 30
0.0
 11
688.8811971475661
 21
83.78318435847046
 31
0.0
  0
LINE
  5
1BB3
330
1F
100
AcDbEntity
  8
0
  6
Continuous
100
AcDbLine
 10
702.4811971475663
 20
83.78318435847046
 30
0.0
 11
696.7811971475661
 21
83.78318435847046
 31
0.0
  0
LINE
  5
1BB4
330
1F
100
AcDbEntity
  8
0
  6
Continuous
100
AcDbLine
 10
710.3811971475661
 20
83.78318435847046
 30
0.0
 11
704.681197147566
 21
83.78318435847046
 31
0.0
  0
LINE
  5
1BB5
330
1F
100
AcDbEntity
  8
0
  6
Continuous
100
AcDbLine
 10
759.9811971475662
 20
61.1231843584705
 30
0.0
 11
759.9811971475662
 21
84.44318435847042
 31
0.0
  0
LINE
  5
1BB6
330
1F
100
AcDbEntity
  8
0
  6
Continuous
100
AcDbLine
 10
758.3811971475661
 20
84.44318435847042
 30
0.0
 11
758.3811971475661
 21
61.1231843584705
 31
0.0
  0
LINE
  5
1BB7
330
1F
100
AcDbEntity
  8
0
  6
Continuous
100
AcDbLine
 10
752.0811971475659
 20
84.44318435847042
 30
0.0
 11
752.0811971475659
 21
61.1231843584705
 31
0.0
  0
LINE
  5
1BB8
330
1F
100
AcDbEntity
  8
0
  6
CENTER
 48
25.0
100
AcDbLine
 10
677.3819578617652
 20
72.78318435847045
 30
0.0
 11
785.1798300895142
 21
72.78318435847045
 31
0.0
  0
LINE
  5
1BBA
330
1F
100
AcDbEntity
  8
0
  6
Continuous
100
AcDbLine
 10
747.3811971475661
 20
58.68318435847044
 30
0.0
 11
747.3811971475661
 21
86.88318435847047
 31
0.0
  0
LINE
  5
1BBB
330
1F
100
AcDbEntity
  8
0
  6
Continuous
100
AcDbLine
 10
747.1502569847662
 20
59.71740187527046
 30
0.0
 11
747.1502570397659
 21
87.28318435847048
 31
0.0
  0
LINE
  5
1BBC
330
1F
100
AcDbEntity
  8
0
  6
Continuous
100
AcDbLine
 10
747.3811971475661
 20
58.68318435847044
 30
0.0
 11
746.6920140391662
 21
57.48948419907055
 31
0.0
  0
LINE
  5
1BBD
330
1F
100
AcDbEntity
  8
0
  6
Continuous
100
AcDbLine
 10
740.127567477966
 20
28.33231773947051
 30
0.0
 11
739.309609428566
 21
25.27965674047044
 31
0.0
  0
LINE
  5
1BBE
330
1F
100
AcDbEntity
  8
0
  6
Continuous
100
AcDbLine
 10
740.1411971475661
 20
28.43584535767053
 30
0.0
 11
740.127567477966
 21
28.33231773947051
 31
0.0
  0
LINE
  5
1BBF
330
1F
100
AcDbEntity
  8
0
  6
Continuous
100
AcDbLine
 10
740.1411971475661
 20
29.68318435847044
 30
0.0
 11
740.1411971475661
 21
28.43584535767053
 31
0.0
  0
LINE
  5
1BC0
330
1F
100
AcDbEntity
  8
0
  6
Continuous
100
AcDbLine
 10
740.1411971475661
 20
37.58318435847054
 30
0.0
 11
740.1411971475661
 21
36.58318435847053
 31
0.0
  0
LINE
  5
1BC1
330
1F
100
AcDbEntity
  8
0
  6
Continuous
100
AcDbLine
 10
740.1411971475661
 20
45.4831843584705
 30
0.0
 11
740.1411971475661
 21
44.48318435847051
 31
0.0
  0
LINE
  5
1BC2
330
1F
100
AcDbEntity
  8
0
  6
Continuous
100
AcDbLine
 10
740.1411971475661
 20
55.78318435847045
 30
0.0
 11
740.1411971475661
 21
52.38318435847048
 31
0.0
  0
LINE
  5
1BC3
330
1F
100
AcDbEntity
  8
0
  6
Continuous
100
AcDbLine
 10
768.1811971475661
 20
61.78318435847046
 30
0.0
 11
773.8811971475661
 21
61.78318435847046
 31
0.0
  0
LINE
  5
1BC4
330
1F
100
AcDbEntity
  8
0
  6
Continuous
100
AcDbLine
 10
760.2811971475662
 20
61.78318435847046
 30
0.0
 11
765.9811971475662
 21
61.78318435847046
 31
0.0
  0
LINE
  5
1BC5
330
1F
100
AcDbEntity
  8
0
  6
Continuous
100
AcDbLine
 10
752.3811971475661
 20
61.78318435847046
 30
0.0
 11
758.0811971475659
 21
61.78318435847046
 31
0.0
  0
LINE
  5
1BC6
330
1F
100
AcDbEntity
  8
0
  6
Continuous
100
AcDbLine
 10
694.5811971475659
 20
61.78318435847046
 30
0.0
 11
688.8811971475661
 21
61.78318435847046
 31
0.0
  0
LINE
  5
1BC7
330
1F
100
AcDbEntity
  8
0
  6
Continuous
100
AcDbLine
 10
702.4811971475663
 20
61.78318435847046
 30
0.0
 11
696.7811971475661
 21
61.78318435847046
 31
0.0
  0
LINE
  5
1BC8
330
1F
100
AcDbEntity
  8
0
  6
Continuous
100
AcDbLine
 10
710.3811971475661
 20
61.78318435847046
 30
0.0
 11
704.681197147566
 21
61.78318435847046
 31
0.0
  0
LINE
  5
1BC9
330
1F
100
AcDbEntity
  8
0
  6
Continuous
100
AcDbLine
 10
774.4811971475662
 20
60.82318435847053
 30
0.0
 11
775.7285361485663
 21
60.82318435847053
 31
0.0
  0
LINE
  5
1BCA
330
1F
100
AcDbEntity
  8
0
  6
Continuous
100
AcDbLine
 10
766.5811971475662
 20
60.82318435847053
 30
0.0
 11
767.5811971475662
 21
60.82318435847053
 31
0.0
  0
LINE
  5
1BCB
330
1F
100
AcDbEntity
  8
0
  6
Continuous
100
AcDbLine
 10
758.681197147566
 20
60.82318435847053
 30
0.0
 11
759.681197147566
 21
60.82318435847053
 31
0.0
  0
LINE
  5
1BCC
330
1F
100
AcDbEntity
  8
0
  6
Continuous
100
AcDbLine
 10
748.3811971475661
 20
60.82318435847053
 30
0.0
 11
751.7811971475662
 21
60.82318435847053
 31
0.0
  0
LINE
  5
1BCD
330
1F
100
AcDbEntity
  8
0
  6
Continuous
100
AcDbLine
 10
688.2811971475661
 20
60.82318435847053
 30
0.0
 11
687.0338581465662
 21
60.82318435847053
 31
0.0
  0
LINE
  5
1BCE
330
1F
100
AcDbEntity
  8
0
  6
Continuous
100
AcDbLine
 10
696.181197147566
 20
60.82318435847053
 30
0.0
 11
695.181197147566
 21
60.82318435847053
 31
0.0
  0
LINE
  5
1BCF
330
1F
100
AcDbEntity
  8
0
  6
Continuous
100
AcDbLine
 10
704.0811971475662
 20
60.82318435847053
 30
0.0
 11
703.0811971475659
 21
60.82318435847053
 31
0.0
  0
LINE
  5
1BD0
330
1F
100
AcDbEntity
  8
0
  6
Continuous
100
AcDbLine
 10
714.3811971475661
 20
60.82318435847053
 30
0.0
 11
710.9811971475663
 21
60.82318435847053
 31
0.0
  0
LINE
  5
1BD1
330
1F
100
AcDbEntity
  8
0
  6
Continuous
100
AcDbLine
 10
746.685748880366
 20
57.47863262567051
 30
0.0
 11
745.4811971475662
 21
56.78318435847046
 31
0.0
  0
LINE
  5
1BD2
330
1F
100
AcDbEntity
  8
0
  6
Continuous
100
AcDbLine
 10
739.1811971475661
 20
35.98318435847051
 30
0.0
 11
739.1811971475661
 21
30.28318435847046
 31
0.0
  0
LINE
  5
1BD3
330
1F
100
AcDbEntity
  8
0
  6
Continuous
100
AcDbLine
 10
739.1811971475661
 20
43.88318435847049
 30
0.0
 11
739.1811971475661
 21
38.18318435847043
 31
0.0
  0
LINE
  5
1BD4
330
1F
100
AcDbEntity
  8
0
  6
Continuous
100
AcDbLine
 10
739.1811971475661
 20
51.78318435847046
 30
0.0
 11
739.1811971475661
 21
46.08318435847053
 31
0.0
  0
LINE
  5
1BD5
330
1F
100
AcDbEntity
  8
0
  6
Continuous
100
AcDbLine
 10
718.3153596485659
 20
57.01412265327047
 30
0.0
 11
744.4470343525661
 21
57.01412266507047
 31
0.0
  0
LINE
  5
1BD6
330
1F
100
AcDbEntity
  8
0
  6
Continuous
100
AcDbLine
 10
745.4811971475662
 20
56.78318435847046
 30
0.0
 11
717.2811971475661
 21
56.78318435847046
 31
0.0
  0
LINE
  5
1BD7
330
1F
100
AcDbEntity
  8
0
  6
Continuous
100
AcDbLine
 10
687.0338581465662
 20
60.82318435847053
 30
0.0
 11
686.9303305285662
 21
60.83681402807048
 31
0.0
  0
LINE
  5
1BD8
330
1F
100
AcDbEntity
  8
0
  6
Continuous
100
AcDbLine
 10
775.7285361485663
 20
60.82318435847053
 30
0.0
 11
775.8320637665661
 21
60.83681402807048
 31
0.0
  0
LINE
  5
1BD9
330
1F
100
AcDbEntity
  8
0
  6
CENTER
 48
25.0
100
AcDbLine
 10
731.3811971475661
 20
21.10765920507055
 30
0.0
 11
731.3811971475661
 21
90.3907170480403
 31
0.0
  0
LINE
  5
1BDA
330
1F
100
AcDbEntity
  8
0
  6
Continuous
100
AcDbLine
 10
716.076645414766
 20
57.47863262567051
 30
0.0
 11
717.2811971475661
 21
56.78318435847046
 31
0.0
  0
LINE
  5
1BDB
330
1F
100
AcDbEntity
  8
0
  6
Continuous
100
AcDbLine
 10
686.9303305285662
 20
60.83681402807048
 30
0.0
 11
683.8776695295662
 21
61.65477207747045
 31
0.0
  0
LINE
  5
1BDC
330
1F
100
AcDbEntity
  8
0
  6
Continuous
100
AcDbLine
 10
739.8411971475661
 20
52.08318435847053
 30
0.0
 11
722.9211971475661
 21
52.08318435847053
 31
0.0
  0
LINE
  5
1BDD
330
1F
100
AcDbEntity
  8
0
  6
Continuous
100
AcDbLine
 10
775.8320637665661
 20
60.83681402807048
 30
0.0
 11
778.8847247655662
 21
61.65477207747045
 31
0.0
  0
LINE
  5
1BDE
330
1F
100
AcDbEntity
  8
0
  6
Continuous
100
AcDbLine
 10
739.8411971475661
 20
45.78318435847045
 30
0.0
 11
722.9211971475661
 21
45.78318435847045
 31
0.0
  0
LINE
  5
1BDF
330
1F
100
AcDbEntity
  8
0
  6
Continuous
100
AcDbLine
 10
723.5811971475659
 20
35.98318435847051
 30
0.0
 11
723.5811971475659
 21
30.28318435847046
 31
0.0
  0
LINE
  5
1BE0
330
1F
100
AcDbEntity
  8
0
  6
Continuous
100
AcDbLine
 10
723.5811971475659
 20
43.88318435847049
 30
0.0
 11
723.5811971475659
 21
38.18318435847043
 31
0.0
  0
LINE
  5
1BE1
330
1F
100
AcDbEntity
  8
0
  6
Continuous
100
AcDbLine
 10
723.5811971475659
 20
51.78318435847046
 30
0.0
 11
723.5811971475659
 21
46.08318435847053
 31
0.0
  0
LINE
  5
1BE2
330
1F
100
AcDbEntity
  8
0
  6
Continuous
100
AcDbLine
 10
722.621197147566
 20
29.68318435847044
 30
0.0
 11
722.621197147566
 21
28.43584535767053
 31
0.0
  0
LINE
  5
1BE3
330
1F
100
AcDbEntity
  8
0
  6
Continuous
100
AcDbLine
 10
722.621197147566
 20
37.58318435847054
 30
0.0
 11
722.621197147566
 21
36.58318435847053
 31
0.0
  0
LINE
  5
1BE4
330
1F
100
AcDbEntity
  8
0
  6
Continuous
100
AcDbLine
 10
722.621197147566
 20
45.4831843584705
 30
0.0
 11
722.621197147566
 21
44.48318435847051
 31
0.0
  0
LINE
  5
1BE5
330
1F
100
AcDbEntity
  8
0
  6
Continuous
100
AcDbLine
 10
722.621197147566
 20
55.78318435847045
 30
0.0
 11
722.621197147566
 21
52.38318435847048
 31
0.0
  0
LINE
  5
1BE6
330
1F
100
AcDbEntity
  8
0
  6
Continuous
100
AcDbLine
 10
722.621197147566
 20
28.43584535767053
 30
0.0
 11
722.6348268169661
 21
28.33231773947051
 31
0.0
  0
LINE
  5
1BE7
330
1F
100
AcDbEntity
  8
0
  6
Continuous
100
AcDbLine
 10
716.0703802531662
 20
57.4894842040705
 30
0.0
 11
715.3811971475661
 21
58.68318435847044
 31
0.0
  0
LINE
  5
1BE8
330
1F
100
AcDbEntity
  8
0
  6
Continuous
100
AcDbLine
 10
722.9211971475661
 20
44.18318435847043
 30
0.0
 11
739.8411971475661
 21
44.18318435847043
 31
0.0
  0
LINE
  5
1BE9
330
1F
100
AcDbEntity
  8
0
  6
Continuous
100
AcDbLine
 10
722.6348268169661
 20
28.33231773947051
 30
0.0
 11
723.4527848665663
 21
25.27965674047044
 31
0.0
  0
LINE
  5
1BEA
330
1F
100
AcDbEntity
  8
0
  6
Continuous
100
AcDbLine
 10
739.8411971475661
 20
37.88318435847049
 30
0.0
 11
722.9211971475661
 21
37.88318435847049
 31
0.0
  0
LINE
  5
1BEB
330
1F
100
AcDbEntity
  8
0
  6
Continuous
100
AcDbLine
 10
715.612137280766
 20
59.71740141467051
 30
0.0
 11
715.6121372551662
 21
87.28318435847048
 31
0.0
  0
LINE
  5
1BEC
330
1F
100
AcDbEntity
  8
0
  6
Continuous
100
AcDbLine
 10
715.3811971475661
 20
58.68318435847044
 30
0.0
 11
715.3811971475661
 21
86.88318435847047
 31
0.0
  0
LINE
  5
1BED
330
1F
100
AcDbEntity
  8
0
  6
Continuous
100
AcDbLine
 10
739.8411971475661
 20
36.28318435847047
 30
0.0
 11
722.9211971475661
 21
36.28318435847047
 31
0.0
  0
LINE
  5
1BEE
330
1F
100
AcDbEntity
  8
0
  6
Continuous
100
AcDbLine
 10
710.6811971475661
 20
61.1231843584705
 30
0.0
 11
710.6811971475661
 21
84.44318435847042
 31
0.0
  0
LINE
  5
1BEF
330
1F
100
AcDbEntity
  8
0
  6
Continuous
100
AcDbLine
 10
739.8411971475661
 20
29.98318435847051
 30
0.0
 11
722.9211971475661
 21
29.98318435847051
 31
0.0
  0
LINE
  5
1BF0
330
1F
100
AcDbEntity
  8
0
  6
Continuous
100
AcDbLine
 10
715.6121372551662
 20
87.28318435847048
 30
0.0
 11
715.3811971475661
 21
86.88318435847047
 31
0.0
  0
LINE
  5
1BF1
330
1F
100
AcDbEntity
  8
0
  6
Continuous
100
AcDbLine
 10
704.3811971475661
 20
61.1231843584705
 30
0.0
 11
704.3811971475661
 21
84.44318435847042
 31
0.0
  0
LINE
  5
1BF2
330
1F
100
AcDbEntity
  8
0
  6
Continuous
100
AcDbLine
 10
702.7811971475662
 20
84.44318435847042
 30
0.0
 11
702.7811971475662
 21
61.1231843584705
 31
0.0
  0
LINE
  5
1BF3
330
1F
100
AcDbEntity
  8
0
  6
Continuous
100
AcDbLine
 10
738.9232390981661
 20
24.98318435847051
 30
0.0
 11
723.8391551969661
 21
24.98318435847051
 31
0.0
  0
LINE
  5
1BF4
330
1F
100
AcDbEntity
  8
0
  6
Continuous
100
AcDbLine
 10
696.4811971475662
 20
61.1231843584705
 30
0.0
 11
696.4811971475662
 21
84.44318435847042
 31
0.0
  0
LINE
  5
1BF5
330
1F
100
AcDbEntity
  8
0
  6
Continuous
100
AcDbLine
 10
694.8811971475661
 20
84.44318435847042
 30
0.0
 11
694.8811971475661
 21
61.1231843584705
 31
0.0
  0
LINE
  5
1BF6
330
1F
100
AcDbEntity
  8
0
  6
Continuous
100
AcDbLine
 10
688.5811971475662
 20
61.1231843584705
 30
0.0
 11
688.5811971475662
 21
84.44318435847042
 31
0.0
  0
LINE
  5
1BF7
330
1F
100
AcDbEntity
  8
0
  6
Continuous
100
AcDbLine
 10
683.5811971475662
 20
83.52522630907055
 30
0.0
 11
683.5811971475662
 21
62.04114240807047
 31
0.0
  0
VIEWPORT
  5
86E
330
50
100
AcDbEntity
 67
     1
  8
0
100
AcDbViewport
 10
133.3499908447265
 20
101.5999970436096
 30
0.0
 40
467.3964992866515
 41
228.4221935424805
 68
     1
 69
     1
 12
133.3499908447265
 22
101.5999970436096
 13
0.0
 23
0.0
 14
10.0
 24
10.0
 15
10.0
 25
10.0
 16
0.0
 26
0.0
 36
1.0
 17
0.0
 27
0.0
 37
0.0
 42
50.0
 43
0.0
 44
0.0
 45
228.4221935424805
 50
0.0
 51
0.0
 72
  1000
 90
    32800
  1

281
     0
 71
     1
 74
     0
110
0.0
120
0.0
130
0.0
111
1.0
121
0.0
131
0.0
112
0.0
122
1.0
132
0.0
 79
     0
146
0.0
  0
VIEWPORT
  5
870
330
50
100
AcDbEntity
 67
     1
  8
0
100
AcDbViewport
 10
133.3499939441681
 20
101.5999939441681
 30
0.0
 40
213.3599903106689
 41
162.5599903106689
 68
     2
 69
     2
 12
232.2178593412737
 22
236.3528153148605
 13
0.0
 23
0.0
 14
10.0
 24
10.0
 15
10.0
 25
10.0
 16
0.0
 26
0.0
 36
1.0
 17
0.0
 27
0.0
 37
0.0
 42
50.0
 43
0.0
 44
0.0
 45
372.3835153371155
 50
0.0
 51
0.0
 72
  1000
 90
    32864
  1

281
     0
 71
     1
 74
     0
110
0.0
120
0.0
130
0.0
111
1.0
121
0.0
131
0.0
112
0.0
122
1.0
132
0.0
 79
     0
146
0.0
  0
ENDSEC
  0
SECTION
  2
OBJECTS
  0
DICTIONARY
  5
C
330
0
100
AcDbDictionary
281
     1
  3
ACAD_COLOR
350
6B
  3
ACAD_GROUP
350
D
  3
ACAD_LAYOUT
350
1A
  3
ACAD_MATERIAL
350
6A
  3
ACAD_MLINESTYLE
350
17
  3
ACAD_PLOTSETTINGS
350
19
  3
ACAD_PLOTSTYLENAME
350
E
  3
ACDBHEADERROUNDTRIPXREC
350
479B
  3
AcDbVariableDictionary
350
5E
  3
DWGPROPS
350
479E
  0
DICTIONARY
  5
6B
102
{ACAD_REACTORS
330
C
102
}
330
C
100
AcDbDictionary
281
     1
  0
DICTIONARY
  5
D
102
{ACAD_REACTORS
330
C
102
}
330
C
100
AcDbDictionary
281
     1
  0
DICTIONARY
  5
1A
102
{ACAD_REACTORS
330
C
102
}
330
C
100
AcDbDictionary
281
     1
  3
Layout1
350
51
  3
Layout2
350
56
  3
Model
350
22
  0
DICTIONARY
  5
6A
102
{ACAD_REACTORS
330
C
102
}
330
C
100
AcDbDictionary
281
     1
  0
DICTIONARY
  5
17
102
{ACAD_REACTORS
330
C
102
}
330
C
100
AcDbDictionary
281
     1
  3
Standard
350
18
  0
DICTIONARY
  5
19
102
{ACAD_REACTORS
330
C
102
}
330
C
100
AcDbDictionary
281
     1
  0
ACDBDICTIONARYWDFLT
  5
E
102
{ACAD_REACTORS
330
C
102
}
330
C
100
AcDbDictionary
281
     1
  3
Normal
350
F
100
AcDbDictionaryWithDefault
340
F
  0
DICTIONARY
  5
479B
102
{ACAD_REACTORS
330
C
102
}
330
C
100
AcDbDictionary
281
     1
  3
COLORDICT
350
479C
  3
MATERIALDICT
350
479D
  0
DICTIONARY
  5
5E
102
{ACAD_REACTORS
330
C
102
}
330
C
100
AcDbDictionary
281
     1
  3
DIMASSOC
350
5F
  3
HIDETEXT
350
63
  0
XRECORD
  5
479E
102
{ACAD_REACTORS
330
C
102
}
330
C
100
AcDbXrecord
280
     1
  1
DWGPROPS COOKIE
  2

  3

  4

  6

  7

  8

  9

300
=
301
=
302
=
303
=
304
=
305
=
306
=
307
=
308
=
309
=
 40
0.0
 41
2453308.654962373
 42
2453691.648205613
  1

 90
        0
  0
LAYOUT
  5
51
102
{ACAD_REACTORS
330
1A
102
}
330
1A
100
AcDbPlotSettings
  1

  2
none_device
  4
Letter_(8.50_x_11.00_Inches)
  6

 40
6.349999904632567
 41
6.349999904632567
 42
6.350006103515625
 43
6.350006103515625
 44
215.8999938964844
 45
279.3999938964844
 46
0.0
 47
0.0
 48
0.0
 49
0.0
140
0.0
141
0.0
142
1.0
143
1.0
 70
   688
 72
     1
 73
     1
 74
     5
  7

 75
    16
147
1.0
148
0.0
149
0.0
100
AcDbLayout
  1
Layout1
 70
     1
 71
     1
 10
-6.350006103515625
 20
-6.349999904632567
 11
273.0499877929688
 21
209.5499939918518
 12
0.0
 22
0.0
 32
0.0
 14
26.66999878883363
 24
20.31999878883363
 34
0.0
 15
240.0299890995026
 25
182.8799890995025
 35
0.0
146
0.0
 13
0.0
 23
0.0
 33
0.0
 16
1.0
 26
0.0
 36
0.0
 17
0.0
 27
1.0
 37
0.0
 76
     0
330
50
331
86E
  0
LAYOUT
  5
56
102
{ACAD_REACTORS
330
1A
102
}
330
1A
100
AcDbPlotSettings
  1

  2
None
  4

  6

 40
0.0
 41
0.0
 42
0.0
 43
0.0
 44
0.0
 45
0.0
 46
0.0
 47
0.0
 48
0.0
 49
0.0
140
0.0
141
0.0
142
1.0
143
1.0
 70
   688
 72
     0
 73
     0
 74
     5
  7

 75
    16
147
1.0
148
0.0
149
0.0
100
AcDbLayout
  1
Layout2
 70
     1
 71
     2
 10
0.0
 20
0.0
 11
12.0
 21
9.0
 12
0.0
 22
0.0
 32
0.0
 14
0.0
 24
0.0
 34
0.0
 15
0.0
 25
0.0
 35
0.0
146
0.0
 13
0.0
 23
0.0
 33
0.0
 16
1.0
 26
0.0
 36
0.0
 17
0.0
 27
1.0
 37
0.0
 76
     0
330
55
  0
LAYOUT
  5
22
102
{ACAD_REACTORS
330
1A
102
}
330
1A
100
AcDbPlotSettings
  1

  2
\\alderaan\HP LaserJet 5Si/5Si MX PS Tecnico
  4
A3
  6

 40
5.746749877929687
 41
5.704421997070312
 42
5.746734619140625
 43
5.74676513671875
 44
297.0530090332031
 45
420.1583251953125
 46
10.34
 47
0.0
 48
-69.22767503670229
 49
-366.6080453569757
140
1188.996887231578
141
448.8355352667507
142
1.0
143
3.078548048453406
 70
 11956
 72
     1
 73
     1
 74
     4
  7

 75
     0
147
0.3248284529787921
148
69.22767503670229
149
366.6080453569757
100
AcDbLayout
  1
Model
 70
     1
 71
     0
 10
0.0
 20
0.0
 11
12.0
 21
9.0
 12
0.0
 22
0.0
 32
0.0
 14
0.0
 24
0.0
 34
0.0
 15
0.0
 25
0.0
 35
0.0
146
0.0
 13
0.0
 23
0.0
 33
0.0
 16
1.0
 26
0.0
 36
0.0
 17
0.0
 27
1.0
 37
0.0
 76
     0
330
1F
  0
MLINESTYLE
  5
18
102
{ACAD_REACTORS
330
17
102
}
330
17
100
AcDbMlineStyle
  2
STANDARD
 70
     0
  3

 62
   256
 51
90.0
 52
90.0
 71
     2
 49
0.5
 62
   256
  6
BYLAYER
 49
-0.5
 62
   256
  6
BYLAYER
  0
ACDBPLACEHOLDER
  5
F
102
{ACAD_REACTORS
330
E
102
}
330
E
  0
XRECORD
  5
479C
102
{ACAD_REACTORS
330
479B
102
}
330
479B
100
AcDbXrecord
280
     1
340
6B
  0
XRECORD
  5
479D
102
{ACAD_REACTORS
330
479B
102
}
330
479B
100
AcDbXrecord
280
     1
340
6A
  0
DICTIONARYVAR
  5
5F
102
{ACAD_REACTORS
330
5E
102
}
330
5E
100
DictionaryVariables
280
     0
  1
2
  0
DICTIONARYVAR
  5
63
102
{ACAD_REACTORS
330
5E
102
}
330
5E
100
DictionaryVariables
280
     0
  1
1
  0
ENDSEC
  0
EOF
