  0
SECTION
  2
HEADER
  9
$ACADVER
  1
AC1015
  9
$ACADMAINTVER
 70
     6
  9
$DWGCODEPAGE
  3
ANSI_1252
  9
$INSBASE
 10
0.0
 20
0.0
 30
0.0
  9
$EXTMIN
 10
8.643673307720746
 20
-254.9798715082157
 30
-0.0008605300456423
  9
$EXTMAX
 10
142.3939595366419
 20
-179.1496321923377
 30
0.000573774241424
  9
$LIMMIN
 10
0.0
 20
0.0
  9
$LIMMAX
 10
420.0
 20
297.0
  9
$ORTHOMODE
 70
     1
  9
$REGENMODE
 70
     1
  9
$FILLMODE
 70
     1
  9
$QTEXTMODE
 70
     0
  9
$MIRRTEXT
 70
     0
  9
$LTSCALE
 40
1.0
  9
$ATTMODE
 70
     1
  9
$TEXTSIZE
 40
2.5
  9
$TRACEWID
 40
1.0
  9
$TEXTSTYLE
  7
Standard
  9
$CLAYER
  8
0
  9
$CELTYPE
  6
ByLayer
  9
$CECOLOR
 62
   256
  9
$CELTSCALE
 40
1.0
  9
$DISPSILH
 70
     0
  9
$DIMSCALE
 40
1.0
  9
$DIMASZ
 40
2.5
  9
$DIMEXO
 40
0.625
  9
$DIMDLI
 40
3.75
  9
$DIMRND
 40
0.0
  9
$DIMDLE
 40
0.0
  9
$DIMEXE
 40
1.25
  9
$DIMTP
 40
0.0
  9
$DIMTM
 40
0.0
  9
$DIMTXT
 40
2.5
  9
$DIMCEN
 40
2.5
  9
$DIMTSZ
 40
0.0
  9
$DIMTOL
 70
     0
  9
$DIMLIM
 70
     0
  9
$DIMTIH
 70
     0
  9
$DIMTOH
 70
     0
  9
$DIMSE1
 70
     0
  9
$DIMSE2
 70
     0
  9
$DIMTAD
 70
     1
  9
$DIMZIN
 70
     8
  9
$DIMBLK
  1

  9
$DIMASO
 70
     1
  9
$DIMSHO
 70
     1
  9
$DIMPOST
  1

  9
$DIMAPOST
  1

  9
$DIMALT
 70
     0
  9
$DIMALTD
 70
     3
  9
$DIMALTF
 40
0.03937007874016
  9
$DIMLFAC
 40
1.0
  9
$DIMTOFL
 70
     1
  9
$DIMTVP
 40
0.0
  9
$DIMTIX
 70
     0
  9
$DIMSOXD
 70
     0
  9
$DIMSAH
 70
     0
  9
$DIMBLK1
  1

  9
$DIMBLK2
  1

  9
$DIMSTYLE
  2
ISO-25
  9
$DIMCLRD
 70
     0
  9
$DIMCLRE
 70
     0
  9
$DIMCLRT
 70
     0
  9
$DIMTFAC
 40
1.0
  9
$DIMGAP
 40
0.625
  9
$DIMJUST
 70
     0
  9
$DIMSD1
 70
     0
  9
$DIMSD2
 70
     0
  9
$DIMTOLJ
 70
     0
  9
$DIMTZIN
 70
     8
  9
$DIMALTZ
 70
     0
  9
$DIMALTTZ
 70
     0
  9
$DIMUPT
 70
     0
  9
$DIMDEC
 70
     2
  9
$DIMTDEC
 70
     2
  9
$DIMALTU
 70
     2
  9
$DIMALTTD
 70
     3
  9
$DIMTXSTY
  7
Standard
  9
$DIMAUNIT
 70
     0
  9
$DIMADEC
 70
     0
  9
$DIMALTRND
 40
0.0
  9
$DIMAZIN
 70
     0
  9
$DIMDSEP
 70
    44
  9
$DIMATFIT
 70
     3
  9
$DIMFRAC
 70
     0
  9
$DIMLDRBLK
  1

  9
$DIMLUNIT
 70
     2
  9
$DIMLWD
 70
    -2
  9
$DIMLWE
 70
    -2
  9
$DIMTMOVE
 70
     0
  9
$LUNITS
 70
     2
  9
$LUPREC
 70
     4
  9
$SKETCHINC
 40
1.0
  9
$FILLETRAD
 40
0.0
  9
$AUNITS
 70
     0
  9
$AUPREC
 70
     0
  9
$MENU
  1
.
  9
$ELEVATION
 40
0.0
  9
$PELEVATION
 40
0.0
  9
$THICKNESS
 40
0.0
  9
$LIMCHECK
 70
     0
  9
$CHAMFERA
 40
0.0
  9
$CHAMFERB
 40
0.0
  9
$CHAMFERC
 40
0.0
  9
$CHAMFERD
 40
0.0
  9
$SKPOLY
 70
     0
  9
$TDCREATE
 40
2453308.69662904
  9
$TDUCREATE
 40
2453308.654962373
  9
$TDUPDATE
 40
2453691.689622141
  9
$TDUUPDATE
 40
2453691.647955474
  9
$TDINDWG
 40
1.1033311343
  9
$TDUSRTIMER
 40
1.1033308333
  9
$USRTIMER
 70
     1
  9
$ANGBASE
 50
0.0
  9
$ANGDIR
 70
     0
  9
$PDMODE
 70
     0
  9
$PDSIZE
 40
0.0
  9
$PLINEWID
 40
0.0
  9
$SPLFRAME
 70
     0
  9
$SPLINETYPE
 70
     6
  9
$SPLINESEGS
 70
     8
  9
$HANDSEED
  5
479F
  9
$SURFTAB1
 70
     6
  9
$SURFTAB2
 70
     6
  9
$SURFTYPE
 70
     6
  9
$SURFU
 70
     6
  9
$SURFV
 70
     6
  9
$UCSBASE
  2

  9
$UCSNAME
  2

  9
$UCSORG
 10
0.0
 20
0.0
 30
0.0
  9
$UCSXDIR
 10
1.0
 20
0.0
 30
0.0
  9
$UCSYDIR
 10
0.0
 20
1.0
 30
0.0
  9
$UCSORTHOREF
  2

  9
$UCSORTHOVIEW
 70
     0
  9
$UCSORGTOP
 10
0.0
 20
0.0
 30
0.0
  9
$UCSORGBOTTOM
 10
0.0
 20
0.0
 30
0.0
  9
$UCSORGLEFT
 10
0.0
 20
0.0
 30
0.0
  9
$UCSORGRIGHT
 10
0.0
 20
0.0
 30
0.0
  9
$UCSORGFRONT
 10
0.0
 20
0.0
 30
0.0
  9
$UCSORGBACK
 10
0.0
 20
0.0
 30
0.0
  9
$PUCSBASE
  2

  9
$PUCSNAME
  2

  9
$PUCSORG
 10
0.0
 20
0.0
 30
0.0
  9
$PUCSXDIR
 10
1.0
 20
0.0
 30
0.0
  9
$PUCSYDIR
 10
0.0
 20
1.0
 30
0.0
  9
$PUCSORTHOREF
  2

  9
$PUCSORTHOVIEW
 70
     0
  9
$PUCSORGTOP
 10
0.0
 20
0.0
 30
0.0
  9
$PUCSORGBOTTOM
 10
0.0
 20
0.0
 30
0.0
  9
$PUCSORGLEFT
 10
0.0
 20
0.0
 30
0.0
  9
$PUCSORGRIGHT
 10
0.0
 20
0.0
 30
0.0
  9
$PUCSORGFRONT
 10
0.0
 20
0.0
 30
0.0
  9
$PUCSORGBACK
 10
0.0
 20
0.0
 30
0.0
  9
$USERI1
 70
     0
  9
$USERI2
 70
     0
  9
$USERI3
 70
     0
  9
$USERI4
 70
     0
  9
$USERI5
 70
     0
  9
$USERR1
 40
0.0
  9
$USERR2
 40
0.0
  9
$USERR3
 40
0.0
  9
$USERR4
 40
0.0
  9
$USERR5
 40
0.0
  9
$WORLDVIEW
 70
     1
  9
$SHADEDGE
 70
     3
  9
$SHADEDIF
 70
    70
  9
$TILEMODE
 70
     1
  9
$MAXACTVP
 70
    64
  9
$PINSBASE
 10
0.0
 20
0.0
 30
0.0
  9
$PLIMCHECK
 70
     0
  9
$PEXTMIN
 10
26.66999878883363
 20
20.31999878883363
 30
0.0
  9
$PEXTMAX
 10
240.0299890995026
 20
182.8799890995025
 30
0.0
  9
$PLIMMIN
 10
-6.350006103515625
 20
-6.349999904632567
  9
$PLIMMAX
 10
273.0499877929688
 20
209.5499939918518
  9
$UNITMODE
 70
     0
  9
$VISRETAIN
 70
     1
  9
$PLINEGEN
 70
     0
  9
$PSLTSCALE
 70
     1
  9
$TREEDEPTH
 70
  3020
  9
$CMLSTYLE
  2
Standard
  9
$CMLJUST
 70
     0
  9
$CMLSCALE
 40
20.0
  9
$PROXYGRAPHICS
 70
     1
  9
$MEASUREMENT
 70
     1
  9
$CELWEIGHT
370
    -1
  9
$ENDCAPS
280
     0
  9
$JOINSTYLE
280
     0
  9
$LWDISPLAY
290
     0
  9
$INSUNITS
 70
     4
  9
$HYPERLINKBASE
  1

  9
$STYLESHEET
  1

  9
$XEDIT
290
     1
  9
$CEPSNTYPE
380
     0
  9
$PSTYLEMODE
290
     1
  9
$FINGERPRINTGUID
  2
{FDEAD578-A652-11D2-9A35-0060089B3A3F}
  9
$VERSIONGUID
  2
{E69951D7-5EBA-416B-8DD0-31ECE46A9FF2}
  9
$EXTNAMES
290
     1
  9
$PSVPSCALE
 40
0.0
  9
$OLESTARTUP
290
     0
  0
ENDSEC
  0
SECTION
  2
CLASSES
  0
CLASS
  1
ACDBDICTIONARYWDFLT
  2
AcDbDictionaryWithDefault
  3
ObjectDBX Classes
 90
        0
280
     0
281
     0
  0
CLASS
  1
DICTIONARYVAR
  2
AcDbDictionaryVar
  3
ObjectDBX Classes
 90
        0
280
     0
281
     0
  0
CLASS
  1
DIMASSOC
  2
AcDbDimAssoc
  3
"AcDbDimAssoc|Product Desc:     AcDim ARX App For Dimension|Company:          Autodesk, Inc.|WEB Address:      www.autodesk.com"
 90
        0
280
     0
281
     0
  0
CLASS
  1
ACDBPLACEHOLDER
  2
AcDbPlaceHolder
  3
ObjectDBX Classes
 90
        0
280
     0
281
     0
  0
CLASS
  1
LAYOUT
  2
AcDbLayout
  3
ObjectDBX Classes
 90
        0
280
     0
281
     0
  0
ENDSEC
  0
SECTION
  2
TABLES
  0
TABLE
  2
VPORT
  5
8
330
0
100
AcDbSymbolTable
 70
     1
  0
VPORT
  5
478C
330
8
100
AcDbSymbolTableRecord
100
AcDbViewportTableRecord
  2
*Active
 70
     0
 10
0.0
 20
0.0
 11
1.0
 21
1.0
 12
75.51881642218132
 22
-217.0647518502767
 13
0.0
 23
0.0
 14
10.0
 24
10.0
 15
10.0
 25
10.0
 16
0.0
 26
0.0
 36
1.0
 17
0.0
 27
0.0
 37
0.0
 40
84.00051415033775
 41
1.6
 42
50.0
 43
0.0
 44
0.0
 50
0.0
 51
0.0
 71
     0
 72
  1000
 73
     1
 74
     3
 75
     0
 76
     0
 77
     0
 78
     0
281
     0
 65
     1
110
0.0
120
0.0
130
0.0
111
1.0
121
0.0
131
0.0
112
0.0
122
1.0
132
0.0
 79
     0
146
0.0
  0
ENDTAB
  0
TABLE
  2
LTYPE
  5
5
330
0
100
AcDbSymbolTable
 70
     2
  0
LTYPE
  5
14
330
5
100
AcDbSymbolTableRecord
100
AcDbLinetypeTableRecord
  2
ByBlock
 70
     0
  3

 72
    65
 73
     0
 40
0.0
  0
LTYPE
  5
15
330
5
100
AcDbSymbolTableRecord
100
AcDbLinetypeTableRecord
  2
ByLayer
 70
     0
  3

 72
    65
 73
     0
 40
0.0
  0
LTYPE
  5
16
330
5
100
AcDbSymbolTableRecord
100
AcDbLinetypeTableRecord
  2
Continuous
 70
     0
  3
Solid line
 72
    65
 73
     0
 40
0.0
  0
LTYPE
  5
8B
330
5
100
AcDbSymbolTableRecord
100
AcDbLinetypeTableRecord
  2
CENTER
 70
     0
  3
____ _ ____ _ ____ _ ____ _ ____ _ ____ _ ____
 72
    65
 73
     4
 40
0.6
 49
0.375
 74
     0
 49
-0.075
 74
     0
 49
0.075
 74
     0
 49
-0.075
 74
     0
  0
ENDTAB
  0
TABLE
  2
LAYER
  5
2
330
0
100
AcDbSymbolTable
 70
     2
  0
LAYER
  5
10
330
2
100
AcDbSymbolTableRecord
100
AcDbLayerTableRecord
  2
0
 70
     0
 62
     7
  6
Continuous
370
    -3
390
F
  0
LAYER
  5
396
330
2
100
AcDbSymbolTableRecord
100
AcDbLayerTableRecord
  2
Defpoints
 70
     0
 62
     7
  6
Continuous
290
     0
370
    -3
390
F
  0
ENDTAB
  0
TABLE
  2
STYLE
  5
3
330
0
100
AcDbSymbolTable
 70
     1
  0
STYLE
  5
11
330
3
100
AcDbSymbolTableRecord
100
AcDbTextStyleTableRecord
  2
Standard
 70
     0
 40
0.0
 41
1.0
 50
0.0
 71
     0
 42
2.5
  3
verdana.TTF
  4

1001
ACAD
1000
Verdana
1071
       34
  0
ENDTAB
  0
TABLE
  2
VIEW
  5
6
330
0
100
AcDbSymbolTable
 70
     0
  0
ENDTAB
  0
TABLE
  2
UCS
  5
7
330
0
100
AcDbSymbolTable
 70
     0
  0
ENDTAB
  0
TABLE
  2
APPID
  5
9
330
0
100
AcDbSymbolTable
 70
     1
  0
APPID
  5
12
330
9
100
AcDbSymbolTableRecord
100
AcDbRegAppTableRecord
  2
ACAD
 70
     0
  0
ENDTAB
  0
TABLE
  2
DIMSTYLE
  5
A
330
0
100
AcDbSymbolTable
 70
     2
100
AcDbDimStyleTable
  0
DIMSTYLE
105
27
330
A
100
AcDbSymbolTableRecord
100
AcDbDimStyleTableRecord
  2
ISO-25
 70
     0
 41
2.5
 42
0.625
 43
3.75
 44
1.25
 73
     0
 74
     0
 77
     1
 78
     8
140
2.5
141
2.5
143
0.03937007874016
147
0.625
171
     3
172
     1
271
     2
272
     2
274
     3
278
    44
283
     0
284
     8
340
11
  0
DIMSTYLE
105
8D
330
A
100
AcDbSymbolTableRecord
100
AcDbDimStyleTableRecord
  2
STANDARD
 70
     0
 41
3.0
 47
0.01
 48
0.01
 71
     1
 73
     0
 74
     0
 77
     1
 78
     8
140
1.5
271
     2
272
     2
284
     8
340
11
  0
ENDTAB
  0
TABLE
  2
BLOCK_RECORD
  5
1
330
0
100
AcDbSymbolTable
 70
     1
  0
BLOCK_RECORD
  5
1F
330
1
100
AcDbSymbolTableRecord
100
AcDbBlockTableRecord
  2
*Model_Space
340
22
  0
BLOCK_RECORD
  5
50
330
1
100
AcDbSymbolTableRecord
100
AcDbBlockTableRecord
  2
*Paper_Space
340
51
  0
BLOCK_RECORD
  5
55
330
1
100
AcDbSymbolTableRecord
100
AcDbBlockTableRecord
  2
*Paper_Space0
340
56
  0
ENDTAB
  0
ENDSEC
  0
SECTION
  2
BLOCKS
  0
BLOCK
  5
20
330
1F
100
AcDbEntity
  8
0
100
AcDbBlockBegin
  2
*Model_Space
 70
     0
 71
     0
 10
0.0
 20
0.0
 30
0.0
  3
*Model_Space
  1

  0
ENDBLK
  5
21
330
1F
100
AcDbEntity
  8
0
100
AcDbBlockEnd
  0
BLOCK
  5
52
330
50
100
AcDbEntity
 67
     1
  8
0
100
AcDbBlockBegin
  2
*Paper_Space
 70
     0
 71
     0
 10
0.0
 20
0.0
 30
0.0
  3
*Paper_Space
  1

  0
ENDBLK
  5
53
330
50
100
AcDbEntity
 67
     1
  8
0
100
AcDbBlockEnd
  0
BLOCK
  5
57
330
55
100
AcDbEntity
  8
0
100
AcDbBlockBegin
  2
*Paper_Space0
 70
     0
 71
     0
 10
0.0
 20
0.0
 30
0.0
  3
*Paper_Space0
  1

  0
ENDBLK
  5
58
330
55
100
AcDbEntity
  8
0
100
AcDbBlockEnd
  0
ENDSEC
  0
SECTION
  2
ENTITIES
  0
SPLINE
  5
218C
330
1F
100
AcDbEntity
  8
0
  6
Continuous
100
AcDbSpline
210
0.0
220
0.0
230
1.0
 70
     8
 71
     3
 72
    17
 73
    13
 74
    11
 42
0.0000000001
 43
0.0000000001
 44
0.0000000001
 12
0.8798384489676296
 22
-0.4752728729038044
 32
0.0
 13
-3.144315708760000E-5
 23
-0.999999999505664
 33
0.0
 40
0.0
 40
0.0
 40
0.0
 40
0.0
 40
0.8032844762463038
 40
1.546759634414347
 40
2.24804900147347
 40
2.904451105195731
 40
3.515200448742123
 40
4.082829558886755
 40
4.611835967047854
 40
5.108198707571932
 40
5.579126421161527
 40
6.033395421321716
 40
6.033395421321716
 40
6.033395421321716
 40
6.033395421321716
 10
90.98878830844566
 20
-218.3314652488926
 30
0.0
 10
91.22437516433244
 20
-218.4587250224875
 30
0.0
 10
91.66024065995927
 20
-218.7385020402866
 30
0.0
 10
92.22748315870939
 20
-219.2316038652955
 30
0.0
 10
92.69121764444131
 20
-219.7591437862654
 30
0.0
 10
93.0606100121539
 20
-220.3033238747699
 30
0.0
 10
93.34447335010357
 20
-220.8464381113774
 30
0.0
 10
93.5541666430118
 20
-221.3765503883319
 30
0.0
 10
93.70158035387136
 20
-221.8874450771945
 30
0.0
 10
93.79747064517082
 20
-222.3775090620672
 30
0.0
 10
93.85061228494209
 20
-222.8488340640302
 30
0.0
 10
93.86189549726284
 20
-223.157354241114
 30
0.0
 10
93.86189073604565
 20
-223.3087772410925
 30
0.0
 11
90.98878830844566
 21
-218.3314652488926
 31
0.0
 11
91.66480204204564
 21
-218.7653677514926
 31
0.0
 11
92.22602895864564
 21
-219.2529943082926
 31
0.0
 11
92.6891539138456
 21
-219.7796080682925
 31
0.0
 11
93.05797497644564
 21
-220.3225949424926
 31
0.0
 11
93.34104763544563
 21
-220.8637831078926
 31
0.0
 11
93.55001442764566
 21
-221.3915479100926
 31
0.0
 11
93.69683552204563
 21
-221.8997716266926
 31
0.0
 11
93.79229934464559
 21
-222.3868677452926
 31
0.0
 11
93.84519758004566
 21
-222.8548150586926
 31
0.0
 11
93.86189073604565
 21
-223.3087772410925
 31
0.0
  0
SPLINE
  5
218D
330
1F
100
AcDbEntity
  8
0
  6
Continuous
100
AcDbSpline
210
0.0
220
0.0
230
1.0
 70
     8
 71
     3
 72
    12
 73
     8
 74
     6
 42
0.0000000001
 43
0.0000000001
 44
0.0000000001
 12
-0.7532060892407626
 22
0.6577846054223498
 32
0.0
 13
0.3219691126665003
 23
0.946750173218229
 33
0.0
 40
0.0
 40
0.0
 40
0.0
 40
0.0
 40
0.3928630383601561
 40
0.8578345291502565
 40
1.406898167709359
 40
2.032232355330311
 40
2.714020336207719
 40
2.714020336207719
 40
2.714020336207719
 40
2.714020336207719
 10
91.14045156084566
 20
-220.9180402944926
 30
0.0
 10
91.0418159499355
 20
-220.8319005416017
 30
0.0
 10
90.87236593473759
 20
-220.5903908416869
 30
0.0
 10
90.74471904966696
 20
-220.1336370568018
 30
0.0
 10
90.7204747686811
 20
-219.5841407015147
 30
0.0
 10
90.80001071107648
 20
-218.9682179738364
 30
0.0
 10
90.91560707736906
 20
-218.5466262112905
 30
0.0
 10
90.98877863444565
 20
-218.3314652482926
 30
0.0
 11
91.14045156084566
 21
-220.9180402944926
 31
0.0
 11
90.90582564784567
 21
-220.6029338872926
 31
0.0
 11
90.76853965304564
 21
-220.1586917878926
 31
0.0
 11
90.73639851484566
 21
-219.6105696970926
 31
0.0
 11
90.81122956344566
 21
-218.9897290086926
 31
0.0
 11
90.98877863444565
 21
-218.3314652482926
 31
0.0
  0
SPLINE
  5
218E
330
1F
100
AcDbEntity
  8
0
  6
Continuous
100
AcDbSpline
210
0.0
220
0.0
230
1.0
 70
     8
 71
     3
 72
    17
 73
    13
 74
    11
 42
0.0000000001
 43
0.0000000001
 44
0.0000000001
 12
0.928829797510941
 22
-0.3705066898934273
 32
0.0
 13
-0.0075082356311185
 23
-0.9999718128015948
 33
0.0
 40
0.0
 40
0.0
 40
0.0
 40
0.0
 40
0.4462260572478074
 40
0.8484122320086172
 40
1.218489963992586
 40
1.557474719525291
 40
1.867673220657539
 40
2.15278399798886
 40
2.416919169553226
 40
2.664366099828868
 40
2.89960767714055
 40
3.127713294320404
 40
3.127713294320404
 40
3.127713294320404
 40
3.127713294320404
 10
91.14045145504562
 20
-220.9180404796926
 30
0.0
 10
91.27860747451149
 20
-220.973150392831
 30
0.0
 10
91.53455162913352
 20
-221.096100841532
 30
0.0
 10
91.87338051558248
 20
-221.3223148805363
 30
0.0
 10
92.15100345345259
 20
-221.5693305967357
 30
0.0
 10
92.37245402095518
 20
-221.8283386153786
 30
0.0
 10
92.54254136230355
 20
-222.0902389136339
 30
0.0
 10
92.66785334752096
 20
-222.3486279405924
 30
0.0
 10
92.75545567837133
 20
-222.5999098812496
 30
0.0
 10
92.81182073530461
 20
-222.8428425337202
 30
0.0
 10
92.84226820196416
 20
-223.0781566273228
 30
0.0
 10
92.84787893948649
 20
-223.2327441785853
 30
0.0
 10
92.84730804924564
 20
-223.3087772410925
 30
0.0
 11
91.14045145504562
 21
-220.9180404796926
 31
0.0
 11
91.54229818424567
 21
-221.1120428002925
 31
0.0
 11
91.87639337924563
 21
-221.3359492982926
 31
0.0
 11
92.15248158824564
 21
-221.5823896126926
 31
0.0
 11
92.3724746392456
 21
-221.8402921562925
 31
0.0
 11
92.54125036284565
 21
-222.1005571466926
 31
0.0
 11
92.66560617524564
 21
-222.3571186154926
 31
0.0
 11
92.75258783644566
 21
-222.6065210602926
 31
0.0
 11
92.80860181764557
 21
-222.8475447462925
 31
0.0
 11
92.83890411764565
 21
-223.0808264864926
 31
0.0
 11
92.84730804924564
 21
-223.3087772410925
 31
0.0
  0
SPLINE
  5
218F
330
1F
100
AcDbEntity
  8
0
  6
Continuous
100
AcDbSpline
210
0.0
220
0.0
230
1.0
 70
     8
 71
     3
 72
    12
 73
     8
 74
     6
 42
0.0000000001
 43
0.0000000001
 44
0.0000000001
 12
-0.0075959043424182
 22
-0.9999711507024695
 32
0.0
 13
-0.8664066385733709
 23
-0.4993390998469802
 33
0.0
 40
0.0
 40
0.0
 40
0.0
 40
0.0
 40
0.6246409268340308
 40
1.250177125550228
 40
1.876365467972714
 40
2.502851184324494
 40
3.129227216229686
 40
3.129227216229686
 40
3.129227216229686
 40
3.129227216229686
 10
92.6514695798456
 20
-238.0066286664926
 30
0.0
 10
92.64988800893606
 20
-238.2148363019533
 30
0.0
 10
92.60285067464389
 20
-238.6325150220435
 30
0.0
 10
92.40421080778144
 20
-239.2301350741159
 30
0.0
 10
92.08603457947358
 20
-239.7746898396613
 30
0.0
 10
91.66250428364576
 20
-240.2419501261622
 30
0.0
 10
91.32135023914093
 20
-240.4889458826469
 30
0.0
 10
91.14045145504562
 20
-240.5932038972926
 30
0.0
 11
92.6514695798456
 21
-238.0066286664926
 31
0.0
 11
92.58158698804562
 21
-238.6273481770925
 31
0.0
 11
92.38441698444566
 21
-239.2209975058925
 31
0.0
 11
92.06855834464564
 21
-239.7616870284926
 31
0.0
 11
91.6477859712456
 21
-240.2258367484926
 31
0.0
 11
91.14045145504562
 21
-240.5932038972926
 31
0.0
  0
SPLINE
  5
2190
330
1F
100
AcDbEntity
  8
0
  6
Continuous
100
AcDbSpline
210
0.0
220
0.0
230
1.0
 70
     8
 71
     3
 72
    12
 73
     8
 74
     6
 42
0.0000000001
 43
0.0000000001
 44
0.0000000001
 12
-0.8664173641052601
 22
0.4993204894422955
 32
0.0
 13
-0.0075959043424182
 23
0.9999711507024695
 33
0.0
 40
0.0
 40
0.0
 40
0.0
 40
0.0
 40
0.6263738743349302
 40
1.252860130267716
 40
1.87904901274328
 40
2.504585751204568
 40
3.129227216121405
 40
3.129227216121405
 40
3.129227216121405
 40
3.129227216121405
 10
63.68330656004562
 20
-240.5932038972926
 30
0.0
 10
63.50240615966374
 20
-240.488950127457
 30
0.0
 10
63.16125576824857
 20
-240.2419491398391
 30
0.0
 10
62.73772409443246
 20
-239.7746916661048
 30
0.0
 10
62.41954769822541
 20
-239.2301359543396
 30
0.0
 10
62.22090739945845
 20
-238.6325156004472
 30
0.0
 10
62.17387000771761
 20
-238.2148364813091
 30
0.0
 10
62.17228843544567
 20
-238.0066286664926
 30
0.0
 11
63.68330656004562
 21
-240.5932038972926
 31
0.0
 11
63.17597365944564
 21
-240.2258381960926
 31
0.0
 11
62.75520063224561
 21
-239.7616883404925
 31
0.0
 11
62.43934147744565
 21
-239.2209984932926
 31
0.0
 11
62.24217114344564
 21
-238.6273487054925
 31
0.0
 11
62.17228843544567
 21
-238.0066286664926
 31
0.0
  0
SPLINE
  5
2191
330
1F
100
AcDbEntity
  8
0
  6
Continuous
100
AcDbSpline
210
0.0
220
0.0
230
1.0
 70
     8
 71
     3
 72
    11
 73
     7
 74
     5
 42
0.0000000001
 43
0.0000000001
 44
0.0000000001
 12
0.4818852455300108
 22
0.8762343351755175
 32
0.0
 13
0.4535305594594773
 23
0.8912407259749601
 33
0.0
 40
0.0
 40
0.0
 40
0.0
 40
0.0
 40
0.1433904532410457
 40
0.5858825433024739
 40
1.34940722312794
 40
2.455428834067137
 40
2.455428834067137
 40
2.455428834067137
 40
2.455428834067137
 10
52.41187900764565
 20
-215.4556221884926
 30
0.0
 10
52.43491158890122
 20
-215.4137409756706
 30
0.0
 10
52.52887499486297
 20
-215.2425372338656
 30
0.0
 10
52.74390309660626
 20
-214.847458438907
 30
0.0
 10
53.10725772647494
 20
-214.167799893825
 30
0.0
 10
53.39428406778445
 20
-213.6146186129184
 30
0.0
 10
53.56148893444562
 20
-213.2860414450926
 30
0.0
 11
52.41187900764565
 21
-215.4556221884926
 31
0.0
 11
52.48086917824561
 21
-215.3299194500926
 31
0.0
 11
52.69239060704561
 21
-214.9412577270926
 31
0.0
 11
53.05229964204565
 21
-214.2678815890925
 31
0.0
 11
53.56148893444562
 21
-213.2860414450926
 31
0.0
  0
SPLINE
  5
2192
330
1F
100
AcDbEntity
  8
0
  6
Continuous
100
AcDbSpline
210
0.0
220
0.0
230
1.0
 70
     8
 71
     3
 72
    15
 73
    11
 74
     9
 42
0.0000000001
 43
0.0000000001
 44
0.0000000001
 12
0.1328736588199151
 22
0.9911329834042498
 32
0.0
 13
2.073639717800000E-6
 23
0.9999999999978502
 33
0.0
 40
0.0
 40
0.0
 40
0.0
 40
0.0
 40
0.0323535587950929
 40
0.1225927909017305
 40
0.261521777024442
 40
0.4409745406639484
 40
0.6547592191126734
 40
0.898634086326496
 40
1.170046315435298
 40
1.468143175687763
 40
1.468143175687763
 40
1.468143175687763
 40
1.468143175687763
 10
105.2878948070456
 20
-211.6167792846926
 30
0.0
 10
105.2893277856233
 20
-211.6060903916085
 30
0.0
 10
105.2946654592404
 20
-211.5655760704711
 30
0.0
 10
105.3053851124217
 20
-211.4790625119034
 30
0.0
 10
105.3208211235391
 20
-211.3437292548936
 30
0.0
 10
105.3380833078767
 20
-211.1671730160069
 30
0.0
 10
105.3549143780322
 20
-210.9554568116515
 30
0.0
 10
105.3690698430605
 20
-210.7128252283753
 30
0.0
 10
105.3787103070309
 20
-210.4418454342759
 30
0.0
 10
105.3809455769971
 20
-210.2520000603765
 30
0.0
 10
105.3809457830456
 20
-210.1526344402925
 30
0.0
 11
105.2878948070456
 21
-211.6167792846926
 31
0.0
 11
105.2921233488456
 21
-211.5847032468925
 31
0.0
 11
105.3032751504456
 21
-211.4951557380926
 31
0.0
 11
105.3189666790456
 21
-211.3571157470926
 31
0.0
 11
105.3364766842456
 21
-211.1785192910926
 31
0.0
 11
105.3534202118456
 21
-210.9654071008925
 31
0.0
 11
105.3676622046456
 21
-210.7219484462925
 31
0.0
 11
105.3773686452456
 21
-210.4507098370926
 31
0.0
 11
105.3809457830456
 21
-210.1526344402925
 31
0.0
  0
SPLINE
  5
2193
330
1F
100
AcDbEntity
  8
0
  6
Continuous
100
AcDbSpline
210
0.0
220
0.0
230
1.0
 70
     8
 71
     3
 72
    12
 73
     8
 74
     6
 42
0.0000000001
 43
0.0000000001
 44
0.0000000001
 12
0.0075959043424182
 22
0.9999711507024695
 32
0.0
 13
0.8664072129366985
 23
0.4993381032639732
 33
0.0
 40
0.0
 40
0.0
 40
0.0
 40
0.0
 40
0.6246411060476498
 40
1.250177484446992
 40
1.876366006680831
 40
2.502851902668986
 40
3.129227216128879
 40
3.129227216128879
 40
3.129227216128879
 40
3.129227216128879
 10
62.17228843544567
 20
-223.5046157104926
 30
0.0
 10
62.17387000680897
 20
-223.2964080152958
 30
0.0
 10
62.22090736607012
 20
-222.8787291726774
 30
0.0
 10
62.41954734983531
 20
-222.2811089734068
 30
0.0
 10
62.73772373302523
 20
-221.7365540643244
 30
0.0
 10
63.16125411918792
 20
-221.2692940752157
 30
0.0
 10
63.50240786351657
 20
-221.0222981666774
 30
0.0
 10
63.68330656004562
 20
-220.9180404796926
 30
0.0
 11
62.17228843544567
 21
-223.5046157104926
 31
0.0
 11
62.24217106584561
 21
-222.8838960238926
 31
0.0
 11
62.43934117944561
 21
-222.2902465422926
 31
0.0
 11
62.75519999084561
 21
-221.7495569116926
 31
0.0
 11
63.17597258184562
 21
-221.2854071464926
 31
0.0
 11
63.68330656004562
 21
-220.9180404796926
 31
0.0
  0
SPLINE
  5
2194
330
1F
100
AcDbEntity
  8
0
  6
Continuous
100
AcDbSpline
210
0.0
220
0.0
230
1.0
 70
     8
 71
     3
 72
     9
 73
     5
 74
     3
 42
0.0000000001
 43
0.0000000001
 44
0.0000000001
 12
0.6091807188773221
 22
0.7930314317529345
 32
0.0
 13
0.6015465285735102
 23
0.7988377644810987
 33
0.0
 40
0.0
 40
0.0
 40
0.0
 40
0.0
 40
0.2412978315864471
 40
0.4996046628796858
 40
0.4996046628796858
 40
0.4996046628796858
 40
0.4996046628796858
 10
49.44280533224564
 20
-210.1526612446925
 30
0.0
 10
49.49180332774876
 20
-210.0888756564052
 30
0.0
 10
49.59323055997338
 20
-209.9567897734399
 30
0.0
 10
49.69363199675523
 20
-209.823921734646
 30
0.0
 10
49.74542652264565
 20
-209.7551399840925
 30
0.0
 11
49.44280533224564
 21
-210.1526612446925
 31
0.0
 11
49.58953819364561
 21
-209.9611041750926
 31
0.0
 11
49.74542652264565
 21
-209.7551399840925
 31
0.0
  0
SPLINE
  5
2195
330
1F
100
AcDbEntity
  8
0
  6
Continuous
100
AcDbSpline
210
0.0
220
0.0
230
1.0
 70
     8
 71
     3
 72
    15
 73
    11
 74
     9
 42
0.0000000001
 43
0.0000000001
 44
0.0000000001
 12
2.076512802600000E-6
 22
-0.9999999999978442
 32
0.0
 13
0.1328791231007724
 23
-0.9911322508343525
 33
0.0
 40
0.0
 40
0.0
 40
0.0
 40
0.0
 40
0.3011830339045609
 40
0.5759803941368923
 40
0.8216263908348684
 40
1.034665448641267
 40
1.211440353604642
 40
1.347578410529897
 40
1.436150237780178
 40
1.468134459062416
 40
1.468134459062416
 40
1.468134459062416
 40
1.468134459062416
 10
49.44281222304564
 20
-210.1526416762926
 30
0.0
 10
49.44281243151578
 20
-210.2530360209273
 30
0.0
 10
49.44509689756611
 20
-210.4450387744581
 30
0.0
 10
49.45494590505095
 20
-210.7187612588228
 30
0.0
 10
49.46934975604773
 20
-210.9628514762687
 30
0.0
 10
49.48629011799643
 20
-211.1740063104126
 30
0.0
 10
49.5034541103505
 20
-211.3484904151016
 30
0.0
 10
49.51866545332231
 20
-211.4814549084577
 30
0.0
 10
49.52919635464929
 20
-211.5663702578555
 30
0.0
 10
49.53444594041996
 20
-211.6062113996824
 30
0.0
 10
49.53586261884564
 20
-211.6167782640926
 30
0.0
 11
49.44281222304564
 21
-210.1526416762926
 31
0.0
 11
49.44646477524563
 21
-210.4538025614925
 31
0.0
 11
49.45640538324565
 21
-210.7284200654926
 31
0.0
 11
49.47091369504565
 21
-210.9736372438926
 31
0.0
 11
49.48795260964566
 21
-211.1859938202925
 31
0.0
 11
49.50530491284562
 21
-211.3619150088926
 31
0.0
 11
49.52072639344564
 21
-211.4971767864925
 31
0.0
 11
49.53168183004564
 21
-211.5850684640926
 31
0.0
 11
49.53586261884564
 21
-211.6167782640926
 31
0.0
  0
SPLINE
  5
2196
330
1F
100
AcDbEntity
  8
0
  6
Continuous
100
AcDbSpline
210
0.0
220
0.0
230
1.0
 70
     8
 71
     3
 72
     9
 73
     5
 74
     3
 42
0.0000000001
 43
0.0000000001
 44
0.0000000001
 12
0.6015755500766727
 22
0.7988159096750319
 32
0.0
 13
0.6381476713296953
 23
0.7699139884275951
 33
0.0
 40
0.0
 40
0.0
 40
0.0
 40
0.0
 40
0.2607556875710862
 40
0.5410723769967316
 40
0.5410723769967316
 40
0.5410723769967316
 40
0.5410723769967316
 10
49.74542652264565
 20
-209.7551399840925
 30
0.0
 10
49.79771460470771
 20
-209.6857080535025
 30
0.0
 10
49.90789261552337
 20
-209.5428938077236
 30
0.0
 10
50.02136832444838
 20
-209.4026830819521
 30
0.0
 10
50.08099613864565
 20
-209.3307431684926
 30
0.0
 11
49.74542652264565
 21
-209.7551399840925
 31
0.0
 11
49.90467532124566
 21
-209.5486615378926
 31
0.0
 11
50.08099613864565
 21
-209.3307431684926
 31
0.0
  0
SPLINE
  5
2197
330
1F
100
AcDbEntity
  8
0
  6
Continuous
100
AcDbSpline
210
0.0
220
0.0
230
1.0
 70
     8
 71
     3
 72
    14
 73
    10
 74
     8
 42
0.0000000001
 43
0.0000000001
 44
0.0000000001
 12
-0.150494196218962
 22
0.9886108925681574
 32
0.0
 13
-0.991614097594557
 23
0.1292342116149299
 33
0.0
 40
0.0
 40
0.0
 40
0.0
 40
0.0
 40
0.7476428152626201
 40
1.519782138304498
 40
2.313263787208549
 40
3.121790282270126
 40
3.936983641997303
 40
4.749576859458333
 40
5.550647340561741
 40
5.550647340561741
 40
5.550647340561741
 40
5.550647340561741
 10
53.56148902704561
 20
-213.2860414450926
 30
0.0
 10
53.52398372553166
 20
-213.0396655014529
 30
0.0
 10
53.39293200205587
 20
-212.5458652160179
 30
0.0
 10
53.04912763871457
 20
-211.8506061763434
 30
0.0
 10
52.56965332604113
 20
-211.2153776979513
 30
0.0
 10
51.97453419039698
 20
-210.6660840269026
 30
0.0
 10
51.28798826376868
 20
-210.2246302735533
 30
0.0
 10
50.53823670540363
 20
-209.9089435452785
 30
0.0
 10
50.01021078338865
 20
-209.7896482103837
 30
0.0
 10
49.74542652264565
 20
-209.7551396396926
 30
0.0
 11
53.56148902704561
 21
-213.2860414450926
 31
0.0
 11
53.37209665004561
 21
-212.5627847086925
 31
0.0
 11
53.03198989884563
 21
-211.8695844980926
 31
0.0
 11
52.55530266904563
 21
-211.2352483000926
 31
0.0
 11
51.96184476364564
 21
-210.6861373752925
 31
0.0
 11
51.2762786518456
 21
-210.2450712576926
 31
0.0
 11
50.52709456524562
 21
-209.9303794378926
 31
0.0
 11
49.74542652264565
 21
-209.7551396396926
 31
0.0
  0
SPLINE
  5
2198
330
1F
100
AcDbEntity
  8
0
  6
Continuous
100
AcDbSpline
210
0.0
220
0.0
230
1.0
 70
     8
 71
     3
 72
     9
 73
     5
 74
     3
 42
0.0000000001
 43
0.0000000001
 44
0.0000000001
 12
0.7132849383946978
 22
0.7008741660664004
 32
0.0
 13
0.7318683515393369
 23
0.6814460477654072
 33
0.0
 40
0.0
 40
0.0
 40
0.0
 40
0.0
 40
0.1891756901601704
 40
0.3916698389606592
 40
0.3916698389606592
 40
0.3916698389606592
 40
0.3916698389606592
 10
53.56148893444562
 20
-213.2860414450926
 30
0.0
 10
53.60646765794618
 20
-213.2418453270656
 30
0.0
 10
53.70018054368964
 20
-213.1509389739643
 30
0.0
 10
53.79510939995266
 20
-213.0613018246244
 30
0.0
 10
53.84450908624565
 20
-213.0153055454925
 30
0.0
 11
53.56148893444562
 21
-213.2860414450926
 31
0.0
 11
53.69727757264562
 21
-213.1543262694925
 31
0.0
 11
53.84450908624565
 21
-213.0153055454925
 31
0.0
  0
SPLINE
  5
2199
330
1F
100
AcDbEntity
  8
0
  6
Continuous
100
AcDbSpline
210
0.0
220
0.0
230
1.0
 70
     8
 71
     3
 72
    17
 73
    13
 74
    11
 42
0.0000000001
 43
0.0000000001
 44
0.0000000001
 12
-0.7814255607772476
 22
0.6239984719243824
 32
0.0
 13
-0.6881312465830677
 23
0.7255862371048899
 33
0.0
 40
0.0
 40
0.0
 40
0.0
 40
0.0
 40
0.3531302392606655
 40
0.8610430724560043
 40
1.491929488933569
 40
2.215206071621035
 40
3.002366949122116
 40
3.819644580383509
 40
4.632867453835514
 40
5.408118724530181
 40
6.111990040453095
 40
6.710488906761793
 40
6.710488906761793
 40
6.710488906761793
 40
6.710488906761793
 10
56.77487783584561
 20
-210.5310459824926
 30
0.0
 10
56.68289617076506
 20
-210.4575950725963
 30
0.0
 10
56.48439087900988
 20
-210.248743751962
 30
0.0
 10
56.12802968030186
 20
-209.9026156300041
 30
0.0
 10
55.69515672450558
 20
-209.45741389649
 30
0.0
 10
55.20007382671522
 20
-208.9433597023386
 30
0.0
 10
54.66636746279269
 20
-208.380119275317
 30
0.0
 10
54.11577825192249
 20
-207.7916481271796
 30
0.0
 10
53.57129226014085
 20
-207.2028999448913
 30
0.0
 10
53.0575050283976
 20
-206.6373014908192
 30
0.0
 10
52.59051963649931
 20
-206.1258999593331
 30
0.0
 10
52.31318327149613
 20
-205.7913843273981
 30
0.0
 10
52.17590134784561
 20
-205.6466301472926
 30
0.0
 11
56.77487783584561
 21
-210.5310459824926
 31
0.0
 11
56.51886976184564
 21
-210.2878159844925
 31
0.0
 11
56.15885090644561
 21
-209.9295397364925
 31
0.0
 11
55.71700594544565
 21
-209.4792168512925
 31
0.0
 11
55.21550937524565
 21
-208.9580353040926
 31
0.0
 11
54.67387020864563
 21
-208.3868529686925
 31
0.0
 11
54.11543225584566
 21
-207.7901203824926
 31
0.0
 11
53.56361215004564
 21
-207.1927712276925
 31
0.0
 11
53.04124745784562
 21
-206.6199277402926
 31
0.0
 11
52.57133229244566
 21
-206.0958909412926
 31
0.0
 11
52.17590134784561
 21
-205.6466301472926
 31
0.0
  0
SPLINE
  5
219A
330
1F
100
AcDbEntity
  8
0
  6
Continuous
100
AcDbSpline
210
0.0
220
0.0
230
1.0
 70
     8
 71
     3
 72
    15
 73
    11
 74
     9
 42
0.0000000001
 43
0.0000000001
 44
0.0000000001
 12
0.3827822876497482
 22
0.9238385791152184
 32
0.0
 13
0.6199437694951899
 23
0.7846462404575039
 33
0.0
 40
0.0
 40
0.0
 40
0.0
 40
0.0
 40
0.557794017506548
 40
1.124105357745672
 40
1.688565494858466
 40
2.243465581223183
 40
2.782013587948057
 40
3.299664762454468
 40
3.79200351346819
 40
4.250279760365111
 40
4.250279760365111
 40
4.250279760365111
 40
4.250279760365111
 10
50.08099613864565
 20
-209.3307431684926
 30
0.0
 10
50.15216736199849
 20
-209.1589726243019
 30
0.0
 10
50.30101198660607
 20
-208.8150258148
 30
0.0
 10
50.54040054630849
 20
-208.3055209840327
 30
0.0
 10
50.79503388643534
 20
-207.8045348790274
 30
0.0
 10
51.06085577066461
 20
-207.3199241814723
 30
0.0
 10
51.33419225128338
 20
-206.8575426341689
 30
0.0
 10
51.61191699295512
 20
-206.4223188259048
 30
0.0
 10
51.89018258042601
 20
-206.0195520404351
 30
0.0
 10
52.08117348818851
 20
-205.7665643661655
 30
0.0
 10
52.17587532284564
 20
-205.6467027880926
 30
0.0
 11
50.08099613864565
 21
-209.3307431684926
 31
0.0
 11
50.30247454204564
 21
-208.8188042240925
 31
0.0
 11
50.54329700124563
 21
-208.3062487858926
 31
0.0
 11
50.79911895524563
 21
-207.8030883996925
 31
0.0
 11
51.06610284884564
 21
-207.3166382928925
 31
0.0
 11
51.34039792804563
 21
-206.8531772210925
 31
0.0
 11
51.61915582084564
 21
-206.4169928842926
 31
0.0
 11
51.89954324064562
 21
-206.0122950456924
 31
0.0
 11
52.17587532284564
 21
-205.6467027880926
 31
0.0
  0
SPLINE
  5
219B
330
1F
100
AcDbEntity
  8
0
  6
Continuous
100
AcDbSpline
210
0.0
220
0.0
230
1.0
 70
     8
 71
     3
 72
    14
 73
    10
 74
     8
 42
0.0000000001
 43
0.0000000001
 44
0.0000000001
 12
-0.1248837901867068
 22
0.9921713757958364
 32
0.0
 13
-0.9847869938817472
 23
0.1737658674232419
 33
0.0
 40
0.0
 40
0.0
 40
0.0
 40
0.0
 40
0.7416991713656657
 40
1.515881336925458
 40
2.318094045054734
 40
3.139768478190719
 40
3.969697891609738
 40
4.795605414548899
 40
5.605731758645132
 40
5.605731758645132
 40
5.605731758645132
 40
5.605731758645132
 10
53.84450723064563
 20
-213.0153054118926
 30
0.0
 10
53.81363182941281
 20
-212.7700078494658
 30
0.0
 10
53.69375032369027
 20
-212.2745503685508
 30
0.0
 10
53.36376970976229
 20
-211.5709033547328
 30
0.0
 10
52.89459362525357
 20
-210.9183487092911
 30
0.0
 10
52.30645227661923
 20
-210.3442580096496
 30
0.0
 10
51.62404253024005
 20
-209.8722319024066
 30
0.0
 10
50.87628876281474
 20
-209.5220703161879
 30
0.0
 10
50.34693010160129
 20
-209.377648928194
 30
0.0
 10
50.08099613924564
 20
-209.3307248258926
 30
0.0
 11
53.84450723064563
 21
-213.0153054118926
 31
0.0
 11
53.67335969004565
 21
-212.2936225312926
 31
0.0
 11
53.34749573444563
 21
-211.5913613918925
 31
0.0
 11
52.88094947444566
 21
-210.9387667118926
 31
0.0
 11
52.29381386064566
 21
-210.3639444392926
 31
0.0
 11
51.61137557604561
 21
-209.8916512898926
 31
0.0
 11
50.86302615624564
 21
-209.5422283622926
 31
0.0
 11
50.08099613924564
 21
-209.3307248258926
 31
0.0
  0
SPLINE
  5
219C
330
1F
100
AcDbEntity
  8
0
  6
Continuous
100
AcDbSpline
210
0.0
220
0.0
230
1.0
 70
     8
 71
     3
 72
    14
 73
    10
 74
     8
 42
0.0000000001
 43
0.0000000001
 44
0.0000000001
 12
0.7318515330531563
 22
0.6814641102565454
 32
0.0
 13
0.7862232366969015
 23
0.6179425718283601
 33
0.0
 40
0.0
 40
0.0
 40
0.0
 40
0.0
 40
0.5564280056981029
 40
1.128835900650877
 40
1.7043186744287
 40
2.272143876827154
 40
2.823097634044334
 40
3.350963571700942
 40
3.842796810402386
 40
3.842796810402386
 40
3.842796810402386
 40
3.842796810402386
 10
53.84450908624565
 20
-213.0153055454925
 30
0.0
 10
53.98024998258028
 20
-212.8889103068842
 30
0.0
 10
54.25779965994876
 20
-212.6348120278127
 30
0.0
 10
54.6825698345054
 20
-212.2575374381005
 30
0.0
 10
55.11542302737131
 20
-211.8837278362212
 30
0.0
 10
55.54752756932131
 20
-211.5200682164141
 30
0.0
 10
55.97155090249464
 20
-211.1715178755823
 30
0.0
 10
56.37938628409124
 20
-210.8432129783907
 30
0.0
 10
56.64598092909666
 20
-210.6323542144372
 30
0.0
 10
56.77487783604565
 20
-210.5310459822926
 30
0.0
 11
53.84450908624565
 21
-213.0153055454925
 31
0.0
 11
54.25479198764564
 21
-212.6394331384925
 31
0.0
 11
54.68267564864564
 21
-212.2592142924926
 31
0.0
 11
55.11815233284565
 21
-211.8829956320926
 31
0.0
 11
55.55254156324561
 21
-211.5173025134926
 31
0.0
 11
55.97810179104564
 21
-211.1673760424926
 31
0.0
 11
56.38923019464566
 21
-210.8362931466925
 31
0.0
 11
56.77487783604565
 21
-210.5310459822926
 31
0.0
  0
SPLINE
  5
219D
330
1F
100
AcDbEntity
  8
0
  6
Continuous
100
AcDbSpline
210
0.0
220
0.0
230
1.0
 70
     8
 71
     3
 72
    11
 73
     7
 74
     5
 42
0.0000000001
 43
0.0000000001
 44
0.0000000001
 12
8.639742778500002E-6
 22
-0.9999999999626774
 32
0.0
 13
-0.6342183378095824
 23
-0.7731539950010286
 33
0.0
 40
0.0
 40
0.0
 40
0.0
 40
0.0
 40
0.7577520810220891
 40
1.508709945763504
 40
2.246882174068101
 40
2.967842985339321
 40
2.967842985339321
 40
2.967842985339321
 40
2.967842985339321
 10
57.72469797324564
 20
-207.7760505242926
 30
0.0
 10
57.72470015550666
 20
-208.0286345512905
 30
0.0
 10
57.68348573644556
 20
-208.5325155356427
 30
0.0
 10
57.4997867175631
 20
-209.2620779089932
 30
0.0
 10
57.20076851601755
 20
-209.9391974077014
 30
0.0
 10
56.9272933582957
 20
-210.3452414053348
 30
0.0
 10
56.77487783584561
 20
-210.5310459824926
 30
0.0
 11
57.72469797324564
 21
-207.7760505242926
 31
0.0
 11
57.66258137264563
 21
-208.5312523146925
 31
0.0
 11
57.47846584484566
 21
-209.2592902168926
 31
0.0
 11
57.17897385164562
 21
-209.9339773922926
 31
0.0
 11
56.77487783584561
 21
-210.5310459824926
 31
0.0
  0
SPLINE
  5
219E
330
1F
100
AcDbEntity
  8
0
  6
Continuous
100
AcDbSpline
210
0.0
220
0.0
230
1.0
 70
     8
 71
     3
 72
    16
 73
    12
 74
    10
 42
0.0000000001
 43
0.0000000001
 44
0.0000000001
 12
-0.7279705596406229
 22
0.6856083898965344
 32
0.0
 13
-0.9988817656279538
 23
-0.0472780953083115
 33
0.0
 40
0.0
 40
0.0
 40
0.0
 40
0.0
 40
0.5525886637715696
 40
1.189473764333437
 40
1.894175260448942
 40
2.64591214017517
 40
3.41995416026345
 40
4.194751105515671
 40
4.930582580029218
 40
5.577777924293559
 40
6.102937728702608
 40
6.102937728702608
 40
6.102937728702608
 40
6.102937728702608
 10
58.12784885084565
 20
-206.1513632694925
 30
0.0
 10
57.99375942457337
 20
-206.0250767948113
 30
0.0
 10
57.6770140241503
 20
-205.7834535625903
 30
0.0
 10
57.13463317804135
 20
-205.4587928020401
 30
0.0
 10
56.50320661823782
 20
-205.159397169209
 30
0.0
 10
55.80730116058146
 20
-204.8957785567436
 30
0.0
 10
55.0715071452565
 20
-204.6772849076804
 30
0.0
 10
54.32688044195101
 20
-204.5143180215301
 30
0.0
 10
53.61440135173088
 20
-204.411527917854
 30
0.0
 10
52.97856881392359
 20
-204.3708507356118
 30
0.0
 10
52.58769842000064
 20
-204.3850777595976
 30
0.0
 10
52.41284090244565
 20
-204.3933539446926
 30
0.0
 11
58.12784885084565
 21
-206.1513632694925
 31
0.0
 11
57.69431396984564
 21
-205.8087238988925
 31
0.0
 11
57.14942687744562
 21
-205.4789956958926
 31
0.0
 11
56.51386192664566
 21
-205.1745923582925
 31
0.0
 11
55.81135942364564
 21
-204.9070132678926
 31
0.0
 11
55.06939175524562
 21
-204.6865024338926
 31
0.0
 11
54.31248738624564
 21
-204.5209546082925
 31
0.0
 11
53.58394932144566
 21
-204.4176093276926
 31
0.0
 11
52.93783597704564
 21
-204.3802013094925
 31
0.0
 11
52.41284090244565
 21
-204.3933539446926
 31
0.0
  0
SPLINE
  5
219F
330
1F
100
AcDbEntity
  8
0
  6
Continuous
100
AcDbSpline
210
0.0
220
0.0
230
1.0
 70
     8
 71
     3
 72
     9
 73
     5
 74
     3
 42
0.0000000001
 43
0.0000000001
 44
0.0000000001
 12
0.2046719406729559
 22
0.9788306271777392
 32
0.0
 13
0.1672453798706424
 23
0.9859153020984737
 33
0.0
 40
0.0
 40
0.0
 40
0.0
 40
0.0
 40
0.6206340215341912
 40
1.275611094078243
 40
1.275611094078243
 40
1.275611094078243
 40
1.275611094078243
 10
52.17587532284564
 20
-205.6467027880926
 30
0.0
 10
52.21821744605733
 20
-205.4442042585772
 30
0.0
 10
52.30125879553371
 20
-205.0271595007622
 30
0.0
 10
52.3763269387442
 20
-204.6086045843408
 30
0.0
 10
52.4128409018456
 20
-204.3933539448925
 30
0.0
 11
52.17587532284564
 21
-205.6467027880926
 31
0.0
 11
52.2971356722456
 21
-205.0380300382926
 31
0.0
 11
52.4128409018456
 21
-204.3933539448925
 31
0.0
  0
SPLINE
  5
21A0
330
1F
100
AcDbEntity
  8
0
  6
Continuous
100
AcDbSpline
210
0.0
220
0.0
230
1.0
 70
     8
 71
     3
 72
    15
 73
    11
 74
     9
 42
0.0000000001
 43
0.0000000001
 44
0.0000000001
 12
-0.6219001077681129
 22
0.7830965815006535
 32
0.0
 13
-0.9970013249246793
 23
-0.07738448228446131
 33
0.0
 40
0.0
 40
0.0
 40
0.0
 40
0.0
 40
0.6240195299618802
 40
1.335297923616118
 40
2.115851235753533
 40
2.941266416221447
 40
3.783533968439771
 40
4.613381680162836
 40
5.402467417373804
 40
6.125667655882397
 40
6.125667655882397
 40
6.125667655882397
 40
6.125667655882397
 10
57.72469797324564
 20
-207.7760505242926
 30
0.0
 10
57.59533870226807
 20
-207.6131613373917
 30
0.0
 10
57.28018144306319
 20
-207.2948301863888
 30
0.0
 10
56.71313622964982
 20
-206.8724840486099
 30
0.0
 10
56.04111970957082
 20
-206.4882509036453
 30
0.0
 10
55.29294834314288
 20
-206.158980858228
 30
0.0
 10
54.50076107642686
 20
-205.8988758150614
 30
0.0
 10
53.69884084428765
 20
-205.7192460169762
 30
0.0
 10
52.92211591993786
 20
-205.6277478261387
 30
0.0
 10
52.41624521317191
 20
-205.6279753219443
 30
0.0
 10
52.17590134784561
 20
-205.6466301472926
 30
0.0
 11
57.72469797324564
 21
-207.7760505242926
 31
0.0
 11
57.29145072464561
 21
-207.3269434152926
 31
0.0
 11
56.72423841764564
 21
-206.8977731086926
 31
0.0
 11
56.04821562424561
 21
-206.5075723194926
 31
0.0
 11
55.29336254284564
 21
-206.1736456124926
 31
0.0
 11
54.49315749924565
 21
-205.9108024696926
 31
0.0
 11
53.68308963604564
 21
-205.7306989392925
 31
0.0
 11
52.89908209584561
 21
-205.6413206556926
 31
0.0
 11
52.17590134784561
 21
-205.6466301472926
 31
0.0
  0
SPLINE
  5
21A1
330
1F
100
AcDbEntity
  8
0
  6
Continuous
100
AcDbSpline
210
0.0
220
0.0
230
1.0
 70
     8
 71
     3
 72
     9
 73
     5
 74
     3
 42
0.0000000001
 43
0.0000000001
 44
0.0000000001
 12
0.2629621916744304
 22
0.9648061389469805
 32
0.0
 13
0.2189174227204839
 23
0.9757433894367007
 33
0.0
 40
0.0
 40
0.0
 40
0.0
 40
0.0
 40
0.8174223164248496
 40
1.674464971577518
 40
1.674464971577518
 40
1.674464971577518
 40
1.674464971577518
 10
57.72469246704563
 20
-207.7760505194926
 30
0.0
 10
57.79634285499585
 20
-207.5131658298263
 30
0.0
 10
57.93699001349673
 20
-206.9729680500251
 30
0.0
 10
58.06537320296978
 20
-206.4297216415693
 30
0.0
 10
58.12791372604563
 20
-206.1509704064925
 30
0.0
 11
57.72469246704563
 21
-207.7760505194926
 31
0.0
 11
57.9307394750456
 21
-206.9850234188926
 31
0.0
 11
58.12791372604563
 21
-206.1509704064925
 31
0.0
  0
SPLINE
  5
21A2
330
1F
100
AcDbEntity
  8
0
  6
Continuous
100
AcDbSpline
210
0.0
220
0.0
230
1.0
 70
     8
 71
     3
 72
    10
 73
     6
 74
     4
 42
0.0000000001
 43
0.0000000001
 44
0.0000000001
 12
0.9322513983460044
 22
0.3618111804269178
 32
0.0
 13
0.9999999999999811
 23
-1.943240182000000E-7
 33
0.0
 40
0.0
 40
0.0
 40
0.0
 40
0.0
 40
0.7529122345134588
 40
1.553311333062038
 40
2.378501661124377
 40
2.378501661124377
 40
2.378501661124377
 40
2.378501661124377
 10
52.41284090244565
 20
-204.3933539446926
 30
0.0
 10
52.64680873026465
 20
-204.3025499232502
 30
0.0
 10
53.14415222890737
 20
-204.1517807890844
 30
0.0
 10
53.92720909780569
 20
-204.0177393042772
 30
0.0
 10
54.46962222255817
 20
-203.9876594320412
 30
0.0
 10
54.74468566524561
 20
-203.9876594854926
 30
0.0
 11
52.41284090244565
 21
-204.3933539446926
 31
0.0
 11
53.13224687864565
 21
-204.1712461458926
 31
0.0
 11
53.92080055844561
 21
-204.0340535402926
 31
0.0
 11
54.74468566524561
 21
-203.9876594854926
 31
0.0
  0
SPLINE
  5
21A3
330
1F
100
AcDbEntity
  8
0
  6
Continuous
100
AcDbSpline
210
0.0
220
0.0
230
1.0
 70
     8
 71
     3
 72
     9
 73
     5
 74
     3
 42
0.0000000001
 43
0.0000000001
 44
0.0000000001
 12
0.4686506698794777
 22
0.8833835801176729
 32
0.0
 13
0.4481715900269885
 23
0.8939475520927842
 33
0.0
 40
0.0
 40
0.0
 40
0.0
 40
0.0
 40
0.2547173565114934
 40
0.5126493009755564
 40
0.5126493009755564
 40
0.5126493009755564
 40
0.5126493009755564
 10
54.74468566524561
 20
-203.9876594886926
 30
0.0
 10
54.78447681849863
 20
-203.9126551119215
 30
0.0
 10
54.86372611555393
 20
-203.7612551483777
 30
0.0
 10
54.94122658915591
 20
-203.6089519868126
 30
0.0
 10
54.97975917904565
 20
-203.5320927766925
 30
0.0
 11
54.74468566524561
 21
-203.9876594886926
 31
0.0
 11
54.86279743964562
 21
-203.7619815312925
 31
0.0
 11
54.97975917904565
 21
-203.5320927766925
 31
0.0
  0
SPLINE
  5
21A4
330
1F
100
AcDbEntity
  8
0
  6
Continuous
100
AcDbSpline
210
0.0
220
0.0
230
1.0
 70
     8
 71
     3
 72
    13
 73
     9
 74
     7
 42
0.0000000001
 43
0.0000000001
 44
0.0000000001
 12
-0.5743371276802692
 22
0.8186188757706348
 32
0.0
 13
-0.9612065601601898
 23
0.2758295645956311
 33
0.0
 40
0.0
 40
0.0
 40
0.0
 40
0.0
 40
0.5766478332821019
 40
1.213076345697432
 40
1.897960780417907
 40
2.616294587393844
 40
3.350835343843432
 40
4.083327997962278
 40
4.083327997962278
 40
4.083327997962278
 40
4.083327997962278
 10
58.12784885084565
 20
-206.1513632694925
 30
0.0
 10
58.01745209742889
 20
-205.9940116691602
 30
0.0
 10
57.75524948111138
 20
-205.683672470907
 30
0.0
 10
57.28415722705958
 20
-205.2592354930541
 30
0.0
 10
56.72920921029792
 20
-204.8641208162655
 30
0.0
 10
56.10868805373306
 20
-204.5114751759418
 30
0.0
 10
55.44310601573505
 20
-204.2129339615933
 30
0.0
 10
54.97937791338168
 20
-204.0550071954443
 30
0.0
 10
54.74468566524561
 20
-203.9876594854926
 30
0.0
 11
58.12784885084565
 21
-206.1513632694925
 31
0.0
 11
57.75938196964565
 21
-205.7077926650926
 31
0.0
 11
57.28886700364565
 21
-205.2792405466925
 31
0.0
 11
56.73223070524564
 21
-204.8802133292926
 31
0.0
 11
56.10831506304563
 21
-204.5242179224926
 31
0.0
 11
55.43823942324562
 21
-204.2233047126926
 31
0.0
 11
54.74468566524561
 21
-203.9876594854926
 31
0.0
  0
SPLINE
  5
21A5
330
1F
100
AcDbEntity
  8
0
  6
Continuous
100
AcDbSpline
210
0.0
220
0.0
230
1.0
 70
     8
 71
     3
 72
     9
 73
     5
 74
     3
 42
0.0000000001
 43
0.0000000001
 44
0.0000000001
 12
0.3262564661870661
 22
0.9452812905538373
 32
0.0
 13
0.3100791805603857
 23
0.9507107350729768
 33
0.0
 40
0.0
 40
0.0
 40
0.0
 40
0.0
 40
0.3111776169713669
 40
0.628025679803695
 40
0.628025679803695
 40
0.628025679803695
 40
0.628025679803695
 10
58.12791372604563
 20
-206.1509704064925
 30
0.0
 10
58.16175496260216
 20
-206.0529202800385
 30
0.0
 10
58.22932967687173
 20
-205.8547818823029
 30
0.0
 10
58.29508743621726
 20
-205.6560324733999
 30
0.0
 10
58.32783676544565
 20
-205.5556221884926
 30
0.0
 11
58.12791372604563
 21
-206.1509704064925
 31
0.0
 11
58.22827347144563
 21
-205.8564208676926
 31
0.0
 11
58.32783676544565
 21
-205.5556221884926
 31
0.0
  0
SPLINE
  5
21A6
330
1F
100
AcDbEntity
  8
0
  6
Continuous
100
AcDbSpline
210
0.0
220
0.0
230
1.0
 70
     8
 71
     3
 72
    26
 73
    22
 74
    20
 42
0.0000000001
 43
0.0000000001
 44
0.0000000001
 12
0.4481478311184287
 22
0.8939594629869123
 32
0.0
 13
0.8172755707802055
 23
0.5762470315809783
 33
0.0
 40
0.0
 40
0.0
 40
0.0
 40
0.0
 40
2.05901651008584
 40
4.270437035345067
 40
6.61258235318428
 40
9.042788124011567
 40
11.50226827028382
 40
13.93864314245408
 40
16.14990659093242
 40
18.0339161010711
 40
19.5819118432694
 40
20.84305392940898
 40
21.87346481994154
 40
22.69204080258762
 40
23.31840528158326
 40
23.78808590582402
 40
24.12583512734812
 40
24.35509067621624
 40
24.49546186571855
 40
24.56537626242417
 40
24.5844109407311
 40
24.5844109407311
 40
24.5844109407311
 40
24.5844109407311
 10
54.97975917904565
 20
-203.5320927766925
 30
0.0
 10
55.28734044012299
 20
-202.9185336788133
 30
0.0
 10
55.93583377775494
 20
-201.6512608110891
 30
0.0
 10
56.97679179388658
 20
-199.7081848671629
 30
0.0
 10
58.12240569109717
 20
-197.6813874860081
 30
0.0
 10
59.36501044285546
 20
-195.6153141953742
 30
0.0
 10
60.69038732003164
 20
-193.5636706135641
 30
0.0
 10
62.05051780194151
 20
-191.6231659065625
 30
0.0
 10
63.37564382651366
 20
-189.894740057545
 30
0.0
 10
64.58631795508303
 20
-188.4541994416106
 30
0.0
 10
65.64496157194876
 20
-187.3017794299524
 30
0.0
 10
66.5494083645324
 20
-186.3957687602146
 30
0.0
 10
67.3094719809517
 20
-185.6904010318272
 30
0.0
 10
67.9331452513225
 20
-185.1499594598804
 30
0.0
 10
68.42739120175105
 20
-184.7460774294709
 30
0.0
 10
68.80446358430041
 20
-184.452364707446
 30
0.0
 10
69.08088192171772
 20
-184.2449634190682
 30
0.0
 10
69.27133163094581
 20
-184.1059349644121
 30
0.0
 10
69.39042211614236
 20
-184.0205883573614
 30
0.0
 10
69.45277844538337
 20
-183.9763752691688
 30
0.0
 10
69.47700244118633
 20
-183.9592784141164
 30
0.0
 10
69.48218796704563
 20
-183.9556221884926
 30
0.0
 11
54.97975917904565
 21
-203.5320927766925
 31
0.0
 11
55.91821436884565
 21
-201.6993759830925
 31
0.0
 11
56.96332117964566
 21
-199.7504961782925
 31
0.0
 11
58.11690879924563
 21
-197.7121438304925
 31
0.0
 11
59.37095745584564
 21
-195.6304949514925
 31
0.0
 11
60.70749506704564
 21
-193.5658618596926
 31
0.0
 11
62.10828887124566
 21
-191.5724478946925
 31
0.0
 11
63.45595396884564
 21
-189.8193121830925
 31
0.0
 11
64.66982027104568
 21
-188.3784719994926
 31
0.0
 11
65.71818831124566
 21
-187.2395184138925
 31
0.0
 11
66.60988300344562
 21
-186.3476888688925
 31
0.0
 11
67.36558789944562
 21
-185.6472199448925
 31
0.0
 11
67.98444388684564
 21
-185.1114178300925
 31
0.0
 11
68.46957275164564
 21
-184.7152077278925
 31
0.0
 11
68.84015665544561
 21
-184.4266467134925
 31
0.0
 11
69.11033287944562
 21
-184.2239663132925
 31
0.0
 11
69.2955052904456
 21
-184.0888023946926
 31
0.0
 11
69.40960326444562
 21
-184.0070361230925
 31
0.0
 11
69.46663650224562
 21
-183.9665981130925
 31
0.0
 11
69.48218796704563
 21
-183.9556221884926
 31
0.0
  0
SPLINE
  5
21A7
330
1F
100
AcDbEntity
  8
0
  6
Continuous
100
AcDbSpline
210
0.0
220
0.0
230
1.0
 70
     8
 71
     3
 72
    12
 73
     8
 74
     6
 42
0.0000000001
 43
0.0000000001
 44
0.0000000001
 12
-0.6154946455382273
 22
0.7881410668869958
 32
0.0
 13
-0.9616378902842264
 23
0.2743220151021468
 33
0.0
 40
0.0
 40
0.0
 40
0.0
 40
0.0
 40
0.6743494586255135
 40
1.432279064721446
 40
2.252402989345699
 40
3.10749157399257
 40
3.967392450095711
 40
3.967392450095711
 40
3.967392450095711
 40
3.967392450095711
 10
58.32783971004565
 20
-205.5556221884926
 30
0.0
 10
58.18948688304378
 20
-205.3784613545674
 30
0.0
 10
57.85688484517301
 20
-205.032116261743
 30
0.0
 10
57.2624809368231
 20
-204.5704328470189
 30
0.0
 10
56.56540638072438
 20
-204.1523082337919
 30
0.0
 10
55.79717290750128
 20
-203.7969265924974
 30
0.0
 10
55.25539693382878
 20
-203.6107197089994
 30
0.0
 10
54.97975917904565
 20
-203.5320897952925
 30
0.0
 11
58.32783971004565
 21
-205.5556221884926
 31
0.0
 11
57.86623569104566
 21
-205.0640238544926
 31
0.0
 11
57.27066906084561
 21
-204.5952406670926
 31
0.0
 11
56.56878034024564
 21
-204.1710290740926
 31
0.0
 11
55.79314450784565
 21
-203.8110769340926
 31
0.0
 11
54.97975917904565
 21
-203.5320897952925
 31
0.0
  0
SPLINE
  5
21A8
330
1F
100
AcDbEntity
  8
0
  6
Continuous
100
AcDbSpline
210
0.0
220
0.0
230
1.0
 70
     8
 71
     3
 72
    26
 73
    22
 74
    20
 42
0.0000000001
 43
0.0000000001
 44
0.0000000001
 12
0.3579550999072425
 22
0.9337387999062672
 32
0.0
 13
0.7351934770671228
 23
0.677857323688366
 33
0.0
 40
0.0
 40
0.0
 40
0.0
 40
0.0
 40
2.189349273290523
 40
4.532960171759614
 40
7.004166411977266
 40
9.554221893333875
 40
12.11744100537177
 40
14.63525827681183
 40
16.89776454508554
 40
18.8045719307789
 40
20.35404409033051
 40
21.60292909939953
 40
22.61311094513463
 40
23.40833364145608
 40
24.01208691744295
 40
24.46195491950658
 40
24.78384565863516
 40
25.00151879088397
 40
25.13442749364627
 40
25.20048558717091
 40
25.2184173148334
 40
25.2184173148334
 40
25.2184173148334
 40
25.2184173148334
 10
58.32783676544565
 20
-205.5556221884926
 30
0.0
 10
58.58906634472984
 20
-204.87419540082
 30
0.0
 10
59.13966195059843
 20
-203.4670323531799
 30
0.0
 10
60.02472882281947
 20
-201.3064504114335
 30
0.0
 10
60.99870090823728
 20
-199.0527681458893
 30
0.0
 10
62.05502859902343
 20
-196.7555674073787
 30
0.0
 10
63.18158021227229
 20
-194.4745045480319
 30
0.0
 10
64.3378901317398
 20
-192.3163690155409
 30
0.0
 10
65.46518807805937
 20
-190.3926947708256
 30
0.0
 10
66.49577703363917
 20
-188.7883835516552
 30
0.0
 10
67.39731741196879
 20
-187.5044767145885
 30
0.0
 10
68.16765751779985
 20
-186.4950056619024
 30
0.0
 10
68.81511609595329
 20
-185.7090278666054
 30
0.0
 10
69.34650030984858
 20
-185.1067479027236
 30
0.0
 10
69.76761273065242
 20
-184.6566859485495
 30
0.0
 10
70.08883587169865
 20
-184.3294653847288
 30
0.0
 10
70.32425877471738
 20
-184.0984665772318
 30
0.0
 10
70.48640223848258
 20
-183.9436821265811
 30
0.0
 10
70.58773878224696
 20
-183.8487143873904
 30
0.0
 10
70.64075595818359
 20
-183.7995572940665
 30
0.0
 10
70.66132951350896
 20
-183.7805694285332
 30
0.0
 10
70.66572394324562
 20
-183.7765177108924
 30
0.0
 11
58.32783676544565
 21
-205.5556221884926
 31
0.0
 11
59.12610382904566
 21
-203.5169903100925
 31
0.0
 11
60.01531620364565
 21
-201.3486237828925
 31
0.0
 11
60.99682244584565
 21
-199.0806939386925
 31
0.0
 11
62.06381640224563
 21
-196.7645966058926
 31
0.0
 11
63.20099725084563
 21
-194.4674435996926
 31
0.0
 11
64.39283508084563
 21
-192.2495783198925
 31
0.0
 11
65.53943452784564
 21
-190.2991311090926
 31
0.0
 11
66.57216049264562
 21
-188.6961989558925
 31
0.0
 11
67.46405768664565
 21
-187.4291617154925
 31
0.0
 11
68.22264789784563
 21
-186.4370656226926
 31
0.0
 11
68.86553640224562
 21
-185.6578597882925
 31
0.0
 11
69.39198803944564
 21
-185.0618498802925
 31
0.0
 11
69.80465577544562
 21
-184.6211420882925
 31
0.0
 11
70.11987820344565
 21
-184.3001809688925
 31
0.0
 11
70.34966630604563
 21
-184.0747678462926
 31
0.0
 11
70.50712513724565
 21
-183.9244737712925
 31
0.0
 11
70.60410581544565
 21
-183.8335921376924
 31
0.0
 11
70.6525466442456
 21
-183.7886793574925
 31
0.0
 11
70.66572394324562
 21
-183.7765177108924
 31
0.0
  0
SPLINE
  5
21A9
330
1F
100
AcDbEntity
  8
0
  6
Continuous
100
AcDbSpline
210
0.0
220
0.0
230
1.0
 70
     8
 71
     3
 72
    13
 73
     9
 74
     7
 42
0.0000000001
 43
0.0000000001
 44
0.0000000001
 12
0.5743459791480157
 22
0.8186126655729847
 32
0.0
 13
0.9612039075251635
 23
0.275838808289111
 33
0.0
 40
0.0
 40
0.0
 40
0.0
 40
0.0
 40
0.5766448829012217
 40
1.213072066331941
 40
1.897956200175374
 40
2.616290177829769
 40
3.350831074806688
 40
4.083323368423021
 40
4.083323368423021
 40
4.083323368423021
 40
4.083323368423021
 10
96.69590916684562
 20
-206.1513632656925
 30
0.0
 10
96.80630705680916
 20
-205.9940136641322
 30
0.0
 10
97.06851180044308
 20
-205.6836782427643
 30
0.0
 10
97.53960517944896
 20
-205.2592449699467
 30
0.0
 10
98.09455343503012
 20
-204.8641316177738
 30
0.0
 10
98.71507387627071
 20
-204.5114848741873
 30
0.0
 10
99.3806542811206
 20
-204.2129402597977
 30
0.0
 10
99.84438086509358
 20
-204.0550094192766
 30
0.0
 10
100.0790723500456
 20
-203.9876594854926
 30
0.0
 11
96.69590916684562
 21
-206.1513632656925
 31
0.0
 11
97.06437838904562
 21
-205.7077984414926
 31
0.0
 11
97.53489479864565
 21
-205.2792498816926
 31
0.0
 11
98.09153158004567
 21
-204.8802238544925
 31
0.0
 11
98.71544673884566
 21
-204.5242272560925
 31
0.0
 11
99.38552093604565
 21
-204.2233104908925
 31
0.0
 11
100.0790723500456
 21
-203.9876594854926
 31
0.0
  0
SPLINE
  5
21AA
330
1F
100
AcDbEntity
  8
0
  6
Continuous
100
AcDbSpline
210
0.0
220
0.0
230
1.0
 70
     8
 71
     3
 72
     9
 73
     5
 74
     3
 42
0.0000000001
 43
0.0000000001
 44
0.0000000001
 12
0.4481716057801238
 22
-0.8939475441951085
 32
0.0
 13
0.4686506626414111
 23
-0.8833835839575955
 33
0.0
 40
0.0
 40
0.0
 40
0.0
 40
0.0
 40
0.2579319462622622
 40
0.5126493010530628
 40
0.5126493010530628
 40
0.5126493010530628
 40
0.5126493010530628
 10
99.84399883604566
 20
-203.5320927766925
 30
0.0
 10
99.88253142755843
 20
-203.6089519866694
 30
0.0
 10
99.96003190111169
 20
-203.7612551482727
 30
0.0
 10
100.039281197676
 20
-203.9126551121022
 30
0.0
 10
100.0790723500456
 20
-203.9876594886926
 30
0.0
 11
99.84399883604566
 21
-203.5320927766925
 31
0.0
 11
99.96096057744566
 21
-203.7619815322925
 31
0.0
 11
100.0790723500456
 21
-203.9876594886926
 31
0.0
  0
SPLINE
  5
21AB
330
1F
100
AcDbEntity
  8
0
  6
Continuous
100
AcDbSpline
210
0.0
220
0.0
230
1.0
 70
     8
 71
     3
 72
    12
 73
     8
 74
     6
 42
0.0000000001
 43
0.0000000001
 44
0.0000000001
 12
0.6154957761917574
 22
0.7881401839077272
 32
0.0
 13
0.9616378192716316
 23
0.27432226403721
 33
0.0
 40
0.0
 40
0.0
 40
0.0
 40
0.0
 40
0.6743491975550454
 40
1.432278180106513
 40
2.252401179239462
 40
3.107488661630939
 40
3.967388420408109
 40
3.967388420408109
 40
3.967388420408109
 40
3.967388420408109
 10
96.49592084884569
 20
-205.5556221884926
 30
0.0
 10
96.63427387643682
 20
-205.3784616216329
 30
0.0
 10
96.96687605158303
 20
-205.03211709836
 30
0.0
 10
97.56127975256288
 20
-204.5704344168602
 30
0.0
 10
98.25835367229415
 20
-204.152310481112
 30
0.0
 10
99.02658621697029
 20
-203.7969293473755
 30
0.0
 10
99.56836145997136
 20
-203.6107226359835
 30
0.0
 10
99.84399883624559
 20
-203.5320927530925
 30
0.0
 11
96.49592084884569
 21
-205.5556221884926
 31
0.0
 11
96.95752523044561
 21
-205.0640245530926
 31
0.0
 11
97.55309167004565
 21
-204.5952421316926
 31
0.0
 11
98.25497973824562
 21
-204.1710312484926
 31
0.0
 11
99.03061460264559
 21
-203.8110796410926
 31
0.0
 11
99.84399883624559
 21
-203.5320927530925
 31
0.0
  0
SPLINE
  5
21AC
330
1F
100
AcDbEntity
  8
0
  6
Continuous
100
AcDbSpline
210
0.0
220
0.0
230
1.0
 70
     8
 71
     3
 72
     9
 73
     5
 74
     3
 42
0.0000000001
 43
0.0000000001
 44
0.0000000001
 12
0.3100791782921282
 22
-0.9507107358127807
 32
0.0
 13
0.3262571474494079
 23
-0.9452810554211776
 33
0.0
 40
0.0
 40
0.0
 40
0.0
 40
0.0
 40
0.3167834007741743
 40
0.6278971051054172
 40
0.6278971051054172
 40
0.6278971051054172
 40
0.6278971051054172
 10
96.49592124984565
 20
-205.5556221884926
 30
0.0
 10
96.52866389538187
 20
-205.6560119818404
 30
0.0
 10
96.59440819025551
 20
-205.854720697747
 30
0.0
 10
96.66196802747653
 20
-206.0528188878972
 30
0.0
 10
96.69580238404571
 20
-206.1508488514926
 30
0.0
 11
96.49592124984565
 21
-205.5556221884926
 31
0.0
 11
96.59546395824565
 21
-205.8563595692926
 31
0.0
 11
96.69580238404571
 21
-206.1508488514926
 31
0.0
  0
SPLINE
  5
21AD
330
1F
100
AcDbEntity
  8
0
  6
Continuous
100
AcDbSpline
210
0.0
220
0.0
230
1.0
 70
     8
 71
     3
 72
    10
 73
     6
 74
     4
 42
0.0000000001
 43
0.0000000001
 44
0.0000000001
 12
0.9999999999999912
 22
1.327726630000000E-7
 32
0.0
 13
0.932253470205076
 23
-0.3618058419796363
 33
0.0
 40
0.0
 40
0.0
 40
0.0
 40
0.0
 40
0.825190327862645
 40
1.62558942660831
 40
2.378501665047634
 40
2.378501665047634
 40
2.378501665047634
 40
2.378501665047634
 10
100.0790723500456
 20
-203.9876594854926
 30
0.0
 10
100.3541357926665
 20
-203.9876594489717
 30
0.0
 10
100.8965488391977
 20
-204.0177394981654
 30
0.0
 10
101.6796060458521
 20
-204.1517801259486
 30
0.0
 10
102.1769487676306
 20
-204.3025512635707
 30
0.0
 10
102.4109171166456
 20
-204.3933539456925
 30
0.0
 11
100.0790723500456
 21
-203.9876594854926
 31
0.0
 11
100.9029574566456
 21
-204.0340535402926
 31
0.0
 11
101.6915111366456
 21
-204.1712461458926
 31
0.0
 11
102.4109171166456
 21
-204.3933539456925
 31
0.0
  0
SPLINE
  5
21AE
330
1F
100
AcDbEntity
  8
0
  6
Continuous
100
AcDbSpline
210
0.0
220
0.0
230
1.0
 70
     8
 71
     3
 72
    16
 73
    12
 74
    10
 42
0.0000000001
 43
0.0000000001
 44
0.0000000001
 12
0.6124946773343678
 22
0.7904747119529306
 32
0.0
 13
0.998401724408208
 23
-0.0565154553968804
 33
0.0
 40
0.0
 40
0.0
 40
0.0
 40
0.0
 40
0.5736115548329606
 40
1.222914999159394
 40
1.934261076829913
 40
2.689332224233477
 40
3.465224182286836
 40
4.242980324634628
 40
4.967144395038501
 40
5.594748523436561
 40
6.126209065619664
 40
6.126209065619664
 40
6.126209065619664
 40
6.126209065619664
 10
97.09906004164564
 20
-207.7760505190926
 30
0.0
 10
97.2161713830432
 20
-207.6249087095661
 30
0.0
 10
97.5049434785162
 20
-207.3334190866713
 30
0.0
 10
98.01567171866554
 20
-206.9381149894335
 30
0.0
 10
98.62165891607646
 20
-206.5742953905658
 30
0.0
 10
99.29833565834427
 20
-206.2544279302222
 30
0.0
 10
100.0221660280811
 20
-205.9899522246832
 30
0.0
 10
100.756887806245
 20
-205.7943302901143
 30
0.0
 10
101.4572363969325
 20
-205.6732103698919
 30
0.0
 10
102.084312686684
 20
-205.6243223712863
 30
0.0
 10
102.4709862897221
 20
-205.6366182391702
 30
0.0
 10
102.6478566636456
 20
-205.6466301506925
 30
0.0
 11
97.09906004164564
 21
-207.7760505190926
 31
0.0
 11
97.49457901844563
 21
-207.3606050294926
 31
0.0
 11
98.00622360764565
 21
-206.9608366250926
 31
0.0
 11
98.61443383844566
 21
-206.5919280220926
 31
0.0
 11
99.29642574264564
 21
-206.2678609298925
 31
0.0
 11
100.0250826880456
 21
-206.0012762594925
 31
0.0
 11
100.7767195262456
 21
-205.8014096028926
 31
0.0
 11
101.4905846430456
 21
-205.6797124546925
 31
0.0
 11
102.1165402542456
 21
-205.6342535194926
 31
0.0
 11
102.6478566636456
 21
-205.6466301506925
 31
0.0
  0
SPLINE
  5
21AF
330
1F
100
AcDbEntity
  8
0
  6
Continuous
100
AcDbSpline
210
0.0
220
0.0
230
1.0
 70
     8
 71
     3
 72
     9
 73
     5
 74
     3
 42
0.0000000001
 43
0.0000000001
 44
0.0000000001
 12
0.167296239912796
 22
-0.9859066731243076
 32
0.0
 13
0.204677053217303
 23
-0.9788295581388423
 33
0.0
 40
0.0
 40
0.0
 40
0.0
 40
0.0
 40
0.6547667614721875
 40
1.275187171578597
 40
1.275187171578597
 40
1.275187171578597
 40
1.275187171578597
 10
102.4109171132456
 20
-204.3933539448925
 30
0.0
 10
102.447430452317
 20
-204.6085335847177
 30
0.0
 10
102.5224741814749
 20
-205.0269489034034
 30
0.0
 10
102.6054566515468
 20
-205.443861437131
 30
0.0
 10
102.6477852586456
 20
-205.6462900490926
 30
0.0
 11
102.4109171132456
 21
-204.3933539448925
 31
0.0
 11
102.5265884738456
 21
-205.0378224454926
 31
0.0
 11
102.6477852586456
 21
-205.6462900490926
 31
0.0
  0
SPLINE
  5
21B0
330
1F
100
AcDbEntity
  8
0
  6
Continuous
100
AcDbSpline
210
0.0
220
0.0
230
1.0
 70
     8
 71
     3
 72
    16
 73
    12
 74
    10
 42
0.0000000001
 43
0.0000000001
 44
0.0000000001
 12
0.7279925816524301
 22
0.6855850064426949
 32
0.0
 13
0.9988832975540599
 23
-0.0472457179808644
 33
0.0
 40
0.0
 40
0.0
 40
0.0
 40
0.0
 40
0.5525776671962434
 40
1.189453551727872
 40
1.894147340855725
 40
2.645877092976483
 40
3.419912978362515
 40
4.194703400905348
 40
4.930535605928629
 40
5.577742483287867
 40
6.102916469881637
 40
6.102916469881637
 40
6.102916469881637
 40
6.102916469881637
 10
96.69590916684562
 20
-206.1513632656925
 30
0.0
 10
96.82999998101418
 20
-206.0250836111842
 30
0.0
 10
97.14674699759966
 20
-205.7834739717711
 30
0.0
 10
97.68912578685213
 20
-205.4588283116054
 30
0.0
 10
98.32054828361849
 20
-205.159443194781
 30
0.0
 10
99.01644803787613
 20
-204.8958296572636
 30
0.0
 10
99.75223490366872
 20
-204.6773355888691
 30
0.0
 10
100.4968559156126
 20
-204.514361864146
 30
0.0
 10
101.2093350372439
 20
-204.4115596283234
 30
0.0
 10
101.8451753005388
 20
-204.3708661785934
 30
0.0
 10
102.2360546088061
 20
-204.3850832050053
 30
0.0
 10
102.4109171166456
 20
-204.3933539456925
 30
0.0
 11
96.69590916684562
 21
-206.1513632656925
 31
0.0
 11
97.12944525864565
 21
-205.8087431620926
 31
0.0
 11
97.67433088044564
 21
-205.4790303302926
 31
0.0
 11
98.30989229584566
 21
-205.1746374530926
 31
0.0
 11
99.01238915524566
 21
-204.9070635702926
 31
0.0
 11
99.75435023264566
 21
-204.6865520932925
 31
0.0
 11
100.5112465250456
 21
-204.5209978682926
 31
0.0
 11
101.2397835312456
 21
-204.4176399244926
 31
0.0
 11
101.8859074934456
 21
-204.3802157668925
 31
0.0
 11
102.4109171166456
 21
-204.3933539456925
 31
0.0
  0
SPLINE
  5
21B1
330
1F
100
AcDbEntity
  8
0
  6
Continuous
100
AcDbSpline
210
0.0
220
0.0
230
1.0
 70
     8
 71
     3
 72
     9
 73
     5
 74
     3
 42
0.0000000001
 43
0.0000000001
 44
0.0000000001
 12
0.2189997576826763
 22
-0.9757249131465944
 32
0.0
 13
0.2629115150481772
 23
-0.9648199496564487
 33
0.0
 40
0.0
 40
0.0
 40
0.0
 40
0.0
 40
0.8573838127118432
 40
1.674588744195292
 40
1.674588744195292
 40
1.674588744195292
 40
1.674588744195292
 10
96.69580238404571
 20
-206.1508488514926
 30
0.0
 10
96.75839133312068
 20
-206.4297057668898
 30
0.0
 10
96.88681480355177
 20
-206.9729844776572
 30
0.0
 10
97.02743362996527
 20
-207.5132319792083
 30
0.0
 10
97.09905115884565
 20
-207.7760505194926
 30
0.0
 11
96.69580238404571
 21
-206.1508488514926
 31
0.0
 11
96.89309300164561
 21
-206.9852249144926
 31
0.0
 11
97.09905115884565
 21
-207.7760505194926
 31
0.0
  0
SPLINE
  5
21B2
330
1F
100
AcDbEntity
  8
0
  6
Continuous
100
AcDbSpline
210
0.0
220
0.0
230
1.0
 70
     8
 71
     3
 72
    11
 73
     7
 74
     5
 42
0.0000000001
 43
0.0000000001
 44
0.0000000001
 12
-0.6342171777391901
 22
0.7731549466054891
 32
0.0
 13
1.251885632900000E-6
 23
0.9999999999992164
 33
0.0
 40
0.0
 40
0.0
 40
0.0
 40
0.0
 40
0.7209608109934728
 40
1.459133039379198
 40
2.210090904071584
 40
2.96784299030897
 40
2.96784299030897
 40
2.96784299030897
 40
2.96784299030897
 10
98.04888017924564
 20
-210.5310459822926
 30
0.0
 10
97.8964649356427
 20
-210.3452411765165
 30
0.0
 10
97.62298930421221
 20
-209.9391975162905
 30
0.0
 10
97.32397156031209
 20
-209.2620778789588
 30
0.0
 10
97.14027140896945
 20
-208.5325155426463
 30
0.0
 10
97.09905972543933
 20
-208.0286345478382
 30
0.0
 10
97.09906004164564
 20
-207.7760505190926
 30
0.0
 11
98.04888017924564
 21
-210.5310459822926
 31
0.0
 11
97.64478416364565
 21
-209.9339773922926
 31
0.0
 11
97.34529217024566
 21
-209.2592902168926
 31
0.0
 11
97.16117664264566
 21
-208.5312523146925
 31
0.0
 11
97.09906004164564
 21
-207.7760505190926
 31
0.0
  0
SPLINE
  5
21B3
330
1F
100
AcDbEntity
  8
0
  6
Continuous
100
AcDbSpline
210
0.0
220
0.0
230
1.0
 70
     8
 71
     3
 72
    15
 73
    11
 74
     9
 42
0.0000000001
 43
0.0000000001
 44
0.0000000001
 12
0.6203744740902516
 22
-0.7843057515390562
 32
0.0
 13
0.3829943037870363
 23
-0.9237507040683018
 33
0.0
 40
0.0
 40
0.0
 40
0.0
 40
0.0
 40
0.4618461931418162
 40
0.9580830152807336
 40
1.476481290230304
 40
2.013504720184889
 40
2.566835999276013
 40
3.129785501406637
 40
3.694103058697503
 40
4.250657907593342
 40
4.250657907593342
 40
4.250657907593342
 40
4.250657907593342
 10
102.6477852586456
 20
-205.6462900490926
 30
0.0
 10
102.7432911217059
 20
-205.7670329242951
 30
0.0
 10
102.9353665173382
 20
-206.0223305511021
 30
0.0
 10
103.2149890640799
 20
-206.4274768882141
 30
0.0
 10
103.4931734096588
 20
-206.8636426076715
 30
0.0
 10
103.7660745445938
 20
-207.3253722547299
 30
0.0
 10
104.0310203521169
 20
-207.8087142418417
 30
0.0
 10
104.2847393478804
 20
-208.3082669223702
 30
0.0
 10
104.5233563403683
 20
-208.8163872417958
 30
0.0
 10
104.6717094308216
 20
-209.1593705239859
 30
0.0
 10
104.7427618764456
 20
-209.3307431684926
 30
0.0
 11
102.6477852586456
 21
-205.6462900490926
 31
0.0
 11
102.9260019208456
 21
-206.0149326876925
 31
0.0
 11
103.2083401680456
 21
-206.4230210332925
 31
0.0
 11
103.4873779554456
 21
-206.8599131076926
 31
0.0
 11
103.7608264230456
 21
-207.3221036526926
 31
0.0
 11
104.0269328902456
 21
-207.8072457478925
 31
0.0
 11
104.2819301092456
 21
-208.3091307548925
 31
0.0
 11
104.5217980984456
 21
-208.8199317466925
 31
0.0
 11
104.7427618764456
 21
-209.3307431684926
 31
0.0
  0
SPLINE
  5
21B4
330
1F
100
AcDbEntity
  8
0
  6
Continuous
100
AcDbSpline
210
0.0
220
0.0
230
1.0
 70
     8
 71
     3
 72
    17
 73
    13
 74
    11
 42
0.0000000001
 43
0.0000000001
 44
0.0000000001
 12
0.7368794362878783
 22
0.6760241832775354
 32
0.0
 13
0.6556326433707403
 23
0.7550800202274561
 33
0.0
 40
0.0
 40
0.0
 40
0.0
 40
0.0
 40
0.3741331978253181
 40
0.8867382541525776
 40
1.516716745483886
 40
2.238039483386084
 40
3.020865326336609
 40
3.832793766809647
 40
4.640217962754269
 40
5.409720554312407
 40
6.109460085471553
 40
6.710498443531282
 40
6.710498443531282
 40
6.710498443531282
 40
6.710498443531282
 10
98.04888017924564
 20
-210.5310459822926
 30
0.0
 10
98.14077719921568
 20
-210.4467382857936
 30
0.0
 10
98.35371994294032
 20
-210.2416592009727
 30
0.0
 10
98.71160222645862
 20
-209.8845575669043
 30
0.0
 10
99.14603237771109
 20
-209.4403630993245
 30
0.0
 10
99.63901106756208
 20
-208.9274947525541
 30
0.0
 10
100.1700080466426
 20
-208.367069908085
 30
0.0
 10
100.7170175293684
 20
-207.782304088797
 30
0.0
 10
101.257359646309
 20
-207.1974035426021
 30
0.0
 10
101.768671018498
 20
-206.6366159049705
 30
0.0
 10
102.2297991379343
 20
-206.1231975444294
 30
0.0
 10
102.516503207825
 20
-205.7979075025462
 30
0.0
 10
102.6478566636456
 20
-205.6466301506925
 30
0.0
 11
98.04888017924564
 21
-210.5310459822926
 31
0.0
 11
98.31980677564562
 21
-210.2730257716925
 31
0.0
 11
98.68324384484563
 21
-209.9115324238926
 31
0.0
 11
99.12413221464563
 21
-209.4615431518925
 31
0.0
 11
99.62420481544569
 21
-208.9417029012926
 31
0.0
 11
100.1627395246456
 21
-208.3735509256926
 31
0.0
 11
100.7174240148456
 21
-207.7806319524926
 31
0.0
 11
101.2652736392456
 21
-207.1875091816925
 31
0.0
 11
101.7835930676456
 21
-206.6187568554926
 31
0.0
 11
102.2509074990456
 21
-206.0979376606926
 31
0.0
 11
102.6478566636456
 21
-205.6466301506925
 31
0.0
  0
SPLINE
  5
21B5
330
1F
100
AcDbEntity
  8
0
  6
Continuous
100
AcDbSpline
210
0.0
220
0.0
230
1.0
 70
     8
 71
     3
 72
    14
 73
    10
 74
     8
 42
0.0000000001
 43
0.0000000001
 44
0.0000000001
 12
0.7861345743799408
 22
-0.6180553623782171
 32
0.0
 13
0.7319213890094227
 23
-0.6813890814435739
 33
0.0
 40
0.0
 40
0.0
 40
0.0
 40
0.0
 40
0.4962430693998183
 40
1.027620304645223
 40
1.577528838745373
 40
2.143611134393457
 40
2.717473568877758
 40
3.287817331564811
 40
3.842784483020816
 40
3.842784483020816
 40
3.842784483020816
 40
3.842784483020816
 10
98.04889657784565
 20
-210.5310459822926
 30
0.0
 10
98.17893452256286
 20
-210.6332812123211
 30
0.0
 10
98.44761368786101
 20
-210.8457606620464
 30
0.0
 10
98.85719691502658
 20
-211.1755500068175
 30
0.0
 10
99.28134750491849
 20
-211.5243249650347
 30
0.0
 10
99.71228278490133
 20
-211.8870916959877
 30
0.0
 10
100.1437220580151
 20
-212.2597702283794
 30
0.0
 10
100.5671957363557
 20
-212.6359219324212
 30
0.0
 10
100.8438514860629
 20
-212.8892560263052
 30
0.0
 10
100.9792489288456
 20
-213.0153055454925
 30
0.0
 11
98.04889657784565
 21
-210.5310459822926
 31
0.0
 11
98.43799105324563
 21
-210.8390438282925
 31
0.0
 11
98.85182034624565
 21
-211.1723711184926
 31
0.0
 11
99.27651711504566
 21
-211.5217019794926
 31
0.0
 11
99.70952504144563
 21
-211.8863295992926
 31
0.0
 11
100.1437353742456
 21
-212.2615355168925
 31
0.0
 11
100.5700523188456
 21
-212.6404099952926
 31
0.0
 11
100.9792489288456
 21
-213.0153055454925
 31
0.0
  0
SPLINE
  5
21B6
330
1F
100
AcDbEntity
  8
0
  6
Continuous
100
AcDbSpline
210
0.0
220
0.0
230
1.0
 70
     8
 71
     3
 72
     9
 73
     5
 74
     3
 42
0.0000000001
 43
0.0000000001
 44
0.0000000001
 12
0.6381535647128011
 22
-0.7699091036248014
 32
0.0
 13
0.6015680964050397
 23
-0.7988215228620327
 33
0.0
 40
0.0
 40
0.0
 40
0.0
 40
0.0
 40
0.2803339037044541
 40
0.5410723692237751
 40
0.5410723692237751
 40
0.5410723692237751
 40
0.5410723692237751
 10
104.7427618764456
 20
-209.3307431684926
 30
0.0
 10
104.8023939030986
 20
-209.4026870433315
 30
0.0
 10
104.91586784281
 20
-209.5428991925698
 30
0.0
 10
105.0260475116583
 20
-209.6857121513942
 30
0.0
 10
105.0783314924456
 20
-209.7551399840925
 30
0.0
 11
104.7427618764456
 21
-209.3307431684926
 31
0.0
 11
104.9190931064456
 21
-209.5486752562926
 31
0.0
 11
105.0783314924456
 21
-209.7551399840925
 31
0.0
  0
SPLINE
  5
21B7
330
1F
100
AcDbEntity
  8
0
  6
Continuous
100
AcDbSpline
210
0.0
220
0.0
230
1.0
 70
     8
 71
     3
 72
    14
 73
    10
 74
     8
 42
0.0000000001
 43
0.0000000001
 44
0.0000000001
 12
0.1248825342815891
 22
0.992171533874767
 32
0.0
 13
0.9847873828822328
 23
0.1737636628181011
 33
0.0
 40
0.0
 40
0.0
 40
0.0
 40
0.0
 40
0.741696251481448
 40
1.515876235058002
 40
2.318087293654406
 40
3.139760399906648
 40
3.96968874487996
 40
4.795595597837802
 40
5.605721958088545
 40
5.605721958088545
 40
5.605721958088545
 40
5.605721958088545
 10
100.9792487082456
 20
-213.0153055612926
 30
0.0
 10
101.0101236774297
 20
-212.7700089254588
 30
0.0
 10
101.130004740839
 20
-212.2745530190148
 30
0.0
 10
101.459985489102
 20
-211.5709085004339
 30
0.0
 10
101.9291622528656
 20
-210.9183564262399
 30
0.0
 10
102.5173043967922
 20
-210.3442684632881
 30
0.0
 10
103.1997147689805
 20
-209.8722450756816
 30
0.0
 10
103.9474690083038
 20
-209.5220858924281
 30
0.0
 10
104.4768278037405
 20
-209.3776658893935
 30
0.0
 10
104.7427618764456
 20
-209.3307423814926
 30
0.0
 11
100.9792487082456
 21
-213.0153055612926
 31
0.0
 11
101.1503953942456
 21
-212.2936254788926
 31
0.0
 11
101.4762593984456
 21
-211.5913667674925
 31
0.0
 11
101.9428062930456
 21
-210.9387745688926
 31
0.0
 11
102.5299426674456
 21
-210.3639549698925
 31
0.0
 11
103.2123815190456
 21
-209.8916645172926
 31
0.0
 11
103.9607313228456
 21
-209.5422439956926
 31
0.0
 11
104.7427618764456
 21
-209.3307423814926
 31
0.0
  0
SPLINE
  5
21B8
330
1F
100
AcDbEntity
  8
0
  6
Continuous
100
AcDbSpline
210
0.0
220
0.0
230
1.0
 70
     8
 71
     3
 72
     9
 73
     5
 74
     3
 42
0.0000000001
 43
0.0000000001
 44
0.0000000001
 12
0.7318734101571561
 22
-0.6814406148043536
 32
0.0
 13
0.7132819088194821
 23
-0.7008772492746759
 33
0.0
 40
0.0
 40
0.0
 40
0.0
 40
0.0
 40
0.2025057072533393
 40
0.3916698382814214
 40
0.3916698382814214
 40
0.3916698382814214
 40
0.3916698382814214
 10
100.9792489288456
 20
-213.0153055454925
 30
0.0
 10
101.0286517763602
 20
-213.0613040833765
 30
0.0
 10
101.1235799281892
 20
-213.1509419822404
 30
0.0
 10
101.2172932964923
 20
-213.2418478331538
 30
0.0
 10
101.2622690806456
 20
-213.2860414450926
 30
0.0
 11
100.9792489288456
 21
-213.0153055454925
 31
0.0
 11
101.1264887584456
 21
-213.1543342980926
 31
0.0
 11
101.2622690806456
 21
-213.2860414450926
 31
0.0
  0
SPLINE
  5
21B9
330
1F
100
AcDbEntity
  8
0
  6
Continuous
100
AcDbSpline
210
0.0
220
0.0
230
1.0
 70
     8
 71
     3
 72
     9
 73
     5
 74
     3
 42
0.0000000001
 43
0.0000000001
 44
0.0000000001
 12
0.6015474334815715
 22
-0.7988370830599531
 32
0.0
 13
0.6091805334302173
 23
-0.7930315742072798
 33
0.0
 40
0.0
 40
0.0
 40
0.0
 40
0.0
 40
0.258302539149333
 40
0.4995988864702232
 40
0.4995988864702232
 40
0.4995988864702232
 40
0.4995988864702232
 10
105.0783314924456
 20
-209.7551399840925
 30
0.0
 10
105.130125235608
 20
-209.8239205330662
 30
0.0
 10
105.2305235662768
 20
-209.9567885245303
 30
0.0
 10
105.3319549854537
 20
-210.0888687751037
 30
0.0
 10
105.3809526646456
 20
-210.1526539824925
 30
0.0
 11
105.0783314924456
 21
-209.7551399840925
 31
0.0
 11
105.2342172488456
 21
-209.9611007392926
 31
0.0
 11
105.3809526646456
 21
-210.1526539824925
 31
0.0
  0
SPLINE
  5
21BA
330
1F
100
AcDbEntity
  8
0
  6
Continuous
100
AcDbSpline
210
0.0
220
0.0
230
1.0
 70
     8
 71
     3
 72
    14
 73
    10
 74
     8
 42
0.0000000001
 43
0.0000000001
 44
0.0000000001
 12
0.1504909908407843
 22
0.9886113805109463
 32
0.0
 13
0.9916143598419498
 23
0.1292321993747705
 33
0.0
 40
0.0
 40
0.0
 40
0.0
 40
0.0
 40
0.7476447115485831
 40
1.519785966112069
 40
2.31326962220302
 40
3.121798194910133
 40
3.936993663060054
 40
4.749588960208219
 40
5.550661428680996
 40
5.550661428680996
 40
5.550661428680996
 40
5.550661428680996
 10
101.2622627462456
 20
-213.2860414450926
 30
0.0
 10
101.2997673440582
 20
-213.039664754954
 30
0.0
 10
101.4308180368061
 20
-212.5458628253422
 30
0.0
 10
101.7746219767645
 20
-211.8506013487283
 30
0.0
 10
102.2540968459758
 20
-211.2153707160152
 30
0.0
 10
102.8492173470355
 20
-210.6660754156936
 30
0.0
 10
103.5357652193435
 20
-210.2246207482633
 30
0.0
 10
104.2855190273517
 20
-209.9089339572545
 30
0.0
 10
104.8135465047751
 20
-209.789639196279
 30
0.0
 10
105.0783314924456
 20
-209.7551310772926
 30
0.0
 11
101.2622627462456
 21
-213.2860414450926
 31
0.0
 11
101.4516535904456
 21
-212.5627823470926
 31
0.0
 11
101.7917598746456
 21
-211.8695797558925
 31
0.0
 11
102.2684476196456
 21
-211.2352414342925
 31
0.0
 11
102.8619068596456
 21
-210.6861288926925
 31
0.0
 11
103.5474748956456
 21
-210.2450618690926
 31
0.0
 11
104.2966612164456
 21
-209.9303699980926
 31
0.0
 11
105.0783314924456
 21
-209.7551310772926
 31
0.0
  0
SPLINE
  5
21BB
330
1F
100
AcDbEntity
  8
0
  6
Continuous
100
AcDbSpline
210
0.0
220
0.0
230
1.0
 70
     8
 71
     3
 72
    11
 73
     7
 74
     5
 42
0.0000000001
 43
0.0000000001
 44
0.0000000001
 12
0.4535307254005705
 22
-0.8912406415315858
 32
0.0
 13
0.4818844489511556
 23
-0.8762347732537446
 33
0.0
 40
0.0
 40
0.0
 40
0.0
 40
0.0
 40
1.106087026782483
 40
1.869625071243496
 40
2.31207593570261
 40
2.455428830451883
 40
2.455428830451883
 40
2.455428830451883
 40
2.455428830451883
 10
101.2622690806456
 20
-213.2860414450926
 30
0.0
 10
101.4294838978499
 20
-213.614638015539
 30
0.0
 10
101.7165226022761
 20
-214.1678424705867
 30
0.0
 10
102.0798837429304
 20
-214.8475117311097
 30
0.0
 10
102.2949017942075
 20
-215.2425711679958
 30
0.0
 10
102.388852497415
 20
-215.4137519247506
 30
0.0
 10
102.4118790076456
 20
-215.4556221884926
 30
0.0
 11
101.2622690806456
 21
-213.2860414450926
 31
0.0
 11
101.7714889864456
 21
-214.2679394022926
 31
0.0
 11
102.1314049646456
 21
-214.9413269830926
 31
0.0
 11
102.3429069604456
 21
-215.3299523466926
 31
0.0
 11
102.4118790076456
 21
-215.4556221884926
 31
0.0
  0
SPLINE
  5
21BC
330
1F
100
AcDbEntity
  8
0
  6
Continuous
100
AcDbSpline
210
0.0
220
0.0
230
1.0
 70
     8
 71
     3
 72
    12
 73
     8
 74
     6
 42
0.0000000001
 43
0.0000000001
 44
0.0000000001
 12
0.8664182445328261
 22
-0.4993189617275275
 32
0.0
 13
0.0075959043424182
 23
-0.9999711507024695
 33
0.0
 40
0.0
 40
0.0
 40
0.0
 40
0.0
 40
0.6263734050888258
 40
1.252859778458726
 40
1.87904877831736
 40
2.504585634122674
 40
3.129227216159426
 40
3.129227216159426
 40
3.129227216159426
 40
3.129227216159426
 10
91.14045145504562
 20
-220.9180404796926
 30
0.0
 10
91.32135190373199
 20
-221.0222938524535
 30
0.0
 10
91.66250194464855
 20
-221.269295207468
 30
0.0
 10
92.0860337395018
 20
-221.7365523792532
 30
0.0
 10
92.40421022053465
 20
-222.2811082135094
 30
0.0
 10
92.60285059993606
 20
-222.8787286557514
 30
0.0
 10
92.64988800727711
 20
-223.2964078566373
 30
0.0
 10
92.6514695798456
 20
-223.5046157104926
 30
0.0
 11
91.14045145504562
 21
-220.9180404796926
 31
0.0
 11
91.64778400424567
 21
-221.2854058660925
 31
0.0
 11
92.06855717364564
 21
-221.7495557512926
 31
0.0
 11
92.38441644064562
 21
-222.2902456688925
 31
0.0
 11
92.5815868464456
 21
-222.8838955564925
 31
0.0
 11
92.6514695798456
 21
-223.5046157104926
 31
0.0
  0
SPLINE
  5
21BD
330
1F
100
AcDbEntity
  8
0
  6
Continuous
100
AcDbSpline
210
0.0
220
0.0
230
1.0
 70
     8
 71
     3
 72
    18
 73
    14
 74
    12
 42
0.0000000001
 43
0.0000000001
 44
0.0000000001
 12
-2.453406802850000E-5
 22
-0.9999999996990399
 32
0.0
 13
-0.8798170641825501
 23
-0.4753124588869921
 33
0.0
 40
0.0
 40
0.0
 40
0.0
 40
0.0
 40
0.3907773542737041
 40
0.8579813275870132
 40
1.382332206367088
 40
1.94701355402057
 40
2.538042630908421
 40
3.143710058153917
 40
3.753601923985998
 40
4.357737570003583
 40
4.946098278090455
 40
5.508585243005974
 40
6.034197012476367
 40
6.034197012476367
 40
6.034197012476367
 40
6.034197012476367
 10
93.86189073604565
 20
-238.2024671358925
 30
0.0
 10
93.86188754025959
 20
-238.3327262539445
 30
0.0
 10
93.85291753926983
 20
-238.618796058121
 30
0.0
 10
93.80619579801399
 20
-239.0776471417468
 30
0.0
 10
93.71103859945615
 20
-239.5882847494776
 30
0.0
 10
93.55753002372777
 20
-240.1277785653165
 30
0.0
 10
93.34040187931163
 20
-240.6744281674274
 30
0.0
 10
93.05926148953908
 20
-241.2083178307268
 30
0.0
 10
92.71864846277138
 20
-241.711736359559
 30
0.0
 10
92.3279002422766
 20
-242.1697433877289
 30
0.0
 10
91.90056913232044
 20
-242.5709811788939
 30
0.0
 10
91.45375606511685
 20
-242.9082475990483
 30
0.0
 10
91.14293570975075
 20
-243.0965025205703
 30
0.0
 10
90.98878830844566
 20
-243.1797791280926
 30
0.0
 11
93.86189073604565
 21
-238.2024671358925
 31
0.0
 11
93.84956162584558
 21
-238.5930499486926
 31
0.0
 11
93.80210729304564
 21
-239.0578376840926
 31
0.0
 11
93.70587382184566
 21
-239.5732821166925
 31
0.0
 11
93.55113584324565
 21
-240.1163485788926
 31
0.0
 11
93.33276407604566
 21
-240.6655563182926
 31
0.0
 11
93.05039410924562
 21
-241.2013736698925
 31
0.0
 11
92.70849772844559
 21
-241.7064231256926
 31
0.0
 11
92.31630807484564
 21
-242.1659524004926
 31
0.0
 11
91.88734288944563
 21
-242.5686398630926
 31
0.0
 11
91.43836471364566
 21
-242.9074763772926
 31
0.0
 11
90.98878830844566
 21
-243.1797791280926
 31
0.0
  0
SPLINE
  5
21BE
330
1F
100
AcDbEntity
  8
0
  6
Continuous
100
AcDbSpline
210
0.0
220
0.0
230
1.0
 70
     8
 71
     3
 72
    18
 73
    14
 74
    12
 42
0.0000000001
 43
0.0000000001
 44
0.0000000001
 12
0.007467364533859999
 22
-0.9999721188447798
 32
0.0
 13
-0.9288227817838672
 23
-0.370524277260315
 33
0.0
 40
0.0
 40
0.0
 40
0.0
 40
0.0
 40
0.1963155186903587
 40
0.4298279107372483
 40
0.6911897735896422
 40
0.9730452558079846
 40
1.2699624777251
 40
1.577795221282763
 40
1.892801872532615
 40
2.21084761865259
 40
2.526923759869119
 40
2.835093401776653
 40
3.128129595745647
 40
3.128129595745647
 40
3.128129595745647
 40
3.128129595745647
 10
92.84730804924564
 20
-238.2024671358925
 30
0.0
 10
92.84779670242621
 20
-238.2679038176215
 30
0.0
 10
92.84347416644333
 20
-238.411273332662
 30
0.0
 10
92.81689673202752
 20
-238.6404673608618
 30
0.0
 10
92.76106859667985
 20
-238.8938122880646
 30
0.0
 10
92.66986660133898
 20
-239.1592913107722
 30
0.0
 10
92.54010843553077
 20
-239.4256786688927
 30
0.0
 10
92.3717481481094
 20
-239.6828869183209
 30
0.0
 10
92.16784991531065
 20
-239.9222602296174
 30
0.0
 10
91.93436895013205
 20
-240.1368638972404
 30
0.0
 10
91.67967856067841
 20
-240.3218020626068
 30
0.0
 10
91.41409784832541
 20
-240.4743503660265
 30
0.0
 10
91.23117768599417
 20
-240.5570115559654
 30
0.0
 10
91.14045145504562
 20
-240.5932038972926
 30
0.0
 11
92.84730804924564
 21
-238.2024671358925
 31
0.0
 11
92.84130221984565
 21
-238.3986907656925
 31
0.0
 11
92.81428472904563
 21
-238.6306349236925
 31
0.0
 11
92.75792898704565
 21
-238.8858486648925
 31
0.0
 11
92.66631355544558
 21
-239.1523990832926
 31
0.0
 11
92.53635662864564
 21
-239.4193654366926
 31
0.0
 11
92.36794013824564
 21
-239.6770413644926
 31
0.0
 11
92.16391799344568
 21
-239.9170500200925
 31
0.0
 11
91.93000926024557
 21
-240.1325489786926
 31
0.0
 11
91.67446208144561
 21
-240.3185591032926
 31
0.0
 11
91.40739018564564
 21
-240.4723158288926
 31
0.0
 11
91.14045145504562
 21
-240.5932038972926
 31
0.0
  0
SPLINE
  5
21BF
330
1F
100
AcDbEntity
  8
0
  6
Continuous
100
AcDbSpline
210
0.0
220
0.0
230
1.0
 70
     8
 71
     3
 72
    10
 73
     6
 74
     4
 42
0.0000000001
 43
0.0000000001
 44
0.0000000001
 12
-0.8798602550908501
 22
-0.4752325025831719
 32
0.0
 13
-0.9734075456762567
 23
0.2290802261665689
 33
0.0
 40
0.0
 40
0.0
 40
0.0
 40
0.0
 40
0.8459709392468694
 40
1.757327911374503
 40
2.713602798509809
 40
2.713602798509809
 40
2.713602798509809
 40
2.713602798509809
 10
90.98878830844566
 20
-243.1797791280926
 30
0.0
 10
90.74067623964393
 20
-243.3137900902829
 30
0.0
 10
90.19142729632327
 20
-243.5346236469205
 30
0.0
 10
89.28658602626477
 20
-243.6599326466605
 30
0.0
 10
88.66055937893836
 20
-243.5884515385666
 30
0.0
 10
88.35027764864562
 20
-243.5154303160925
 30
0.0
 11
90.98878830844566
 21
-243.1797791280926
 31
0.0
 11
90.20335262544565
 21
-243.4940363760926
 31
0.0
 11
89.3007847632456
 21
-243.6203011168926
 31
0.0
 11
88.35027764864562
 21
-243.5154303160925
 31
0.0
  0
SPLINE
  5
21C0
330
1F
100
AcDbEntity
  8
0
  6
Continuous
100
AcDbSpline
210
0.0
220
0.0
230
1.0
 70
     8
 71
     3
 72
    26
 73
    22
 74
    20
 42
0.0000000001
 43
0.0000000001
 44
0.0000000001
 12
0.8172743256504343
 22
-0.576248797510787
 32
0.0
 13
0.4481481768749697
 23
-0.8939592896567724
 33
0.0
 40
0.0
 40
0.0
 40
0.0
 40
0.0
 40
0.0192042846538805
 40
0.0899395383538089
 40
0.2320333259786544
 40
0.4637786951916381
 40
0.8045096496403799
 40
1.27717420808828
 40
1.906107523271428
 40
2.727257090702371
 40
3.759605073185296
 40
5.022800865274854
 40
6.572828498310519
 40
8.45826864099368
 40
10.66922447675287
 40
13.10258763044982
 40
15.55784065484796
 40
17.98374280754661
 40
20.32152636296639
 40
22.52893914687682
 40
24.58441459421753
 40
24.58441459421753
 40
24.58441459421753
 40
24.58441459421753
 10
85.34157004824564
 20
-183.9556221884926
 30
0.0
 10
85.34680177117568
 20
-183.9593110038056
 30
0.0
 10
85.37129540679597
 20
-183.9765983750297
 30
0.0
 10
85.43438823454422
 20
-184.0213362862582
 30
0.0
 10
85.55483483548281
 20
-184.1076708847711
 30
0.0
 10
85.74719542320641
 20
-184.2481491044792
 30
0.0
 10
86.02580458512925
 20
-184.4573272886227
 30
0.0
 10
86.40499647138998
 20
-184.7529492835387
 30
0.0
 10
86.90113132088077
 20
-185.1588016240931
 30
0.0
 10
87.52627516041694
 20
-185.7011507302845
 30
0.0
 10
88.28751440789648
 20
-186.4084688553043
 30
0.0
 10
89.1928302793571
 20
-187.3164488688629
 30
0.0
 10
90.25203948757201
 20
-188.4708457233035
 30
0.0
 10
91.46260249976784
 20
-189.9128515232545
 30
0.0
 10
92.78652923237709
 20
-191.6413992661745
 30
0.0
 10
94.14450415834665
 20
-193.5803372077349
 30
0.0
 10
95.46726399295032
 20
-195.6290865023262
 30
0.0
 10
96.70730425492174
 20
-197.6916844221381
 30
0.0
 10
97.85063314171647
 20
-199.7149190502197
 30
0.0
 10
98.8896178917816
 20
-201.6545470781882
 30
0.0
 10
99.53694631126666
 20
-202.919588986422
 30
0.0
 10
99.84399883604566
 20
-203.5320927766925
 30
0.0
 11
85.34157004824564
 21
-183.9556221884926
 31
0.0
 11
85.35726001904563
 21
-183.9666960028925
 31
0.0
 11
85.41496172944567
 21
-184.0076104102926
 31
0.0
 11
85.53045259784567
 21
-184.0903902616925
 31
0.0
 11
85.71761078784566
 21
-184.2270567464925
 31
0.0
 11
85.99011001224567
 21
-184.4316093216925
 31
0.0
 11
86.36292571784563
 21
-184.7221609254925
 31
0.0
 11
86.84983975744567
 21
-185.1202461336925
 31
0.0
 11
87.47033155264565
 21
-185.6580904830925
 31
0.0
 11
88.22703225364565
 21
-186.3603343196925
 31
0.0
 11
89.11963861644566
 21
-187.2541561644925
 31
0.0
 11
90.16871221804563
 21
-188.3952215620926
 31
0.0
 11
91.38271075984564
 21
-189.8378206304926
 31
0.0
 11
92.72935537444565
 21
-191.5913524920926
 31
0.0
 11
94.12767759304566
 21
-193.5828221028925
 31
0.0
 11
95.46137727624566
 21
-195.6442566928925
 31
0.0
 11
96.71284674204564
 21
-197.7224350852925
 31
0.0
 11
97.86407451684565
 21
-199.7571111190925
 31
0.0
 11
98.9071854444456
 21
-201.7025135944926
 31
0.0
 11
99.84399883604566
 21
-203.5320927766925
 31
0.0
  0
SPLINE
  5
21C1
330
1F
100
AcDbEntity
  8
0
  6
Continuous
100
AcDbSpline
210
0.0
220
0.0
230
1.0
 70
     8
 71
     3
 72
    12
 73
     8
 74
     6
 42
0.0000000001
 43
0.0000000001
 44
0.0000000001
 12
-0.7532042321814478
 22
-0.6577867318698026
 32
0.0
 13
0.3219712333141923
 23
-0.9467494520294892
 33
0.0
 40
0.0
 40
0.0
 40
0.0
 40
0.0
 40
0.3928616320071032
 40
0.8578328563784163
 40
1.406897338423074
 40
2.032233111913159
 40
2.714022926180279
 40
2.714022926180279
 40
2.714022926180279
 40
2.714022926180279
 10
91.14044925344558
 20
-240.5932000426926
 30
0.0
 10
91.04181423881576
 20
-240.6793397656909
 30
0.0
 10
90.87236577534245
 20
-240.9208500008818
 30
0.0
 10
90.74472186456271
 20
-241.3776042952581
 30
0.0
 10
90.72048049796022
 20
-241.9271014637057
 30
0.0
 10
90.80001916053851
 20
-242.5430252383703
 30
0.0
 10
90.91561701065875
 20
-242.9646177504071
 30
0.0
 10
90.98878924644563
 20
-243.1797791280926
 30
0.0
 11
91.14044925344558
 21
-240.5932000426926
 31
0.0
 11
90.90582562544566
 21
-240.9083063978926
 31
0.0
 11
90.76854231144563
 21
-241.3525490468926
 31
0.0
 11
90.73640402244563
 21
-241.9006721496926
 31
0.0
 11
90.81123782004565
 21
-242.5215141040926
 31
0.0
 11
90.98878924644563
 21
-243.1797791280926
 31
0.0
  0
SPLINE
  5
21C2
330
1F
100
AcDbEntity
  8
0
  6
Continuous
100
AcDbSpline
210
0.0
220
0.0
230
1.0
 70
     8
 71
     3
 72
    26
 73
    22
 74
    20
 42
0.0000000001
 43
0.0000000001
 44
0.0000000001
 12
0.7351915333035122
 22
-0.6778594318579856
 32
0.0
 13
0.357955200578557
 23
-0.93373876131323
 33
0.0
 40
0.0
 40
0.0
 40
0.0
 40
0.0
 40
0.0180947570920714
 40
0.0849346407603934
 40
0.2194858445715929
 40
0.4395426551953333
 40
0.7643099639472915
 40
1.217093712015936
 40
1.823413498932073
 40
2.621265204706895
 40
3.633513808194805
 40
4.884637240081506
 40
6.436382683101236
 40
8.344900712401724
 40
10.60734766866642
 40
13.12225778672603
 40
15.68120462646358
 40
18.22682219724516
 40
20.69346425193623
 40
23.03283930238514
 40
25.2184203851148
 40
25.2184203851148
 40
25.2184203851148
 40
25.2184203851148
 10
84.15803407204561
 20
-183.7765177108924
 30
0.0
 10
84.1624684427827
 20
-183.7806062781464
 30
0.0
 10
84.18327330874263
 20
-183.7998078785428
 30
0.0
 10
84.23692145315715
 20
-183.8495529306435
 30
0.0
 10
84.33941837120767
 20
-183.9456262682976
 30
0.0
 10
84.50319559297802
 20
-184.1020317352635
 30
0.0
 10
84.74048950640847
 20
-184.3350154566693
 30
0.0
 10
85.06352037457717
 20
-184.6643666096021
 30
0.0
 10
85.48624231406427
 20
-185.116626134984
 30
0.0
 10
86.0188771908845
 20
-185.7210317855713
 30
0.0
 10
86.66733428477187
 20
-186.5091819612361
 30
0.0
 10
87.43841274864928
 20
-187.5208479534841
 30
0.0
 10
88.34043000181046
 20
-188.8069537424946
 30
0.0
 10
89.37091491391801
 20
-190.4128848807576
 30
0.0
 10
90.49718038264032
 20
-192.336675445886
 30
0.0
 10
91.65165063134101
 20
-194.4930547274527
 30
0.0
 10
92.77597568381987
 20
-196.7708949246714
 30
0.0
 10
93.83012100119365
 20
-199.0642268881514
 30
0.0
 10
94.80214820803568
 20
-201.3139412538168
 30
0.0
 10
95.68553452287443
 20
-203.4706835975784
 30
0.0
 10
96.23514121156259
 20
-204.8753682641801
 30
0.0
 10
96.49592124984565
 20
-205.5556221884926
 30
0.0
 11
84.15803407204561
 21
-183.7765177108924
 31
0.0
 11
84.17133109384562
 21
-183.7887900148925
 31
0.0
 11
84.22034385064566
 21
-183.8342358036925
 31
0.0
 11
84.3185144236456
 21
-183.9262497430925
 31
0.0
 11
84.47766792064564
 21
-184.0782206754926
 31
0.0
 11
84.70943722604564
 21
-184.3057218708925
 31
0.0
 11
85.02656168864561
 21
-184.6289016934925
 31
0.0
 11
85.44075141664563
 21
-185.0717002404925
 31
0.0
 11
85.96859694424566
 21
-185.6699864958924
 31
0.0
 11
86.61233414344564
 21
-186.4511712714925
 31
0.0
 11
87.37170226884561
 21
-187.4454900794925
 31
0.0
 11
88.26420142344566
 21
-188.7148833120925
 31
0.0
 11
89.29704001624562
 21
-190.3197775482925
 31
0.0
 11
90.44276906004568
 21
-192.2706673934925
 31
0.0
 11
91.63249896944568
 21
-194.4863649460925
 31
0.0
 11
92.76725853184558
 21
-196.7799494036926
 31
0.0
 11
93.83205174384563
 21
-199.0921743564925
 31
0.0
 11
94.81154468224564
 21
-201.3560022230926
 31
0.0
 11
95.69905400944565
 21
-203.5204889568925
 31
0.0
 11
96.49592124984565
 21
-205.5556221884926
 31
0.0
  0
SPLINE
  5
21C3
330
1F
100
AcDbEntity
  8
0
  6
Continuous
100
AcDbSpline
210
0.0
220
0.0
230
1.0
 70
     8
 71
     3
 72
    10
 73
     6
 74
     4
 42
0.0000000001
 43
0.0000000001
 44
0.0000000001
 12
-0.9007158468809882
 22
-0.4344087512671269
 32
0.0
 13
-0.9786432646500373
 23
0.2055659518381316
 33
0.0
 40
0.0
 40
0.0
 40
0.0
 40
0.0
 40
0.4670897709573458
 40
0.9764571371529425
 40
1.511297027667155
 40
1.511297027667155
 40
1.511297027667155
 40
1.511297027667155
 10
91.14045137884565
 20
-240.5932039336926
 30
0.0
 10
91.00021299263989
 20
-240.6608398950697
 30
0.0
 10
90.69092683896221
 20
-240.7712336984351
 30
0.0
 10
90.18700312407518
 20
-240.83312453222
 30
0.0
 10
89.83735722435159
 20
-240.7976776272841
 30
0.0
 10
89.66288473884563
 20
-240.7610293368926
 30
0.0
 11
91.14045137884565
 21
-240.5932039336926
 31
0.0
 11
90.70058782864565
 21
-240.7503437164926
 31
0.0
 11
90.19514740664565
 21
-240.8134713138926
 31
0.0
 11
89.66288473884563
 21
-240.7610293368926
 31
0.0
  0
SPLINE
  5
21C4
330
1F
100
AcDbEntity
  8
0
  6
Continuous
100
AcDbSpline
210
0.0
220
0.0
230
1.0
 70
     8
 71
     3
 72
    16
 73
    12
 74
    10
 42
0.0000000001
 43
0.0000000001
 44
0.0000000001
 12
-0.9734344418132522
 22
0.2289659090164349
 32
0.0
 13
-0.9734347901566068
 23
-0.2289644280510903
 33
0.0
 40
0.0
 40
0.0
 40
0.0
 40
0.0
 40
2.895107579687085
 40
5.625905580078271
 40
8.041185475895036
 40
10.21027390713874
 40
12.28907684370497
 40
14.46298729558812
 40
16.88451260008161
 40
19.61854123329643
 40
22.51262538312039
 40
22.51262538312039
 40
22.51262538312039
 40
22.51262538312039
 10
88.35027764864562
 20
-243.5154303160925
 30
0.0
 10
87.41087850503828
 20
-243.294470003198
 30
0.0
 10
85.6067661337145
 20
-242.7773006585375
 30
0.0
 10
83.04769797346343
 20
-241.9818536142124
 30
0.0
 10
80.69203691163331
 20
-241.3456538668659
 30
0.0
 10
78.49316225352769
 20
-240.987720420225
 30
0.0
 10
76.34228851628072
 20
-240.986525113659
 30
0.0
 10
74.13946072103987
 20
-241.3436630452026
 30
0.0
 10
71.77912016719286
 20
-241.9808849878105
 30
0.0
 10
69.21737591301962
 20
-242.7772057387166
 30
0.0
 10
67.41254776567213
 20
-243.2945495420605
 30
0.0
 10
66.47348036664565
 20
-243.5154303160925
 30
0.0
 11
88.35027764864562
 21
-243.5154303160925
 31
0.0
 11
85.55770216044564
 21
-242.7517746078926
 31
0.0
 11
82.94180947844563
 21
-241.9679613678926
 31
0.0
 11
80.60260284464566
 21
-241.3665552658926
 31
0.0
 11
78.45790850204563
 21
-241.0421622952926
 31
0.0
 11
76.37910583364564
 21
-241.0411063930926
 31
0.0
 11
74.22942812224565
 21
-241.3647920274926
 31
0.0
 11
71.88406893484564
 21
-241.9673491470926
 31
0.0
 11
69.26507522824564
 21
-242.7520685440926
 31
0.0
 11
66.47348036664565
 21
-243.5154303160925
 31
0.0
  0
SPLINE
  5
21C5
330
1F
100
AcDbEntity
  8
0
  6
Continuous
100
AcDbSpline
210
0.0
220
0.0
230
1.0
 70
     8
 71
     3
 72
    12
 73
     8
 74
     6
 42
0.0000000001
 43
0.0000000001
 44
0.0000000001
 12
-0.8008730382234499
 22
-0.5988341812611742
 32
0.0
 13
-0.1674108753060373
 23
-0.9858872140510122
 33
0.0
 40
0.0
 40
0.0
 40
0.0
 40
0.0
 40
0.4712945378297007
 40
1.038799651108449
 40
1.686105726210464
 40
2.386681002403021
 40
3.108528815809001
 40
3.108528815809001
 40
3.108528815809001
 40
3.108528815809001
 10
89.66288548564566
 20
-240.7610249860926
 30
0.0
 10
89.53706978950906
 20
-240.8551007456573
 30
0.0
 10
89.29358984651475
 20
-241.1071724524886
 30
0.0
 10
88.98555052324396
 20
-241.5793997232191
 30
0.0
 10
88.71380646064623
 20
-242.1591978601861
 30
0.0
 10
88.49418805330352
 20
-242.8145040727224
 30
0.0
 10
88.39055924200567
 20
-243.2782101395166
 30
0.0
 10
88.35027751724564
 20
-243.5154303160925
 30
0.0
 11
89.66288548564566
 21
-240.7610249860926
 31
0.0
 11
89.32719337924566
 21
-241.0918260608926
 31
0.0
 11
89.01095108944563
 21
-241.5630509198926
 31
0.0
 11
88.73248182824565
 21
-242.1473967296925
 31
0.0
 11
88.50792023204564
 21
-242.8110064094926
 31
0.0
 11
88.35027751724564
 21
-243.5154303160925
 31
0.0
  0
SPLINE
  5
21C6
330
1F
100
AcDbEntity
  8
0
  6
Continuous
100
AcDbSpline
210
0.0
220
0.0
230
1.0
 70
     8
 71
     3
 72
    16
 73
    12
 74
    10
 42
0.0000000001
 43
0.0000000001
 44
0.0000000001
 12
-0.9945305664350318
 22
0.1044459306359758
 32
0.0
 13
-0.9945306023308921
 23
-0.1044455888362603
 33
0.0
 40
0.0
 40
0.0
 40
0.0
 40
0.0
 40
3.150578126296971
 40
6.106578955660743
 40
8.743791687249214
 40
11.15139023350298
 40
13.47972839149197
 40
15.89287285513167
 40
18.536994209909
 40
21.49649593417646
 40
24.64598503086499
 40
24.64598503086499
 40
24.64598503086499
 40
24.64598503086499
 10
89.66288548544563
 20
-240.7610294912925
 30
0.0
 10
88.61843673593099
 20
-240.6513411364784
 30
0.0
 10
86.59898016506813
 20
-240.3932571274159
 30
0.0
 10
83.71220177920282
 20
-239.9924869489801
 30
0.0
 10
81.06392153126694
 20
-239.6739574385629
 30
0.0
 10
78.61103768011782
 20
-239.4970618191196
 30
0.0
 10
76.22574402996204
 20
-239.4964706500792
 30
0.0
 10
73.76864942482406
 20
-239.6729559986173
 30
0.0
 10
71.11506827683074
 20
-239.9919882501364
 30
0.0
 10
68.22521646131676
 20
-240.393209522108
 30
0.0
 10
66.20496029243367
 20
-240.6513794102135
 30
0.0
 10
65.1608725296456
 20
-240.7610294912925
 30
0.0
 11
89.66288548544563
 21
-240.7610294912925
 31
0.0
 11
86.53552713264563
 21
-240.3792281514926
 31
0.0
 11
83.60562596384565
 21
-239.9872842214926
 31
0.0
 11
80.98560769164564
 21
-239.6866262014925
 31
0.0
 11
78.58347923424563
 21
-239.5244237536926
 31
0.0
 11
76.25514113664562
 21
-239.5238934594925
 31
0.0
 11
73.84743052284566
 21
-239.6857446336926
 31
0.0
 11
71.22052405984566
 21
-239.9869757300926
 31
0.0
 11
68.28715140624561
 21
-240.3793726350925
 31
0.0
 11
65.1608725296456
 21
-240.7610294912925
 31
0.0
  0
SPLINE
  5
21C7
330
1F
100
AcDbEntity
  8
0
  6
Continuous
100
AcDbSpline
210
0.0
220
0.0
230
1.0
 70
     8
 71
     3
 72
    11
 73
     7
 74
     5
 42
0.0000000001
 43
0.0000000001
 44
0.0000000001
 12
-0.9734671449859612
 22
-0.2288268289184676
 32
0.0
 13
-0.8798242739955261
 23
0.4752991130732787
 33
0.0
 40
0.0
 40
0.0
 40
0.0
 40
0.0
 40
0.6854580239032345
 40
1.362706059724063
 40
2.035164788025237
 40
2.716540407352284
 40
2.716540407352284
 40
2.716540407352284
 40
2.716540407352284
 10
66.47348036664565
 20
-243.5154303160925
 30
0.0
 10
66.25105674480004
 20
-243.567714044748
 30
0.0
 10
65.79908488331287
 20
-243.634763215108
 30
0.0
 10
65.11735646985773
 20
-243.6130651867961
 30
0.0
 10
64.4524995161938
 20
-243.4664929926618
 30
0.0
 10
64.03479997650986
 20
-243.2877315372712
 30
0.0
 10
63.83496970664563
 20
-243.1797791280926
 30
0.0
 11
66.47348036664565
 21
-243.5154303160925
 31
0.0
 11
65.79522326344565
 21
-243.6145262518925
 31
0.0
 11
65.11834618064566
 21
-243.5921138266925
 31
0.0
 11
64.46170134944563
 21
-243.4471369080926
 31
0.0
 11
63.83496970664563
 21
-243.1797791280926
 31
0.0
  0
SPLINE
  5
21C8
330
1F
100
AcDbEntity
  8
0
  6
Continuous
100
AcDbSpline
210
0.0
220
0.0
230
1.0
 70
     8
 71
     3
 72
    12
 73
     8
 74
     6
 42
0.0000000001
 43
0.0000000001
 44
0.0000000001
 12
0.8008753017347585
 22
-0.5988311540586875
 32
0.0
 13
0.1674041190692761
 23
-0.9858883612857187
 33
0.0
 40
0.0
 40
0.0
 40
0.0
 40
0.0
 40
0.4712953667482691
 40
1.038802304903601
 40
1.686110935250463
 40
2.386688910709799
 40
3.108538847817267
 40
3.108538847817267
 40
3.108538847817267
 40
3.108538847817267
 10
65.16087253124564
 20
-240.7610130292926
 30
0.0
 10
65.28668880426255
 20
-240.8550884787501
 30
0.0
 10
65.53016969410284
 20
-241.1071607047335
 30
0.0
 10
65.8382091576315
 20
-241.5793900090417
 30
0.0
 10
66.10995226701603
 20
-242.1591912566221
 30
0.0
 10
66.32956835821712
 20
-242.8145008734014
 30
0.0
 10
66.43319472803839
 20
-243.2782091653628
 30
0.0
 10
66.47347494564562
 20
-243.5154303158925
 30
0.0
 11
65.16087253124564
 21
-240.7610130292926
 31
0.0
 11
65.49656571744563
 21
-241.0918141892925
 31
0.0
 11
65.81280832244565
 21
-241.5630410344926
 31
0.0
 11
66.09127674124565
 21
-242.1473900762926
 31
0.0
 11
66.31583606204563
 21
-242.8110033756926
 31
0.0
 11
66.47347494564562
 21
-243.5154303158925
 31
0.0
  0
SPLINE
  5
21C9
330
1F
100
AcDbEntity
  8
0
  6
Continuous
100
AcDbSpline
210
0.0
220
0.0
230
1.0
 70
     8
 71
     3
 72
    11
 73
     7
 74
     5
 42
0.0000000001
 43
0.0000000001
 44
0.0000000001
 12
-0.978661931385947
 22
-0.2054770645496181
 32
0.0
 13
-0.9006978228521498
 23
0.4344461208359415
 33
0.0
 40
0.0
 40
0.0
 40
0.0
 40
0.0
 40
0.3836317010259912
 40
0.7624808773998566
 40
1.137258933948697
 40
1.512624194146043
 40
1.512624194146043
 40
1.512624194146043
 40
1.512624194146043
 10
65.1608725296456
 20
-240.7610294912925
 30
0.0
 10
65.03572394915661
 20
-240.7873053298908
 30
0.0
 10
64.78254352979897
 20
-240.8206874631593
 30
0.0
 10
64.401985704217
 20
-240.8098450982137
 30
0.0
 10
64.03102608654592
 20
-240.7370751133904
 30
0.0
 10
63.79600379852366
 20
-240.6475627208889
 30
0.0
 10
63.68330690764564
 20
-240.5932040604925
 30
0.0
 11
65.1608725296456
 21
-240.7610294912925
 31
0.0
 11
64.78045770024563
 21
-240.8106060946926
 31
0.0
 11
64.40177588064566
 21
-240.7993465234926
 31
0.0
 11
64.03407870924562
 21
-240.7268387182925
 31
0.0
 11
63.68330690764564
 21
-240.5932040604925
 31
0.0
  0
SPLINE
  5
21CA
330
1F
100
AcDbEntity
  8
0
  6
Continuous
100
AcDbSpline
210
0.0
220
0.0
230
1.0
 70
     8
 71
     3
 72
    18
 73
    14
 74
    12
 42
0.0000000001
 43
0.0000000001
 44
0.0000000001
 12
-0.8798308506126364
 22
0.4752869389224208
 32
0.0
 13
3.304916392410000E-5
 23
0.9999999994538764
 33
0.0
 40
0.0
 40
0.0
 40
0.0
 40
0.0
 40
0.735124672113548
 40
1.418340970497804
 40
2.065439373189519
 40
2.675687303321307
 40
3.247488375089059
 40
3.782126765098516
 40
4.282453578422202
 40
4.752464450268271
 40
5.197075725044796
 40
5.62199982962987
 40
6.033968074271874
 40
6.033968074271874
 40
6.033968074271874
 40
6.033968074271874
 10
63.83496970664563
 20
-243.1797791280926
 30
0.0
 10
63.6193745847883
 20
-243.0633140763809
 30
0.0
 10
63.21835846374938
 20
-242.8095188708961
 30
0.0
 10
62.68918354313323
 20
-242.3663507821025
 30
0.0
 10
62.24719687000777
 20
-241.8918920686454
 30
0.0
 10
61.88522988678624
 20
-241.3996733792577
 30
0.0
 10
61.59718196702679
 20
-240.9040480601262
 30
0.0
 10
61.37495453212633
 20
-240.4158505415098
 30
0.0
 10
61.20942376656336
 20
-239.9416100137131
 30
0.0
 10
61.09181231305011
 20
-239.4843331272231
 30
0.0
 10
61.01443688020502
 20
-239.0441455012273
 30
0.0
 10
60.97111335836373
 20
-238.6188442094909
 30
0.0
 10
60.96186274064365
 20
-238.3397898840315
 30
0.0
 10
60.96186727904566
 20
-238.2024671358925
 30
0.0
 11
63.83496970664563
 21
-243.1797791280926
 31
0.0
 11
63.21379098544563
 21
-242.7866566536926
 31
0.0
 11
62.68990992324567
 21
-242.3480986266926
 31
0.0
 11
62.24875264264564
 21
-241.8746890824925
 31
0.0
 11
61.88710323184564
 21
-241.3831484026926
 31
0.0
 11
61.59965943124561
 21
-240.8888483650926
 31
0.0
 11
61.37802997844564
 21
-240.4023110142926
 31
0.0
 11
61.21302081844564
 21
-239.9299775544925
 31
0.0
 11
61.09582589424562
 21
-239.4748121236926
 31
0.0
 11
61.01874574764561
 21
-239.0369333314926
 31
0.0
 11
60.97558440344564
 21
-238.6142069506926
 31
0.0
 11
60.96186727904566
 21
-238.2024671358925
 31
0.0
  0
SPLINE
  5
21CB
330
1F
100
AcDbEntity
  8
0
  6
Continuous
100
AcDbSpline
210
0.0
220
0.0
230
1.0
 70
     8
 71
     3
 72
    12
 73
     8
 74
     6
 42
0.0000000001
 43
0.0000000001
 44
0.0000000001
 12
0.7532055478777368
 22
-0.6577852253176554
 32
0.0
 13
-0.3219694007276512
 23
-0.9467500752548569
 33
0.0
 40
0.0
 40
0.0
 40
0.0
 40
0.0
 40
0.3928627452680704
 40
0.8578340835905113
 40
1.406897692570641
 40
2.032231931539149
 40
2.714019997401729
 40
2.714019997401729
 40
2.714019997401729
 40
2.714019997401729
 10
63.68330645604563
 20
-240.5932040794926
 30
0.0
 10
63.78194192247576
 20
-240.6793438492976
 30
0.0
 10
63.95139159193702
 20
-240.9208536168072
 30
0.0
 10
64.07903793802078
 20
-241.3776073767778
 30
0.0
 10
64.10328174077213
 20
-241.9271037013522
 30
0.0
 10
64.02374540062029
 20
-242.5430264065679
 30
0.0
 10
63.90814885030868
 20
-242.9646181607381
 30
0.0
 10
63.83497721864566
 20
-243.1797791282925
 30
0.0
 11
63.68330645604563
 21
-240.5932040794926
 31
0.0
 11
63.91793188204562
 21
-240.9083104838926
 31
0.0
 11
64.05521737404561
 21
-241.3525525790926
 31
0.0
 11
64.08735803764566
 21
-241.9006746680925
 31
0.0
 11
64.01252658484563
 21
-242.5215153594926
 31
0.0
 11
63.83497721864566
 21
-243.1797791282925
 31
0.0
  0
SPLINE
  5
21CC
330
1F
100
AcDbEntity
  8
0
  6
Continuous
100
AcDbSpline
210
0.0
220
0.0
230
1.0
 70
     8
 71
     3
 72
    18
 73
    14
 74
    12
 42
0.0000000001
 43
0.0000000001
 44
0.0000000001
 12
-0.928827585965835
 22
0.3705122340070288
 32
0.0
 13
0.0075046311506574
 23
0.9999718398591495
 33
0.0
 40
0.0
 40
0.0
 40
0.0
 40
0.0
 40
0.4087933759770367
 40
0.7796450008851916
 40
1.122950974390221
 40
1.440088447663116
 40
1.732274342956574
 40
2.002111920342643
 40
2.252648300833309
 40
2.48709714165314
 40
2.708777437569276
 40
2.921151070537138
 40
3.128064088547755
 40
3.128064088547755
 40
3.128064088547755
 40
3.128064088547755
 10
63.68330656004562
 20
-240.5932038972926
 30
0.0
 10
63.55674037185643
 20
-240.5427162482991
 30
0.0
 10
63.32105818268458
 20
-240.4311518146019
 30
0.0
 10
63.00524501511131
 20
-240.2284497738741
 30
0.0
 10
62.74093825800105
 20
-240.0072038691646
 30
0.0
 10
62.5241556179622
 20
-239.7740727191643
 30
0.0
 10
62.35162492165024
 20
-239.5363350745086
 30
0.0
 10
62.2187127006125
 20
-239.2996756327445
 30
0.0
 10
62.12004606489418
 20
-239.0677092270358
 30
0.0
 10
62.0503838864736
 20
-238.8422911163043
 30
0.0
 10
62.00509630233221
 20
-238.6237845851923
 30
0.0
 10
61.98043866299247
 20
-238.4113042767655
 30
0.0
 10
61.97593236388551
 20
-238.2714361996628
 30
0.0
 10
61.97644996584565
 20
-238.2024671358925
 30
0.0
 11
63.68330656004562
 21
-240.5932038972926
 31
0.0
 11
63.31410251564566
 21
-240.4177034760925
 31
0.0
 11
63.00230279564565
 21
-240.2169253340926
 31
0.0
 11
62.73935752424566
 21
-239.9962020328926
 31
0.0
 11
62.52364694064564
 21
-239.7637259672926
 31
0.0
 11
62.35220220664562
 21
-239.5271265154925
 31
0.0
 11
62.22015304904565
 21
-239.2918068644926
 31
0.0
 11
62.12210236824565
 21
-239.0612541764926
 31
0.0
 11
62.05284084924565
 21
-238.8372695766926
 31
0.0
 11
62.00778028364563
 21
-238.6202172810925
 31
0.0
 11
61.98321063424565
 21
-238.4092696754926
 31
0.0
 11
61.97644996584565
 21
-238.2024671358925
 31
0.0
  0
SPLINE
  5
21CD
330
1F
100
AcDbEntity
  8
0
  6
Continuous
100
AcDbSpline
210
0.0
220
0.0
230
1.0
 70
     8
 71
     3
 72
    18
 73
    14
 74
    12
 42
0.0000000001
 43
0.0000000001
 44
0.0000000001
 12
-3.895977181040001E-5
 22
0.9999999992410681
 32
0.0
 13
0.8798312610931629
 23
0.4752861790576437
 33
0.0
 40
0.0
 40
0.0
 40
0.0
 40
0.0
 40
0.4100962922205755
 40
0.833687023424559
 40
1.277430050746871
 40
1.747023930972747
 40
2.247347619455192
 40
2.782326723907499
 40
3.354708392075572
 40
3.965647116173431
 40
4.613480807539736
 40
5.297622702482834
 40
6.033962445676581
 40
6.033962445676581
 40
6.033962445676581
 40
6.033962445676581
 10
60.96186727904566
 20
-223.3087772410925
 30
0.0
 10
60.96186195329301
 20
-223.1720784771227
 30
0.0
 10
60.97103489511619
 20
-222.8940937637788
 30
0.0
 10
61.01404517387704
 20
-222.4701286619774
 30
0.0
 10
61.09100130065125
 20
-222.0307563777979
 30
0.0
 10
61.20816907249549
 20
-221.5738105914624
 30
0.0
 10
61.37331612503019
 20
-221.0994646109145
 30
0.0
 10
61.59529359234511
 20
-220.6108157301885
 30
0.0
 10
61.88326702568929
 20
-220.1145223249901
 30
0.0
 10
62.24534345067926
 20
-219.6215489309936
 30
0.0
 10
62.68764565959661
 20
-219.1463057564173
 30
0.0
 10
63.21742064450399
 20
-218.702350011085
 30
0.0
 10
63.61901813169657
 20
-218.4481226165696
 30
0.0
 10
63.83496970664563
 20
-218.3314652488926
 30
0.0
 11
60.96186727904566
 21
-223.3087772410925
 31
0.0
 11
60.97545891544561
 21
-222.8989062414926
 31
0.0
 11
61.01830941284564
 21
-222.4774884648926
 31
0.0
 11
61.09497218964563
 21
-222.0404178836926
 31
0.0
 11
61.21172831844567
 21
-221.5855701962925
 31
0.0
 11
61.37636362324562
 21
-221.1131096056925
 31
0.0
 11
61.59775872564566
 21
-220.6260912786925
 31
0.0
 11
61.88514966684564
 21
-220.1310890352925
 31
0.0
 11
62.24691920184564
 21
-219.6387792464926
 31
0.0
 11
62.68835683284564
 21
-219.1646259910926
 31
0.0
 11
63.21280918324564
 21
-218.7253084924925
 31
0.0
 11
63.83496970664563
 21
-218.3314652488926
 31
0.0
  0
SPLINE
  5
21CE
330
1F
100
AcDbEntity
  8
0
  6
Continuous
100
AcDbSpline
210
0.0
220
0.0
230
1.0
 70
     8
 71
     3
 72
    18
 73
    14
 74
    12
 42
0.0000000001
 43
0.0000000001
 44
0.0000000001
 12
-0.0075041722580936
 22
0.9999718433029606
 32
0.0
 13
0.9288275212197962
 23
0.3705123963171665
 33
0.0
 40
0.0
 40
0.0
 40
0.0
 40
0.0
 40
0.2059647518767784
 40
0.4176721547540288
 40
0.6389172669500097
 40
0.8731547649196798
 40
1.123684362981806
 40
1.39368215513988
 40
1.686142610969685
 40
2.003607898156048
 40
2.347266091429286
 40
2.718597062135553
 40
3.128061269521541
 40
3.128061269521541
 40
3.128061269521541
 40
3.128061269521541
 10
61.97644996584565
 20
-223.3087772410925
 30
0.0
 10
61.97593476751992
 20
-223.240124256896
 30
0.0
 10
61.9803981231768
 20
-223.1007956349896
 30
0.0
 10
62.00486772312663
 20
-222.8889837759544
 30
0.0
 10
62.04990075695784
 20
-222.6708734864375
 30
0.0
 10
62.11929371274105
 20
-222.4456013812508
 30
0.0
 10
62.2177302592234
 20
-222.2135582464581
 30
0.0
 10
62.35049613827734
 20
-221.9766517465459
 30
0.0
 10
62.52298722660005
 20
-221.7385685724404
 30
0.0
 10
62.73983782989654
 20
-221.5050621910675
 30
0.0
 10
63.00433623522798
 20
-221.2834380024592
 30
0.0
 10
63.32051138331193
 20
-221.0803652481524
 30
0.0
 10
63.55653268512077
 20
-220.9686110012542
 30
0.0
 10
63.68330656004562
 20
-220.9180404796926
 30
0.0
 11
61.97644996584565
 21
-223.3087772410925
 31
0.0
 11
61.98314123664565
 21
-223.1029212090926
 31
0.0
 11
62.00752507464565
 21
-222.8926227238926
 31
0.0
 11
62.0523329472456
 21
-222.6759624962926
 31
0.0
 11
62.12132911644564
 21
-222.4521171610926
 31
0.0
 11
62.21915659644563
 21
-222.2214770438926
 31
0.0
 11
62.35106906284565
 21
-221.9858971020926
 31
0.0
 11
62.52248559724566
 21
-221.7489382660926
 31
0.0
 11
62.73826846864565
 21
-221.5160821710925
 31
0.0
 11
63.00137589884561
 21
-221.2950042798926
 31
0.0
 11
63.31351560864565
 21
-221.0938687748926
 31
0.0
 11
63.68330656004562
 21
-220.9180404796926
 31
0.0
  0
SPLINE
  5
21CF
330
1F
100
AcDbEntity
  8
0
  6
Continuous
100
AcDbSpline
210
0.0
220
0.0
230
1.0
 70
     8
 71
     3
 72
    11
 73
     7
 74
     5
 42
0.0000000001
 43
0.0000000001
 44
0.0000000001
 12
0.8798086992970585
 22
0.4753279422053982
 32
0.0
 13
0.9734442442467653
 23
-0.2289242305716986
 33
0.0
 40
0.0
 40
0.0
 40
0.0
 40
0.0
 40
0.6140824719408226
 40
1.275194214335912
 40
1.979518241497125
 40
2.71650500293032
 40
2.71650500293032
 40
2.71650500293032
 40
2.71650500293032
 10
63.83496970664563
 20
-218.3314652488926
 30
0.0
 10
64.01506140694542
 20
-218.2341683963153
 30
0.0
 10
64.40640894701346
 20
-218.0624632275327
 30
0.0
 10
65.0512824447606
 20
-217.9064959030437
 30
0.0
 10
65.75536724513799
 20
-217.8716620106291
 30
0.0
 10
66.23434185964457
 20
-217.9395760182584
 30
0.0
 10
66.47348036664565
 20
-217.9958140606926
 30
0.0
 11
63.83496970664563
 21
-218.3314652488926
 31
0.0
 11
64.39755929684564
 21
-218.0853144102925
 31
0.0
 11
65.04012405844561
 21
-217.9298175836926
 31
0.0
 11
65.74354303924561
 21
-217.8941234288926
 31
0.0
 11
66.47348036664565
 21
-217.9958140606926
 31
0.0
  0
SPLINE
  5
21D0
330
1F
100
AcDbEntity
  8
0
  6
Continuous
100
AcDbSpline
210
0.0
220
0.0
230
1.0
 70
     8
 71
     3
 72
    12
 73
     8
 74
     6
 42
0.0000000001
 43
0.0000000001
 44
0.0000000001
 12
0.7532035170026514
 22
0.6577875507904029
 32
0.0
 13
-0.3219705708827344
 23
0.9467496773093964
 33
0.0
 40
0.0
 40
0.0
 40
0.0
 40
0.0
 40
0.3928615524228253
 40
0.8578325799366469
 40
1.406896688769633
 40
2.032231943390528
 40
2.714021171573363
 40
2.714021171573363
 40
2.714021171573363
 40
2.714021171573363
 10
63.68330795764561
 20
-220.9180429260926
 30
0.0
 10
63.78194285863894
 20
-220.8319031133033
 30
0.0
 10
63.95139110524252
 20
-220.5903928862763
 30
0.0
 10
64.0790349858237
 20
-220.1336388288788
 30
0.0
 10
64.10327652833
 20
-219.5841420405882
 30
0.0
 10
64.02373824848485
 20
-218.9682187196134
 30
0.0
 10
63.90814076538556
 20
-218.5466264928177
 30
0.0
 10
63.83496874304565
 20
-218.3314652488926
 30
0.0
 11
63.68330795764561
 21
-220.9180429260926
 31
0.0
 11
63.91793133124561
 21
-220.6029364806926
 31
0.0
 11
64.05521457844563
 21
-220.1586940170925
 31
0.0
 11
64.08735302004564
 21
-219.6105712970926
 31
0.0
 11
64.01251959764564
 21
-218.9897298200925
 31
0.0
 11
63.83496874304565
 21
-218.3314652488926
 31
0.0
  0
SPLINE
  5
21D1
330
1F
100
AcDbEntity
  8
0
  6
Continuous
100
AcDbSpline
210
0.0
220
0.0
230
1.0
 70
     8
 71
     3
 72
    11
 73
     7
 74
     5
 42
0.0000000001
 43
0.0000000001
 44
0.0000000001
 12
0.9006923878698978
 22
0.4344573885126386
 32
0.0
 13
0.9786537415535465
 23
-0.2055160678468827
 33
0.0
 40
0.0
 40
0.0
 40
0.0
 40
0.0
 40
0.338301292725193
 40
0.7067253664969255
 40
1.101147093206763
 40
1.51261451456637
 40
1.51261451456637
 40
1.51261451456637
 40
1.51261451456637
 10
63.68330668384564
 20
-220.9180404204926
 30
0.0
 10
63.78487515023369
 20
-220.86904792177
 30
0.0
 10
64.00531400258579
 20
-220.7829373063865
 30
0.0
 10
64.36575759481787
 20
-220.7054069372896
 30
0.0
 10
64.75865183065612
 20
-220.6882032000623
 30
0.0
 10
65.02664416723199
 20
-220.722027097331
 30
0.0
 10
65.16087221104564
 20
-220.7502148194926
 30
0.0
 11
63.68330668384564
 21
-220.9180404204926
 31
0.0
 11
63.99841516124561
 21
-220.7949371624926
 31
0.0
 11
64.35853572464563
 21
-220.7171587724925
 31
0.0
 11
64.75255668924567
 21
-220.6993830036925
 31
0.0
 11
65.16087221104564
 21
-220.7502148194926
 31
0.0
  0
SPLINE
  5
21D2
330
1F
100
AcDbEntity
  8
0
  6
Continuous
100
AcDbSpline
210
0.0
220
0.0
230
1.0
 70
     8
 71
     3
 72
    16
 73
    12
 74
    10
 42
0.0000000001
 43
0.0000000001
 44
0.0000000001
 12
0.9734344568661828
 22
-0.2289658450198194
 32
0.0
 13
0.9734347961508253
 23
0.2289644025668648
 33
0.0
 40
0.0
 40
0.0
 40
0.0
 40
0.0
 40
2.897044135708931
 40
5.63450262392335
 40
8.056012020296844
 40
10.22879624096827
 40
12.30761886287928
 40
14.47788904035432
 40
16.89322455944804
 40
19.62056523132872
 40
22.51262525791157
 40
22.51262525791157
 40
22.51262525791157
 40
22.51262525791157
 10
66.47348036664565
 20
-217.9958140606926
 30
0.0
 10
67.41350789489937
 20
-218.2169221135567
 30
0.0
 10
69.22036276261832
 20
-218.7349363711079
 30
0.0
 10
71.78412719625908
 20
-219.5319100129148
 30
0.0
 10
74.14532941155221
 20
-220.1689180934216
 30
0.0
 10
76.34793019085313
 20
-220.5251821357691
 30
0.0
 10
78.49882848325882
 20
-220.5230538118757
 30
0.0
 10
80.69797345355445
 20
-220.1642361517971
 30
0.0
 10
83.05279365930511
 20
-219.5278131267653
 30
0.0
 10
85.60981767516796
 20
-218.7330264430359
 30
0.0
 10
87.41186702783475
 20
-218.216540326084
 30
0.0
 10
88.35027764864562
 20
-217.9958140606926
 30
0.0
 11
66.47348036664565
 21
-217.9958140606926
 31
0.0
 11
69.26791184904565
 21
-218.7600243814926
 31
0.0
 11
71.89020862964563
 21
-219.5456697016926
 31
0.0
 11
74.23566670864565
 21
-220.1477777952926
 31
0.0
 11
76.38434312924565
 21
-220.4705484710925
 31
0.0
 11
78.46316489604564
 21
-220.4686629346926
 31
0.0
 11
80.6089141924456
 21
-220.1433437064926
 31
0.0
 11
82.94805947704562
 21
-219.5414757746926
 31
0.0
 11
85.56062272484562
 21
-218.7585962074926
 31
0.0
 11
88.35027764864562
 21
-217.9958140606926
 31
0.0
  0
SPLINE
  5
21D3
330
1F
100
AcDbEntity
  8
0
  6
Continuous
100
AcDbSpline
210
0.0
220
0.0
230
1.0
 70
     8
 71
     3
 72
    12
 73
     8
 74
     6
 42
0.0000000001
 43
0.0000000001
 44
0.0000000001
 12
0.8008730505315805
 22
0.5988341648004398
 32
0.0
 13
0.1674108761071274
 23
0.9858872139149812
 33
0.0
 40
0.0
 40
0.0
 40
0.0
 40
0.0
 40
0.4712945295493721
 40
1.038799631758317
 40
1.686105693766553
 40
2.386680955368705
 40
3.108528753440757
 40
3.108528753440757
 40
3.108528753440757
 40
3.108528753440757
 10
65.16087252944564
 20
-220.7502193198926
 30
0.0
 10
65.28668822530533
 20
-220.6561435645667
 30
0.0
 10
65.53016816853989
 20
-220.4040718668358
 30
0.0
 10
65.83820749239405
 20
-219.9318446092946
 30
0.0
 10
66.10995155533436
 20
-219.3520464866807
 30
0.0
 10
66.32956996202292
 20
-218.6967402889879
 30
0.0
 10
66.43319877254855
 20
-218.2330342321966
 30
0.0
 10
66.47348049664564
 20
-217.9958140606926
 30
0.0
 11
65.16087252944564
 21
-220.7502193198926
 31
0.0
 11
65.49656463604563
 21
-220.4194182570926
 31
0.0
 11
65.81280692624566
 21
-219.9481934116926
 31
0.0
 11
66.09127618764566
 21
-219.3638476164926
 31
0.0
 11
66.31583778324566
 21
-218.7002379518926
 31
0.0
 11
66.47348049664564
 21
-217.9958140606926
 31
0.0
  0
SPLINE
  5
21D4
330
1F
100
AcDbEntity
  8
0
  6
Continuous
100
AcDbSpline
210
0.0
220
0.0
230
1.0
 70
     8
 71
     3
 72
    16
 73
    12
 74
    10
 42
0.0000000001
 43
0.0000000001
 44
0.0000000001
 12
0.9945305857866302
 22
-0.1044457463705548
 32
0.0
 13
0.9945305868016282
 23
0.1044457367057611
 33
0.0
 40
0.0
 40
0.0
 40
0.0
 40
0.0
 40
3.152680970503877
 40
6.115910166242621
 40
8.760117899097633
 40
11.17211218118724
 40
13.50047193592894
 40
15.90928114991452
 40
18.54644990437152
 40
21.4986933344016
 40
24.64598500220042
 40
24.64598500220042
 40
24.64598500220042
 40
24.64598500220042
 10
65.1608725296456
 20
-220.7502148856925
 30
0.0
 10
66.20601841377679
 20
-220.8599762580367
 30
0.0
 10
68.22855749994167
 20
-221.1184828821757
 30
0.0
 10
71.1207201815775
 20
-221.5200383341531
 30
0.0
 10
73.77521310725336
 20
-221.8389528142819
 30
0.0
 10
76.23199298240351
 20
-222.0149972815827
 30
0.0
 10
78.61731388771331
 20
-222.0139554479256
 30
0.0
 10
81.07056079864708
 20
-221.836613712346
 30
0.0
 10
83.71795318423196
 20
-221.517961731953
 30
0.0
 10
86.60239359042933
 20
-221.1175294503709
 30
0.0
 10
88.61952620904168
 20
-220.8597886179829
 30
0.0
 10
89.66288548544563
 20
-220.7502148856925
 30
0.0
 11
65.1608725296456
 21
-220.7502148856925
 31
0.0
 11
68.29031538544561
 21
-221.1322943460925
 31
0.0
 11
71.22738669924561
 21
-221.5251548354925
 31
0.0
 11
73.85440582724564
 21
-221.8261615390926
 31
0.0
 11
76.26099442924564
 21
-221.9875545920925
 31
0.0
 11
78.58935399344566
 21
-221.9866126264926
 31
0.0
 11
80.99266452744561
 21
-221.8239463836926
 31
0.0
 11
83.61261204404561
 21
-221.5230576172925
 31
0.0
 11
86.53878487624561
 21
-221.1315811476926
 31
0.0
 11
89.66288548544563
 21
-220.7502148856925
 31
0.0
  0
SPLINE
  5
21D5
330
1F
100
AcDbEntity
  8
0
  6
Continuous
100
AcDbSpline
210
0.0
220
0.0
230
1.0
 70
     8
 71
     3
 72
    11
 73
     7
 74
     5
 42
0.0000000001
 43
0.0000000001
 44
0.0000000001
 12
0.9734671419814964
 22
0.2288268416999569
 32
0.0
 13
0.8798241655801987
 23
-0.4752993137604
 33
0.0
 40
0.0
 40
0.0
 40
0.0
 40
0.0
 40
0.6854018624075157
 40
1.36271817511371
 40
2.035223548066577
 40
2.716540383753479
 40
2.716540383753479
 40
2.716540383753479
 40
2.716540383753479
 10
88.35027764864562
 20
-217.9958140606926
 30
0.0
 10
88.57268304601449
 20
-217.9435346128693
 30
0.0
 10
89.02465788519508
 20
-217.8764818069576
 30
0.0
 10
89.70640700403018
 20
-217.8981761862031
 30
0.0
 10
90.37128143995231
 20
-218.0447593467347
 30
0.0
 10
90.78897530296101
 20
-218.2235221074075
 30
0.0
 10
90.98878830844566
 20
-218.3314652488926
 30
0.0
 11
88.35027764864562
 21
-217.9958140606926
 31
0.0
 11
89.02847846584561
 21
-217.8967213538926
 31
0.0
 11
89.70542391944564
 21
-217.9191320724926
 31
0.0
 11
90.36211286404563
 21
-218.0641255436926
 31
0.0
 11
90.98878830844566
 21
-218.3314652488926
 31
0.0
  0
SPLINE
  5
21D6
330
1F
100
AcDbEntity
  8
0
  6
Continuous
100
AcDbSpline
210
0.0
220
0.0
230
1.0
 70
     8
 71
     3
 72
    12
 73
     8
 74
     6
 42
0.0000000001
 43
0.0000000001
 44
0.0000000001
 12
-0.8008753020505427
 22
0.5988311536363585
 32
0.0
 13
-0.1674041189748843
 23
0.9858883613017464
 33
0.0
 40
0.0
 40
0.0
 40
0.0
 40
0.0
 40
0.4712953668908874
 40
1.038802304880061
 40
1.686110935493425
 40
2.386688911016877
 40
3.108538848124425
 40
3.108538848124425
 40
3.108538848124425
 40
3.108538848124425
 10
89.66288548384566
 20
-220.7502313476926
 30
0.0
 10
89.53706921074107
 20
-220.656155898273
 30
0.0
 10
89.29358832085109
 20
-220.4040836723335
 30
0.0
 10
88.98554885716976
 20
-219.9318543680315
 30
0.0
 10
88.71380574773335
 20
-219.3520531204156
 30
0.0
 10
88.49418965622263
 20
-218.6967435036251
 30
0.0
 10
88.39056328643018
 20
-218.2330352116262
 30
0.0
 10
88.35028306884566
 20
-217.9958140610926
 30
0.0
 11
89.66288548384566
 21
-220.7502313476926
 31
0.0
 11
89.32719229744561
 21
-220.4194301876925
 31
0.0
 11
89.01094969244562
 21
-219.9482033426925
 31
0.0
 11
88.73248127344564
 21
-219.3638543006926
 31
0.0
 11
88.50792195244563
 21
-218.7002410012926
 31
0.0
 11
88.35028306884566
 21
-217.9958140610926
 31
0.0
  0
SPLINE
  5
21D7
330
1F
100
AcDbEntity
  8
0
  6
Continuous
100
AcDbSpline
210
0.0
220
0.0
230
1.0
 70
     8
 71
     3
 72
    11
 73
     7
 74
     5
 42
0.0000000001
 43
0.0000000001
 44
0.0000000001
 12
0.9786619304803786
 22
0.2054770688627288
 32
0.0
 13
0.9006977819619271
 23
-0.4344462056099294
 33
0.0
 40
0.0
 40
0.0
 40
0.0
 40
0.0
 40
0.3836013212187394
 40
0.7624884617519649
 40
1.137292448931576
 40
1.512624141066332
 40
1.512624141066332
 40
1.512624141066332
 40
1.512624141066332
 10
89.66288548544563
 20
-220.7502148856925
 30
0.0
 10
89.78802415529854
 20
-220.7239411273272
 30
0.0
 10
90.04120664169803
 20
-220.690557163197
 30
0.0
 10
90.42177612095988
 20
-220.7013978929849
 30
0.0
 10
90.7927453187111
 20
-220.7741733131793
 30
0.0
 10
91.02776425131034
 20
-220.8636864836616
 30
0.0
 10
91.14045105884561
 20
-220.9180402934926
 30
0.0
 11
89.66288548544563
 21
-220.7502148856925
 31
0.0
 11
90.0432698798456
 21
-220.7006398300926
 31
0.0
 11
90.42198970124564
 21
-220.7118986994926
 31
0.0
 11
90.78971164464564
 21
-220.7844149124926
 31
0.0
 11
91.14045105884561
 21
-220.9180402934926
 31
0.0
  0
SPLINE
  5
21D8
330
1F
100
AcDbEntity
  8
0
  6
Continuous
100
AcDbSpline
210
0.0
220
0.0
230
1.0
 70
     8
 71
     3
 72
    14
 73
    10
 74
     8
 42
0.0000000001
 43
0.0000000001
 44
0.0000000001
 12
0.0001460465608132
 22
0.999999989335201
 32
0.0
 13
0.9597087631687116
 23
0.2809966012199828
 33
0.0
 40
0.0
 40
0.0
 40
0.0
 40
0.0
 40
0.6621186340788411
 40
1.484724025841204
 40
2.307329296475807
 40
3.129934425915352
 40
3.952539391138927
 40
4.775144181263341
 40
5.135704287313313
 40
5.135704287313313
 40
5.135704287313313
 40
5.135704287313313
 10
102.4118924784456
 20
-215.4556222676925
 30
0.0
 10
102.4119247118287
 20
-215.2349160586867
 30
0.0
 10
102.4529456219433
 20
-214.7391623150035
 30
0.0
 10
102.6586344544727
 20
-213.99237301504
 30
0.0
 10
103.0373025068379
 20
-213.2555530859593
 30
0.0
 10
103.5587502389153
 20
-212.6117586459531
 30
0.0
 10
104.2006824014409
 20
-212.0882922690158
 30
0.0
 10
104.7989743988481
 20
-211.7784227991242
 30
0.0
 10
105.1725513693039
 20
-211.650551002471
 30
0.0
 10
105.2878956004456
 20
-211.6167789476925
 30
0.0
 11
102.4118924784456
 21
-215.4556222676925
 31
0.0
 11
102.4666760508456
 21
-214.7957739170925
 31
0.0
 11
102.6850798904456
 21
-214.0026917060926
 31
0.0
 11
103.0610991590456
 21
-213.2710572748926
 31
0.0
 11
103.5788310350456
 21
-212.6318132654926
 31
0.0
 11
104.2163793070456
 21
-212.1119949032926
 31
0.0
 11
104.9467804222456
 21
-211.7335865898926
 31
0.0
 11
105.2878956004456
 21
-211.6167789476925
 31
0.0
  0
SPLINE
  5
21D9
330
1F
100
AcDbEntity
  8
0
  6
Continuous
100
AcDbSpline
210
0.0
220
0.0
230
1.0
 70
     8
 71
     3
 72
    14
 73
    10
 74
     8
 42
0.0000000001
 43
0.0000000001
 44
0.0000000001
 12
0.9597087621989237
 22
-0.2809966045321719
 32
0.0
 13
0.000146049168406
 23
-0.9999999893348203
 33
0.0
 40
0.0
 40
0.0
 40
0.0
 40
0.0
 40
0.3605600787256601
 40
1.183164869883451
 40
2.005769836082408
 40
2.828374966381257
 40
3.650980237848591
 40
4.473585630932841
 40
5.135704265941421
 40
5.135704265941421
 40
5.135704265941421
 40
5.135704265941421
 10
49.53586242164565
 20
-211.6167789596926
 30
0.0
 10
49.6512066439297
 20
-211.6505510123099
 30
0.0
 10
50.02478360609819
 20
-211.7784228057869
 30
0.0
 10
50.62307559700064
 20
-212.0882922699409
 30
0.0
 10
51.26500776187606
 20
-212.611758645451
 30
0.0
 10
51.78645549669005
 20
-213.2555530844315
 30
0.0
 10
52.16512355158804
 20
-213.9923730133175
 30
0.0
 10
52.37081238702632
 20
-214.7391623135992
 30
0.0
 10
52.41183329808698
 20
-215.2349160579769
 30
0.0
 10
52.41186553204565
 20
-215.4556222672926
 30
0.0
 11
49.53586242164565
 21
-211.6167789596926
 31
0.0
 11
49.87697757404564
 21
-211.7335865928926
 31
0.0
 11
50.60737869144563
 21
-212.1119949042926
 31
0.0
 11
51.24492696584561
 21
-212.6318132650926
 31
0.0
 11
51.76265884444561
 21
-213.2710572734926
 31
0.0
 11
52.13867811564565
 21
-214.0026917042926
 31
0.0
 11
52.35708195804566
 21
-214.7957739158925
 31
0.0
 11
52.41186553204565
 21
-215.4556222672926
 31
0.0
  0
ARC
  5
21DA
330
1F
100
AcDbEntity
  8
0
  6
Continuous
100
AcDbCircle
 10
100.0790723500456
 20
-179.9556221884926
 30
0.0
 40
4.0
100
AcDbArc
 50
270.0000000000008
 51
305.6590876961002
  0
ARC
  5
21DB
330
1F
100
AcDbEntity
  8
0
  6
Continuous
100
AcDbCircle
 10
104.7427618764457
 20
-186.4556221884926
 30
0.0
 40
4.0
100
AcDbArc
 50
90.0
 51
125.6590876960998
  0
ARC
  5
21DC
330
1F
100
AcDbEntity
  8
0
  6
Continuous
100
AcDbCircle
 10
50.08099613864556
 20
-186.4556221884926
 30
0.0
 40
4.0
100
AcDbArc
 50
54.3409123039002
 51
90.0
  0
ARC
  5
21DD
330
1F
100
AcDbEntity
  8
0
  6
Continuous
100
AcDbCircle
 10
77.41187900764565
 20
-205.5556221884926
 30
0.0
 40
22.8
100
AcDbArc
 50
72.78944691200016
 51
107.2105530880006
  0
ARC
  5
21DE
330
1F
100
AcDbEntity
  8
0
  6
Continuous
100
AcDbCircle
 10
54.74468566524571
 20
-179.9556221884926
 30
0.0
 40
4.0
100
AcDbArc
 50
234.3409123039002
 51
270.0000000000008
  0
ARC
  5
21DF
330
1F
100
AcDbEntity
  8
0
  6
Continuous
100
AcDbCircle
 10
85.34157041044568
 20
-179.9556223914925
 30
0.0
 40
3.999999952199998
100
AcDbArc
 50
252.7894410901003
 51
269.9999948007008
  0
ARC
  5
21E0
330
1F
100
AcDbEntity
  8
0
  6
Continuous
100
AcDbCircle
 10
69.48218754504569
 20
-179.9556224258926
 30
0.0
 40
3.999999944199998
100
AcDbArc
 50
270.0000060550002
 51
287.2105598727003
  0
ARC
  5
21E1
330
1F
100
AcDbEntity
  8
0
  6
Continuous
100
AcDbCircle
 10
110.0118790076457
 20
-208.6156221884925
 30
0.0
 40
0.3
100
AcDbArc
 50
270.0000000000008
 51
0.0
  0
ARC
  5
21E2
330
1F
100
AcDbEntity
  8
0
  6
Continuous
100
AcDbCircle
 10
110.0118790076457
 20
-185.2956221884925
 30
0.0
 40
0.3
100
AcDbArc
 50
0.0
 51
90.0
  0
ARC
  5
21E3
330
1F
100
AcDbEntity
  8
0
  6
Continuous
100
AcDbCircle
 10
116.9118790076456
 20
-208.6156221884925
 30
0.0
 40
0.3
100
AcDbArc
 50
180.0
 51
270.0000000000008
  0
ARC
  5
21E4
330
1F
100
AcDbEntity
  8
0
  6
Continuous
100
AcDbCircle
 10
116.9118790076456
 20
-185.2956221884925
 30
0.0
 40
0.3
100
AcDbArc
 50
90.0
 51
180.0
  0
ARC
  5
21E5
330
1F
100
AcDbEntity
  8
0
  6
Continuous
100
AcDbCircle
 10
117.9118790076456
 20
-208.6156221884925
 30
0.0
 40
0.3
100
AcDbArc
 50
270.0000000000008
 51
0.0
  0
ARC
  5
21E6
330
1F
100
AcDbEntity
  8
0
  6
Continuous
100
AcDbCircle
 10
117.9118790076456
 20
-185.2956221884925
 30
0.0
 40
0.3
100
AcDbArc
 50
0.0
 51
90.0
  0
ARC
  5
21E7
330
1F
100
AcDbEntity
  8
0
  6
Continuous
100
AcDbCircle
 10
124.8118790076456
 20
-208.6156221884925
 30
0.0
 40
0.3
100
AcDbArc
 50
180.0
 51
270.0000000000008
  0
ARC
  5
21E8
330
1F
100
AcDbEntity
  8
0
  6
Continuous
100
AcDbCircle
 10
124.8118790076456
 20
-185.2956221884925
 30
0.0
 40
0.3
100
AcDbArc
 50
90.0
 51
180.0
  0
ARC
  5
21E9
330
1F
100
AcDbEntity
  8
0
  6
Continuous
100
AcDbCircle
 10
125.8118790076456
 20
-208.6156221884925
 30
0.0
 40
0.3
100
AcDbArc
 50
270.0000000000008
 51
0.0
  0
ARC
  5
21EA
330
1F
100
AcDbEntity
  8
0
  6
Continuous
100
AcDbCircle
 10
125.8118790076456
 20
-185.2956221884925
 30
0.0
 40
0.3
100
AcDbArc
 50
0.0
 51
90.0
  0
ARC
  5
21EB
330
1F
100
AcDbEntity
  8
0
  6
Continuous
100
AcDbCircle
 10
132.7118790076456
 20
-208.6156221884925
 30
0.0
 40
0.3
100
AcDbArc
 50
180.0
 51
270.0000000000008
  0
ARC
  5
21EC
330
1F
100
AcDbEntity
  8
0
  6
Continuous
100
AcDbCircle
 10
132.7118790076456
 20
-185.2956221884925
 30
0.0
 40
0.3
100
AcDbArc
 50
90.0
 51
180.0
  0
ARC
  5
21ED
330
1F
100
AcDbEntity
  8
0
  6
Continuous
100
AcDbCircle
 10
22.11187900764571
 20
-208.6156221884925
 30
0.0
 40
0.3
100
AcDbArc
 50
270.0000000000008
 51
0.0
  0
ARC
  5
21EE
330
1F
100
AcDbEntity
  8
0
  6
Continuous
100
AcDbCircle
 10
22.11187900764571
 20
-185.2956221884925
 30
0.0
 40
0.3
100
AcDbArc
 50
0.0
 51
90.0
  0
ARC
  5
21EF
330
1F
100
AcDbEntity
  8
0
  6
Continuous
100
AcDbCircle
 10
29.01187900764558
 20
-208.6156221884925
 30
0.0
 40
0.3
100
AcDbArc
 50
180.0
 51
270.0000000000008
  0
ARC
  5
21F0
330
1F
100
AcDbEntity
  8
0
  6
Continuous
100
AcDbCircle
 10
29.01187900764558
 20
-185.2956221884925
 30
0.0
 40
0.3
100
AcDbArc
 50
90.0
 51
180.0
  0
ARC
  5
21F1
330
1F
100
AcDbEntity
  8
0
  6
Continuous
100
AcDbCircle
 10
30.01187900764558
 20
-208.6156221884925
 30
0.0
 40
0.3
100
AcDbArc
 50
270.0000000000008
 51
0.0
  0
ARC
  5
21F2
330
1F
100
AcDbEntity
  8
0
  6
Continuous
100
AcDbCircle
 10
30.01187900764558
 20
-185.2956221884925
 30
0.0
 40
0.3
100
AcDbArc
 50
0.0
 51
90.0
  0
ARC
  5
21F3
330
1F
100
AcDbEntity
  8
0
  6
Continuous
100
AcDbCircle
 10
36.91187900764568
 20
-208.6156221884925
 30
0.0
 40
0.3
100
AcDbArc
 50
180.0
 51
270.0000000000008
  0
ARC
  5
21F4
330
1F
100
AcDbEntity
  8
0
  6
Continuous
100
AcDbCircle
 10
36.91187900764568
 20
-185.2956221884925
 30
0.0
 40
0.3
100
AcDbArc
 50
90.0
 51
180.0
  0
ARC
  5
21F5
330
1F
100
AcDbEntity
  8
0
  6
Continuous
100
AcDbCircle
 10
37.91187900764568
 20
-208.6156221884925
 30
0.0
 40
0.3
100
AcDbArc
 50
270.0000000000008
 51
0.0
  0
ARC
  5
21F6
330
1F
100
AcDbEntity
  8
0
  6
Continuous
100
AcDbCircle
 10
37.91187900764568
 20
-185.2956221884925
 30
0.0
 40
0.3
100
AcDbArc
 50
0.0
 51
90.0
  0
ARC
  5
21F7
330
1F
100
AcDbEntity
  8
0
  6
Continuous
100
AcDbCircle
 10
44.81187900764552
 20
-208.6156221884925
 30
0.0
 40
0.3
100
AcDbArc
 50
180.0
 51
270.0000000000008
  0
ARC
  5
21F8
330
1F
100
AcDbEntity
  8
0
  6
Continuous
100
AcDbCircle
 10
44.81187900764552
 20
-185.2956221884925
 30
0.0
 40
0.3
100
AcDbArc
 50
90.0
 51
180.0
  0
ARC
  5
21F9
330
1F
100
AcDbEntity
  8
0
  6
Continuous
100
AcDbCircle
 10
110.6118790076456
 20
-208.2556221884925
 30
0.0
 40
0.3
100
AcDbArc
 50
90.0
 51
179.9999999989008
  0
ARC
  5
21FA
330
1F
100
AcDbEntity
  8
0
  6
Continuous
100
AcDbCircle
 10
110.6118790076456
 20
-185.6556221884926
 30
0.0
 40
0.3
100
AcDbArc
 50
180.0000000029996
 51
270.0000000000008
  0
ARC
  5
21FB
330
1F
100
AcDbEntity
  8
0
  6
Continuous
100
AcDbCircle
 10
118.5118790076457
 20
-208.2556221884925
 30
0.0
 40
0.3
100
AcDbArc
 50
90.0
 51
179.9999999989008
  0
ARC
  5
21FC
330
1F
100
AcDbEntity
  8
0
  6
Continuous
100
AcDbCircle
 10
118.5118790076457
 20
-185.6556221884926
 30
0.0
 40
0.3
100
AcDbArc
 50
180.0000000029996
 51
270.0000000000008
  0
ARC
  5
21FD
330
1F
100
AcDbEntity
  8
0
  6
Continuous
100
AcDbCircle
 10
126.4118790076456
 20
-208.2556221884925
 30
0.0
 40
0.3
100
AcDbArc
 50
90.0
 51
179.9999999989008
  0
ARC
  5
21FE
330
1F
100
AcDbEntity
  8
0
  6
Continuous
100
AcDbCircle
 10
126.4118790076456
 20
-185.6556221884926
 30
0.0
 40
0.3
100
AcDbArc
 50
180.0000000029996
 51
270.0000000000008
  0
ARC
  5
21FF
330
1F
100
AcDbEntity
  8
0
  6
Continuous
100
AcDbCircle
 10
116.3118790076456
 20
-208.2556221884925
 30
0.0
 40
0.3
100
AcDbArc
 50
0.0000000012001632
 51
90.0
  0
ARC
  5
2200
330
1F
100
AcDbEntity
  8
0
  6
Continuous
100
AcDbCircle
 10
116.3118790076456
 20
-185.6556221884926
 30
0.0
 40
0.3
100
AcDbArc
 50
270.0000000000008
 51
359.9999999991011
  0
ARC
  5
2201
330
1F
100
AcDbEntity
  8
0
  6
Continuous
100
AcDbCircle
 10
124.2118790076456
 20
-208.2556221884925
 30
0.0
 40
0.3
100
AcDbArc
 50
0.0000000012001632
 51
90.0
  0
ARC
  5
2202
330
1F
100
AcDbEntity
  8
0
  6
Continuous
100
AcDbCircle
 10
124.2118790076456
 20
-185.6556221884926
 30
0.0
 40
0.3
100
AcDbArc
 50
270.0000000000008
 51
359.9999999991011
  0
ARC
  5
2203
330
1F
100
AcDbEntity
  8
0
  6
Continuous
100
AcDbCircle
 10
132.1118790076456
 20
-208.2556221884925
 30
0.0
 40
0.3
100
AcDbArc
 50
0.0000000012001632
 51
90.0
  0
ARC
  5
2204
330
1F
100
AcDbEntity
  8
0
  6
Continuous
100
AcDbCircle
 10
132.1118790076456
 20
-185.6556221884926
 30
0.0
 40
0.3
100
AcDbArc
 50
270.0000000000008
 51
359.9999999991011
  0
ARC
  5
2205
330
1F
100
AcDbEntity
  8
0
  6
Continuous
100
AcDbCircle
 10
44.21187900764561
 20
-208.2556221884925
 30
0.0
 40
0.3
100
AcDbArc
 50
0.0000000010991997
 51
90.0
  0
ARC
  5
2206
330
1F
100
AcDbEntity
  8
0
  6
Continuous
100
AcDbCircle
 10
44.21187900764561
 20
-185.6556221884926
 30
0.0
 40
0.3
100
AcDbArc
 50
270.0000000000008
 51
359.9999999970004
  0
ARC
  5
2207
330
1F
100
AcDbEntity
  8
0
  6
Continuous
100
AcDbCircle
 10
38.51187900764557
 20
-208.2556221884925
 30
0.0
 40
0.3
100
AcDbArc
 50
90.0
 51
179.9999999987998
  0
ARC
  5
2208
330
1F
100
AcDbEntity
  8
0
  6
Continuous
100
AcDbCircle
 10
38.51187900764557
 20
-185.6556221884926
 30
0.0
 40
0.3
100
AcDbArc
 50
180.0000000009005
 51
270.0000000000008
  0
ARC
  5
2209
330
1F
100
AcDbEntity
  8
0
  6
Continuous
100
AcDbCircle
 10
36.31187900764553
 20
-208.2556221884925
 30
0.0
 40
0.3
100
AcDbArc
 50
0.0000000010991997
 51
90.0
  0
ARC
  5
220A
330
1F
100
AcDbEntity
  8
0
  6
Continuous
100
AcDbCircle
 10
36.31187900764553
 20
-185.6556221884926
 30
0.0
 40
0.3
100
AcDbArc
 50
270.0000000000008
 51
359.9999999970004
  0
ARC
  5
220B
330
1F
100
AcDbEntity
  8
0
  6
Continuous
100
AcDbCircle
 10
30.61187900764571
 20
-208.2556221884925
 30
0.0
 40
0.3
100
AcDbArc
 50
90.0
 51
179.9999999991011
  0
ARC
  5
220C
330
1F
100
AcDbEntity
  8
0
  6
Continuous
100
AcDbCircle
 10
30.61187900764571
 20
-185.6556221884926
 30
0.0
 40
0.3
100
AcDbArc
 50
180.0000000012001
 51
270.0000000000008
  0
ARC
  5
220D
330
1F
100
AcDbEntity
  8
0
  6
Continuous
100
AcDbCircle
 10
22.71187900764562
 20
-208.2556221884925
 30
0.0
 40
0.3
100
AcDbArc
 50
90.0
 51
179.9999999987998
  0
ARC
  5
220E
330
1F
100
AcDbEntity
  8
0
  6
Continuous
100
AcDbCircle
 10
22.71187900764562
 20
-185.6556221884926
 30
0.0
 40
0.3
100
AcDbArc
 50
180.0000000009005
 51
270.0000000000008
  0
ARC
  5
220F
330
1F
100
AcDbEntity
  8
0
  6
Continuous
100
AcDbCircle
 10
137.1118790076456
 20
-207.7743968378926
 30
0.0
 40
0.3
100
AcDbArc
 50
285.0000000092002
 51
0.0
  0
ARC
  5
2210
330
1F
100
AcDbEntity
  8
0
  6
Continuous
100
AcDbCircle
 10
137.1118790076456
 20
-186.1368475390925
 30
0.0
 40
0.3
100
AcDbArc
 50
0.0
 51
74.99999999270061
  0
ARC
  5
2211
330
1F
100
AcDbEntity
  8
0
  6
Continuous
100
AcDbCircle
 10
17.71187900764562
 20
-207.7743968378926
 30
0.0
 40
0.3
100
AcDbArc
 50
180.0
 51
254.9999999927006
  0
ARC
  5
2212
330
1F
100
AcDbEntity
  8
0
  6
Continuous
100
AcDbCircle
 10
17.71187900764562
 20
-186.1368475390925
 30
0.0
 40
0.3
100
AcDbArc
 50
105.0000000092002
 51
180.0
  0
ARC
  5
2213
330
1F
100
AcDbEntity
  8
0
  6
Continuous
100
AcDbCircle
 10
101.2461935826457
 20
-244.5556221884925
 30
0.0
 40
0.4
100
AcDbArc
 50
270.0000000000008
 51
314.9999999947003
  0
ARC
  5
2214
330
1F
100
AcDbEntity
  8
0
  6
Continuous
100
AcDbCircle
 10
53.57756443244557
 20
-244.5556221884925
 30
0.0
 40
0.4
100
AcDbArc
 50
225.0000000040999
 51
270.0000000000008
  0
ARC
  5
2215
330
1F
100
AcDbEntity
  8
0
  6
Continuous
100
AcDbCircle
 10
106.6118790076456
 20
-209.9156221884926
 30
0.0
 40
1.0
100
AcDbArc
 50
90.0
 51
179.9999999999006
  0
ARC
  5
2216
330
1F
100
AcDbEntity
  8
0
  6
Continuous
100
AcDbCircle
 10
106.6118790076456
 20
-183.9956221884925
 30
0.0
 40
1.0
100
AcDbArc
 50
180.0000000001009
 51
270.0000000000008
  0
ARC
  5
2217
330
1F
100
AcDbEntity
  8
0
  6
Continuous
100
AcDbCircle
 10
48.21187900764561
 20
-209.9156221884926
 30
0.0
 40
1.0
100
AcDbArc
 50
0.0000000000993351
 51
90.0
  0
ARC
  5
2218
330
1F
100
AcDbEntity
  8
0
  6
Continuous
100
AcDbCircle
 10
48.21187900764561
 20
-183.9956221884925
 30
0.0
 40
1.0
100
AcDbArc
 50
270.0000000000008
 51
359.9999999999007
  0
LINE
  5
2219
330
1F
100
AcDbEntity
  8
0
  6
Continuous
100
AcDbLine
 10
137.4118790076455
 20
-207.7743968378926
 30
0.0
 11
137.4118790076455
 21
-186.1368475390925
 31
0.0
  0
LINE
  5
221A
330
1F
100
AcDbEntity
  8
0
  6
Continuous
100
AcDbLine
 10
137.1895247210456
 20
-208.0641745856926
 30
0.0
 11
137.1895247210456
 21
-185.8470697912926
 31
0.0
  0
LINE
  5
221B
330
1F
100
AcDbEntity
  8
0
  6
Continuous
100
AcDbLine
 10
134.0500289718457
 20
-208.9053999362926
 30
0.0
 11
134.0500289718457
 21
-185.0058444404925
 31
0.0
  0
LINE
  5
221C
330
1F
100
AcDbEntity
  8
0
  6
Continuous
100
AcDbLine
 10
133.9723832582456
 20
-208.9156221884926
 30
0.0
 11
133.9723832582456
 21
-184.9956221884925
 31
0.0
  0
LINE
  5
221D
330
1F
100
AcDbEntity
  8
0
  6
Continuous
100
AcDbLine
 10
132.7118790076456
 20
-208.9156221884926
 30
0.0
 11
132.7118790076456
 21
-184.9956221884925
 31
0.0
  0
LINE
  5
221E
330
1F
100
AcDbEntity
  8
0
  6
Continuous
100
AcDbLine
 10
132.4118790076456
 20
-185.2956221884925
 30
0.0
 11
132.4118790076456
 21
-208.6156221884925
 31
0.0
  0
LINE
  5
221F
330
1F
100
AcDbEntity
  8
0
  6
Continuous
100
AcDbLine
 10
132.1118790076456
 20
-185.9556221884926
 30
0.0
 11
132.1118790076456
 21
-207.9556221884926
 31
0.0
  0
LINE
  5
2220
330
1F
100
AcDbEntity
  8
0
  6
Continuous
100
AcDbLine
 10
126.4118790076456
 20
-185.9556221884926
 30
0.0
 11
126.4118790076456
 21
-207.9556221884926
 31
0.0
  0
LINE
  5
2221
330
1F
100
AcDbEntity
  8
0
  6
Continuous
100
AcDbLine
 10
126.1118790076455
 20
-185.2956221884925
 30
0.0
 11
126.1118790076455
 21
-208.6156221884925
 31
0.0
  0
LINE
  5
2222
330
1F
100
AcDbEntity
  8
0
  6
Continuous
100
AcDbLine
 10
125.8118790076456
 20
-208.9156221884926
 30
0.0
 11
125.8118790076456
 21
-184.9956221884925
 31
0.0
  0
LINE
  5
2223
330
1F
100
AcDbEntity
  8
0
  6
Continuous
100
AcDbLine
 10
124.8118790076456
 20
-208.9156221884926
 30
0.0
 11
124.8118790076456
 21
-184.9956221884925
 31
0.0
  0
LINE
  5
2224
330
1F
100
AcDbEntity
  8
0
  6
Continuous
100
AcDbLine
 10
124.5118790076457
 20
-185.2956221884925
 30
0.0
 11
124.5118790076457
 21
-208.6156221884925
 31
0.0
  0
LINE
  5
2225
330
1F
100
AcDbEntity
  8
0
  6
Continuous
100
AcDbLine
 10
124.2118790076456
 20
-185.9556221884926
 30
0.0
 11
124.2118790076456
 21
-207.9556221884926
 31
0.0
  0
LINE
  5
2226
330
1F
100
AcDbEntity
  8
0
  6
Continuous
100
AcDbLine
 10
134.0500289718457
 20
-185.0058444404925
 30
0.0
 11
137.1895247210456
 21
-185.8470697912926
 31
0.0
  0
LINE
  5
2227
330
1F
100
AcDbEntity
  8
0
  6
Continuous
100
AcDbLine
 10
17.63423329404554
 20
-185.8470697912926
 30
0.0
 11
20.77372904324557
 21
-185.0058444404925
 31
0.0
  0
LINE
  5
2228
330
1F
100
AcDbEntity
  8
0
  6
Continuous
100
AcDbLine
 10
105.6118790076456
 20
-182.8556221884925
 30
0.0
 11
105.3809388998456
 21
-182.4556221884926
 31
0.0
  0
LINE
  5
2229
330
1F
100
AcDbEntity
  8
0
  6
Continuous
100
AcDbLine
 10
101.5290362950457
 20
-244.8384649008926
 30
0.0
 11
102.4118790076457
 21
-243.9556221884926
 31
0.0
  0
LINE
  5
222A
330
1F
100
AcDbEntity
  8
0
  6
Continuous
100
AcDbLine
 10
118.5118790076457
 20
-185.9556221884926
 30
0.0
 11
118.5118790076457
 21
-207.9556221884926
 31
0.0
  0
LINE
  5
222B
330
1F
100
AcDbEntity
  8
0
  6
Continuous
100
AcDbLine
 10
118.2118790076456
 20
-185.2956221884925
 30
0.0
 11
118.2118790076456
 21
-208.6156221884925
 31
0.0
  0
LINE
  5
222C
330
1F
100
AcDbEntity
  8
0
  6
Continuous
100
AcDbLine
 10
117.9118790076456
 20
-208.9156221884926
 30
0.0
 11
117.9118790076456
 21
-184.9956221884925
 31
0.0
  0
LINE
  5
222D
330
1F
100
AcDbEntity
  8
0
  6
Continuous
100
AcDbLine
 10
116.9118790076456
 20
-208.9156221884926
 30
0.0
 11
116.9118790076456
 21
-184.9956221884925
 31
0.0
  0
LINE
  5
222E
330
1F
100
AcDbEntity
  8
0
  6
Continuous
100
AcDbLine
 10
116.6118790076456
 20
-185.2956221884925
 30
0.0
 11
116.6118790076456
 21
-208.6156221884925
 31
0.0
  0
LINE
  5
222F
330
1F
100
AcDbEntity
  8
0
  6
Continuous
100
AcDbLine
 10
116.3118790076456
 20
-185.9556221884926
 30
0.0
 11
116.3118790076456
 21
-207.9556221884926
 31
0.0
  0
LINE
  5
2230
330
1F
100
AcDbEntity
  8
0
  6
Continuous
100
AcDbLine
 10
133.9723832582456
 20
-184.9956221884925
 30
0.0
 11
134.0500289718457
 21
-185.0058444404925
 31
0.0
  0
LINE
  5
2231
330
1F
100
AcDbEntity
  8
0
  6
Continuous
100
AcDbLine
 10
20.77372904324557
 20
-185.0058444404925
 30
0.0
 11
20.85137475684565
 21
-184.9956221884925
 31
0.0
  0
LINE
  5
2232
330
1F
100
AcDbEntity
  8
0
  6
Continuous
100
AcDbLine
 10
110.6118790076456
 20
-185.9556221884926
 30
0.0
 11
110.6118790076456
 21
-207.9556221884926
 31
0.0
  0
LINE
  5
2233
330
1F
100
AcDbEntity
  8
0
  6
Continuous
100
AcDbLine
 10
110.3118790076456
 20
-185.2956221884925
 30
0.0
 11
110.3118790076456
 21
-208.6156221884925
 31
0.0
  0
LINE
  5
2234
330
1F
100
AcDbEntity
  8
0
  6
Continuous
100
AcDbLine
 10
110.0118790076457
 20
-208.9156221884926
 30
0.0
 11
110.0118790076457
 21
-184.9956221884925
 31
0.0
  0
LINE
  5
2235
330
1F
100
AcDbEntity
  8
0
  6
Continuous
100
AcDbLine
 10
104.7427618764457
 20
-182.4556221884926
 30
0.0
 11
105.3809388998456
 21
-182.4556221884926
 31
0.0
  0
LINE
  5
2236
330
1F
100
AcDbEntity
  8
0
  6
Continuous
100
AcDbLine
 10
49.44281911524559
 20
-182.4556221884926
 30
0.0
 11
50.08099613864556
 21
-182.4556221884926
 31
0.0
  0
LINE
  5
2237
330
1F
100
AcDbEntity
  8
0
  6
Continuous
100
AcDbLine
 10
85.34157004824554
 20
-183.9556221884926
 30
0.0
 11
100.0790723500456
 21
-183.9556221884926
 31
0.0
  0
LINE
  5
2238
330
1F
100
AcDbEntity
  8
0
  6
Continuous
100
AcDbLine
 10
54.74468566524571
 20
-183.9556221884926
 30
0.0
 11
69.48218796704555
 21
-183.9556221884926
 31
0.0
  0
LINE
  5
2239
330
1F
100
AcDbEntity
  8
0
  6
Continuous
100
AcDbLine
 10
132.7118790076456
 20
-184.9956221884925
 30
0.0
 11
133.9723832582456
 21
-184.9956221884925
 31
0.0
  0
LINE
  5
223A
330
1F
100
AcDbEntity
  8
0
  6
Continuous
100
AcDbLine
 10
124.8118790076456
 20
-184.9956221884925
 30
0.0
 11
125.8118790076456
 21
-184.9956221884925
 31
0.0
  0
LINE
  5
223B
330
1F
100
AcDbEntity
  8
0
  6
Continuous
100
AcDbLine
 10
116.9118790076456
 20
-184.9956221884925
 30
0.0
 11
117.9118790076456
 21
-184.9956221884925
 31
0.0
  0
LINE
  5
223C
330
1F
100
AcDbEntity
  8
0
  6
Continuous
100
AcDbLine
 10
106.6118790076456
 20
-184.9956221884925
 30
0.0
 11
110.0118790076457
 21
-184.9956221884925
 31
0.0
  0
LINE
  5
223D
330
1F
100
AcDbEntity
  8
0
  6
Continuous
100
AcDbLine
 10
44.81187900764552
 20
-184.9956221884925
 30
0.0
 11
48.21187900764561
 21
-184.9956221884925
 31
0.0
  0
LINE
  5
223E
330
1F
100
AcDbEntity
  8
0
  6
Continuous
100
AcDbLine
 10
36.91187900764568
 20
-184.9956221884925
 30
0.0
 11
37.91187900764568
 21
-184.9956221884925
 31
0.0
  0
LINE
  5
223F
330
1F
100
AcDbEntity
  8
0
  6
Continuous
100
AcDbLine
 10
29.01187900764558
 20
-184.9956221884925
 30
0.0
 11
30.01187900764558
 21
-184.9956221884925
 31
0.0
  0
LINE
  5
2240
330
1F
100
AcDbEntity
  8
0
  6
Continuous
100
AcDbLine
 10
20.85137475684565
 20
-184.9956221884925
 30
0.0
 11
22.11187900764571
 21
-184.9956221884925
 31
0.0
  0
LINE
  5
2241
330
1F
100
AcDbEntity
  8
0
  6
Continuous
100
AcDbLine
 10
126.4118790076456
 20
-185.9556221884926
 30
0.0
 11
132.1118790076456
 21
-185.9556221884926
 31
0.0
  0
LINE
  5
2242
330
1F
100
AcDbEntity
  8
0
  6
Continuous
100
AcDbLine
 10
118.5118790076457
 20
-185.9556221884926
 30
0.0
 11
124.2118790076456
 21
-185.9556221884926
 31
0.0
  0
LINE
  5
2243
330
1F
100
AcDbEntity
  8
0
  6
Continuous
100
AcDbLine
 10
110.6118790076456
 20
-185.9556221884926
 30
0.0
 11
116.3118790076456
 21
-185.9556221884926
 31
0.0
  0
LINE
  5
2244
330
1F
100
AcDbEntity
  8
0
  6
Continuous
100
AcDbLine
 10
38.51187900764557
 20
-185.9556221884926
 30
0.0
 11
44.21187900764561
 21
-185.9556221884926
 31
0.0
  0
LINE
  5
2245
330
1F
100
AcDbEntity
  8
0
  6
Continuous
100
AcDbLine
 10
30.61187900764571
 20
-185.9556221884926
 30
0.0
 11
36.31187900764553
 21
-185.9556221884926
 31
0.0
  0
LINE
  5
2246
330
1F
100
AcDbEntity
  8
0
  6
Continuous
100
AcDbLine
 10
22.71187900764562
 20
-185.9556221884926
 30
0.0
 11
28.71187900764562
 21
-185.9556221884926
 31
0.0
  0
LINE
  5
2247
330
1F
100
AcDbEntity
  8
0
  6
Continuous
100
AcDbLine
 10
106.6118790076456
 20
-208.9156221884926
 30
0.0
 11
106.6118790076456
 21
-184.9956221884925
 31
0.0
  0
LINE
  5
2248
330
1F
100
AcDbEntity
  8
0
  6
Continuous
100
AcDbLine
 10
105.6118790076456
 20
-182.8556221884925
 30
0.0
 11
105.6118790076456
 21
-211.0556221884925
 31
0.0
  0
LINE
  5
2249
330
1F
100
AcDbEntity
  8
0
  6
Continuous
100
AcDbLine
 10
105.3809388998456
 20
-182.4556221884926
 30
0.0
 11
105.3809526646456
 21
-210.1526539824925
 31
0.0
  0
LINE
  5
224A
330
1F
100
AcDbEntity
  8
0
  6
Continuous
100
AcDbLine
 10
104.7427618764457
 20
-209.3307431684926
 30
0.0
 11
104.7427618764457
 21
-182.4556221884926
 31
0.0
  0
LINE
  5
224B
330
1F
100
AcDbEntity
  8
0
  6
Continuous
100
AcDbLine
 10
102.4118790076457
 20
-243.9556221884926
 30
0.0
 11
102.4118790076457
 21
-215.4556221884926
 31
0.0
  0
LINE
  5
224C
330
1F
100
AcDbEntity
  8
0
  6
Continuous
100
AcDbLine
 10
102.4109171132456
 20
-183.2056221884926
 30
0.0
 11
102.4109171132456
 21
-204.3933539448925
 31
0.0
  0
LINE
  5
224D
330
1F
100
AcDbEntity
  8
0
  6
Continuous
100
AcDbLine
 10
105.6118790076456
 20
-211.0556221884925
 30
0.0
 11
105.2878948070456
 21
-211.6167792846926
 31
0.0
  0
LINE
  5
224E
330
1F
100
AcDbEntity
  8
0
  6
Continuous
100
AcDbLine
 10
100.0790723500456
 20
-203.9876594886926
 30
0.0
 11
100.0790723500456
 21
-183.9556221884926
 31
0.0
  0
LINE
  5
224F
330
1F
100
AcDbEntity
  8
0
  6
CENTER
 48
25.0
100
AcDbLine
 10
8.671610142005648
 20
-196.9556221884926
 30
0.0
 11
142.3503619782456
 21
-196.9556221884926
 31
0.0
  0
LINE
  5
2250
330
1F
100
AcDbEntity
  8
0
  6
Continuous
100
AcDbLine
 10
92.65146957984553
 20
-223.5046157104926
 30
0.0
 11
92.84730804924563
 21
-223.3087772410925
 31
0.0
  0
LINE
  5
2251
330
1F
100
AcDbEntity
  8
0
  6
Continuous
100
AcDbLine
 10
93.86189073604557
 20
-223.3087772410925
 30
0.0
 11
93.86189073604557
 21
-238.2024671358925
 31
0.0
  0
LINE
  5
2252
330
1F
100
AcDbEntity
  8
0
  6
Continuous
100
AcDbLine
 10
92.84730804924563
 20
-223.3087772410925
 30
0.0
 11
92.84730804924563
 21
-238.2024671358925
 31
0.0
  0
LINE
  5
2253
330
1F
100
AcDbEntity
  8
0
  6
Continuous
100
AcDbLine
 10
92.65146957984553
 20
-238.0066286664926
 30
0.0
 11
92.65146957984553
 21
-223.5046157104926
 31
0.0
  0
LINE
  5
2254
330
1F
100
AcDbEntity
  8
0
  6
Continuous
100
AcDbLine
 10
89.66288548544571
 20
-240.7610294912925
 30
0.0
 11
89.66288548544571
 21
-220.7502148856925
 31
0.0
  0
LINE
  5
2255
330
1F
100
AcDbEntity
  8
0
  6
Continuous
100
AcDbLine
 10
58.32783676544568
 20
-205.5556221884926
 30
0.0
 11
96.49592124984565
 21
-205.5556221884926
 31
0.0
  0
LINE
  5
2256
330
1F
100
AcDbEntity
  8
0
  6
Continuous
100
AcDbLine
 10
57.72469246704553
 20
-207.7760505194926
 30
0.0
 11
97.09905115884565
 21
-207.7760505194926
 31
0.0
  0
LINE
  5
2257
330
1F
100
AcDbEntity
  8
0
  6
Continuous
100
AcDbLine
 10
126.4118790076456
 20
-207.9556221884926
 30
0.0
 11
132.1118790076456
 21
-207.9556221884926
 31
0.0
  0
LINE
  5
2258
330
1F
100
AcDbEntity
  8
0
  6
Continuous
100
AcDbLine
 10
118.5118790076457
 20
-207.9556221884926
 30
0.0
 11
124.2118790076456
 21
-207.9556221884926
 31
0.0
  0
LINE
  5
2259
330
1F
100
AcDbEntity
  8
0
  6
Continuous
100
AcDbLine
 10
110.6118790076456
 20
-207.9556221884926
 30
0.0
 11
116.3118790076456
 21
-207.9556221884926
 31
0.0
  0
LINE
  5
225A
330
1F
100
AcDbEntity
  8
0
  6
Continuous
100
AcDbLine
 10
38.51187900764557
 20
-207.9556221884926
 30
0.0
 11
44.21187900764561
 21
-207.9556221884926
 31
0.0
  0
LINE
  5
225B
330
1F
100
AcDbEntity
  8
0
  6
Continuous
100
AcDbLine
 10
30.61187900764571
 20
-207.9556221884926
 30
0.0
 11
36.31187900764553
 21
-207.9556221884926
 31
0.0
  0
LINE
  5
225C
330
1F
100
AcDbEntity
  8
0
  6
Continuous
100
AcDbLine
 10
22.71187900764562
 20
-207.9556221884926
 30
0.0
 11
28.71187900764562
 21
-207.9556221884926
 31
0.0
  0
LINE
  5
225D
330
1F
100
AcDbEntity
  8
0
  6
Continuous
100
AcDbLine
 10
62.17228843544557
 20
-238.0066286664926
 30
0.0
 11
61.97644996584563
 21
-238.2024671358925
 31
0.0
  0
LINE
  5
225E
330
1F
100
AcDbEntity
  8
0
  6
Continuous
100
AcDbLine
 10
132.7118790076456
 20
-208.9156221884926
 30
0.0
 11
133.9723832582456
 21
-208.9156221884926
 31
0.0
  0
LINE
  5
225F
330
1F
100
AcDbEntity
  8
0
  6
Continuous
100
AcDbLine
 10
124.8118790076456
 20
-208.9156221884926
 30
0.0
 11
125.8118790076456
 21
-208.9156221884926
 31
0.0
  0
LINE
  5
2260
330
1F
100
AcDbEntity
  8
0
  6
Continuous
100
AcDbLine
 10
116.9118790076456
 20
-208.9156221884926
 30
0.0
 11
117.9118790076456
 21
-208.9156221884926
 31
0.0
  0
LINE
  5
2261
330
1F
100
AcDbEntity
  8
0
  6
Continuous
100
AcDbLine
 10
106.6118790076456
 20
-208.9156221884926
 30
0.0
 11
110.0118790076457
 21
-208.9156221884926
 31
0.0
  0
LINE
  5
2262
330
1F
100
AcDbEntity
  8
0
  6
Continuous
100
AcDbLine
 10
44.81187900764552
 20
-208.9156221884926
 30
0.0
 11
48.21187900764561
 21
-208.9156221884926
 31
0.0
  0
LINE
  5
2263
330
1F
100
AcDbEntity
  8
0
  6
Continuous
100
AcDbLine
 10
36.91187900764568
 20
-208.9156221884926
 30
0.0
 11
37.91187900764568
 21
-208.9156221884926
 31
0.0
  0
LINE
  5
2264
330
1F
100
AcDbEntity
  8
0
  6
Continuous
100
AcDbLine
 10
29.01187900764558
 20
-208.9156221884926
 30
0.0
 11
30.01187900764558
 21
-208.9156221884926
 31
0.0
  0
LINE
  5
2265
330
1F
100
AcDbEntity
  8
0
  6
Continuous
100
AcDbLine
 10
20.85137475684565
 20
-208.9156221884926
 30
0.0
 11
22.11187900764571
 21
-208.9156221884926
 31
0.0
  0
LINE
  5
2266
330
1F
100
AcDbEntity
  8
0
  6
Continuous
100
AcDbLine
 10
56.77487783604556
 20
-210.5310459822926
 30
0.0
 11
98.04889657784565
 21
-210.5310459822926
 31
0.0
  0
LINE
  5
2267
330
1F
100
AcDbEntity
  8
0
  6
Continuous
100
AcDbLine
 10
20.77372904324557
 20
-208.9053999362926
 30
0.0
 11
20.85137475684565
 21
-208.9156221884926
 31
0.0
  0
LINE
  5
2268
330
1F
100
AcDbEntity
  8
0
  6
Continuous
100
AcDbLine
 10
53.56148893444562
 20
-213.2860414450926
 30
0.0
 11
101.2622690806456
 21
-213.2860414450926
 31
0.0
  0
LINE
  5
2269
330
1F
100
AcDbEntity
  8
0
  6
Continuous
100
AcDbLine
 10
133.9723832582456
 20
-208.9156221884926
 30
0.0
 11
134.0500289718457
 21
-208.9053999362926
 31
0.0
  0
LINE
  5
226A
330
1F
100
AcDbEntity
  8
0
  6
CENTER
 48
25.0
100
AcDbLine
 10
77.41187900764565
 20
-254.9556221884926
 30
0.0
 11
77.41187900764565
 21
-179.1771498473235
 31
0.0
  0
LINE
  5
226B
330
1F
100
AcDbEntity
  8
0
  6
Continuous
100
AcDbLine
 10
92.65146957984553
 20
-238.0066286664926
 30
0.0
 11
92.84730804924563
 21
-238.2024671358925
 31
0.0
  0
LINE
  5
226C
330
1F
100
AcDbEntity
  8
0
  6
Continuous
100
AcDbLine
 10
17.63423329404554
 20
-208.0641745856926
 30
0.0
 11
20.77372904324557
 21
-208.9053999362926
 31
0.0
  0
LINE
  5
226D
330
1F
100
AcDbEntity
  8
0
  6
Continuous
100
AcDbLine
 10
92.84730804924563
 20
-223.3087772410925
 30
0.0
 11
93.86189073604557
 21
-223.3087772410925
 31
0.0
  0
LINE
  5
226E
330
1F
100
AcDbEntity
  8
0
  6
Continuous
100
AcDbLine
 10
61.97644996584563
 20
-223.3087772410925
 30
0.0
 11
60.96186727904568
 21
-223.3087772410925
 31
0.0
  0
LINE
  5
226F
330
1F
100
AcDbEntity
  8
0
  6
Continuous
100
AcDbLine
 10
62.17228843544557
 20
-223.5046157104926
 30
0.0
 11
92.65146957984553
 21
-223.5046157104926
 31
0.0
  0
LINE
  5
2270
330
1F
100
AcDbEntity
  8
0
  6
Continuous
100
AcDbLine
 10
134.0500289718457
 20
-208.9053999362926
 30
0.0
 11
137.1895247210456
 21
-208.0641745856926
 31
0.0
  0
LINE
  5
2271
330
1F
100
AcDbEntity
  8
0
  6
Continuous
100
AcDbLine
 10
65.16087252964553
 20
-240.7610294912925
 30
0.0
 11
65.16087252964553
 21
-220.7502148856925
 31
0.0
  0
LINE
  5
2272
330
1F
100
AcDbEntity
  8
0
  6
Continuous
100
AcDbLine
 10
62.17228843544557
 20
-223.5046157104926
 30
0.0
 11
62.17228843544557
 21
-238.0066286664926
 31
0.0
  0
LINE
  5
2273
330
1F
100
AcDbEntity
  8
0
  6
Continuous
100
AcDbLine
 10
61.97644996584563
 20
-238.2024671358925
 30
0.0
 11
61.97644996584563
 21
-223.3087772410925
 31
0.0
  0
LINE
  5
2274
330
1F
100
AcDbEntity
  8
0
  6
Continuous
100
AcDbLine
 10
60.96186727904568
 20
-238.2024671358925
 30
0.0
 11
60.96186727904568
 21
-223.3087772410925
 31
0.0
  0
LINE
  5
2275
330
1F
100
AcDbEntity
  8
0
  6
Continuous
100
AcDbLine
 10
62.17228843544557
 20
-223.5046157104926
 30
0.0
 11
61.97644996584563
 21
-223.3087772410925
 31
0.0
  0
LINE
  5
2276
330
1F
100
AcDbEntity
  8
0
  6
Continuous
100
AcDbLine
 10
49.5358626188456
 20
-211.6167782640926
 30
0.0
 11
49.21187900764561
 21
-211.0556221884925
 31
0.0
  0
LINE
  5
2277
330
1F
100
AcDbEntity
  8
0
  6
Continuous
100
AcDbLine
 10
62.17228843544557
 20
-238.0066286664926
 30
0.0
 11
92.65146957984553
 21
-238.0066286664926
 31
0.0
  0
LINE
  5
2278
330
1F
100
AcDbEntity
  8
0
  6
Continuous
100
AcDbLine
 10
92.84730804924563
 20
-238.2024671358925
 30
0.0
 11
93.86189073604557
 21
-238.2024671358925
 31
0.0
  0
LINE
  5
2279
330
1F
100
AcDbEntity
  8
0
  6
Continuous
100
AcDbLine
 10
61.97644996584563
 20
-238.2024671358925
 30
0.0
 11
60.96186727904568
 21
-238.2024671358925
 31
0.0
  0
LINE
  5
227A
330
1F
100
AcDbEntity
  8
0
  6
Continuous
100
AcDbLine
 10
54.74468566524571
 20
-183.9556221884926
 30
0.0
 11
54.74468566524571
 21
-203.9876594886926
 31
0.0
  0
LINE
  5
227B
330
1F
100
AcDbEntity
  8
0
  6
Continuous
100
AcDbLine
 10
52.41284090184557
 20
-204.3933539448925
 30
0.0
 11
52.41284090184557
 21
-183.2056221884926
 31
0.0
  0
LINE
  5
227C
330
1F
100
AcDbEntity
  8
0
  6
Continuous
100
AcDbLine
 10
52.41187900764565
 20
-243.9556221884926
 30
0.0
 11
52.41187900764565
 21
-215.4556221884926
 31
0.0
  0
LINE
  5
227D
330
1F
100
AcDbEntity
  8
0
  6
Continuous
100
AcDbLine
 10
52.41187900764565
 20
-243.9556221884926
 30
0.0
 11
102.4118790076457
 21
-243.9556221884926
 31
0.0
  0
LINE
  5
227E
330
1F
100
AcDbEntity
  8
0
  6
Continuous
100
AcDbLine
 10
50.08099613864556
 20
-182.4556221884926
 30
0.0
 11
50.08099613864556
 21
-209.3307431684926
 31
0.0
  0
LINE
  5
227F
330
1F
100
AcDbEntity
  8
0
  6
Continuous
100
AcDbLine
 10
49.44281911524559
 20
-182.4556221884926
 30
0.0
 11
49.4428053322456
 21
-210.1526612446925
 31
0.0
  0
LINE
  5
2280
330
1F
100
AcDbEntity
  8
0
  6
Continuous
100
AcDbLine
 10
49.21187900764561
 20
-182.8556221884925
 30
0.0
 11
49.21187900764561
 21
-211.0556221884925
 31
0.0
  0
LINE
  5
2281
330
1F
100
AcDbEntity
  8
0
  6
Continuous
100
AcDbLine
 10
48.21187900764561
 20
-184.9956221884925
 30
0.0
 11
48.21187900764561
 21
-208.9156221884926
 31
0.0
  0
LINE
  5
2282
330
1F
100
AcDbEntity
  8
0
  6
Continuous
100
AcDbLine
 10
101.5290362950457
 20
-244.8384649008926
 30
0.0
 11
53.29472172004557
 21
-244.8384649008926
 31
0.0
  0
LINE
  5
2283
330
1F
100
AcDbEntity
  8
0
  6
Continuous
100
AcDbLine
 10
53.57756443244557
 20
-244.9556221884926
 30
0.0
 11
101.2461935826457
 21
-244.9556221884926
 31
0.0
  0
LINE
  5
2284
330
1F
100
AcDbEntity
  8
0
  6
Continuous
100
AcDbLine
 10
44.81187900764552
 20
-184.9956221884925
 30
0.0
 11
44.81187900764552
 21
-208.9156221884926
 31
0.0
  0
LINE
  5
2285
330
1F
100
AcDbEntity
  8
0
  6
Continuous
100
AcDbLine
 10
44.51187900764558
 20
-185.2956221884925
 30
0.0
 11
44.51187900764558
 21
-208.6156221884925
 31
0.0
  0
LINE
  5
2286
330
1F
100
AcDbEntity
  8
0
  6
Continuous
100
AcDbLine
 10
44.21187900764561
 20
-207.9556221884926
 30
0.0
 11
44.21187900764561
 21
-185.9556221884926
 31
0.0
  0
LINE
  5
2287
330
1F
100
AcDbEntity
  8
0
  6
Continuous
100
AcDbLine
 10
53.29472172004557
 20
-244.8384649008926
 30
0.0
 11
52.41187900764565
 21
-243.9556221884926
 31
0.0
  0
LINE
  5
2288
330
1F
100
AcDbEntity
  8
0
  6
Continuous
100
AcDbLine
 10
49.44281911524559
 20
-182.4556221884926
 30
0.0
 11
49.21187900764561
 21
-182.8556221884925
 31
0.0
  0
LINE
  5
2289
330
1F
100
AcDbEntity
  8
0
  6
Continuous
100
AcDbLine
 10
38.51187900764557
 20
-207.9556221884926
 30
0.0
 11
38.51187900764557
 21
-185.9556221884926
 31
0.0
  0
LINE
  5
228A
330
1F
100
AcDbEntity
  8
0
  6
Continuous
100
AcDbLine
 10
38.21187900764562
 20
-185.2956221884925
 30
0.0
 11
38.21187900764562
 21
-208.6156221884925
 31
0.0
  0
LINE
  5
228B
330
1F
100
AcDbEntity
  8
0
  6
Continuous
100
AcDbLine
 10
37.91187900764568
 20
-184.9956221884925
 30
0.0
 11
37.91187900764568
 21
-208.9156221884926
 31
0.0
  0
LINE
  5
228C
330
1F
100
AcDbEntity
  8
0
  6
Continuous
100
AcDbLine
 10
36.91187900764568
 20
-184.9956221884925
 30
0.0
 11
36.91187900764568
 21
-208.9156221884926
 31
0.0
  0
LINE
  5
228D
330
1F
100
AcDbEntity
  8
0
  6
Continuous
100
AcDbLine
 10
36.61187900764571
 20
-185.2956221884925
 30
0.0
 11
36.61187900764571
 21
-208.6156221884925
 31
0.0
  0
LINE
  5
228E
330
1F
100
AcDbEntity
  8
0
  6
Continuous
100
AcDbLine
 10
36.31187900764553
 20
-207.9556221884926
 30
0.0
 11
36.31187900764553
 21
-185.9556221884926
 31
0.0
  0
LINE
  5
228F
330
1F
100
AcDbEntity
  8
0
  6
Continuous
100
AcDbLine
 10
30.61187900764571
 20
-207.9556221884926
 30
0.0
 11
30.61187900764571
 21
-185.9556221884926
 31
0.0
  0
LINE
  5
2290
330
1F
100
AcDbEntity
  8
0
  6
Continuous
100
AcDbLine
 10
30.31187900764553
 20
-185.2956221884925
 30
0.0
 11
30.31187900764553
 21
-208.6156221884925
 31
0.0
  0
LINE
  5
2291
330
1F
100
AcDbEntity
  8
0
  6
Continuous
100
AcDbLine
 10
30.01187900764558
 20
-184.9956221884925
 30
0.0
 11
30.01187900764558
 21
-208.9156221884926
 31
0.0
  0
LINE
  5
2292
330
1F
100
AcDbEntity
  8
0
  6
Continuous
100
AcDbLine
 10
29.01187900764558
 20
-184.9956221884925
 30
0.0
 11
29.01187900764558
 21
-208.9156221884926
 31
0.0
  0
LINE
  5
2293
330
1F
100
AcDbEntity
  8
0
  6
Continuous
100
AcDbLine
 10
28.71187900764562
 20
-185.2956221884925
 30
0.0
 11
28.71187900764562
 21
-208.6156221884925
 31
0.0
  0
LINE
  5
2294
330
1F
100
AcDbEntity
  8
0
  6
Continuous
100
AcDbLine
 10
22.71187900764562
 20
-207.9556221884926
 30
0.0
 11
22.71187900764562
 21
-185.9556221884926
 31
0.0
  0
LINE
  5
2295
330
1F
100
AcDbEntity
  8
0
  6
Continuous
100
AcDbLine
 10
22.41187900764566
 20
-185.2956221884925
 30
0.0
 11
22.41187900764566
 21
-208.6156221884925
 31
0.0
  0
LINE
  5
2296
330
1F
100
AcDbEntity
  8
0
  6
Continuous
100
AcDbLine
 10
22.11187900764571
 20
-184.9956221884925
 30
0.0
 11
22.11187900764571
 21
-208.9156221884926
 31
0.0
  0
LINE
  5
2297
330
1F
100
AcDbEntity
  8
0
  6
Continuous
100
AcDbLine
 10
20.85137475684565
 20
-184.9956221884925
 30
0.0
 11
20.85137475684565
 21
-208.9156221884926
 31
0.0
  0
LINE
  5
2298
330
1F
100
AcDbEntity
  8
0
  6
Continuous
100
AcDbLine
 10
20.77372904324557
 20
-185.0058444404925
 30
0.0
 11
20.77372904324557
 21
-208.9053999362926
 31
0.0
  0
LINE
  5
2299
330
1F
100
AcDbEntity
  8
0
  6
Continuous
100
AcDbLine
 10
17.63423329404554
 20
-185.8470697912926
 30
0.0
 11
17.63423329404554
 21
-208.0641745856926
 31
0.0
  0
LINE
  5
229A
330
1F
100
AcDbEntity
  8
0
  6
Continuous
100
AcDbLine
 10
17.41187900764566
 20
-186.1368475390925
 30
0.0
 11
17.41187900764566
 21
-207.7743968378926
 31
0.0
  0
VIEWPORT
  5
86E
330
50
100
AcDbEntity
 67
     1
  8
0
100
AcDbViewport
 10
133.3499908447265
 20
101.5999970436096
 30
0.0
 40
467.3964992866515
 41
228.4221935424805
 68
     1
 69
     1
 12
133.3499908447265
 22
101.5999970436096
 13
0.0
 23
0.0
 14
10.0
 24
10.0
 15
10.0
 25
10.0
 16
0.0
 26
0.0
 36
1.0
 17
0.0
 27
0.0
 37
0.0
 42
50.0
 43
0.0
 44
0.0
 45
228.4221935424805
 50
0.0
 51
0.0
 72
  1000
 90
    32800
  1

281
     0
 71
     1
 74
     0
110
0.0
120
0.0
130
0.0
111
1.0
121
0.0
131
0.0
112
0.0
122
1.0
132
0.0
 79
     0
146
0.0
  0
VIEWPORT
  5
870
330
50
100
AcDbEntity
 67
     1
  8
0
100
AcDbViewport
 10
133.3499939441681
 20
101.5999939441681
 30
0.0
 40
213.3599903106689
 41
162.5599903106689
 68
     2
 69
     2
 12
232.2178593412737
 22
236.3528153148605
 13
0.0
 23
0.0
 14
10.0
 24
10.0
 15
10.0
 25
10.0
 16
0.0
 26
0.0
 36
1.0
 17
0.0
 27
0.0
 37
0.0
 42
50.0
 43
0.0
 44
0.0
 45
372.3835153371155
 50
0.0
 51
0.0
 72
  1000
 90
    32864
  1

281
     0
 71
     1
 74
     0
110
0.0
120
0.0
130
0.0
111
1.0
121
0.0
131
0.0
112
0.0
122
1.0
132
0.0
 79
     0
146
0.0
  0
ENDSEC
  0
SECTION
  2
OBJECTS
  0
DICTIONARY
  5
C
330
0
100
AcDbDictionary
281
     1
  3
ACAD_COLOR
350
6B
  3
ACAD_GROUP
350
D
  3
ACAD_LAYOUT
350
1A
  3
ACAD_MATERIAL
350
6A
  3
ACAD_MLINESTYLE
350
17
  3
ACAD_PLOTSETTINGS
350
19
  3
ACAD_PLOTSTYLENAME
350
E
  3
ACDBHEADERROUNDTRIPXREC
350
479B
  3
AcDbVariableDictionary
350
5E
  3
DWGPROPS
350
479E
  0
DICTIONARY
  5
6B
102
{ACAD_REACTORS
330
C
102
}
330
C
100
AcDbDictionary
281
     1
  0
DICTIONARY
  5
D
102
{ACAD_REACTORS
330
C
102
}
330
C
100
AcDbDictionary
281
     1
  0
DICTIONARY
  5
1A
102
{ACAD_REACTORS
330
C
102
}
330
C
100
AcDbDictionary
281
     1
  3
Layout1
350
51
  3
Layout2
350
56
  3
Model
350
22
  0
DICTIONARY
  5
6A
102
{ACAD_REACTORS
330
C
102
}
330
C
100
AcDbDictionary
281
     1
  0
DICTIONARY
  5
17
102
{ACAD_REACTORS
330
C
102
}
330
C
100
AcDbDictionary
281
     1
  3
Standard
350
18
  0
DICTIONARY
  5
19
102
{ACAD_REACTORS
330
C
102
}
330
C
100
AcDbDictionary
281
     1
  0
ACDBDICTIONARYWDFLT
  5
E
102
{ACAD_REACTORS
330
C
102
}
330
C
100
AcDbDictionary
281
     1
  3
Normal
350
F
100
AcDbDictionaryWithDefault
340
F
  0
DICTIONARY
  5
479B
102
{ACAD_REACTORS
330
C
102
}
330
C
100
AcDbDictionary
281
     1
  3
COLORDICT
350
479C
  3
MATERIALDICT
350
479D
  0
DICTIONARY
  5
5E
102
{ACAD_REACTORS
330
C
102
}
330
C
100
AcDbDictionary
281
     1
  3
DIMASSOC
350
5F
  3
HIDETEXT
350
63
  0
XRECORD
  5
479E
102
{ACAD_REACTORS
330
C
102
}
330
C
100
AcDbXrecord
280
     1
  1
DWGPROPS COOKIE
  2

  3

  4

  6

  7

  8

  9

300
=
301
=
302
=
303
=
304
=
305
=
306
=
307
=
308
=
309
=
 40
0.0
 41
2453308.654962373
 42
2453691.647955474
  1

 90
        0
  0
LAYOUT
  5
51
102
{ACAD_REACTORS
330
1A
102
}
330
1A
100
AcDbPlotSettings
  1

  2
none_device
  4
Letter_(8.50_x_11.00_Inches)
  6

 40
6.349999904632567
 41
6.349999904632567
 42
6.350006103515625
 43
6.350006103515625
 44
215.8999938964844
 45
279.3999938964844
 46
0.0
 47
0.0
 48
0.0
 49
0.0
140
0.0
141
0.0
142
1.0
143
1.0
 70
   688
 72
     1
 73
     1
 74
     5
  7

 75
    16
147
1.0
148
0.0
149
0.0
100
AcDbLayout
  1
Layout1
 70
     1
 71
     1
 10
-6.350006103515625
 20
-6.349999904632567
 11
273.0499877929688
 21
209.5499939918518
 12
0.0
 22
0.0
 32
0.0
 14
26.66999878883363
 24
20.31999878883363
 34
0.0
 15
240.0299890995026
 25
182.8799890995025
 35
0.0
146
0.0
 13
0.0
 23
0.0
 33
0.0
 16
1.0
 26
0.0
 36
0.0
 17
0.0
 27
1.0
 37
0.0
 76
     0
330
50
331
86E
  0
LAYOUT
  5
56
102
{ACAD_REACTORS
330
1A
102
}
330
1A
100
AcDbPlotSettings
  1

  2
None
  4

  6

 40
0.0
 41
0.0
 42
0.0
 43
0.0
 44
0.0
 45
0.0
 46
0.0
 47
0.0
 48
0.0
 49
0.0
140
0.0
141
0.0
142
1.0
143
1.0
 70
   688
 72
     0
 73
     0
 74
     5
  7

 75
    16
147
1.0
148
0.0
149
0.0
100
AcDbLayout
  1
Layout2
 70
     1
 71
     2
 10
0.0
 20
0.0
 11
12.0
 21
9.0
 12
0.0
 22
0.0
 32
0.0
 14
0.0
 24
0.0
 34
0.0
 15
0.0
 25
0.0
 35
0.0
146
0.0
 13
0.0
 23
0.0
 33
0.0
 16
1.0
 26
0.0
 36
0.0
 17
0.0
 27
1.0
 37
0.0
 76
     0
330
55
  0
LAYOUT
  5
22
102
{ACAD_REACTORS
330
1A
102
}
330
1A
100
AcDbPlotSettings
  1

  2
\\alderaan\HP LaserJet 5Si/5Si MX PS Tecnico
  4
A3
  6

 40
5.746749877929687
 41
5.704421997070312
 42
5.746734619140625
 43
5.74676513671875
 44
297.0530090332031
 45
420.1583251953125
 46
10.34
 47
0.0
 48
-69.22767503670229
 49
-366.6080453569757
140
1188.996887231578
141
448.8355352667507
142
1.0
143
3.078548048453406
 70
 11956
 72
     1
 73
     1
 74
     4
  7

 75
     0
147
0.3248284529787921
148
69.22767503670229
149
366.6080453569757
100
AcDbLayout
  1
Model
 70
     1
 71
     0
 10
0.0
 20
0.0
 11
12.0
 21
9.0
 12
0.0
 22
0.0
 32
0.0
 14
0.0
 24
0.0
 34
0.0
 15
0.0
 25
0.0
 35
0.0
146
0.0
 13
0.0
 23
0.0
 33
0.0
 16
1.0
 26
0.0
 36
0.0
 17
0.0
 27
1.0
 37
0.0
 76
     0
330
1F
  0
MLINESTYLE
  5
18
102
{ACAD_REACTORS
330
17
102
}
330
17
100
AcDbMlineStyle
  2
STANDARD
 70
     0
  3

 62
   256
 51
90.0
 52
90.0
 71
     2
 49
0.5
 62
   256
  6
BYLAYER
 49
-0.5
 62
   256
  6
BYLAYER
  0
ACDBPLACEHOLDER
  5
F
102
{ACAD_REACTORS
330
E
102
}
330
E
  0
XRECORD
  5
479C
102
{ACAD_REACTORS
330
479B
102
}
330
479B
100
AcDbXrecord
280
     1
340
6B
  0
XRECORD
  5
479D
102
{ACAD_REACTORS
330
479B
102
}
330
479B
100
AcDbXrecord
280
     1
340
6A
  0
DICTIONARYVAR
  5
5F
102
{ACAD_REACTORS
330
5E
102
}
330
5E
100
DictionaryVariables
280
     0
  1
2
  0
DICTIONARYVAR
  5
63
102
{ACAD_REACTORS
330
5E
102
}
330
5E
100
DictionaryVariables
280
     0
  1
1
  0
ENDSEC
  0
EOF
