  0
SECTION
  2
HEADER
  9
$ACADVER
  1
AC1015
  9
$ACADMAINTVER
 70
     6
  9
$DWGCODEPAGE
  3
ANSI_1252
  9
$INSBASE
 10
0.0
 20
0.0
 30
0.0
  9
$EXTMIN
 10
28.00267129915596
 20
91.65487750777378
 30
-0.0015258207003583
  9
$EXTMAX
 10
146.1710974612168
 20
143.5796208745795
 30
0.0000000349246037
  9
$LIMMIN
 10
0.0
 20
0.0
  9
$LIMMAX
 10
420.0
 20
297.0
  9
$ORTHOMODE
 70
     0
  9
$REGENMODE
 70
     1
  9
$FILLMODE
 70
     1
  9
$QTEXTMODE
 70
     0
  9
$MIRRTEXT
 70
     1
  9
$LTSCALE
 40
23.1
  9
$ATTMODE
 70
     1
  9
$TEXTSIZE
 40
0.2
  9
$TRACEWID
 40
0.05
  9
$TEXTSTYLE
  7
STANDARD
  9
$CLAYER
  8
0
  9
$CELTYPE
  6
BYLAYER
  9
$CECOLOR
 62
   256
  9
$CELTSCALE
 40
1.0
  9
$DISPSILH
 70
     0
  9
$DIMSCALE
 40
1.0
  9
$DIMASZ
 40
3.0
  9
$DIMEXO
 40
2.625
  9
$DIMDLI
 40
15.96
  9
$DIMRND
 40
0.0
  9
$DIMDLE
 40
0.0
  9
$DIMEXE
 40
7.559999999999998
  9
$DIMTP
 40
0.003
  9
$DIMTM
 40
0.003
  9
$DIMTXT
 40
1.5
  9
$DIMCEN
 40
3.779999999999998
  9
$DIMTSZ
 40
0.0
  9
$DIMTOL
 70
     1
  9
$DIMLIM
 70
     0
  9
$DIMTIH
 70
     1
  9
$DIMTOH
 70
     1
  9
$DIMSE1
 70
     0
  9
$DIMSE2
 70
     0
  9
$DIMTAD
 70
     0
  9
$DIMZIN
 70
     0
  9
$DIMBLK
  1

  9
$DIMASO
 70
     1
  9
$DIMSHO
 70
     1
  9
$DIMPOST
  1

  9
$DIMAPOST
  1

  9
$DIMALT
 70
     0
  9
$DIMALTD
 70
     2
  9
$DIMALTF
 40
25.4
  9
$DIMLFAC
 40
1.0
  9
$DIMTOFL
 70
     0
  9
$DIMTVP
 40
0.0
  9
$DIMTIX
 70
     0
  9
$DIMSOXD
 70
     0
  9
$DIMSAH
 70
     0
  9
$DIMBLK1
  1

  9
$DIMBLK2
  1

  9
$DIMSTYLE
  2
STANDARD
  9
$DIMCLRD
 70
     0
  9
$DIMCLRE
 70
     0
  9
$DIMCLRT
 70
     0
  9
$DIMTFAC
 40
1.0
  9
$DIMGAP
 40
0.09
  9
$DIMJUST
 70
     0
  9
$DIMSD1
 70
     0
  9
$DIMSD2
 70
     0
  9
$DIMTOLJ
 70
     1
  9
$DIMTZIN
 70
     0
  9
$DIMALTZ
 70
     0
  9
$DIMALTTZ
 70
     0
  9
$DIMUPT
 70
     0
  9
$DIMDEC
 70
     4
  9
$DIMTDEC
 70
     4
  9
$DIMALTU
 70
     2
  9
$DIMALTTD
 70
     2
  9
$DIMTXSTY
  7
STANDARD
  9
$DIMAUNIT
 70
     0
  9
$DIMADEC
 70
     0
  9
$DIMALTRND
 40
0.0
  9
$DIMAZIN
 70
     0
  9
$DIMDSEP
 70
    46
  9
$DIMATFIT
 70
     3
  9
$DIMFRAC
 70
     0
  9
$DIMLDRBLK
  1

  9
$DIMLUNIT
 70
     2
  9
$DIMLWD
 70
    -2
  9
$DIMLWE
 70
    -2
  9
$DIMTMOVE
 70
     0
  9
$LUNITS
 70
     2
  9
$LUPREC
 70
     4
  9
$SKETCHINC
 40
0.1
  9
$FILLETRAD
 40
0.0
  9
$AUNITS
 70
     0
  9
$AUPREC
 70
     0
  9
$MENU
  1
acad
  9
$ELEVATION
 40
0.0
  9
$PELEVATION
 40
0.0
  9
$THICKNESS
 40
0.0
  9
$LIMCHECK
 70
     0
  9
$CHAMFERA
 40
0.0
  9
$CHAMFERB
 40
0.0
  9
$CHAMFERC
 40
0.0
  9
$CHAMFERD
 40
0.0
  9
$SKPOLY
 70
     0
  9
$TDCREATE
 40
2444972.041666667
  9
$TDUCREATE
 40
2444972.0
  9
$TDUPDATE
 40
2453691.689517893
  9
$TDUUPDATE
 40
2453691.647851227
  9
$TDINDWG
 40
0.0014003935
  9
$TDUSRTIMER
 40
0.0014002778
  9
$USRTIMER
 70
     1
  9
$ANGBASE
 50
0.0
  9
$ANGDIR
 70
     0
  9
$PDMODE
 70
     3
  9
$PDSIZE
 40
0.3125
  9
$PLINEWID
 40
0.0
  9
$SPLFRAME
 70
     0
  9
$SPLINETYPE
 70
     6
  9
$SPLINESEGS
 70
     8
  9
$HANDSEED
  5
10EA
  9
$SURFTAB1
 70
     6
  9
$SURFTAB2
 70
     6
  9
$SURFTYPE
 70
     6
  9
$SURFU
 70
     6
  9
$SURFV
 70
     6
  9
$UCSBASE
  2

  9
$UCSNAME
  2

  9
$UCSORG
 10
0.0
 20
0.0
 30
0.0
  9
$UCSXDIR
 10
1.0
 20
0.0
 30
0.0
  9
$UCSYDIR
 10
0.0
 20
1.0
 30
0.0
  9
$UCSORTHOREF
  2

  9
$UCSORTHOVIEW
 70
     0
  9
$UCSORGTOP
 10
0.0
 20
0.0
 30
0.0
  9
$UCSORGBOTTOM
 10
0.0
 20
0.0
 30
0.0
  9
$UCSORGLEFT
 10
0.0
 20
0.0
 30
0.0
  9
$UCSORGRIGHT
 10
0.0
 20
0.0
 30
0.0
  9
$UCSORGFRONT
 10
0.0
 20
0.0
 30
0.0
  9
$UCSORGBACK
 10
0.0
 20
0.0
 30
0.0
  9
$PUCSBASE
  2

  9
$PUCSNAME
  2

  9
$PUCSORG
 10
0.0
 20
0.0
 30
0.0
  9
$PUCSXDIR
 10
1.0
 20
0.0
 30
0.0
  9
$PUCSYDIR
 10
0.0
 20
1.0
 30
0.0
  9
$PUCSORTHOREF
  2

  9
$PUCSORTHOVIEW
 70
     0
  9
$PUCSORGTOP
 10
0.0
 20
0.0
 30
0.0
  9
$PUCSORGBOTTOM
 10
0.0
 20
0.0
 30
0.0
  9
$PUCSORGLEFT
 10
0.0
 20
0.0
 30
0.0
  9
$PUCSORGRIGHT
 10
0.0
 20
0.0
 30
0.0
  9
$PUCSORGFRONT
 10
0.0
 20
0.0
 30
0.0
  9
$PUCSORGBACK
 10
0.0
 20
0.0
 30
0.0
  9
$USERI1
 70
     0
  9
$USERI2
 70
     0
  9
$USERI3
 70
     0
  9
$USERI4
 70
     0
  9
$USERI5
 70
     0
  9
$USERR1
 40
0.0
  9
$USERR2
 40
0.0
  9
$USERR3
 40
0.0
  9
$USERR4
 40
0.0
  9
$USERR5
 40
0.0
  9
$WORLDVIEW
 70
     1
  9
$SHADEDGE
 70
     3
  9
$SHADEDIF
 70
    70
  9
$TILEMODE
 70
     1
  9
$MAXACTVP
 70
    16
  9
$PINSBASE
 10
0.0
 20
0.0
 30
0.0
  9
$PLIMCHECK
 70
     0
  9
$PEXTMIN
 10
1.000000000000000E+20
 20
1.000000000000000E+20
 30
1.000000000000000E+20
  9
$PEXTMAX
 10
-1.000000000000000E+20
 20
-1.000000000000000E+20
 30
-1.000000000000000E+20
  9
$PLIMMIN
 10
0.0
 20
0.0
  9
$PLIMMAX
 10
12.0
 20
9.0
  9
$UNITMODE
 70
     0
  9
$VISRETAIN
 70
     0
  9
$PLINEGEN
 70
     1
  9
$PSLTSCALE
 70
     0
  9
$TREEDEPTH
 70
  3020
  9
$CMLSTYLE
  2
STANDARD
  9
$CMLJUST
 70
     0
  9
$CMLSCALE
 40
1.0
  9
$PROXYGRAPHICS
 70
     1
  9
$MEASUREMENT
 70
     0
  9
$CELWEIGHT
370
    -1
  9
$ENDCAPS
280
     0
  9
$JOINSTYLE
280
     0
  9
$LWDISPLAY
290
     0
  9
$INSUNITS
 70
     0
  9
$HYPERLINKBASE
  1

  9
$STYLESHEET
  1

  9
$XEDIT
290
     1
  9
$CEPSNTYPE
380
     0
  9
$PSTYLEMODE
290
     1
  9
$FINGERPRINTGUID
  2
{F21BDFA8-71B3-4C76-B459-F97E6677FB08}
  9
$VERSIONGUID
  2
{331E4332-3B6F-4B29-AD84-23A8D6315DB7}
  9
$EXTNAMES
290
     1
  9
$PSVPSCALE
 40
0.0
  9
$OLESTARTUP
290
     0
  0
ENDSEC
  0
SECTION
  2
CLASSES
  0
CLASS
  1
IMAGE
  2
AcDbRasterImage
  3
ISM
 90
      127
280
     0
281
     1
  0
CLASS
  1
DICTIONARYVAR
  2
AcDbDictionaryVar
  3
ObjectDBX Classes
 90
        0
280
     0
281
     0
  0
CLASS
  1
RASTERVARIABLES
  2
AcDbRasterVariables
  3
ISM
 90
        0
280
     0
281
     0
  0
CLASS
  1
IMAGEDEF
  2
AcDbRasterImageDef
  3
ISM
 90
        0
280
     0
281
     0
  0
CLASS
  1
IMAGEDEF_REACTOR
  2
AcDbRasterImageDefReactor
  3
ISM
 90
        1
280
     0
281
     0
  0
CLASS
  1
IDBUFFER
  2
AcDbIdBuffer
  3
ObjectDBX Classes
 90
        0
280
     0
281
     0
  0
CLASS
  1
SPATIAL_FILTER
  2
AcDbSpatialFilter
  3
ObjectDBX Classes
 90
        0
280
     0
281
     0
  0
CLASS
  1
SORTENTSTABLE
  2
AcDbSortentsTable
  3
ObjectDBX Classes
 90
        0
280
     0
281
     0
  0
CLASS
  1
LAYER_INDEX
  2
AcDbLayerIndex
  3
ObjectDBX Classes
 90
        0
280
     0
281
     0
  0
CLASS
  1
SPATIAL_INDEX
  2
AcDbSpatialIndex
  3
AutoCAD 2000
 90
        0
280
     0
281
     0
  0
CLASS
  1
OBJECT_PTR
  2
CAseDLPNTableRecord
  3
ASE-LPNTableRecord
 90
        1
280
     0
281
     0
  0
CLASS
  1
PLOTSETTINGS
  2
AcDbPlotSettings
  3
ObjectDBX Classes
 90
        0
280
     0
281
     0
  0
CLASS
  1
ACDBDICTIONARYWDFLT
  2
AcDbDictionaryWithDefault
  3
ObjectDBX Classes
 90
        0
280
     0
281
     0
  0
CLASS
  1
WIPEOUT
  2
AcDbWipeout
  3
WipeOut|AutoCAD Express Tool|expresstools@autodesk.com
 90
      127
280
     0
281
     1
  0
CLASS
  1
WIPEOUTVARIABLES
  2
AcDbWipeoutVariables
  3
WipeOut|AutoCAD Express Tool|expresstools@autodesk.com
 90
        0
280
     0
281
     0
  0
CLASS
  1
RTEXT
  2
RText
  3
RText|AutoCAD Express Tool|expresstools@autodesk.com
 90
        0
280
     0
281
     1
  0
CLASS
  1
ARCALIGNEDTEXT
  2
AcDbArcAlignedText
  3
ATEXT|AutoCAD Express Tool|expresstools@autodesk.com
 90
        0
280
     0
281
     1
  0
CLASS
  1
ACDBPLACEHOLDER
  2
AcDbPlaceHolder
  3
ObjectDBX Classes
 90
        0
280
     0
281
     0
  0
CLASS
  1
LAYOUT
  2
AcDbLayout
  3
ObjectDBX Classes
 90
        0
280
     0
281
     0
  0
ENDSEC
  0
SECTION
  2
TABLES
  0
TABLE
  2
VPORT
  5
8
330
0
100
AcDbSymbolTable
 70
     1
  0
VPORT
  5
10DC
330
8
100
AcDbSymbolTableRecord
100
AcDbViewportTableRecord
  2
*Active
 70
     0
 10
0.0
 20
0.0
 11
1.0
 21
1.0
 12
87.08688438018641
 22
117.6172491911766
 13
0.0
 23
0.0
 14
1.0
 24
1.0
 15
0.0
 25
0.0
 16
0.0
 26
0.0
 36
1.0
 17
0.0
 27
0.0
 37
0.0
 40
74.214484572841
 41
1.6
 42
50.0
 43
0.0
 44
0.0
 50
0.0
 51
0.0
 71
     0
 72
   100
 73
     1
 74
     1
 75
     0
 76
     0
 77
     0
 78
     0
281
     0
 65
     1
110
0.0
120
0.0
130
0.0
111
1.0
121
0.0
131
0.0
112
0.0
122
1.0
132
0.0
 79
     0
146
0.0
  0
ENDTAB
  0
TABLE
  2
LTYPE
  5
5
330
0
100
AcDbSymbolTable
 70
     1
  0
LTYPE
  5
14
330
5
100
AcDbSymbolTableRecord
100
AcDbLinetypeTableRecord
  2
BYBLOCK
 70
     0
  3

 72
    65
 73
     0
 40
0.0
  0
LTYPE
  5
15
330
5
100
AcDbSymbolTableRecord
100
AcDbLinetypeTableRecord
  2
BYLAYER
 70
     0
  3

 72
    65
 73
     0
 40
0.0
  0
LTYPE
  5
16
330
5
100
AcDbSymbolTableRecord
100
AcDbLinetypeTableRecord
  2
CONTINUOUS
 70
     0
  3
Solid line
 72
    65
 73
     0
 40
0.0
  0
ENDTAB
  0
TABLE
  2
LAYER
  5
2
330
0
100
AcDbSymbolTable
 70
     1
  0
LAYER
  5
10
330
2
100
AcDbSymbolTableRecord
100
AcDbLayerTableRecord
  2
0
 70
     0
 62
     7
  6
CONTINUOUS
370
    -3
390
10CA
  0
ENDTAB
  0
TABLE
  2
STYLE
  5
3
330
0
100
AcDbSymbolTable
 70
     2
  0
STYLE
  5
11
330
3
100
AcDbSymbolTableRecord
100
AcDbTextStyleTableRecord
  2
STANDARD
 70
     0
 40
0.0
 41
1.0
 50
0.0
 71
     0
 42
0.2
  3
txt
  4

  0
STYLE
  5
204
330
3
100
AcDbSymbolTableRecord
100
AcDbTextStyleTableRecord
  2
TEXTSTYLE_1
 70
     0
 40
0.0
 41
1.0
 50
0.0
 71
     0
 42
0.2
  3
txt
  4

  0
ENDTAB
  0
TABLE
  2
VIEW
  5
6
330
0
100
AcDbSymbolTable
 70
     0
  0
ENDTAB
  0
TABLE
  2
UCS
  5
7
330
0
100
AcDbSymbolTable
 70
     0
  0
ENDTAB
  0
TABLE
  2
APPID
  5
9
330
0
100
AcDbSymbolTable
 70
     1
  0
APPID
  5
206
330
9
100
AcDbSymbolTableRecord
100
AcDbRegAppTableRecord
  2
ACAD
 70
     0
  0
ENDTAB
  0
TABLE
  2
DIMSTYLE
  5
A
330
0
100
AcDbSymbolTable
 70
     1
100
AcDbDimStyleTable
  0
DIMSTYLE
105
207
330
A
100
AcDbSymbolTableRecord
100
AcDbDimStyleTableRecord
  2
STANDARD
 70
     0
 41
3.0
 47
0.003
 48
0.003
 71
     1
 73
     0
 74
     0
 77
     1
 78
     8
140
1.5
271
     3
272
     3
284
     8
340
11
  0
ENDTAB
  0
TABLE
  2
BLOCK_RECORD
  5
1
330
0
100
AcDbSymbolTable
 70
     0
  0
BLOCK_RECORD
  5
1B
330
1
100
AcDbSymbolTableRecord
100
AcDbBlockTableRecord
  2
*MODEL_SPACE
340
10CF
  0
BLOCK_RECORD
  5
1C
330
1
100
AcDbSymbolTableRecord
100
AcDbBlockTableRecord
  2
*PAPER_SPACE
340
10D0
  0
ENDTAB
  0
ENDSEC
  0
SECTION
  2
BLOCKS
  0
BLOCK
  5
1E
330
1B
100
AcDbEntity
  8
0
100
AcDbBlockBegin
  2
*MODEL_SPACE
 70
     0
 71
     0
 10
0.0
 20
0.0
 30
0.0
  3
*MODEL_SPACE
  1

  0
ENDBLK
  5
1F
330
1B
100
AcDbEntity
  8
0
100
AcDbBlockEnd
  0
BLOCK
  5
20
330
1C
100
AcDbEntity
 67
     1
  8
0
100
AcDbBlockBegin
  2
*PAPER_SPACE
 70
     0
 71
     0
 10
0.0
 20
0.0
 30
0.0
  3
*PAPER_SPACE
  1

  0
ENDBLK
  5
21
330
1C
100
AcDbEntity
 67
     1
  8
0
100
AcDbBlockEnd
  0
ENDSEC
  0
SECTION
  2
ENTITIES
  0
TEXT
  5
256
330
1B
100
AcDbEntity
  8
0
  6
Continuous
 62
     1
100
AcDbText
 10
327.4708256706
 20
32.0853596703
 30
0.0
 40
1.5
  1
 
 41
1.2307692308
  7
TEXTSTYLE_1
 72
     1
 11
328.3939025937
 21
32.0853596703
 31
0.0
100
AcDbText
  0
TEXT
  5
259
330
1B
100
AcDbEntity
  8
0
  6
Continuous
 62
     1
100
AcDbText
 10
352.836210286
 20
32.0853596703
 30
0.0
 40
1.5
  1
 
 41
1.2307692308
  7
TEXTSTYLE_1
 72
     1
 11
353.7592872091
 21
32.0853596703
 31
0.0
100
AcDbText
  0
TEXT
  5
263
330
1B
100
AcDbEntity
  8
0
  6
Continuous
 62
     1
100
AcDbText
 10
401.5862102859
 20
20.9420904395
 30
0.0
 40
1.5
  1
 
 41
1.2307692308
  7
TEXTSTYLE_1
 72
     1
 11
402.509287209
 21
20.9420904395
 31
0.0
100
AcDbText
  0
LINE
  5
967
330
1B
100
AcDbEntity
  8
0
  6
Continuous
100
AcDbLine
 10
28.0739517395
 20
117.0810213087
 30
0.0
 11
28.0739517395
 21
95.59693740760002
 31
0.0
  0
LINE
  5
968
330
1B
100
AcDbEntity
  8
0
  6
Continuous
100
AcDbLine
 10
28.3704241215
 20
117.4673916392
 30
0.0
 11
28.3704241215
 21
95.2105670771
 31
0.0
  0
LINE
  5
969
330
1B
100
AcDbEntity
  8
0
  6
Continuous
100
AcDbLine
 10
31.4230851205
 20
118.2853496887
 30
0.0
 11
31.4230851205
 21
94.3926090276
 31
0.0
  0
LINE
  5
96A
330
1B
100
AcDbEntity
  8
0
  6
Continuous
100
AcDbLine
 10
31.5266127386
 20
118.2989793581
 30
0.0
 11
31.5266127386
 21
94.3789793581
 31
0.0
  0
LINE
  5
96B
330
1B
100
AcDbEntity
  8
0
  6
Continuous
100
AcDbLine
 10
32.6739517395
 20
118.2989793581
 30
0.0
 11
32.6739517395
 21
94.3789793581
 31
0.0
  0
LINE
  5
96C
330
1B
100
AcDbEntity
  8
0
  6
Continuous
100
AcDbLine
 10
33.0739517395
 20
117.8989793581
 30
0.0
 11
33.0739517395
 21
94.77897935809997
 31
0.0
  0
LINE
  5
96D
330
1B
100
AcDbEntity
  8
0
  6
Continuous
100
AcDbLine
 10
33.4739517395
 20
95.33897935809999
 30
0.0
 11
33.4739517395
 21
117.3389793581
 31
0.0
  0
LINE
  5
96E
330
1B
100
AcDbEntity
  8
0
  6
Continuous
100
AcDbLine
 10
38.9739517395
 20
95.33897935809999
 30
0.0
 11
38.9739517395
 21
117.3389793581
 31
0.0
  0
LINE
  5
96F
330
1B
100
AcDbEntity
  8
0
  6
Continuous
100
AcDbLine
 10
39.3739517395
 20
117.8989793581
 30
0.0
 11
39.3739517395
 21
94.77897935809997
 31
0.0
  0
LINE
  5
970
330
1B
100
AcDbEntity
  8
0
  6
Continuous
100
AcDbLine
 10
39.7739517395
 20
118.2989793581
 30
0.0
 11
39.7739517395
 21
94.3789793581
 31
0.0
  0
LINE
  5
971
330
1B
100
AcDbEntity
  8
0
  6
Continuous
100
AcDbLine
 10
40.57395173949999
 20
118.2989793581
 30
0.0
 11
40.57395173949999
 21
94.3789793581
 31
0.0
  0
LINE
  5
972
330
1B
100
AcDbEntity
  8
0
  6
Continuous
100
AcDbLine
 10
40.97395173949999
 20
117.8989793581
 30
0.0
 11
40.97395173949999
 21
94.77897935809997
 31
0.0
  0
LINE
  5
973
330
1B
100
AcDbEntity
  8
0
  6
Continuous
100
AcDbLine
 10
41.37395173949999
 20
95.33897935809999
 30
0.0
 11
41.37395173949999
 21
117.3389793581
 31
0.0
  0
LINE
  5
974
330
1B
100
AcDbEntity
  8
0
  6
Continuous
100
AcDbLine
 10
46.8739517395
 20
95.33897935809999
 30
0.0
 11
46.8739517395
 21
117.3389793581
 31
0.0
  0
LINE
  5
975
330
1B
100
AcDbEntity
  8
0
  6
Continuous
100
AcDbLine
 10
47.27395173949998
 20
117.8989793581
 30
0.0
 11
47.27395173949998
 21
94.77897935809997
 31
0.0
  0
LINE
  5
976
330
1B
100
AcDbEntity
  8
0
  6
Continuous
100
AcDbLine
 10
47.67395173949998
 20
118.2989793581
 30
0.0
 11
47.67395173949998
 21
94.3789793581
 31
0.0
  0
LINE
  5
977
330
1B
100
AcDbEntity
  8
0
  6
Continuous
100
AcDbLine
 10
48.47395173949999
 20
118.2989793581
 30
0.0
 11
48.47395173949999
 21
94.3789793581
 31
0.0
  0
LINE
  5
978
330
1B
100
AcDbEntity
  8
0
  6
Continuous
100
AcDbLine
 10
48.8739517395
 20
117.8989793581
 30
0.0
 11
48.8739517395
 21
94.77897935809997
 31
0.0
  0
LINE
  5
979
330
1B
100
AcDbEntity
  8
0
  6
Continuous
100
AcDbLine
 10
49.27395173949999
 20
95.33897935809999
 30
0.0
 11
49.27395173949999
 21
117.3389793581
 31
0.0
  0
LINE
  5
97A
330
1B
100
AcDbEntity
  8
0
  6
Continuous
100
AcDbLine
 10
142.7248183586
 20
94.3926090276
 30
0.0
 11
145.7774793576
 21
95.2105670771
 31
0.0
  0
LINE
  5
97B
330
1B
100
AcDbEntity
  8
0
  6
Continuous
100
AcDbLine
 10
28.3704241215
 20
95.2105670771
 30
0.0
 11
31.4230851205
 21
94.3926090276
 31
0.0
  0
LINE
  5
97C
330
1B
100
AcDbEntity
  8
0
  6
Continuous
100
AcDbLine
 10
60.2739517395
 20
91.83897935810001
 30
0.0
 11
60.0496876692
 21
92.06324342850002
 31
0.0
  0
LINE
  5
97D
330
1B
100
AcDbEntity
  8
0
  6
Continuous
100
AcDbLine
 10
54.7739517395
 20
95.33897935809999
 30
0.0
 11
54.7739517395
 21
117.3389793581
 31
0.0
  0
LINE
  5
97E
330
1B
100
AcDbEntity
  8
0
  6
Continuous
100
AcDbLine
 10
55.17395173949999
 20
117.8989793581
 30
0.0
 11
55.17395173949999
 21
94.77897935809997
 31
0.0
  0
LINE
  5
97F
330
1B
100
AcDbEntity
  8
0
  6
Continuous
100
AcDbLine
 10
55.57395173949998
 20
118.2989793581
 30
0.0
 11
55.57395173949998
 21
94.3789793581
 31
0.0
  0
LINE
  5
980
330
1B
100
AcDbEntity
  8
0
  6
Continuous
100
AcDbLine
 10
69.75678882290001
 20
143.421822117
 30
0.0
 11
68.8739487574
 21
142.5389823408
 31
0.0
  0
LINE
  5
981
330
1B
100
AcDbEntity
  8
0
  6
Continuous
100
AcDbLine
 10
142.6212907405
 20
94.3789793581
 30
0.0
 11
142.7248183586
 21
94.3926090276
 31
0.0
  0
LINE
  5
982
330
1B
100
AcDbEntity
  8
0
  6
Continuous
100
AcDbLine
 10
31.4230851205
 20
94.3926090276
 30
0.0
 11
31.5266127386
 21
94.3789793581
 31
0.0
  0
LINE
  5
983
330
1B
100
AcDbEntity
  8
0
  6
Continuous
100
AcDbLine
 10
58.8739517395
 20
94.3789793581
 30
0.0
 11
58.8739517395
 21
118.2989793581
 31
0.0
  0
LINE
  5
984
330
1B
100
AcDbEntity
  8
0
  6
Continuous
100
AcDbLine
 10
59.8739517395
 20
92.52623902020001
 30
0.0
 11
59.8739517395
 21
92.48750749870001
 31
0.0
  0
LINE
  5
985
330
1B
100
AcDbEntity
  8
0
  6
Continuous
100
AcDbLine
 10
59.8739517395
 20
92.52623902020001
 30
0.0
 11
59.8739517395
 21
120.1904512207
 31
0.0
  0
LINE
  5
986
330
1B
100
AcDbEntity
  8
0
  6
Continuous
100
AcDbLine
 10
60.0496876692
 20
120.6147152878
 30
0.0
 11
60.0496876692
 21
92.06324342850002
 31
0.0
  0
LINE
  5
987
330
1B
100
AcDbEntity
  8
0
  6
Continuous
100
AcDbLine
 10
60.2739517395
 20
91.83897935810001
 30
0.0
 11
60.2739517395
 21
120.8389793581
 31
0.0
  0
LINE
  5
988
330
1B
100
AcDbEntity
  8
0
  6
Continuous
100
AcDbLine
 10
61.24190093520001
 20
120.8389793568
 30
0.0
 11
61.24190093520001
 21
91.8389793595
 31
0.0
  0
LINE
  5
989
330
1B
100
AcDbEntity
  8
0
  6
Continuous
100
AcDbLine
 10
113.8739517395
 20
91.83897935810001
 30
0.0
 11
112.9060025406
 21
91.83897935810001
 31
0.0
  0
LINE
  5
98A
330
1B
100
AcDbEntity
  8
0
  6
Continuous
100
AcDbLine
 10
61.2419009378
 20
91.83897935810001
 30
0.0
 11
60.2739517395
 21
91.83897935810001
 31
0.0
  0
LINE
  5
98B
330
1B
100
AcDbEntity
  8
0
  6
Continuous
100
AcDbLine
 10
63.2262144147
 20
92.5889793576
 30
0.0
 11
63.2262144147
 21
120.0889793586
 31
0.0
  0
LINE
  5
98C
330
1B
100
AcDbEntity
  8
0
  6
Continuous
100
AcDbLine
 10
65.21052789859999
 20
93.33897935809998
 30
0.0
 11
65.21052789859999
 21
119.3389793581
 31
0.0
  0
LINE
  5
98D
330
1B
100
AcDbEntity
  8
0
  6
Continuous
100
AcDbLine
 10
60.2739517395
 20
120.8389793581
 30
0.0
 11
60.0496876692
 21
120.6147152878
 31
0.0
  0
LINE
  5
98E
330
1B
100
AcDbEntity
  8
0
  6
Continuous
100
AcDbLine
 10
108.9373755805
 20
93.33897935809998
 30
0.0
 11
65.21052789859999
 21
93.33897935809998
 31
0.0
  0
LINE
  5
98F
330
1B
100
AcDbEntity
  8
0
  6
Continuous
100
AcDbLine
 10
31.5266127386
 20
94.3789793581
 30
0.0
 11
32.6739517395
 21
94.3789793581
 31
0.0
  0
LINE
  5
990
330
1B
100
AcDbEntity
  8
0
  6
Continuous
100
AcDbLine
 10
39.7739517395
 20
94.3789793581
 30
0.0
 11
40.57395173949999
 21
94.3789793581
 31
0.0
  0
LINE
  5
991
330
1B
100
AcDbEntity
  8
0
  6
Continuous
100
AcDbLine
 10
47.67395173949998
 20
94.3789793581
 30
0.0
 11
48.47395173949999
 21
94.3789793581
 31
0.0
  0
LINE
  5
992
330
1B
100
AcDbEntity
  8
0
  6
Continuous
100
AcDbLine
 10
55.57395173949998
 20
94.3789793581
 30
0.0
 11
58.8739517395
 21
94.3789793581
 31
0.0
  0
LINE
  5
993
330
1B
100
AcDbEntity
  8
0
  6
Continuous
100
AcDbLine
 10
115.2739517395
 20
94.3789793581
 30
0.0
 11
118.5739517395
 21
94.3789793581
 31
0.0
  0
LINE
  5
994
330
1B
100
AcDbEntity
  8
0
  6
Continuous
100
AcDbLine
 10
125.6739517395
 20
94.3789793581
 30
0.0
 11
126.4739517395
 21
94.3789793581
 31
0.0
  0
LINE
  5
995
330
1B
100
AcDbEntity
  8
0
  6
Continuous
100
AcDbLine
 10
133.5739517395
 20
94.3789793581
 30
0.0
 11
134.3739517395
 21
94.3789793581
 31
0.0
  0
LINE
  5
996
330
1B
100
AcDbEntity
  8
0
  6
Continuous
100
AcDbLine
 10
141.4739517395
 20
94.3789793581
 30
0.0
 11
142.6212907405
 21
94.3789793581
 31
0.0
  0
LINE
  5
997
330
1B
100
AcDbEntity
  8
0
  6
Continuous
100
AcDbLine
 10
33.4739517395
 20
95.33897935809999
 30
0.0
 11
38.9739517395
 21
95.33897935809999
 31
0.0
  0
LINE
  5
998
330
1B
100
AcDbEntity
  8
0
  6
Continuous
100
AcDbLine
 10
41.37395173949999
 20
95.33897935809999
 30
0.0
 11
46.8739517395
 21
95.33897935809999
 31
0.0
  0
LINE
  5
999
330
1B
100
AcDbEntity
  8
0
  6
Continuous
100
AcDbLine
 10
49.27395173949999
 20
95.33897935809999
 30
0.0
 11
54.7739517395
 21
95.33897935809999
 31
0.0
  0
LINE
  5
99A
330
1B
100
AcDbEntity
  8
0
  6
Continuous
100
AcDbLine
 10
119.3739517395
 20
95.33897935809999
 30
0.0
 11
124.8739517395
 21
95.33897935809999
 31
0.0
  0
LINE
  5
99B
330
1B
100
AcDbEntity
  8
0
  6
Continuous
100
AcDbLine
 10
127.2739517395
 20
95.33897935809999
 30
0.0
 11
132.7739517395
 21
95.33897935809999
 31
0.0
  0
LINE
  5
99C
330
1B
100
AcDbEntity
  8
0
  6
Continuous
100
AcDbLine
 10
135.1739517395
 20
95.33897935809999
 30
0.0
 11
140.6739517395
 21
95.33897935809999
 31
0.0
  0
LINE
  5
99D
330
1B
100
AcDbEntity
  8
0
  6
Continuous
100
AcDbLine
 10
68.8739517395
 20
122.3389793581
 30
0.0
 11
68.8739517395
 21
142.5389793581
 31
0.0
  0
LINE
  5
99E
330
1B
100
AcDbEntity
  8
0
  6
Continuous
100
AcDbLine
 10
98.47487801210001
 20
110.6565453059
 30
0.0
 11
75.673025467
 21
110.6565453059
 31
0.0
  0
LINE
  5
99F
330
1B
100
AcDbEntity
  8
0
  6
Continuous
100
AcDbLine
 10
98.7370269011
 20
112.1388592674
 30
0.0
 11
75.410876578
 21
112.1388592674
 31
0.0
  0
LINE
  5
9A0
330
1B
100
AcDbEntity
  8
0
  6
Continuous
100
AcDbLine
 10
100.5575178783
 20
113.6357308242
 30
0.0
 11
73.59038560080001
 21
113.6357308242
 31
0.0
  0
LINE
  5
9A1
330
1B
100
AcDbEntity
  8
0
  6
Continuous
100
AcDbLine
 10
33.4739517395
 20
117.3389793581
 30
0.0
 11
38.9739517395
 21
117.3389793581
 31
0.0
  0
LINE
  5
9A2
330
1B
100
AcDbEntity
  8
0
  6
Continuous
100
AcDbLine
 10
41.37395173949999
 20
117.3389793581
 30
0.0
 11
46.8739517395
 21
117.3389793581
 31
0.0
  0
LINE
  5
9A3
330
1B
100
AcDbEntity
  8
0
  6
Continuous
100
AcDbLine
 10
49.27395173949999
 20
117.3389793581
 30
0.0
 11
54.7739517395
 21
117.3389793581
 31
0.0
  0
LINE
  5
9A4
330
1B
100
AcDbEntity
  8
0
  6
Continuous
100
AcDbLine
 10
119.3739517395
 20
117.3389793581
 30
0.0
 11
124.8739517395
 21
117.3389793581
 31
0.0
  0
LINE
  5
9A5
330
1B
100
AcDbEntity
  8
0
  6
Continuous
100
AcDbLine
 10
127.2739517395
 20
117.3389793581
 30
0.0
 11
132.7739517395
 21
117.3389793581
 31
0.0
  0
LINE
  5
9A6
330
1B
100
AcDbEntity
  8
0
  6
Continuous
100
AcDbLine
 10
135.1739517395
 20
117.3389793581
 30
0.0
 11
140.6739517395
 21
117.3389793581
 31
0.0
  0
LINE
  5
9A7
330
1B
100
AcDbEntity
  8
0
  6
Continuous
100
AcDbLine
 10
90.2469000097
 20
126.3506942413
 30
0.0
 11
89.88605161829997
 21
124.6868628797
 31
0.0
  0
LINE
  5
9A8
330
1B
100
AcDbEntity
  8
0
  6
Continuous
100
AcDbLine
 10
31.5266127386
 20
118.2989793581
 30
0.0
 11
32.6739517395
 21
118.2989793581
 31
0.0
  0
LINE
  5
9A9
330
1B
100
AcDbEntity
  8
0
  6
Continuous
100
AcDbLine
 10
39.7739517395
 20
118.2989793581
 30
0.0
 11
40.57395173949999
 21
118.2989793581
 31
0.0
  0
LINE
  5
9AA
330
1B
100
AcDbEntity
  8
0
  6
Continuous
100
AcDbLine
 10
47.67395173949998
 20
118.2989793581
 30
0.0
 11
48.47395173949999
 21
118.2989793581
 31
0.0
  0
LINE
  5
9AB
330
1B
100
AcDbEntity
  8
0
  6
Continuous
100
AcDbLine
 10
55.57395173949998
 20
118.2989793581
 30
0.0
 11
58.8739517395
 21
118.2989793581
 31
0.0
  0
LINE
  5
9AC
330
1B
100
AcDbEntity
  8
0
  6
Continuous
100
AcDbLine
 10
115.2739517395
 20
118.2989793581
 30
0.0
 11
118.5739517395
 21
118.2989793581
 31
0.0
  0
LINE
  5
9AD
330
1B
100
AcDbEntity
  8
0
  6
Continuous
100
AcDbLine
 10
125.6739517395
 20
118.2989793581
 30
0.0
 11
126.4739517395
 21
118.2989793581
 31
0.0
  0
LINE
  5
9AE
330
1B
100
AcDbEntity
  8
0
  6
Continuous
100
AcDbLine
 10
133.5739517395
 20
118.2989793581
 30
0.0
 11
134.3739517395
 21
118.2989793581
 31
0.0
  0
LINE
  5
9AF
330
1B
100
AcDbEntity
  8
0
  6
Continuous
100
AcDbLine
 10
141.4739517395
 20
118.2989793581
 30
0.0
 11
142.6212907405
 21
118.2989793581
 31
0.0
  0
LINE
  5
9B0
330
1B
100
AcDbEntity
  8
0
  6
Continuous
100
AcDbLine
 10
108.9373755805
 20
119.3389793581
 30
0.0
 11
108.2739517395
 21
119.3389793581
 31
0.0
  0
LINE
  5
9B1
330
1B
100
AcDbEntity
  8
0
  6
Continuous
100
AcDbLine
 10
65.8739517395
 20
119.3389793581
 30
0.0
 11
65.21052789859999
 21
119.3389793581
 31
0.0
  0
LINE
  5
9B2
330
1B
100
AcDbEntity
  8
0
  6
Continuous
100
AcDbLine
 10
113.8739517395
 20
120.8389793581
 30
0.0
 11
112.9060025406
 21
120.8389793581
 31
0.0
  0
LINE
  5
9B3
330
1B
100
AcDbEntity
  8
0
  6
Continuous
100
AcDbLine
 10
61.2419009378
 20
120.8389793581
 30
0.0
 11
60.2739517395
 21
120.8389793581
 31
0.0
  0
LINE
  5
9B4
330
1B
100
AcDbEntity
  8
0
  6
Continuous
100
AcDbLine
 10
31.4230851205
 20
118.2853496886
 30
0.0
 11
31.5266127386
 21
118.2989793581
 31
0.0
  0
LINE
  5
9B5
330
1B
100
AcDbEntity
  8
0
  6
Continuous
100
AcDbLine
 10
142.6212907405
 20
118.2989793581
 30
0.0
 11
142.7248183586
 21
118.2853496886
 31
0.0
  0
LINE
  5
9B6
330
1B
100
AcDbEntity
  8
0
  6
Continuous
100
AcDbLine
 10
28.3704241215
 20
117.4673916392
 30
0.0
 11
31.4230851205
 21
118.2853496887
 31
0.0
  0
LINE
  5
9B7
330
1B
100
AcDbEntity
  8
0
  6
Continuous
100
AcDbLine
 10
142.7248183586
 20
118.2853496887
 30
0.0
 11
145.7774793576
 21
117.4673916392
 31
0.0
  0
LINE
  5
9B8
330
1B
100
AcDbEntity
  8
0
  6
Continuous
100
AcDbLine
 10
105.2739517395
 20
122.3389793581
 30
0.0
 11
105.2739517395
 21
142.5389793581
 31
0.0
  0
LINE
  5
9B9
330
1B
100
AcDbEntity
  8
0
  6
Continuous
100
AcDbLine
 10
108.9373755805
 20
119.3389793581
 30
0.0
 11
108.9373755805
 21
93.33897935809998
 31
0.0
  0
LINE
  5
9BA
330
1B
100
AcDbEntity
  8
0
  6
Continuous
100
AcDbLine
 10
114.0982158466
 20
120.6147152511
 30
0.0
 11
113.8739517395
 21
120.8389793581
 31
0.0
  0
LINE
  5
9BB
330
1B
100
AcDbEntity
  8
0
  6
Continuous
100
AcDbLine
 10
110.9216890644
 20
120.0889793586
 30
0.0
 11
110.9216890644
 21
92.5889793576
 31
0.0
  0
LINE
  5
9BC
330
1B
100
AcDbEntity
  8
0
  6
Continuous
100
AcDbLine
 10
112.9060025428
 20
120.8389793548
 30
0.0
 11
112.9060025428
 21
91.8389793615
 31
0.0
  0
LINE
  5
9BD
330
1B
100
AcDbEntity
  8
0
  6
Continuous
100
AcDbLine
 10
105.2739517395
 20
142.5389793581
 30
0.0
 11
68.8739517395
 21
142.5389793581
 31
0.0
  0
LINE
  5
9BE
330
1B
100
AcDbEntity
  8
0
  6
Continuous
100
AcDbLine
 10
69.75678882290001
 20
143.421822117
 30
0.0
 11
104.3911146562
 21
143.421822117
 31
0.0
  0
LINE
  5
9BF
330
1B
100
AcDbEntity
  8
0
  6
Continuous
100
AcDbLine
 10
104.1082719901
 20
143.5389793581
 30
0.0
 11
70.039631489
 21
143.5389793581
 31
0.0
  0
LINE
  5
9C0
330
1B
100
AcDbEntity
  8
0
  6
Continuous
100
AcDbLine
 10
113.8739517395
 20
91.83897935810001
 30
0.0
 11
113.8739517395
 21
120.8389793581
 31
0.0
  0
LINE
  5
9C1
330
1B
100
AcDbEntity
  8
0
  6
Continuous
100
AcDbLine
 10
114.0982158466
 20
120.6147152511
 30
0.0
 11
114.0982158466
 21
92.0632434652
 31
0.0
  0
LINE
  5
9C2
330
1B
100
AcDbEntity
  8
0
  6
Continuous
100
AcDbLine
 10
114.2739517395
 20
92.52623902020001
 30
0.0
 11
114.2739517395
 21
92.4875075673
 31
0.0
  0
LINE
  5
9C3
330
1B
100
AcDbEntity
  8
0
  6
Continuous
100
AcDbLine
 10
114.2739517395
 20
92.52623902020001
 30
0.0
 11
114.2739517395
 21
120.1904512207
 31
0.0
  0
LINE
  5
9C4
330
1B
100
AcDbEntity
  8
0
  6
Continuous
100
AcDbLine
 10
115.2739517395
 20
118.2989793581
 30
0.0
 11
115.2739517395
 21
94.3789793581
 31
0.0
  0
LINE
  5
9C5
330
1B
100
AcDbEntity
  8
0
  6
Continuous
100
AcDbLine
 10
104.3911146562
 20
143.421822117
 30
0.0
 11
105.2739547217
 21
142.5389823409
 31
0.0
  0
LINE
  5
9C6
330
1B
100
AcDbEntity
  8
0
  6
Continuous
100
AcDbLine
 10
118.5739517395
 20
118.2989793581
 30
0.0
 11
118.5739517395
 21
94.3789793581
 31
0.0
  0
LINE
  5
9C7
330
1B
100
AcDbEntity
  8
0
  6
Continuous
100
AcDbLine
 10
118.9739517395
 20
117.8989793581
 30
0.0
 11
118.9739517395
 21
94.77897935809997
 31
0.0
  0
LINE
  5
9C8
330
1B
100
AcDbEntity
  8
0
  6
Continuous
100
AcDbLine
 10
119.3739517395
 20
95.33897935809999
 30
0.0
 11
119.3739517395
 21
117.3389793581
 31
0.0
  0
LINE
  5
9C9
330
1B
100
AcDbEntity
  8
0
  6
Continuous
100
AcDbLine
 10
124.8739517395
 20
95.33897935809999
 30
0.0
 11
124.8739517395
 21
117.3389793581
 31
0.0
  0
LINE
  5
9CA
330
1B
100
AcDbEntity
  8
0
  6
Continuous
100
AcDbLine
 10
125.2739517395
 20
117.8989793581
 30
0.0
 11
125.2739517395
 21
94.77897935809997
 31
0.0
  0
LINE
  5
9CB
330
1B
100
AcDbEntity
  8
0
  6
Continuous
100
AcDbLine
 10
125.6739517395
 20
118.2989793581
 30
0.0
 11
125.6739517395
 21
94.3789793581
 31
0.0
  0
LINE
  5
9CC
330
1B
100
AcDbEntity
  8
0
  6
Continuous
100
AcDbLine
 10
114.0982158466
 20
92.0632434652
 30
0.0
 11
113.8739517395
 21
91.83897935810001
 31
0.0
  0
LINE
  5
9CD
330
1B
100
AcDbEntity
  8
0
  6
Continuous
100
AcDbLine
 10
126.4739517395
 20
118.2989793581
 30
0.0
 11
126.4739517395
 21
94.3789793581
 31
0.0
  0
LINE
  5
9CE
330
1B
100
AcDbEntity
  8
0
  6
Continuous
100
AcDbLine
 10
126.8739517395
 20
117.8989793581
 30
0.0
 11
126.8739517395
 21
94.77897935809997
 31
0.0
  0
LINE
  5
9CF
330
1B
100
AcDbEntity
  8
0
  6
Continuous
100
AcDbLine
 10
127.2739517395
 20
95.33897935809999
 30
0.0
 11
127.2739517395
 21
117.3389793581
 31
0.0
  0
LINE
  5
9D0
330
1B
100
AcDbEntity
  8
0
  6
Continuous
100
AcDbLine
 10
132.7739517395
 20
95.33897935809999
 30
0.0
 11
132.7739517395
 21
117.3389793581
 31
0.0
  0
LINE
  5
9D1
330
1B
100
AcDbEntity
  8
0
  6
Continuous
100
AcDbLine
 10
133.1739517395
 20
117.8989793581
 30
0.0
 11
133.1739517395
 21
94.77897935809997
 31
0.0
  0
LINE
  5
9D2
330
1B
100
AcDbEntity
  8
0
  6
Continuous
100
AcDbLine
 10
133.5739517395
 20
118.2989793581
 30
0.0
 11
133.5739517395
 21
94.3789793581
 31
0.0
  0
LINE
  5
9D3
330
1B
100
AcDbEntity
  8
0
  6
Continuous
100
AcDbLine
 10
134.3739517395
 20
118.2989793581
 30
0.0
 11
134.3739517395
 21
94.3789793581
 31
0.0
  0
LINE
  5
9D4
330
1B
100
AcDbEntity
  8
0
  6
Continuous
100
AcDbLine
 10
134.7739517395
 20
117.8989793581
 30
0.0
 11
134.7739517395
 21
94.77897935809997
 31
0.0
  0
LINE
  5
9D5
330
1B
100
AcDbEntity
  8
0
  6
Continuous
100
AcDbLine
 10
135.1739517395
 20
95.33897935809999
 30
0.0
 11
135.1739517395
 21
117.3389793581
 31
0.0
  0
LINE
  5
9D6
330
1B
100
AcDbEntity
  8
0
  6
Continuous
100
AcDbLine
 10
140.6739517395
 20
95.33897935809999
 30
0.0
 11
140.6739517395
 21
117.3389793581
 31
0.0
  0
LINE
  5
9D7
330
1B
100
AcDbEntity
  8
0
  6
Continuous
100
AcDbLine
 10
141.0739517395
 20
117.8989793581
 30
0.0
 11
141.0739517395
 21
94.77897935809997
 31
0.0
  0
LINE
  5
9D8
330
1B
100
AcDbEntity
  8
0
  6
Continuous
100
AcDbLine
 10
141.4739517395
 20
118.2989793581
 30
0.0
 11
141.4739517395
 21
94.3789793581
 31
0.0
  0
LINE
  5
9D9
330
1B
100
AcDbEntity
  8
0
  6
Continuous
100
AcDbLine
 10
142.6212907405
 20
118.2989793581
 30
0.0
 11
142.6212907405
 21
94.3789793581
 31
0.0
  0
LINE
  5
9DA
330
1B
100
AcDbEntity
  8
0
  6
Continuous
100
AcDbLine
 10
142.7248183586
 20
118.2853496887
 30
0.0
 11
142.7248183586
 21
94.3926090276
 31
0.0
  0
LINE
  5
9DB
330
1B
100
AcDbEntity
  8
0
  6
Continuous
100
AcDbLine
 10
145.7774793576
 20
117.4673916392
 30
0.0
 11
145.7774793576
 21
95.2105670771
 31
0.0
  0
LINE
  5
9DC
330
1B
100
AcDbEntity
  8
0
  6
Continuous
100
AcDbLine
 10
146.0739517395
 20
117.0810213087
 30
0.0
 11
146.0739517395
 21
95.59693740760002
 31
0.0
  0
CIRCLE
  5
A6A
330
1B
100
AcDbEntity
  8
0
  6
Continuous
100
AcDbCircle
 10
87.0739517395
 20
129.0389793581
 30
0.0
 40
8.999909999999998
  0
CIRCLE
  5
A6B
330
1B
100
AcDbEntity
  8
0
  6
Continuous
100
AcDbCircle
 10
87.0739517395
 20
129.0389793581
 30
0.0
 40
8.699913000000001
  0
CIRCLE
  5
A6C
330
1B
100
AcDbEntity
  8
0
  6
Continuous
100
AcDbCircle
 10
89.3917470414
 20
133.9864288432
 30
0.0
 40
0.2687037129
  0
ARC
  5
A6D
330
1B
100
AcDbEntity
  8
0
  6
Continuous
100
AcDbCircle
 10
104.1082719901
 20
143.1389793581
 30
0.0
 40
0.4
100
AcDbArc
 50
45.0000093996001
 51
90.00000000000019
  0
ARC
  5
A6E
330
1B
100
AcDbEntity
  8
0
  6
Continuous
100
AcDbCircle
 10
70.039631489
 20
143.1389793581
 30
0.0
 40
0.4
100
AcDbArc
 50
90.00000000000019
 51
134.9999906029003
  0
ARC
  5
A6F
330
1B
100
AcDbEntity
  8
0
  6
Continuous
100
AcDbCircle
 10
55.57395173949998
 20
117.8989793581
 30
0.0
 40
0.4
100
AcDbArc
 50
90.00000000000019
 51
180.0000000000004
  0
ARC
  5
A70
330
1B
100
AcDbEntity
  8
0
  6
Continuous
100
AcDbCircle
 10
55.57395173949998
 20
94.77897935809997
 30
0.0
 40
0.4
100
AcDbArc
 50
180.0000000000004
 51
270.0000000000006
  0
ARC
  5
A71
330
1B
100
AcDbEntity
  8
0
  6
Continuous
100
AcDbCircle
 10
54.7739517395
 20
117.7389793581
 30
0.0
 40
0.4
100
AcDbArc
 50
270.0000000000006
 51
359.9999999989009
  0
ARC
  5
A72
330
1B
100
AcDbEntity
  8
0
  6
Continuous
100
AcDbCircle
 10
54.7739517395
 20
94.9389793581
 30
0.0
 40
0.4
100
AcDbArc
 50
0.0000000029
 51
90.00000000000019
  0
ARC
  5
A73
330
1B
100
AcDbEntity
  8
0
  6
Continuous
100
AcDbCircle
 10
48.47395173949999
 20
117.8989793581
 30
0.0
 40
0.4
100
AcDbArc
 50
0.0
 51
90.00000000000019
  0
ARC
  5
A74
330
1B
100
AcDbEntity
  8
0
  6
Continuous
100
AcDbCircle
 10
48.47395173949999
 20
94.77897935809997
 30
0.0
 40
0.4
100
AcDbArc
 50
270.0000000000006
 51
360.0000000000008
  0
ARC
  5
A75
330
1B
100
AcDbEntity
  8
0
  6
Continuous
100
AcDbCircle
 10
49.27395173949999
 20
117.7389793581
 30
0.0
 40
0.4
100
AcDbArc
 50
180.0000000012004
 51
270.0000000000006
  0
ARC
  5
A76
330
1B
100
AcDbEntity
  8
0
  6
Continuous
100
AcDbCircle
 10
49.27395173949999
 20
94.9389793581
 30
0.0
 40
0.4
100
AcDbArc
 50
90.00000000000019
 51
179.9999999991004
  0
ARC
  5
A77
330
1B
100
AcDbEntity
  8
0
  6
Continuous
100
AcDbCircle
 10
47.67395173949998
 20
117.8989793581
 30
0.0
 40
0.4
100
AcDbArc
 50
90.00000000000019
 51
180.0000000000004
  0
ARC
  5
A78
330
1B
100
AcDbEntity
  8
0
  6
Continuous
100
AcDbCircle
 10
47.67395173949998
 20
94.77897935809997
 30
0.0
 40
0.4
100
AcDbArc
 50
180.0000000000004
 51
270.0000000000006
  0
ARC
  5
A79
330
1B
100
AcDbEntity
  8
0
  6
Continuous
100
AcDbCircle
 10
46.8739517395
 20
117.7389793581
 30
0.0
 40
0.4
100
AcDbArc
 50
270.0000000000006
 51
359.9999999989009
  0
ARC
  5
A7A
330
1B
100
AcDbEntity
  8
0
  6
Continuous
100
AcDbCircle
 10
46.8739517395
 20
94.9389793581
 30
0.0
 40
0.4
100
AcDbArc
 50
0.0000000029
 51
90.00000000000019
  0
ARC
  5
A7B
330
1B
100
AcDbEntity
  8
0
  6
Continuous
100
AcDbCircle
 10
41.37395173949999
 20
117.7389793581
 30
0.0
 40
0.4
100
AcDbArc
 50
180.0000000012004
 51
270.0000000000006
  0
ARC
  5
A7C
330
1B
100
AcDbEntity
  8
0
  6
Continuous
100
AcDbCircle
 10
41.37395173949999
 20
94.9389793581
 30
0.0
 40
0.4
100
AcDbArc
 50
90.00000000000019
 51
179.9999999991004
  0
ARC
  5
A7D
330
1B
100
AcDbEntity
  8
0
  6
Continuous
100
AcDbCircle
 10
40.57395173949999
 20
117.8989793581
 30
0.0
 40
0.4
100
AcDbArc
 50
0.0
 51
90.00000000000019
  0
ARC
  5
A7E
330
1B
100
AcDbEntity
  8
0
  6
Continuous
100
AcDbCircle
 10
40.57395173949999
 20
94.77897935809997
 30
0.0
 40
0.4
100
AcDbArc
 50
270.0000000000006
 51
360.0000000000008
  0
ARC
  5
A7F
330
1B
100
AcDbEntity
  8
0
  6
Continuous
100
AcDbCircle
 10
39.7739517395
 20
117.8989793581
 30
0.0
 40
0.4
100
AcDbArc
 50
90.00000000000019
 51
180.0000000000004
  0
ARC
  5
A80
330
1B
100
AcDbEntity
  8
0
  6
Continuous
100
AcDbCircle
 10
39.7739517395
 20
94.77897935809997
 30
0.0
 40
0.4
100
AcDbArc
 50
180.0000000000004
 51
270.0000000000006
  0
ARC
  5
A81
330
1B
100
AcDbEntity
  8
0
  6
Continuous
100
AcDbCircle
 10
38.9739517395
 20
117.7389793581
 30
0.0
 40
0.4
100
AcDbArc
 50
270.0000000000006
 51
359.9999999989009
  0
ARC
  5
A82
330
1B
100
AcDbEntity
  8
0
  6
Continuous
100
AcDbCircle
 10
38.9739517395
 20
94.9389793581
 30
0.0
 40
0.4
100
AcDbArc
 50
0.0000000029
 51
90.00000000000019
  0
ARC
  5
A83
330
1B
100
AcDbEntity
  8
0
  6
Continuous
100
AcDbCircle
 10
28.4739517395
 20
117.0810213087
 30
0.0
 40
0.4
100
AcDbArc
 50
105.0000000051002
 51
180.0000000000004
  0
ARC
  5
A84
330
1B
100
AcDbEntity
  8
0
  6
Continuous
100
AcDbCircle
 10
28.4739517395
 20
95.59693740760002
 30
0.0
 40
0.4
100
AcDbArc
 50
180.0000000000004
 51
254.9999999959005
  0
ARC
  5
A85
330
1B
100
AcDbEntity
  8
0
  6
Continuous
100
AcDbCircle
 10
32.6739517395
 20
117.8989793581
 30
0.0
 40
0.4
100
AcDbArc
 50
0.0
 51
90.00000000000019
  0
ARC
  5
A86
330
1B
100
AcDbEntity
  8
0
  6
Continuous
100
AcDbCircle
 10
32.6739517395
 20
94.77897935809997
 30
0.0
 40
0.4
100
AcDbArc
 50
270.0000000000006
 51
360.0000000000008
  0
ARC
  5
A87
330
1B
100
AcDbEntity
  8
0
  6
Continuous
100
AcDbCircle
 10
33.4739517395
 20
117.7389793581
 30
0.0
 40
0.4
100
AcDbArc
 50
180.0000000012004
 51
270.0000000000006
  0
ARC
  5
A88
330
1B
100
AcDbEntity
  8
0
  6
Continuous
100
AcDbCircle
 10
33.4739517395
 20
94.9389793581
 30
0.0
 40
0.4
100
AcDbArc
 50
90.00000000000019
 51
179.9999999991004
  0
ARC
  5
A89
330
1B
100
AcDbEntity
  8
0
  6
Continuous
100
AcDbCircle
 10
58.8739517395
 20
119.2989793581
 30
0.0
 40
1.0
100
AcDbArc
 50
270.0000000000006
 51
359.9999999998008
  0
ARC
  5
A8A
330
1B
100
AcDbEntity
  8
0
  6
Continuous
100
AcDbCircle
 10
58.8739517395
 20
93.3789793581
 30
0.0
 40
1.0
100
AcDbArc
 50
0.0000000001
 51
90.00000000000019
  0
ARC
  5
A8B
330
1B
100
AcDbEntity
  8
0
  6
Continuous
100
AcDbCircle
 10
60.4739517395
 20
92.4875074956
 30
0.0
 40
0.6
100
AcDbArc
 50
180.0000000000004
 51
224.9999997755005
  0
ARC
  5
A8C
330
1B
100
AcDbEntity
  8
0
  6
Continuous
100
AcDbCircle
 10
60.4739517395
 20
120.1904512207
 30
0.0
 40
0.6
100
AcDbArc
 50
135.0000002245003
 51
180.0000000000004
  0
ARC
  5
A8D
330
1B
100
AcDbEntity
  8
0
  6
Continuous
100
AcDbCircle
 10
118.5739517395
 20
117.8989793581
 30
0.0
 40
0.4
100
AcDbArc
 50
0.0
 51
90.00000000000019
  0
ARC
  5
A8E
330
1B
100
AcDbEntity
  8
0
  6
Continuous
100
AcDbCircle
 10
118.5739517395
 20
94.77897935809997
 30
0.0
 40
0.4
100
AcDbArc
 50
270.0000000000006
 51
360.0000000000008
  0
ARC
  5
A8F
330
1B
100
AcDbEntity
  8
0
  6
Continuous
100
AcDbCircle
 10
119.3739517395
 20
117.7389793581
 30
0.0
 40
0.4
100
AcDbArc
 50
180.0000000012004
 51
270.0000000000006
  0
ARC
  5
A90
330
1B
100
AcDbEntity
  8
0
  6
Continuous
100
AcDbCircle
 10
119.3739517395
 20
94.9389793581
 30
0.0
 40
0.4
100
AcDbArc
 50
90.00000000000019
 51
179.9999999991004
  0
ARC
  5
A91
330
1B
100
AcDbEntity
  8
0
  6
Continuous
100
AcDbCircle
 10
124.8739517395
 20
117.7389793581
 30
0.0
 40
0.4
100
AcDbArc
 50
270.0000000000006
 51
359.9999999971008
  0
ARC
  5
A92
330
1B
100
AcDbEntity
  8
0
  6
Continuous
100
AcDbCircle
 10
124.8739517395
 20
94.9389793581
 30
0.0
 40
0.4
100
AcDbArc
 50
0.0000000011
 51
90.00000000000019
  0
ARC
  5
A93
330
1B
100
AcDbEntity
  8
0
  6
Continuous
100
AcDbCircle
 10
125.6739517395
 20
117.8989793581
 30
0.0
 40
0.4
100
AcDbArc
 50
90.00000000000019
 51
180.0000000000004
  0
ARC
  5
A94
330
1B
100
AcDbEntity
  8
0
  6
Continuous
100
AcDbCircle
 10
125.6739517395
 20
94.77897935809997
 30
0.0
 40
0.4
100
AcDbArc
 50
180.0000000000004
 51
270.0000000000006
  0
ARC
  5
A95
330
1B
100
AcDbEntity
  8
0
  6
Continuous
100
AcDbCircle
 10
126.4739517395
 20
117.8989793581
 30
0.0
 40
0.4
100
AcDbArc
 50
0.0
 51
90.00000000000019
  0
ARC
  5
A96
330
1B
100
AcDbEntity
  8
0
  6
Continuous
100
AcDbCircle
 10
126.4739517395
 20
94.77897935809997
 30
0.0
 40
0.4
100
AcDbArc
 50
270.0000000000006
 51
360.0000000000008
  0
ARC
  5
A97
330
1B
100
AcDbEntity
  8
0
  6
Continuous
100
AcDbCircle
 10
127.2739517395
 20
117.7389793581
 30
0.0
 40
0.4
100
AcDbArc
 50
180.0000000009004
 51
270.0000000000006
  0
ARC
  5
A98
330
1B
100
AcDbEntity
  8
0
  6
Continuous
100
AcDbCircle
 10
127.2739517395
 20
94.9389793581
 30
0.0
 40
0.4
100
AcDbArc
 50
90.00000000000019
 51
179.9999999988004
  0
ARC
  5
A99
330
1B
100
AcDbEntity
  8
0
  6
Continuous
100
AcDbCircle
 10
132.7739517395
 20
117.7389793581
 30
0.0
 40
0.4
100
AcDbArc
 50
270.0000000000006
 51
359.9999999971008
  0
ARC
  5
A9A
330
1B
100
AcDbEntity
  8
0
  6
Continuous
100
AcDbCircle
 10
132.7739517395
 20
94.9389793581
 30
0.0
 40
0.4
100
AcDbArc
 50
0.0000000011
 51
90.00000000000019
  0
ARC
  5
A9B
330
1B
100
AcDbEntity
  8
0
  6
Continuous
100
AcDbCircle
 10
133.5739517395
 20
117.8989793581
 30
0.0
 40
0.4
100
AcDbArc
 50
90.00000000000019
 51
180.0000000000004
  0
ARC
  5
A9C
330
1B
100
AcDbEntity
  8
0
  6
Continuous
100
AcDbCircle
 10
133.5739517395
 20
94.77897935809997
 30
0.0
 40
0.4
100
AcDbArc
 50
180.0000000000004
 51
270.0000000000006
  0
ARC
  5
A9D
330
1B
100
AcDbEntity
  8
0
  6
Continuous
100
AcDbCircle
 10
134.3739517395
 20
117.8989793581
 30
0.0
 40
0.4
100
AcDbArc
 50
0.0
 51
90.00000000000019
  0
ARC
  5
A9E
330
1B
100
AcDbEntity
  8
0
  6
Continuous
100
AcDbCircle
 10
134.3739517395
 20
94.77897935809997
 30
0.0
 40
0.4
100
AcDbArc
 50
270.0000000000006
 51
360.0000000000008
  0
ARC
  5
A9F
330
1B
100
AcDbEntity
  8
0
  6
Continuous
100
AcDbCircle
 10
135.1739517395
 20
117.7389793581
 30
0.0
 40
0.4
100
AcDbArc
 50
180.0000000009004
 51
270.0000000000006
  0
ARC
  5
AA0
330
1B
100
AcDbEntity
  8
0
  6
Continuous
100
AcDbCircle
 10
135.1739517395
 20
94.9389793581
 30
0.0
 40
0.4
100
AcDbArc
 50
90.00000000000019
 51
179.9999999988004
  0
ARC
  5
AA1
330
1B
100
AcDbEntity
  8
0
  6
Continuous
100
AcDbCircle
 10
140.6739517395
 20
117.7389793581
 30
0.0
 40
0.4
100
AcDbArc
 50
270.0000000000006
 51
359.9999999971008
  0
ARC
  5
AA2
330
1B
100
AcDbEntity
  8
0
  6
Continuous
100
AcDbCircle
 10
140.6739517395
 20
94.9389793581
 30
0.0
 40
0.4
100
AcDbArc
 50
0.0000000011
 51
90.00000000000019
  0
ARC
  5
AA3
330
1B
100
AcDbEntity
  8
0
  6
Continuous
100
AcDbCircle
 10
141.4739517395
 20
117.8989793581
 30
0.0
 40
0.4
100
AcDbArc
 50
90.00000000000019
 51
180.0000000000004
  0
ARC
  5
AA4
330
1B
100
AcDbEntity
  8
0
  6
Continuous
100
AcDbCircle
 10
141.4739517395
 20
94.77897935809997
 30
0.0
 40
0.4
100
AcDbArc
 50
180.0000000000004
 51
270.0000000000006
  0
ARC
  5
AA5
330
1B
100
AcDbEntity
  8
0
  6
Continuous
100
AcDbCircle
 10
145.6739517395
 20
117.0810213087
 30
0.0
 40
0.4
100
AcDbArc
 50
0.0
 51
74.99999999110015
  0
ARC
  5
AA6
330
1B
100
AcDbEntity
  8
0
  6
Continuous
100
AcDbCircle
 10
145.6739517395
 20
95.59693740760002
 30
0.0
 40
0.4
100
AcDbArc
 50
285.0000000046006
 51
360.0000000000008
  0
ARC
  5
AA7
330
1B
100
AcDbEntity
  8
0
  6
Continuous
100
AcDbCircle
 10
115.2739517395
 20
119.2989793581
 30
0.0
 40
1.0
100
AcDbArc
 50
180.0000000003004
 51
270.0000000000006
  0
ARC
  5
AA8
330
1B
100
AcDbEntity
  8
0
  6
Continuous
100
AcDbCircle
 10
115.2739517395
 20
93.3789793581
 30
0.0
 40
1.0
100
AcDbArc
 50
90.00000000000019
 51
179.9999999999004
  0
ARC
  5
AA9
330
1B
100
AcDbEntity
  8
0
  6
Continuous
100
AcDbCircle
 10
113.6739517395
 20
92.4875074956
 30
0.0
 40
0.6
100
AcDbArc
 50
315.0000051774007
 51
360.0000000000008
  0
ARC
  5
AAA
330
1B
100
AcDbEntity
  8
0
  6
Continuous
100
AcDbCircle
 10
113.6739517395
 20
120.1904512207
 30
0.0
 40
0.6
100
AcDbArc
 50
0.0
 51
44.9999948226001
  0
ARC
  5
AAB
330
1B
100
AcDbEntity
  8
0
  6
Continuous
100
AcDbCircle
 10
65.21052789859999
 20
90.33897935809999
 30
0.0
 40
3.0
100
AcDbArc
 50
90.00000000000019
 51
131.4096220387003
  0
ARC
  5
AAC
330
1B
100
AcDbEntity
  8
0
  6
Continuous
100
AcDbCircle
 10
65.21052789859999
 20
122.3389793581
 30
0.0
 40
3.0
100
AcDbArc
 50
228.5903779613005
 51
270.0000000000006
  0
ARC
  5
AAD
330
1B
100
AcDbEntity
  8
0
  6
Continuous
100
AcDbCircle
 10
108.9373755805
 20
90.33897935809999
 30
0.0
 40
3.0
100
AcDbArc
 50
48.59037796140011
 51
90.00000000000019
  0
ARC
  5
AAE
330
1B
100
AcDbEntity
  8
0
  6
Continuous
100
AcDbCircle
 10
108.9373755805
 20
122.3389793581
 30
0.0
 40
3.0
100
AcDbArc
 50
270.0000000000006
 51
311.4096220386007
  0
ARC
  5
AAF
330
1B
100
AcDbEntity
  8
0
  6
Continuous
100
AcDbCircle
 10
61.241900932
 20
94.83897935809999
 30
0.0
 40
3.0
100
AcDbArc
 50
270.0000000000006
 51
311.4096221798007
  0
ARC
  5
AB0
330
1B
100
AcDbEntity
  8
0
  6
Continuous
100
AcDbCircle
 10
61.241900932
 20
117.8389793581
 30
0.0
 40
3.0
100
AcDbArc
 50
48.5903778202001
 51
90.00000000000019
  0
ARC
  5
AB1
330
1B
100
AcDbEntity
  8
0
  6
Continuous
100
AcDbCircle
 10
112.9060025471
 20
94.83897935809999
 30
0.0
 40
3.0
100
AcDbArc
 50
228.5903778201005
 51
270.0000000000006
  0
ARC
  5
AB2
330
1B
100
AcDbEntity
  8
0
  6
Continuous
100
AcDbCircle
 10
112.9060025471
 20
117.8389793581
 30
0.0
 40
3.0
100
AcDbArc
 50
90.00000000000019
 51
131.4096221799003
  0
SPLINE
  5
C77
330
1B
100
AcDbEntity
  8
0
  6
Continuous
100
AcDbSpline
210
0.0
220
0.0
230
1.0
 70
     8
 71
     3
 72
    11
 73
     7
 74
     5
 42
0.0000000001
 43
0.0000000001
 44
0.0000000001
 12
-0.5348284792046009
 22
0.8449606486882652
 32
0.0
 13
0.5178520334193967
 23
-0.8554702049068664
 33
0.0
 40
0.0
 40
0.0
 40
0.0
 40
0.0
 40
0.0694145763545299
 40
0.1388279088358302
 40
0.2082411810010125
 40
0.2776559030296273
 40
0.2776559030296273
 40
0.2776559030296273
 40
0.2776559030296273
 10
91.85435593500002
 20
132.9896038515
 30
0.0
 10
91.84198097089791
 20
133.0091547133216
 30
0.0
 10
91.83691520987966
 20
133.06142188864
 30
0.0
 10
91.88212849929602
 20
133.1221614046332
 30
0.0
 10
91.95665765638009
 20
133.1355575325298
 30
0.0
 10
92.00118016191608
 20
133.1077129437925
 30
0.0
 10
92.0131623469
 20
133.0879188683
 30
0.0
 11
91.85435593500002
 21
132.9896038515
 31
0.0
 11
91.84571733540003
 21
133.0584787962
 31
0.0
 11
91.88701445600002
 21
133.1142708974
 31
0.0
 11
91.95536622500001
 21
133.126363789
 31
0.0
 11
92.0131623469
 21
133.0879188683
 31
0.0
  0
SPLINE
  5
C78
330
1B
100
AcDbEntity
  8
0
  6
Continuous
100
AcDbSpline
210
0.0
220
0.0
230
1.0
 70
     8
 71
     3
 72
     9
 73
     5
 74
     3
 42
0.0000000001
 43
0.0000000001
 44
0.0000000001
 12
0.5686892443157671
 22
-0.8225524563209097
 32
0.0
 13
0.2151698914412199
 23
-0.9765766318201422
 33
0.0
 40
0.0
 40
0.0
 40
0.0
 40
0.0
 40
2.584054886871939
 40
3.914549234823279
 40
3.914549234823279
 40
3.914549234823279
 40
3.914549234823279
 10
92.0131623469
 20
133.0879188683
 30
0.0
 10
92.50300375386189
 20
132.3794119701451
 30
0.0
 10
93.10778574102427
 20
131.2020716115998
 30
0.0
 10
93.47198072032938
 20
129.946123256226
 30
0.0
 10
93.5674081618
 20
129.5130133599
 30
0.0
 11
92.0131623469
 21
133.0879188683
 31
0.0
 11
93.1966193574
 21
130.790796938
 31
0.0
 11
93.5674081618
 21
129.5130133599
 31
0.0
  0
SPLINE
  5
C79
330
1B
100
AcDbEntity
  8
0
  6
Continuous
100
AcDbSpline
210
0.0
220
0.0
230
1.0
 70
     8
 71
     3
 72
     8
 73
     4
 74
     2
 42
0.0000000001
 43
0.0000000001
 44
0.0000000001
 12
0.2151698914586445
 22
-0.9765766318163031
 32
0.0
 13
0.0907671099958149
 23
-0.9958721462833509
 33
0.0
 40
0.0
 40
0.0
 40
0.0
 40
0.0
 40
1.258879117144006
 40
1.258879117144006
 40
1.258879117144006
 40
1.258879117144006
 10
93.5674081618
 20
129.5130133599
 30
0.0
 10
93.65769912279848
 20
129.1032160505385
 30
0.0
 10
93.72262859810093
 20
128.6869588735005
 30
0.0
 10
93.7607168712
 20
128.2690646574
 30
0.0
 11
93.5674081618
 21
129.5130133599
 31
0.0
 11
93.7607168712
 21
128.2690646574
 31
0.0
  0
SPLINE
  5
C7A
330
1B
100
AcDbEntity
  8
0
  6
Continuous
100
AcDbSpline
210
0.0
220
0.0
230
1.0
 70
     8
 71
     3
 72
    12
 73
     8
 74
     6
 42
0.0000000001
 43
0.0000000001
 44
0.0000000001
 12
0.171955755658773
 22
-0.9851046736747422
 32
0.0
 13
-0.1080726391822797
 23
0.9941430001062105
 33
0.0
 40
0.0
 40
0.0
 40
0.0
 40
0.0
 40
0.3183343104644413
 40
0.6651994937084342
 40
1.032442287921217
 40
1.248091177913812
 40
1.274738165059403
 40
1.274738165059403
 40
1.274738165059403
 40
1.274738165059403
 10
93.7607168712
 20
128.2690646574
 30
0.0
 10
93.77896334350268
 20
128.1645337850568
 30
0.0
 10
93.69806068008376
 20
127.9209628800137
 30
0.0
 10
93.34530581772749
 20
127.767378323015
 30
0.0
 10
93.01630680725619
 20
127.933198931871
 30
0.0
 10
92.9670063382888
 20
128.1405466441053
 30
0.0
 10
92.95740020214237
 20
128.2205417379518
 30
0.0
 10
92.95644026540001
 20
128.2293720432
 30
0.0
 11
93.7607168712
 21
128.2690646574
 31
0.0
 11
93.66800836189999
 21
127.964529166
 31
0.0
 11
93.350215339
 21
127.8255217923
 31
0.0
 11
93.0258240862
 21
127.9976774922
 31
0.0
 11
92.95963395370001
 21
128.2029171329
 31
0.0
 11
92.95644026540001
 21
128.2293720432
 31
0.0
  0
SPLINE
  5
C7B
330
1B
100
AcDbEntity
  8
0
  6
Continuous
100
AcDbSpline
210
0.0
220
0.0
230
1.0
 70
     8
 71
     3
 72
    11
 73
     7
 74
     5
 42
0.0000000001
 43
0.0000000001
 44
0.0000000001
 12
-0.6773326095092221
 22
0.735676923720887
 32
0.0
 13
0.6880035635282868
 23
-0.7257073077848801
 33
0.0
 40
0.0
 40
0.0
 40
0.0
 40
0.0
 40
0.0826489623162213
 40
0.16529662384405
 40
0.247944163932589
 40
0.3305929542794074
 40
0.3305929542794074
 40
0.3305929542794074
 40
0.3305929542794074
 10
92.65695590889999
 20
132.7520662269
 30
0.0
 10
92.6382956297937
 20
132.7723338716819
 30
0.0
 10
92.62085141999123
 20
132.8321881127423
 30
0.0
 10
92.65971324234744
 20
132.9133883020542
 30
0.0
 10
92.74336164992289
 20
132.9466525209552
 30
0.0
 10
92.80189604924003
 20
132.9251896393114
 30
0.0
 10
92.82085026999999
 20
132.9051966956
 30
0.0
 11
92.65695590889999
 21
132.7520662269
 31
0.0
 11
92.63168949629998
 21
132.830758408
 31
0.0
 11
92.66717767190001
 21
132.9053990494
 31
0.0
 11
92.74405338790002
 21
132.9357427501
 31
0.0
 11
92.82085026999999
 21
132.9051966956
 31
0.0
  0
SPLINE
  5
C7C
330
1B
100
AcDbEntity
  8
0
  6
Continuous
100
AcDbSpline
210
0.0
220
0.0
230
1.0
 70
     8
 71
     3
 72
     9
 73
     5
 74
     3
 42
0.0000000001
 43
0.0000000001
 44
0.0000000001
 12
0.7307949480390985
 22
-0.6825970582419262
 32
0.0
 13
0.08239432197812462
 23
-0.996599807197335
 33
0.0
 40
0.0
 40
0.0
 40
0.0
 40
0.0
 40
1.876898580626492
 40
3.753797107286387
 40
3.753797107286387
 40
3.753797107286387
 40
3.753797107286387
 10
92.82085026999999
 20
132.9051966956
 30
0.0
 10
93.27805960356785
 20
132.478141545682
 30
0.0
 10
94.03514575671969
 20
131.4424166683049
 30
0.0
 10
94.37828158615804
 20
130.2062282906327
 30
0.0
 10
94.42983018
 20
129.5827227207
 30
0.0
 11
92.82085026999999
 21
132.9051966956
 31
0.0
 11
93.93165818369999
 21
131.3923007769
 31
0.0
 11
94.42983018
 21
129.5827227207
 31
0.0
  0
SPLINE
  5
C7D
330
1B
100
AcDbEntity
  8
0
  6
Continuous
100
AcDbSpline
210
0.0
220
0.0
230
1.0
 70
     8
 71
     3
 72
    19
 73
    15
 74
    13
 42
0.0000000001
 43
0.0000000001
 44
0.0000000001
 12
0.03678715713060111
 22
-0.9993231234541952
 32
0.0
 13
0.0214069357115194
 23
0.9997708452957822
 33
0.0
 40
0.0
 40
0.0
 40
0.0
 40
0.0
 40
0.0326698686983374
 40
0.0653891626292694
 40
0.1311410682262398
 40
0.1969599646105878
 40
0.2625370658225141
 40
0.3945411342748055
 40
0.5281108006540246
 40
0.6615440095917415
 40
0.7942824592829446
 40
0.9249498116428347
 40
1.055592859488959
 40
1.05885537494793
 40
1.05885537494793
 40
1.05885537494793
 40
1.05885537494793
 10
94.42983018
 20
129.5827227207
 30
0.0
 10
94.43023079053107
 20
129.5718401356232
 30
0.0
 10
94.43168174470232
 20
129.5500695285976
 30
0.0
 10
94.42927148165643
 20
129.5063150304213
 30
0.0
 10
94.41705135795945
 20
129.4524942769476
 30
0.0
 10
94.39028135580745
 20
129.3920634038196
 30
0.0
 10
94.33973366764012
 20
129.3195751841814
 30
0.0
 10
94.24853285198421
 20
129.2517701464904
 30
0.0
 10
94.11614594586689
 20
129.2176577500216
 30
0.0
 10
93.98121851440547
 20
129.2417455665136
 30
0.0
 10
93.86646860144111
 20
129.3145890248246
 30
0.0
 10
93.79185134629991
 20
129.4270814433062
 30
0.0
 10
93.77489891053324
 20
129.5163753215397
 30
0.0
 10
93.7756266593471
 20
129.560999785054
 30
0.0
 10
93.7756499395
 20
129.562087041
 30
0.0
 11
94.42983018
 21
129.5827227207
 31
0.0
 11
94.43101846209999
 21
129.5500744695
 31
0.0
 11
94.42926975250001
 21
129.5174019395999
 31
0.0
 11
94.41503862040001
 21
129.4532085757
 31
0.0
 11
94.388398305
 21
129.3930220264
 31
0.0
 11
94.35066390799999
 21
129.33938928
 31
0.0
 11
94.24526441979999
 21
129.2599158758
 31
0.0
 11
94.11571673700001
 21
129.2273850649
 31
0.0
 11
93.98421998120001
 21
129.2500351082
 31
0.0
 11
93.87254541469999
 21
129.3217866742
 31
0.0
 11
93.8000328805
 21
129.4304875912
 31
0.0
 11
93.7755967224
 21
129.5588249596
 31
0.0
 11
93.7756499395
 21
129.562087041
 31
0.0
  0
SPLINE
  5
C7E
330
1B
100
AcDbEntity
  8
0
  6
Continuous
100
AcDbSpline
210
0.0
220
0.0
230
1.0
 70
     8
 71
     3
 72
     9
 73
     5
 74
     3
 42
0.0000000001
 43
0.0000000001
 44
0.0000000001
 12
0.0159630815489657
 22
0.9998725818960439
 32
0.0
 13
-0.6369765209687215
 23
0.7708832023948791
 33
0.0
 40
0.0
 40
0.0
 40
0.0
 40
0.0
 40
1.714817782303723
 40
3.432846360224882
 40
3.432846360224882
 40
3.432846360224882
 40
3.432846360224882
 10
93.7756499395
 20
129.562087041
 30
0.0
 10
93.78477453153352
 20
130.1336201354911
 30
0.0
 10
93.59353681271537
 20
131.2887292317038
 30
0.0
 10
93.02173719772968
 20
132.3105997695821
 30
0.0
 10
92.65695590889999
 20
132.7520662269
 30
0.0
 11
93.7756499395
 21
129.562087041
 31
0.0
 11
93.4987530959
 21
131.2544014812
 31
0.0
 11
92.65695590889999
 21
132.7520662269
 31
0.0
  0
SPLINE
  5
C7F
330
1B
100
AcDbEntity
  8
0
  6
Continuous
100
AcDbSpline
210
0.0
220
0.0
230
1.0
 70
     8
 71
     3
 72
    11
 73
     7
 74
     5
 42
0.0000000001
 43
0.0000000001
 44
0.0000000001
 12
0.4267685367316219
 22
-0.9043608881723878
 32
0.0
 13
0.4433330419175654
 23
-0.8963569679230024
 33
0.0
 40
0.0
 40
0.0
 40
0.0
 40
0.0
 40
0.2946035384627554
 40
0.5891279836035357
 40
0.8836526391229849
 40
1.178212503735362
 40
1.178212503735362
 40
1.178212503735362
 40
1.178212503735362
 10
91.0883555951
 20
134.8208455389
 30
0.0
 10
91.13026476877523
 20
134.732036232999
 30
0.0
 10
91.22600736790895
 20
134.5594099626539
 30
0.0
 10
91.41500124806034
 20
134.3313149430802
 30
0.0
 10
91.62984295382054
 20
134.1309916089185
 30
0.0
 10
91.75483633239819
 20
133.9750824296719
 30
0.0
 10
91.798365706
 20
133.8870721673
 30
0.0
 11
91.0883555951
 21
134.8208455389
 31
0.0
 11
91.2335869856
 21
134.5645272054
 31
0.0
 11
91.41931055549999
 21
134.3359415445
 31
0.0
 11
91.6252756098
 21
134.12541086
 31
0.0
 11
91.798365706
 21
133.8870721673
 31
0.0
  0
SPLINE
  5
C80
330
1B
100
AcDbEntity
  8
0
  6
Continuous
100
AcDbSpline
210
0.0
220
0.0
230
1.0
 70
     8
 71
     3
 72
     8
 73
     4
 74
     2
 42
0.0000000001
 43
0.0000000001
 44
0.0000000001
 12
0.4433330431603846
 22
-0.8963569673083109
 32
0.0
 13
0.4188613259733466
 23
-0.9080502131511506
 33
0.0
 40
0.0
 40
0.0
 40
0.0
 40
0.0
 40
0.0179222718878551
 40
0.0179222718878551
 40
0.0179222718878551
 40
0.0179222718878551
 10
91.798365706
 20
133.8870721673
 30
0.0
 10
91.8010142177788
 20
133.8817172495411
 30
0.0
 10
91.80359174487755
 20
133.8763265869693
 30
0.0
 10
91.80609406040001
 20
133.8709018127
 30
0.0
 11
91.798365706
 21
133.8870721673
 31
0.0
 11
91.80609406040001
 21
133.8709018127
 31
0.0
  0
SPLINE
  5
C81
330
1B
100
AcDbEntity
  8
0
  6
Continuous
100
AcDbSpline
210
0.0
220
0.0
230
1.0
 70
     8
 71
     3
 72
     8
 73
     4
 74
     2
 42
0.0000000001
 43
0.0000000001
 44
0.0000000001
 12
0.4129191516817328
 22
-0.9107676839756878
 32
0.0
 13
0.2505481336861954
 23
-0.9681041435229809
 33
0.0
 40
0.0
 40
0.0
 40
0.0
 40
0.0
 40
0.0734660601763976
 40
0.0734660601763976
 40
0.0734660601763976
 40
0.0734660601763976
 10
91.80609406040001
 20
133.8709018127
 30
0.0
 10
91.81620590814849
 20
133.8485983082074
 30
0.0
 10
91.82449379994451
 20
133.8253614560884
 30
0.0
 10
91.8306293947
 20
133.801653857
 30
0.0
 11
91.80609406040001
 21
133.8709018127
 31
0.0
 11
91.8306293947
 21
133.801653857
 31
0.0
  0
SPLINE
  5
C82
330
1B
100
AcDbEntity
  8
0
  6
Continuous
100
AcDbSpline
210
0.0
220
0.0
230
1.0
 70
     8
 71
     3
 72
    17
 73
    13
 74
    11
 42
0.0000000001
 43
0.0000000001
 44
0.0000000001
 12
0.250548133540408
 22
-0.9681041435607111
 32
0.0
 13
-0.8717487913040343
 23
0.4899531047559096
 33
0.0
 40
0.0
 40
0.0
 40
0.0
 40
0.0
 40
0.0131595807657102
 40
0.117567951248352
 40
0.1684349365764827
 40
0.2190925874007331
 40
0.2703443529375623
 40
0.3219568987551721
 40
0.4239616670980683
 40
0.5256730846344427
 40
0.6289994096383669
 40
0.7319193313748423
 40
0.7319193313748423
 40
0.7319193313748423
 40
0.7319193313748423
 10
91.8306293947
 20
133.801653857
 30
0.0
 10
91.83172843083301
 20
133.7974072421111
 30
0.0
 10
91.840936247157
 20
133.7593402670874
 30
0.0
 10
91.84628149126536
 20
133.7021931702674
 30
0.0
 10
91.83280812301898
 20
133.6343536211827
 30
0.0
 10
91.81100271243916
 20
133.5877952017012
 30
0.0
 10
91.77968336167865
 20
133.5468987454097
 30
0.0
 10
91.72888375548101
 20
133.5008730577947
 30
0.0
 10
91.65215663245812
 20
133.4600314914972
 30
0.0
 10
91.54889154996005
 20
133.4455025194677
 30
0.0
 10
91.44650269746433
 20
133.4628718801511
 30
0.0
 10
91.38260772405829
 20
133.4899300350347
 30
0.0
 10
91.3527009516
 20
133.5067386801
 30
0.0
 11
91.8306293947
 21
133.801653857
 31
0.0
 11
91.83372110639998
 21
133.7888626145
 31
0.0
 11
91.84115944360001
 21
133.6847195448
 31
0.0
 11
91.8308243228
 21
133.6349135665
 31
0.0
 11
91.80954445620002
 21
133.5889422182
 31
0.0
 11
91.7786345114
 21
133.5480604523
 31
0.0
 11
91.74046795469999
 21
133.513316117
 31
0.0
 11
91.65023902059998
 21
133.4657376322
 31
0.0
 11
91.54962866530001
 21
133.4508121887
 31
0.0
 11
91.4475414824
 21
133.4667663896
 31
0.0
 11
91.3527009516
 21
133.5067386801
 31
0.0
  0
SPLINE
  5
C83
330
1B
100
AcDbEntity
  8
0
  6
Continuous
100
AcDbSpline
210
0.0
220
0.0
230
1.0
 70
     8
 71
     3
 72
     9
 73
     5
 74
     3
 42
0.0000000001
 43
0.0000000001
 44
0.0000000001
 12
-0.8627846939648449
 22
0.5055715299144017
 32
0.0
 13
-0.5409048345001633
 23
0.841083800827451
 33
0.0
 40
0.0
 40
0.0
 40
0.0
 40
0.0
 40
0.1425957268959168
 40
0.5703169868450022
 40
0.5703169868450022
 40
0.5703169868450022
 40
0.5703169868450022
 10
91.3527009516
 20
133.5067386801
 30
0.0
 10
91.3116911480698
 20
133.5307694600353
 30
0.0
 10
91.15558721548568
 20
133.6404594985567
 30
0.0
 10
91.03117177054165
 20
133.7901861720624
 30
0.0
 10
90.95405293809999
 20
133.9101026464
 30
0.0
 11
91.3527009516
 21
133.5067386801
 31
0.0
 11
91.2356111484
 21
133.5881236868
 31
0.0
 11
90.95405293809999
 21
133.9101026464
 31
0.0
  0
SPLINE
  5
C84
330
1B
100
AcDbEntity
  8
0
  6
Continuous
100
AcDbSpline
210
0.0
220
0.0
230
1.0
 70
     8
 71
     3
 72
    14
 73
    10
 74
     8
 42
0.0000000001
 43
0.0000000001
 44
0.0000000001
 12
-0.6511120651693778
 22
0.7589816062269678
 32
0.0
 13
-0.2202597477172872
 23
-0.9754412558096552
 33
0.0
 40
0.0
 40
0.0
 40
0.0
 40
0.0
 40
0.3476066348036356
 40
0.5222604516358546
 40
0.6990524064433512
 40
0.8730015522945194
 40
1.048998825171338
 40
1.232469161531197
 40
1.378030701037192
 40
1.378030701037192
 40
1.378030701037192
 40
1.378030701037192
 10
90.95405293809999
 20
133.9101026464
 30
0.0
 10
90.87860931348213
 20
133.9980449937395
 30
0.0
 10
90.73349823222961
 20
134.1060326272561
 30
0.0
 10
90.51180086199121
 20
134.1822470454017
 30
0.0
 10
90.33485704214188
 20
134.1955270131069
 30
0.0
 10
90.15988548742368
 20
134.1491759247212
 30
0.0
 10
90.02374773029882
 20
134.0268596505885
 30
0.0
 10
89.93774729779372
 20
133.880306473527
 30
0.0
 10
89.90300367438962
 20
133.7754979230978
 30
0.0
 10
89.89231655839998
 20
133.7281690128
 30
0.0
 11
90.95405293809999
 21
133.9101026464
 31
0.0
 11
90.67635329259998
 21
134.1191798557
 31
0.0
 11
90.51077405299999
 21
134.174744873
 31
0.0
 11
90.3343098422
 21
134.1855048726
 31
0.0
 11
90.16722029569999
 21
134.1371376441
 31
0.0
 11
90.03297337179998
 21
134.0233272602
 31
0.0
 11
89.93791041279999
 21
133.8664056296
 31
0.0
 11
89.89231655839998
 21
133.7281690128
 31
0.0
  0
SPLINE
  5
C85
330
1B
100
AcDbEntity
  8
0
  6
Continuous
100
AcDbSpline
210
0.0
220
0.0
230
1.0
 70
     8
 71
     3
 72
    10
 73
     6
 74
     4
 42
0.0000000001
 43
0.0000000001
 44
0.0000000001
 12
-0.2202597477209626
 22
-0.9754412558088251
 32
0.0
 13
0.1837409249198572
 23
-0.9829747059358117
 33
0.0
 40
0.0
 40
0.0
 40
0.0
 40
0.0
 40
0.035192487411848
 40
0.3192030087452842
 40
0.6043915632894967
 40
0.6043915632894967
 40
0.6043915632894967
 40
0.6043915632894967
 10
89.89248297729998
 20
133.7281314345
 30
0.0
 10
89.88989914783365
 20
133.7166886997946
 30
0.0
 10
89.86848616066985
 20
133.6124434483018
 30
0.0
 10
89.86129065011656
 20
133.4085846538666
 30
0.0
 10
89.89112045663717
 20
133.2208668518131
 30
0.0
 10
89.9085873929
 20
133.1274224733
 30
0.0
 11
89.89248297729998
 21
133.7281314345
 31
0.0
 11
89.88539162489997
 21
133.6936608109
 31
0.0
 11
89.8704184177
 21
133.4100452625
 31
0.0
 11
89.9085873929
 21
133.1274224733
 31
0.0
  0
SPLINE
  5
C86
330
1B
100
AcDbEntity
  8
0
  6
Continuous
100
AcDbSpline
210
0.0
220
0.0
230
1.0
 70
     8
 71
     3
 72
     8
 73
     4
 74
     2
 42
0.0000000001
 43
0.0000000001
 44
0.0000000001
 12
0.1958708834868254
 22
-0.9806296941262234
 32
0.0
 13
0.0466284419933457
 23
-0.9989123026558804
 33
0.0
 40
0.0
 40
0.0
 40
0.0
 40
0.0
 40
0.8517753885652347
 40
0.8517753885652347
 40
0.8517753885652347
 40
0.8517753885652347
 10
89.9085873929
 20
133.1274224733
 30
0.0
 10
89.96420005886354
 20
132.8489970603823
 30
0.0
 10
90.01785518136765
 20
132.5681192075124
 30
0.0
 10
90.03109416780001
 20
132.2845029026
 30
0.0
 11
89.9085873929
 21
133.1274224733
 31
0.0
 11
90.03109416780001
 21
132.2845029026
 31
0.0
  0
SPLINE
  5
C87
330
1B
100
AcDbEntity
  8
0
  6
Continuous
100
AcDbSpline
210
0.0
220
0.0
230
1.0
 70
     8
 71
     3
 72
     9
 73
     5
 74
     3
 42
0.0000000001
 43
0.0000000001
 44
0.0000000001
 12
0.1921399579244556
 22
-0.9813675338876809
 32
0.0
 13
-0.0478962997937078
 23
-0.9988523136410464
 33
0.0
 40
0.0
 40
0.0
 40
0.0
 40
0.0
 40
0.282737741046504
 40
0.5654841984868791
 40
0.5654841984868791
 40
0.5654841984868791
 40
0.5654841984868791
 10
90.03109416780001
 20
132.2845029026
 30
0.0
 10
90.04920257368946
 20
132.1920130227107
 30
0.0
 10
90.09345773838595
 20
132.0100274622754
 30
0.0
 10
90.13923930119705
 20
131.8231811083627
 30
0.0
 10
90.13472513149999
 20
131.7290404573
 30
0.0
 11
90.03109416780001
 21
132.2845029026
 31
0.0
 11
90.093838644
 21
132.0088151065
 31
0.0
 11
90.13472513149999
 21
131.7290404573
 31
0.0
  0
SPLINE
  5
C88
330
1B
100
AcDbEntity
  8
0
  6
Continuous
100
AcDbSpline
210
0.0
220
0.0
230
1.0
 70
     8
 71
     3
 72
    11
 73
     7
 74
     5
 42
0.0000000001
 43
0.0000000001
 44
0.0000000001
 12
-0.0102761371944176
 22
-0.9999471991082136
 32
0.0
 13
-0.7745534893744741
 23
-0.6325084126696073
 33
0.0
 40
0.0
 40
0.0
 40
0.0
 40
0.0
 40
0.1415759635991474
 40
0.2831126858817039
 40
0.4271953338415866
 40
0.5711459558424215
 40
0.5711459558424215
 40
0.5711459558424215
 40
0.5711459558424215
 10
90.13472513149999
 20
131.7290404573
 30
0.0
 10
90.1342401801582
 20
131.6818509612127
 30
0.0
 10
90.11310928193254
 20
131.5872207751812
 30
0.0
 10
90.03991303357786
 20
131.4634258832345
 30
0.0
 10
89.94216796121538
 20
131.357888289301
 30
0.0
 10
89.86906197865612
 20
131.2955350890415
 30
0.0
 10
89.8318961598
 20
131.2651850959
 30
0.0
 11
90.13472513149999
 21
131.7290404573
 31
0.0
 11
90.10625994879999
 21
131.5903556101
 31
0.0
 11
90.0364075071
 21
131.4672569499
 31
0.0
 11
89.9402445823
 21
131.359960625
 31
0.0
 11
89.8318961598
 21
131.2651850959
 31
0.0
  0
SPLINE
  5
C89
330
1B
100
AcDbEntity
  8
0
  6
Continuous
100
AcDbSpline
210
0.0
220
0.0
230
1.0
 70
     8
 71
     3
 72
    14
 73
    10
 74
     8
 42
0.0000000001
 43
0.0000000001
 44
0.0000000001
 12
-0.7748696790030867
 22
-0.6321210173389692
 32
0.0
 13
-0.8173417174979881
 23
-0.5761532060463077
 33
0.0
 40
0.0
 40
0.0
 40
0.0
 40
0.0
 40
0.3545970613534118
 40
0.5318747382154231
 40
0.7092315255133916
 40
0.8869329023020394
 40
1.065302008265318
 40
1.242960497988323
 40
1.419472854793044
 40
1.419472854793044
 40
1.419472854793044
 40
1.419472854793044
 10
89.8318961598
 20
131.2651850959
 30
0.0
 10
89.74030732276455
 20
131.1904690108439
 30
0.0
 10
89.60193415566
 20
131.0793865957717
 30
0.0
 10
89.40725470985333
 20
130.9450368830607
 30
0.0
 10
89.25490243805155
 20
130.8537580093
 30
0.0
 10
89.09514225101198
 20
130.7751599614632
 30
0.0
 10
88.92974496313443
 20
130.7094829743766
 30
0.0
 10
88.76615442667364
 20
130.6405451312834
 30
0.0
 10
88.66263463779016
 20
130.5824876486599
 30
0.0
 10
88.61454433350004
 20
130.5485882619
 30
0.0
 11
89.8318961598
 21
131.2651850959
 31
0.0
 11
89.55241427030001
 21
131.0469445191
 31
0.0
 11
89.40623938020001
 21
130.9466435908
 31
0.0
 11
89.25382261900002
 21
130.8559542259
 31
0.0
 11
89.09442059120001
 21
130.7774126901
 31
0.0
 11
88.92976610099998
 21
130.7088237929
 31
0.0
 11
88.76713032030003
 21
130.6373245495
 31
0.0
 11
88.61454433350004
 21
130.5485882619
 31
0.0
  0
SPLINE
  5
C8A
330
1B
100
AcDbEntity
  8
0
  6
Continuous
100
AcDbSpline
210
0.0
220
0.0
230
1.0
 70
     8
 71
     3
 72
     9
 73
     5
 74
     3
 42
0.0000000001
 43
0.0000000001
 44
0.0000000001
 12
-0.8312952047904136
 22
-0.5558311636571527
 32
0.0
 13
-0.1833657814133698
 23
-0.9830447549357376
 33
0.0
 40
0.0
 40
0.0
 40
0.0
 40
0.0
 40
0.2739200602508245
 40
0.5481647531508866
 40
0.5481647531508866
 40
0.5481647531508866
 40
0.5481647531508866
 10
88.61454433350004
 20
130.5485882619
 30
0.0
 10
88.53864152263922
 20
130.4978371599539
 30
0.0
 10
88.40814665732192
 20
130.3593290760878
 30
0.0
 10
88.35016150903736
 20
130.1814173679415
 30
0.0
 10
88.3333991449
 20
130.0915524323
 30
0.0
 11
88.61454433350004
 21
130.5485882619
 31
0.0
 11
88.42632990350002
 21
130.3495718612
 31
0.0
 11
88.3333991449
 21
130.0915524323
 31
0.0
  0
SPLINE
  5
C8B
330
1B
100
AcDbEntity
  8
0
  6
Continuous
100
AcDbSpline
210
0.0
220
0.0
230
1.0
 70
     8
 71
     3
 72
    22
 73
    18
 74
    16
 42
0.0000000001
 43
0.0000000001
 44
0.0000000001
 12
-0.2750992418379695
 22
-0.9614158346626991
 32
0.0
 13
-0.9007646780301996
 23
-0.4343074887831789
 33
0.0
 40
0.0
 40
0.0
 40
0.0
 40
0.0
 40
0.1762329192627128
 40
0.2650575639165206
 40
0.3532537588037716
 40
0.4420043531487761
 40
0.5323637155142461
 40
0.57632442778042
 40
0.6191887728913507
 40
0.7063884484598733
 40
0.7991883935935594
 40
0.8934200243670417
 40
0.9841358733128536
 40
1.072112112739345
 40
1.159305314329791
 40
1.24758866215159
 40
1.425050630063462
 40
1.425050630063462
 40
1.425050630063462
 40
1.425050630063462
 10
88.3333991449
 20
130.0915524323
 30
0.0
 10
88.31723863074132
 20
130.0350747259107
 30
0.0
 10
88.31988652009065
 20
129.9407731432338
 30
0.0
 10
88.3663056811578
 20
129.8321310509459
 30
0.0
 10
88.41378547206372
 20
129.7571124844464
 30
0.0
 10
88.4627660689076
 20
129.6827460529535
 30
0.0
 10
88.49380783320063
 20
129.6143415742517
 30
0.0
 10
88.50567798422711
 20
129.5561304327389
 30
0.0
 10
88.50437761546121
 20
129.4976031695343
 30
0.0
 10
88.47798938979206
 20
129.4262700267934
 30
0.0
 10
88.42474512098738
 20
129.3514405656431
 30
0.0
 10
88.36070888330181
 20
129.2843034315447
 30
0.0
 10
88.29166997075738
 20
129.2247983157517
 30
0.0
 10
88.21758471149265
 20
129.1756621714573
 30
0.0
 10
88.13782109704181
 20
129.1380430806496
 30
0.0
 10
88.02551824004465
 20
129.1030179352462
 30
0.0
 10
87.93944144152958
 20
129.0794440309461
 30
0.0
 10
87.8861576174
 20
129.0537530104
 30
0.0
 11
88.3333991449
 21
130.0915524323
 31
0.0
 11
88.3349864501
 21
129.9153266615
 31
0.0
 11
88.36849394419997
 21
129.8330644871
 31
0.0
 11
88.4138881551
 21
129.7574474625
 31
0.0
 11
88.46053273600001
 21
129.6819428198
 31
0.0
 11
88.49587796809998
 21
129.5987831605
 31
0.0
 11
88.5040939866
 21
129.555597037
 31
0.0
 11
88.50314180940001
 21
129.5127432689
 31
0.0
 11
88.4754524226
 21
129.4300566238
 31
0.0
 11
88.42334718549999
 21
129.353265517
 31
0.0
 11
88.3588226115
 21
129.2845910706
 31
0.0
 11
88.2897945064
 21
129.2257311865
 31
0.0
 11
88.2163005147
 21
129.1773736443
 31
0.0
 11
88.1374825768
 21
129.1400857499
 31
0.0
 11
88.05372676330001
 21
129.1121767333
 31
0.0
 11
87.8861576174
 21
129.0537530104
 31
0.0
  0
SPLINE
  5
C8C
330
1B
100
AcDbEntity
  8
0
  6
Continuous
100
AcDbSpline
210
0.0
220
0.0
230
1.0
 70
     8
 71
     3
 72
     9
 73
     5
 74
     3
 42
0.0000000001
 43
0.0000000001
 44
0.0000000001
 12
-0.912979194300404
 22
-0.4080061160994837
 32
0.0
 13
-0.5265045773665565
 23
-0.8501722943098439
 33
0.0
 40
0.0
 40
0.0
 40
0.0
 40
0.0
 40
0.2701994877947124
 40
0.5264282761355204
 40
0.5264282761355204
 40
0.5264282761355204
 40
0.5264282761355204
 10
87.8861576174
 20
129.0537530104
 30
0.0
 10
87.80392878051093
 20
129.0170053292043
 30
0.0
 10
87.68192395641441
 20
128.8751022736294
 30
0.0
 10
87.60069513910484
 20
128.722569238284
 30
0.0
 10
87.5557265958
 20
128.649956366
 30
0.0
 11
87.8861576174
 21
129.0537530104
 31
0.0
 11
87.68942836379999
 21
128.8685359378
 31
0.0
 11
87.5557265958
 21
128.649956366
 31
0.0
  0
SPLINE
  5
C8D
330
1B
100
AcDbEntity
  8
0
  6
Continuous
100
AcDbSpline
210
0.0
220
0.0
230
1.0
 70
     8
 71
     3
 72
    10
 73
     6
 74
     4
 42
0.0000000001
 43
0.0000000001
 44
0.0000000001
 12
-0.5265045774173454
 22
-0.8501722942783908
 32
0.0
 13
-0.3803891420870091
 23
-0.9248265245884274
 33
0.0
 40
0.0
 40
0.0
 40
0.0
 40
0.0
 40
0.0138581530006767
 40
0.1012392362400663
 40
0.119955491119014
 40
0.119955491119014
 40
0.119955491119014
 40
0.119955491119014
 10
87.5556121804
 20
128.6500272225
 30
0.0
 10
87.55318005340354
 20
128.646099949923
 30
0.0
 10
87.53558123344214
 20
128.6173113582153
 30
0.0
 10
87.51633365032348
 20
128.5821180079012
 30
0.0
 10
87.5022534382788
 20
128.5496685185843
 30
0.0
 10
87.49988028489997
 20
128.5438987556
 30
0.0
 11
87.5556121804
 21
128.6500272225
 31
0.0
 11
87.54838739509997
 21
128.638201366
 31
0.0
 11
87.50731272589999
 21
128.5610759794
 31
0.0
 11
87.49988028489997
 21
128.5438987556
 31
0.0
  0
SPLINE
  5
C8E
330
1B
100
AcDbEntity
  8
0
  6
Continuous
100
AcDbSpline
210
0.0
220
0.0
230
1.0
 70
     8
 71
     3
 72
    20
 73
    16
 74
    14
 42
0.0000000001
 43
0.0000000001
 44
0.0000000001
 12
-0.3803891422527947
 22
-0.9248265245202384
 32
0.0
 13
0.9554593948021314
 23
0.2951225929750972
 33
0.0
 40
0.0
 40
0.0
 40
0.0
 40
0.0
 40
0.0694411969579705
 40
0.1525977437640652
 40
0.2354742659815393
 40
0.3204275391541187
 40
0.4040848891001314
 40
0.488231140493327
 40
0.5725478865502193
 40
0.6562774822218213
 40
0.7400206702963896
 40
0.907665892545942
 40
0.9914154499814289
 40
1.075254612779844
 40
1.243044855579514
 40
1.243044855579514
 40
1.243044855579514
 40
1.243044855579514
 10
87.49988028489997
 20
128.5438987556
 30
0.0
 10
87.4910753924507
 20
128.5224917353196
 30
0.0
 10
87.47508702082047
 20
128.4741251362263
 30
0.0
 10
87.46923764975895
 20
128.3934035268109
 30
0.0
 10
87.50593878320026
 20
128.3148069735346
 30
0.0
 10
87.56720317041788
 20
128.2555806177711
 30
0.0
 10
87.64472366824165
 20
128.2186193590314
 30
0.0
 10
87.72936812085715
 20
128.2090173552251
 30
0.0
 10
87.81332197338786
 20
128.2177129889125
 30
0.0
 10
87.89519032415599
 20
128.2363168526185
 30
0.0
 10
88.00515981845608
 20
128.2563729214187
 30
0.0
 10
88.1165676033737
 20
128.2658889871558
 30
0.0
 10
88.22747106530207
 20
128.2798965132179
 30
0.0
 10
88.33720688316606
 20
128.3016460627715
 30
0.0
 10
88.41816284162032
 20
128.3240033123897
 30
0.0
 10
88.47160176290001
 20
128.3405095429
 30
0.0
 11
87.49988028489997
 21
128.5438987556
 31
0.0
 11
87.4790499455
 21
128.4776554405
 31
0.0
 11
87.47635541930001
 21
128.3945425606
 31
0.0
 11
87.50962046309998
 21
128.3186350195
 31
0.0
 11
87.5702193777
 21
128.2590965431
 31
0.0
 11
87.64578449129999
 21
128.2232013371999
 31
0.0
 11
87.72919174250002
 21
128.2120738006
 31
0.0
 11
87.8131895719
 21
128.2194003497
 31
0.0
 11
87.8953117226
 21
128.2357281651
 31
0.0
 11
87.97774641309997
 21
128.2504741256
 31
0.0
 11
88.14427768159997
 21
128.2697680924
 31
0.0
 11
88.22728972280001
 21
128.2808581504
 31
0.0
 11
88.30958526519999
 21
128.296872173
 31
0.0
 11
88.47160176290001
 21
128.3405095429
 31
0.0
  0
SPLINE
  5
C8F
330
1B
100
AcDbEntity
  8
0
  6
Continuous
100
AcDbSpline
210
0.0
220
0.0
230
1.0
 70
     8
 71
     3
 72
     8
 73
     4
 74
     2
 42
0.0000000001
 43
0.0000000001
 44
0.0000000001
 12
0.9611456941487375
 22
0.276041581323071
 32
0.0
 13
0.9934901101614833
 23
0.1139183962813905
 33
0.0
 40
0.0
 40
0.0
 40
0.0
 40
0.0
 40
0.283847035777561
 40
0.283847035777561
 40
0.283847035777561
 40
0.283847035777561
 10
88.47160176290001
 20
128.3405095429
 30
0.0
 10
88.56254121497817
 20
128.3666274044367
 30
0.0
 10
88.65595123845209
 20
128.3853265205317
 30
0.0
 10
88.74995097939998
 20
128.3961049869
 30
0.0
 11
88.47160176290001
 21
128.3405095429
 31
0.0
 11
88.74995097939998
 21
128.3961049869
 31
0.0
  0
SPLINE
  5
C90
330
1B
100
AcDbEntity
  8
0
  6
Continuous
100
AcDbSpline
210
0.0
220
0.0
230
1.0
 70
     8
 71
     3
 72
    14
 73
    10
 74
     8
 42
0.0000000001
 43
0.0000000001
 44
0.0000000001
 12
0.9795453762073381
 22
0.2012233981196637
 32
0.0
 13
0.9203245967817963
 23
-0.3911555145443101
 33
0.0
 40
0.0
 40
0.0
 40
0.0
 40
0.0
 40
0.3144510767643068
 40
0.4718072955866122
 40
0.6286259118893217
 40
0.7855900831569379
 40
0.9449593547780251
 40
1.104148807710427
 40
1.260628401084429
 40
1.260628401084429
 40
1.260628401084429
 40
1.260628401084429
 10
88.74995097939998
 20
128.3961049869
 30
0.0
 10
88.85262401216262
 20
128.4171966249697
 30
0.0
 10
89.00872818589303
 20
128.4396841386013
 30
0.0
 10
89.21782563656646
 20
128.453322993024
 30
0.0
 10
89.37462148813462
 20
128.4622346597917
 30
0.0
 10
89.53207022114208
 20
128.4713368511994
 30
0.0
 10
89.69048887389535
 20
128.4777369815913
 30
0.0
 10
89.84903953626261
 20
128.4713210673118
 30
0.0
 10
89.95260834687447
 20
128.4456544151206
 30
0.0
 10
90.00061235309997
 20
128.4252517965
 30
0.0
 11
88.74995097939998
 21
128.3961049869
 31
0.0
 11
89.0610745207
 21
128.4417297798
 31
0.0
 11
89.2180182868
 21
128.4531154675
 31
0.0
 11
89.3745702204
 21
128.462257158
 31
0.0
 11
89.5312995301
 21
128.4708405456
 31
0.0
 11
89.69059803109997
 21
128.4755894735
 31
0.0
 11
89.8494887392
 21
128.4658414068
 31
0.0
 11
90.00061235309997
 21
128.4252517965
 31
0.0
  0
SPLINE
  5
C91
330
1B
100
AcDbEntity
  8
0
  6
Continuous
100
AcDbSpline
210
0.0
220
0.0
230
1.0
 70
     8
 71
     3
 72
     8
 73
     4
 74
     2
 42
0.0000000001
 43
0.0000000001
 44
0.0000000001
 12
0.9203245959178479
 22
-0.3911555165770389
 32
0.0
 13
0.9046675976265159
 23
-0.4261179857793712
 33
0.0
 40
0.0
 40
0.0
 40
0.0
 40
0.0
 40
0.0182401666771448
 40
0.0182401666771448
 40
0.0182401666771448
 40
0.0182401666771448
 10
90.00061235309997
 20
128.4252517965
 30
0.0
 10
90.0062079777755
 20
128.422873549227
 30
0.0
 10
90.01176015764396
 20
128.4203901017282
 30
0.0
 10
90.01726058690001
 20
128.4177992807
 30
0.0
 11
90.00061235309997
 21
128.4252517965
 31
0.0
 11
90.01726058690001
 21
128.4177992807
 31
0.0
  0
SPLINE
  5
C92
330
1B
100
AcDbEntity
  8
0
  6
Continuous
100
AcDbSpline
210
0.0
220
0.0
230
1.0
 70
     8
 71
     3
 72
     8
 73
     4
 74
     2
 42
0.0000000001
 43
0.0000000001
 44
0.0000000001
 12
0.9060386316881242
 22
-0.4231949880240925
 32
0.0
 13
0.8568284912858704
 23
-0.5156015288192802
 33
0.0
 40
0.0
 40
0.0
 40
0.0
 40
0.0
 40
0.0620510880102561
 40
0.0620510880102561
 40
0.0620510880102561
 40
0.0620510880102561
 10
90.01726058690001
 20
128.4177992807
 30
0.0
 10
90.0360008145252
 20
128.4090460442176
 30
0.0
 10
90.05428882035919
 20
128.399262664281
 30
0.0
 10
90.07201120040001
 20
128.388598119
 30
0.0
 11
90.01726058690001
 21
128.4177992807
 31
0.0
 11
90.07201120040001
 21
128.388598119
 31
0.0
  0
SPLINE
  5
C93
330
1B
100
AcDbEntity
  8
0
  6
Continuous
100
AcDbSpline
210
0.0
220
0.0
230
1.0
 70
     8
 71
     3
 72
    14
 73
    10
 74
     8
 42
0.0000000001
 43
0.0000000001
 44
0.0000000001
 12
0.8568284912245847
 22
-0.5156015289211253
 32
0.0
 13
-0.1533472979896709
 23
-0.9881723565245423
 33
0.0
 40
0.0
 40
0.0
 40
0.0
 40
0.0
 40
0.203776409532329
 40
0.4864283731274895
 40
0.7690931538299279
 40
1.0517297718748
 40
1.333617227331757
 40
1.61770143978783
 40
2.183008393347108
 40
2.183008393347108
 40
2.183008393347108
 40
2.183008393347108
 10
90.07201120040001
 20
128.388598119
 30
0.0
 10
90.13021167824226
 20
128.3535756428957
 30
0.0
 10
90.2561615189781
 20
128.2466283112807
 30
0.0
 10
90.38611198795417
 20
128.0196795252987
 30
0.0
 10
90.45626009699279
 20
127.7440066911548
 30
0.0
 10
90.47465657676329
 20
127.4599538893406
 30
0.0
 10
90.42735167003202
 20
127.179479569842
 30
0.0
 10
90.33078513710048
 20
126.8152100621093
 30
0.0
 10
90.27579610765436
 20
126.5369011427861
 30
0.0
 10
90.2469000097
 20
126.3506942413
 30
0.0
 11
90.07201120040001
 21
128.388598119
 31
0.0
 11
90.22805867790001
 21
128.2575484725
 31
0.0
 11
90.37392222210001
 21
128.015441143
 31
0.0
 11
90.4476390758
 21
127.742558011
 31
0.0
 11
90.4637119665
 21
127.4603787771
 31
0.0
 11
90.42331607959999
 21
127.1814008033
 31
0.0
 11
90.356749752
 21
126.9052255622
 31
0.0
 11
90.2469000097
 21
126.3506942413
 31
0.0
  0
SPLINE
  5
C94
330
1B
100
AcDbEntity
  8
0
  6
Continuous
100
AcDbSpline
210
0.0
220
0.0
230
1.0
 70
     8
 71
     3
 72
    22
 73
    18
 74
    16
 42
0.0000000001
 43
0.0000000001
 44
0.0000000001
 12
-0.2211404622947483
 22
-0.9752419678910794
 32
0.0
 13
0.9843143193489614
 23
-0.1764236966073177
 33
0.0
 40
0.0
 40
0.0
 40
0.0
 40
0.0
 40
0.2115055280563185
 40
0.3178775949425605
 40
0.4247928417629012
 40
0.5308056986697016
 40
0.6364637129561919
 40
0.7431178350637288
 40
0.8499276293152479
 40
0.9559004353486591
 40
1.061890871522095
 40
1.168164488792532
 40
1.274376010146272
 40
1.380246286292108
 40
1.485972922125721
 40
1.697830686116242
 40
1.701487461890027
 40
1.701487461890027
 40
1.701487461890027
 40
1.701487461890027
 10
89.88605161829997
 20
124.6868628797
 30
0.0
 10
89.87046080821588
 20
124.6181065238995
 30
0.0
 10
89.84862949783131
 20
124.5142151080599
 30
0.0
 10
89.83419845754503
 20
124.373187158848
 30
0.0
 10
89.833780347992
 20
124.2665339897492
 30
0.0
 10
89.84880535528693
 20
124.1607892361226
 30
0.0
 10
89.88589358895763
 20
124.0604930186399
 30
0.0
 10
89.94177826641419
 20
123.969367779201
 30
0.0
 10
90.01064994079917
 20
123.8877301657297
 30
0.0
 10
90.08904433902379
 20
123.8156679451288
 30
0.0
 10
90.1737217551732
 20
123.7516096281818
 30
0.0
 10
90.26200951850092
 20
123.6925994199904
 30
0.0
 10
90.35283505014425
 20
123.6376216085678
 30
0.0
 10
90.44723937643045
 20
123.5892659898571
 30
0.0
 10
90.57869315084599
 20
123.5372145193312
 30
0.0
 10
90.68350801018687
 20
123.5127002153977
 30
0.0
 10
90.7542060094144
 20
123.4999655201999
 30
0.0
 10
90.755405815
 20
123.4997504729
 30
0.0
 11
89.88605161829997
 21
124.6868628797
 31
0.0
 11
89.8462933018
 21
124.4791277968
 31
0.0
 11
89.83594967470002
 21
124.3732598319
 31
0.0
 11
89.83638129110001
 21
124.2663454563
 31
0.0
 11
89.85250419889998
 21
124.1615657938
 31
0.0
 11
89.8888592892
 21
124.0623593253
 31
0.0
 11
89.94390828909997
 21
123.9710099445
 31
0.0
 11
90.01245610819998
 21
123.889098232
 31
0.0
 11
90.0901079909
 21
123.8169842893
 31
0.0
 11
90.17423582030001
 21
123.7525135139
 31
0.0
 11
90.2624559978
 21
123.6932574424
 31
0.0
 11
90.35355750269999
 21
123.6386552165
 31
0.0
 11
90.4479910014
 21
123.5907926038
 31
0.0
 11
90.54630452719999
 21
123.551900803
 31
0.0
 11
90.75180696060001
 21
123.5003987445
 31
0.0
 11
90.755405815
 21
123.4997504729
 31
0.0
  0
SPLINE
  5
C95
330
1B
100
AcDbEntity
  8
0
  6
Continuous
100
AcDbSpline
210
0.0
220
0.0
230
1.0
 70
     8
 71
     3
 72
    10
 73
     6
 74
     4
 42
0.0000000001
 43
0.0000000001
 44
0.0000000001
 12
0.9838592944761414
 22
-0.1789438142907138
 32
0.0
 13
0.8055988807202149
 23
-0.592461343365402
 33
0.0
 40
0.0
 40
0.0
 40
0.0
 40
0.0
 40
0.0675578817905945
 40
0.1391419820686876
 40
0.2820697913598195
 40
0.2820697913598195
 40
0.2820697913598195
 40
0.2820697913598195
 10
90.755405815
 20
123.4997504729
 30
0.0
 10
90.77756163163826
 20
123.495720784549
 30
0.0
 10
90.82300426576761
 20
123.4859585700558
 30
0.0
 10
90.91193511273309
 20
123.4549036181437
 30
0.0
 10
90.9750355167704
 20
123.4194262371323
 30
0.0
 10
91.01341634449999
 20
123.3911998365
 30
0.0
 11
90.755405815
 21
123.4997504729
 31
0.0
 11
90.82131827709998
 21
123.484931069
 31
0.0
 11
90.8889373441
 21
123.4614375552
 31
0.0
 11
91.01341634449999
 21
123.3911998365
 31
0.0
  0
SPLINE
  5
C96
330
1B
100
AcDbEntity
  8
0
  6
Continuous
100
AcDbSpline
210
0.0
220
0.0
230
1.0
 70
     8
 71
     3
 72
    13
 73
     9
 74
     7
 42
0.0000000001
 43
0.0000000001
 44
0.0000000001
 12
0.8107051085940582
 22
-0.5854547180606681
 32
0.0
 13
-0.313173182288343
 23
-0.9496960344738692
 33
0.0
 40
0.0
 40
0.0
 40
0.0
 40
0.0
 40
0.0581219004084509
 40
0.1173560145016107
 40
0.1490530029646581
 40
0.1816652085231133
 40
0.2122447568008207
 40
0.2407676198486396
 40
0.2407676198486396
 40
0.2407676198486396
 40
0.2407676198486396
 10
91.01341634449999
 20
123.3911998365
 30
0.0
 10
91.02912291836076
 20
123.3798572562277
 30
0.0
 10
91.06001564957782
 20
123.3557344738567
 30
0.0
 10
91.09521028829127
 20
123.3204589134815
 30
0.0
 10
91.12144764711967
 20
123.288690500757
 30
0.0
 10
91.13974293724608
 20
123.262827820893
 30
0.0
 10
91.15255594863743
 20
123.2346315955658
 30
0.0
 10
91.15241251622955
 20
123.2138230505761
 30
0.0
 10
91.14943498429999
 20
123.2047937006
 30
0.0
 11
91.01341634449999
 21
123.3911998365
 31
0.0
 11
91.05894227070002
 21
123.3550675054
 31
0.0
 11
91.10079606120002
 21
123.3131516314
 31
0.0
 11
91.1209476009
 21
123.2886850312
 31
0.0
 11
91.13924110049997
 21
123.2616868123
 31
0.0
 11
91.15059448770001
 21
123.233292986
 31
0.0
 11
91.14943498429999
 21
123.2047937006
 31
0.0
  0
SPLINE
  5
C97
330
1B
100
AcDbEntity
  8
0
  6
Continuous
100
AcDbSpline
210
0.0
220
0.0
230
1.0
 70
     8
 71
     3
 72
    13
 73
     9
 74
     7
 42
0.0000000001
 43
0.0000000001
 44
0.0000000001
 12
-0.2094354823025655
 22
-0.9778224679115796
 32
0.0
 13
-0.9918080753005079
 23
0.1277370023474094
 33
0.0
 40
0.0
 40
0.0
 40
0.0
 40
0.0
 40
0.0318727658464217
 40
0.0684070987339275
 40
0.1085067759784801
 40
0.1461815885548653
 40
0.214171180561858
 40
0.2805865680711132
 40
0.2805865680711132
 40
0.2805865680711132
 40
0.2805865680711132
 10
91.14943498429999
 20
123.2047937006
 30
0.0
 10
91.14720988827087
 20
123.1944050650803
 30
0.0
 10
91.13170876305713
 20
123.174473194727
 30
0.0
 10
91.09676750786886
 20
123.1627202370204
 30
0.0
 10
91.05916155584848
 20
123.1568368904744
 30
0.0
 10
91.01065082168529
 20
123.1530669767537
 30
0.0
 10
90.9531612557022
 20
123.1548032393564
 30
0.0
 10
90.9087147169853
 20
123.1605902134633
 30
0.0
 10
90.88675761110001
 20
123.1634181143
 30
0.0
 11
91.14943498429999
 21
123.2047937006
 31
0.0
 11
91.1313480835
 21
123.1785498970999
 31
0.0
 11
91.0977942801
 21
123.1640965322
 31
0.0
 11
91.05828488350001
 21
123.1572414833
 31
0.0
 11
91.02072243069999
 21
123.1543339685
 31
0.0
 11
90.9527521168
 21
123.1559529341
 31
0.0
 11
90.88675761110001
 21
123.1634181143
 31
0.0
  0
SPLINE
  5
C98
330
1B
100
AcDbEntity
  8
0
  6
Continuous
100
AcDbSpline
210
0.0
220
0.0
230
1.0
 70
     8
 71
     3
 72
     9
 73
     5
 74
     3
 42
0.0000000001
 43
0.0000000001
 44
0.0000000001
 12
-0.9922009802536711
 22
0.1246483645446429
 32
0.0
 13
-0.9801671717553643
 23
0.1981724385808739
 33
0.0
 40
0.0
 40
0.0
 40
0.0
 40
0.0
 40
0.1419308805543618
 40
0.2838955956446198
 40
0.2838955956446198
 40
0.2838955956446198
 40
0.2838955956446198
 10
90.88675761110001
 20
123.1634181143
 30
0.0
 10
90.83981629149524
 20
123.1693152650132
 30
0.0
 10
90.74624044280614
 20
123.1838293886862
 30
0.0
 10
90.65356745799303
 20
123.2030357931394
 30
0.0
 10
90.6071844069
 20
123.2124136244
 30
0.0
 11
90.88675761110001
 21
123.1634181143
 31
0.0
 11
90.74647725730002
 21
123.1850004495
 31
0.0
 11
90.6071844069
 21
123.2124136244
 31
0.0
  0
SPLINE
  5
C99
330
1B
100
AcDbEntity
  8
0
  6
Continuous
100
AcDbSpline
210
0.0
220
0.0
230
1.0
 70
     8
 71
     3
 72
     9
 73
     5
 74
     3
 42
0.0000000001
 43
0.0000000001
 44
0.0000000001
 12
-0.978504521473244
 22
0.2062253656959246
 32
0.0
 13
-0.9939231532849007
 23
0.1100761798219763
 33
0.0
 40
0.0
 40
0.0
 40
0.0
 40
0.0
 40
0.2839178325143638
 40
0.567832522013852
 40
0.567832522013852
 40
0.567832522013852
 40
0.567832522013852
 10
90.6071844069
 20
123.2124136244
 30
0.0
 10
90.51457944595261
 20
123.2319306440126
 30
0.0
 10
90.32894235553599
 20
123.2688151539594
 30
0.0
 10
90.14190912811706
 20
123.2990272392949
 30
0.0
 10
90.04784600029998
 20
123.3094446541
 30
0.0
 11
90.6071844069
 21
123.2124136244
 31
0.0
 11
90.3285922899
 21
123.2671472335
 31
0.0
 11
90.04784600029998
 21
123.3094446541
 31
0.0
  0
SPLINE
  5
C9A
330
1B
100
AcDbEntity
  8
0
  6
Continuous
100
AcDbSpline
210
0.0
220
0.0
230
1.0
 70
     8
 71
     3
 72
     9
 73
     5
 74
     3
 42
0.0000000001
 43
0.0000000001
 44
0.0000000001
 12
-0.9948163635998273
 22
0.1016877707200636
 32
0.0
 13
-0.9804600510004126
 23
-0.1967182970449582
 33
0.0
 40
0.0
 40
0.0
 40
0.0
 40
0.0
 40
0.282663433954887
 40
0.565341269593205
 40
0.565341269593205
 40
0.565341269593205
 40
0.565341269593205
 10
90.04784600029998
 20
123.3094446541
 30
0.0
 10
89.95411326380344
 20
123.3190257922543
 30
0.0
 10
89.76331533808671
 20
123.328156397945
 30
0.0
 10
89.5800763769489
 20
123.2781451198797
 30
0.0
 10
89.48769160190003
 20
123.2596091524
 30
0.0
 11
90.04784600029998
 21
123.3094446541
 31
0.0
 11
89.7652098434
 21
123.3133714477
 31
0.0
 11
89.48769160190003
 21
123.2596091524
 31
0.0
  0
SPLINE
  5
C9B
330
1B
100
AcDbEntity
  8
0
  6
Continuous
100
AcDbSpline
210
0.0
220
0.0
230
1.0
 70
     8
 71
     3
 72
    23
 73
    19
 74
    17
 42
0.0000000001
 43
0.0000000001
 44
0.0000000001
 12
-0.9796538453748346
 22
-0.200694651753104
 32
0.0
 13
-0.2297276900938531
 23
0.9732549452246018
 33
0.0
 40
0.0
 40
0.0
 40
0.0
 40
0.0
 40
0.1101668910151177
 40
0.2195117905364218
 40
0.2725990608330229
 40
0.3257932594111697
 40
0.3798834321813037
 40
0.4342792521487998
 40
0.541624250116337
 40
0.6483929807512326
 40
0.8621546242679647
 40
0.968685430718941
 40
1.075612615334111
 40
1.182640733664489
 40
1.289633790646598
 40
1.396327220041312
 40
1.503086161170283
 40
1.717202150676851
 40
1.717202150676851
 40
1.717202150676851
 40
1.717202150676851
 10
89.48769160190003
 20
123.2596091524
 30
0.0
 10
89.45171646242804
 20
123.252239183791
 30
0.0
 10
89.37910385738221
 20
123.2417114150772
 30
0.0
 10
89.28696654337298
 20
123.2474465132877
 30
0.0
 10
89.2187428733331
 20
123.2718947220861
 30
0.0
 10
89.1739009723722
 20
123.3019574379368
 30
0.0
 10
89.13657269548351
 20
123.3413471537107
 30
0.0
 10
89.09763440720164
 20
123.4022824993829
 30
0.0
 10
89.07105520072237
 20
123.4897676730683
 30
0.0
 10
89.07324577746127
 20
123.6340609460669
 30
0.0
 10
89.11866326700186
 20
123.7703765497803
 30
0.0
 10
89.14124868739205
 20
123.9111054029379
 30
0.0
 10
89.15266867329251
 20
124.0173182667765
 30
0.0
 10
89.16716309434564
 20
124.123368115695
 30
0.0
 10
89.18755368037624
 20
124.2283077598435
 30
0.0
 10
89.20469628107638
 20
124.3338485628517
 30
0.0
 10
89.21148867595673
 20
124.4765373278576
 30
0.0
 10
89.19653080139385
 20
124.5835960692537
 30
0.0
 10
89.18013467750001
 20
124.6530592178
 30
0.0
 11
89.48769160190003
 21
123.2596091524
 31
0.0
 11
89.3784336234
 21
123.2454869001
 31
0.0
 11
89.2695414982
 21
123.2554273287
 31
0.0
 11
89.21975213610003
 21
123.2738468208
 31
0.0
 11
89.17543688669998
 21
123.3032709849
 31
0.0
 11
89.1380042806
 21
123.3423164301
 31
0.0
 11
89.10867658540001
 21
123.3881289996
 31
0.0
 11
89.076600911
 21
123.4905697127
 31
0.0
 11
89.07629819630002
 21
123.5973380142
 31
0.0
 11
89.1224371
 21
123.806060897
 31
0.0
 11
89.14031152819997
 21
123.9110814547
 31
0.0
 11
89.15317423209999
 21
124.0172321667
 31
0.0
 11
89.16815042779999
 21
124.1232073132
 31
0.0
 11
89.18703259850001
 21
124.2285210249
 31
0.0
 11
89.2026870191
 21
124.3340597713
 31
0.0
 11
89.20756312079998
 21
124.4407072989
 31
0.0
 11
89.18013467750001
 21
124.6530592178
 31
0.0
  0
SPLINE
  5
C9C
330
1B
100
AcDbEntity
  8
0
  6
Continuous
100
AcDbSpline
210
0.0
220
0.0
230
1.0
 70
     8
 71
     3
 72
    10
 73
     6
 74
     4
 42
0.0000000001
 43
0.0000000001
 44
0.0000000001
 12
-0.3743859705132326
 22
0.9272729614751338
 32
0.0
 13
0.5702189022908204
 23
0.8214927896641892
 33
0.0
 40
0.0
 40
0.0
 40
0.0
 40
0.0
 40
1.015492515809259
 40
1.711415474034644
 40
2.021018890398647
 40
2.021018890398647
 40
2.021018890398647
 40
2.021018890398647
 10
89.18013467750001
 20
124.6530592178
 30
0.0
 10
89.05340596047329
 20
124.9669388019634
 30
0.0
 10
88.91891722539863
 20
125.5361245028997
 30
0.0
 10
89.01284468439906
 20
126.2216503445285
 30
0.0
 10
89.17135093682516
 20
126.5210326987005
 30
0.0
 10
89.23019817690002
 20
126.6058116901
 30
0.0
 11
89.18013467750001
 21
124.6530592178
 31
0.0
 11
88.96915931589999
 21
125.64639423
 31
0.0
 11
89.0843387863
 21
126.3327195562
 31
0.0
 11
89.23019817690002
 21
126.6058116901
 31
0.0
  0
SPLINE
  5
C9D
330
1B
100
AcDbEntity
  8
0
  6
Continuous
100
AcDbSpline
210
0.0
220
0.0
230
1.0
 70
     8
 71
     3
 72
    13
 73
     9
 74
     7
 42
0.0000000001
 43
0.0000000001
 44
0.0000000001
 12
0.5057194996774899
 22
0.8626979701181342
 32
0.0
 13
-0.731425741528184
 23
0.6819210985370275
 33
0.0
 40
0.0
 40
0.0
 40
0.0
 40
0.0
 40
0.0711652479597777
 40
0.1431712758874369
 40
0.1815198703563428
 40
0.2213460291033229
 40
0.2589401571655605
 40
0.2938851676235129
 40
0.2938851676235129
 40
0.2938851676235129
 40
0.2938851676235129
 10
89.23019817690002
 20
126.6058116901
 30
0.0
 10
89.24219472809756
 20
126.626276395086
 30
0.0
 10
89.26732137193964
 20
126.6668269258264
 30
0.0
 10
89.29369725418039
 20
126.7216518123676
 30
0.0
 10
89.30756995734822
 20
126.7698801625829
 30
0.0
 10
89.31345092354496
 20
126.8081532088222
 30
0.0
 10
89.31120752040904
 20
126.8460812179688
 30
0.0
 10
89.29890946829565
 20
126.8685257368601
 30
0.0
 10
89.2903895749
 20
126.8764689835
 30
0.0
 11
89.23019817690002
 21
126.6058116901
 31
0.0
 11
89.26610571259997
 21
126.6672538694
 31
0.0
 11
89.29610091329998
 21
126.7327149723
 31
0.0
 11
89.30665138130001
 21
126.7695836897
 31
0.0
 11
89.31211454499999
 21
126.8090333635
 31
0.0
 11
89.30824044899997
 21
126.8464273449
 31
0.0
 11
89.2903895749
 21
126.8764689835
 31
0.0
  0
SPLINE
  5
C9E
330
1B
100
AcDbEntity
  8
0
  6
Continuous
100
AcDbSpline
210
0.0
220
0.0
230
1.0
 70
     8
 71
     3
 72
    28
 73
    24
 74
    22
 42
0.0000000001
 43
0.0000000001
 44
0.0000000001
 12
-0.68861110227018
 22
0.7251308501437848
 32
0.0
 13
0.3510236392080533
 23
-0.9363665973950238
 33
0.0
 40
0.0
 40
0.0
 40
0.0
 40
0.0
 40
0.0875427520910337
 40
0.1752458497940485
 40
0.3501410331526263
 40
0.5251962312872125
 40
0.7002299656975658
 40
0.7878869425191624
 40
0.8755782091126388
 40
1.051050113521053
 40
1.226147679510181
 40
1.401316477634829
 40
1.575151249642317
 40
1.753339320435405
 40
1.843157752187307
 40
1.930425962999182
 40
2.016956868666898
 40
2.105150992242435
 40
2.192881256296924
 40
2.280682249950701
 40
2.456752610496433
 40
2.632466106020101
 40
2.807629741877869
 40
2.807629741877869
 40
2.807629741877869
 40
2.807629741877869
 10
89.2903895749
 20
126.8764689835
 30
0.0
 10
89.27029527122895
 20
126.8976289669159
 30
0.0
 10
89.21017648060584
 20
126.9171633395915
 30
0.0
 10
89.09470416634792
 20
126.9226254533073
 30
0.0
 10
88.94856812972607
 20
126.9000668084703
 30
0.0
 10
88.78260784895532
 20
126.8409650732079
 30
0.0
 10
88.65942263622759
 20
126.7617277353418
 30
0.0
 10
88.55831295836663
 20
126.703241988323
 30
0.0
 10
88.45231400137375
 20
126.6535245703437
 30
0.0
 10
88.31384266142531
 20
126.6055606364236
 30
0.0
 10
88.14253363465807
 20
126.5677569676478
 30
0.0
 10
87.96987941301657
 20
126.5401237359934
 30
0.0
 10
87.7945801792618
 20
126.5266068502702
 30
0.0
 10
87.64743368169695
 20
126.5188893066181
 30
0.0
 10
87.53006111600485
 20
126.5019647534387
 30
0.0
 10
87.44552106137459
 20
126.4752021574704
 30
0.0
 10
87.37207717436988
 20
126.4254032095957
 30
0.0
 10
87.31675715281085
 20
126.3561220332074
 30
0.0
 10
87.2804588916238
 20
126.2752760432789
 30
0.0
 10
87.25356993805509
 20
126.1607068526571
 30
0.0
 10
87.2523010680469
 20
126.0122240520543
 30
0.0
 10
87.29178587346843
 20
125.8400807385744
 30
0.0
 10
87.33317461666141
 20
125.7306014482318
 30
0.0
 10
87.35367014229998
 20
125.675928989
 30
0.0
 11
89.2903895749
 21
126.8764689835
 31
0.0
 11
89.21081162740001
 21
126.9129530035
 31
0.0
 11
89.1233383884
 21
126.9192985378
 31
0.0
 11
88.95017599090001
 21
126.894740255
 31
0.0
 11
88.7856398895
 21
126.8349724231
 31
0.0
 11
88.63399885290001
 21
126.7475550095
 31
0.0
 11
88.55772794139999
 21
126.7043520739
 31
0.0
 11
88.47843303709998
 21
126.6669077634
 31
0.0
 11
88.31285591229997
 21
126.6088164131
 31
0.0
 11
88.14224308959999
 21
126.5694410103
 31
0.0
 11
87.9691686279
 21
126.5424347417
 31
0.0
 11
87.79598350649997
 21
126.5274200261
 31
0.0
 11
87.6183189273
 21
126.5137713679
 31
0.0
 11
87.52965954280001
 21
126.4993885927
 31
0.0
 11
87.4470533606
 21
126.4712468216
 31
0.0
 11
87.3755238272
 21
126.4225526383
 31
0.0
 11
87.31989324369999
 21
126.3541169633
 31
0.0
 11
87.28315037919998
 21
126.2744516563
 31
0.0
 11
87.2624703024
 21
126.1891208359
 31
0.0
 11
87.25915768410002
 21
126.0130816402
 31
0.0
 11
87.2956131888
 21
125.8411914756
 31
0.0
 11
87.35367014229998
 21
125.675928989
 31
0.0
  0
SPLINE
  5
C9F
330
1B
100
AcDbEntity
  8
0
  6
Continuous
100
AcDbSpline
210
0.0
220
0.0
230
1.0
 70
     8
 71
     3
 72
     8
 73
     4
 74
     2
 42
0.0000000001
 43
0.0000000001
 44
0.0000000001
 12
0.3799761393027452
 22
-0.9249962884036783
 32
0.0
 13
0.1832031779269679
 23
-0.9830750711911374
 33
0.0
 40
0.0
 40
0.0
 40
0.0
 40
0.0
 40
0.7429424464575987
 40
0.7429424464575987
 40
0.7429424464575987
 40
0.7429424464575987
 10
87.35367014229998
 20
125.675928989
 30
0.0
 10
87.44777027647633
 20
125.4468559871764
 30
0.0
 10
87.51545786496401
 20
125.2059081899474
 30
0.0
 10
87.56082767069997
 20
124.9624521238
 30
0.0
 11
87.35367014229998
 21
125.675928989
 31
0.0
 11
87.56082767069997
 21
124.9624521238
 31
0.0
  0
SPLINE
  5
CA0
330
1B
100
AcDbEntity
  8
0
  6
Continuous
100
AcDbSpline
210
0.0
220
0.0
230
1.0
 70
     8
 71
     3
 72
     8
 73
     4
 74
     2
 42
0.0000000001
 43
0.0000000001
 44
0.0000000001
 12
0.1902717687530068
 22
-0.9817314571794074
 32
0.0
 13
0.185546708295865
 23
-0.982635445646334
 33
0.0
 40
0.0
 40
0.0
 40
0.0
 40
0.0
 40
0.5906267877658276
 40
0.5906267877658276
 40
0.5906267877658276
 40
0.5906267877658276
 10
87.56082767069997
 20
124.9624521238
 30
0.0
 10
87.59828753856033
 20
124.7691731581325
 30
0.0
 10
87.6353209417329
 20
124.5758108638356
 30
0.0
 10
87.67185056050001
 20
124.3823539249
 30
0.0
 11
87.56082767069997
 21
124.9624521238
 31
0.0
 11
87.67185056050001
 21
124.3823539249
 31
0.0
  0
SPLINE
  5
CA1
330
1B
100
AcDbEntity
  8
0
  6
Continuous
100
AcDbSpline
210
0.0
220
0.0
230
1.0
 70
     8
 71
     3
 72
    17
 73
    13
 74
    11
 42
0.0000000001
 43
0.0000000001
 44
0.0000000001
 12
0.3227706799665245
 22
-0.9464771989614687
 32
0.0
 13
-0.9977434670523235
 23
-0.0671414473660564
 33
0.0
 40
0.0
 40
0.0
 40
0.0
 40
0.0
 40
0.3673180334620351
 40
0.5512916782419711
 40
0.7351309362127112
 40
0.9196689072279279
 40
1.014559563671911
 40
1.107591399724323
 40
1.198202538454279
 40
1.290195257044868
 40
1.384747132411342
 40
1.478621598034928
 40
1.478621598034928
 40
1.478621598034928
 40
1.478621598034928
 10
87.67185056050001
 20
124.3823539249
 30
0.0
 10
87.71137039097484
 20
124.2664678770869
 30
0.0
 10
87.75400289522003
 20
124.0855420123708
 30
0.0
 10
87.7630395800241
 20
123.8400021123113
 30
0.0
 10
87.74568920784428
 20
123.6563476152402
 30
0.0
 10
87.71591322339242
 20
123.504349393523
 30
0.0
 10
87.6762695127814
 20
123.3864167628188
 30
0.0
 10
87.63318271911018
 20
123.3035108983274
 30
0.0
 10
87.57091142995189
 20
123.2340092192528
 30
0.0
 10
87.48949674325617
 20
123.1877222224084
 30
0.0
 10
87.39973619675084
 20
123.160076287723
 30
0.0
 10
87.33723469716632
 20
123.1515272101309
 30
0.0
 10
87.3060138189
 20
123.1494262543
 30
0.0
 11
87.67185056050001
 21
124.3823539249
 31
0.0
 11
87.752263613
 21
124.0239459469
 31
0.0
 11
87.75901952629999
 21
123.8400963899
 31
0.0
 11
87.74269622899998
 21
123.656983248
 31
0.0
 11
87.70501273120001
 21
123.4763338175
 31
0.0
 11
87.6737595844
 21
123.3867376262
 31
0.0
 11
87.62945138209999
 21
123.3049347795
 31
0.0
 11
87.56817364479998
 21
123.2381858666
 31
0.0
 11
87.48905340950002
 21
123.1912534829
 31
0.0
 11
87.3989685981
 21
123.1625344319
 31
0.0
 11
87.3060138189
 21
123.1494262543
 31
0.0
  0
SPLINE
  5
CA2
330
1B
100
AcDbEntity
  8
0
  6
Continuous
100
AcDbSpline
210
0.0
220
0.0
230
1.0
 70
     8
 71
     3
 72
     9
 73
     5
 74
     3
 42
0.0000000001
 43
0.0000000001
 44
0.0000000001
 12
-0.9985764932243108
 22
-0.0533384212349606
 32
0.0
 13
-0.9977301629710212
 23
0.06733885875049811
 33
0.0
 40
0.0
 40
0.0
 40
0.0
 40
0.0
 40
0.2938323863086375
 40
0.5879927747365767
 40
0.5879927747365767
 40
0.5879927747365767
 40
0.5879927747365767
 10
87.3060138189
 20
123.1494262543
 30
0.0
 10
87.20820911426139
 20
123.1442020691022
 30
0.0
 10
87.01164083769231
 20
123.1568082256939
 30
0.0
 10
86.81763857842861
 20
123.1843430308179
 30
0.0
 10
86.71980768100001
 20
123.1909458391
 30
0.0
 11
87.3060138189
 21
123.1494262543
 31
0.0
 11
87.0123912789
 21
123.160529193
 31
0.0
 11
86.71980768100001
 21
123.1909458391
 31
0.0
  0
SPLINE
  5
CA3
330
1B
100
AcDbEntity
  8
0
  6
Continuous
100
AcDbSpline
210
0.0
220
0.0
230
1.0
 70
     8
 71
     3
 72
     8
 73
     4
 74
     2
 42
0.0000000001
 43
0.0000000001
 44
0.0000000001
 12
-0.9970464607786567
 22
0.0768007490116781
 32
0.0
 13
-0.9987130637386078
 23
-0.0507170219733354
 33
0.0
 40
0.0
 40
0.0
 40
0.0
 40
0.0
 40
0.5907631172711347
 40
0.5907631172711347
 40
0.5907631172711347
 40
0.5907631172711347
 10
86.71980768100001
 20
123.1909458391
 30
0.0
 10
86.52346825592208
 20
123.2060695223983
 30
0.0
 10
86.32574400266451
 20
123.2070650263666
 30
0.0
 10
86.12907638839997
 20
123.1970777777
 30
0.0
 11
86.71980768100001
 21
123.1909458391
 31
0.0
 11
86.12907638839997
 21
123.1970777777
 31
0.0
  0
SPLINE
  5
CA4
330
1B
100
AcDbEntity
  8
0
  6
Continuous
100
AcDbSpline
210
0.0
220
0.0
230
1.0
 70
     8
 71
     3
 72
    10
 73
     6
 74
     4
 42
0.0000000001
 43
0.0000000001
 44
0.0000000001
 12
-0.9993384914127818
 22
-0.0363672872348961
 32
0.0
 13
-0.990834503734672
 23
0.1350814058590842
 33
0.0
 40
0.0
 40
0.0
 40
0.0
 40
0.0
 40
0.5914314537913282
 40
1.182855719925196
 40
1.306997072625414
 40
1.306997072625414
 40
1.306997072625414
 40
1.306997072625414
 10
86.12907638839997
 20
123.1970777777
 30
0.0
 10
85.932062982798
 20
123.1899081918467
 30
0.0
 10
85.5378045839808
 20
123.1673901248162
 30
0.0
 10
85.1023955629835
 20
123.2042987196117
 30
0.0
 10
84.8659035372319
 20
123.2350207810173
 30
0.0
 10
84.82490235870002
 20
123.2406105105
 30
0.0
 11
86.12907638839997
 21
123.1970777777
 31
0.0
 11
85.5378535513
 21
123.1813704092
 31
0.0
 11
84.94801699910001
 21
123.2246775017
 31
0.0
 11
84.82490235870002
 21
123.2406105105
 31
0.0
  0
SPLINE
  5
CA5
330
1B
100
AcDbEntity
  8
0
  6
Continuous
100
AcDbSpline
210
0.0
220
0.0
230
1.0
 70
     8
 71
     3
 72
    11
 73
     7
 74
     5
 42
0.0000000001
 43
0.0000000001
 44
0.0000000001
 12
-0.9918593720156987
 22
0.1273380781409223
 32
0.0
 13
-0.9975334158653172
 23
-0.0701931922060281
 33
0.0
 40
0.0
 40
0.0
 40
0.0
 40
0.0
 40
0.3187385103169627
 40
0.7615861426144985
 40
1.204436223365046
 40
1.647315450170884
 40
1.647315450170884
 40
1.647315450170884
 40
1.647315450170884
 10
84.82490235870002
 20
123.2406105105
 30
0.0
 10
84.71952109913995
 20
123.2541396936111
 30
0.0
 10
84.46750481161547
 20
123.2846626204749
 30
0.0
 10
84.0642162431927
 20
123.2927174950163
 30
0.0
 10
83.62542186655114
 20
123.2248474313899
 30
0.0
 10
83.32966305027715
 20
123.2216478721971
 30
0.0
 10
83.18240077430001
 20
123.2112855033
 30
0.0
 11
84.82490235870002
 21
123.2406105105
 31
0.0
 11
84.50804998220001
 21
123.2752343385
 31
0.0
 11
84.06522719580001
 21
123.2799253167
 31
0.0
 11
83.6246251748
 21
123.2353601609
 31
0.0
 11
83.18240077430001
 21
123.2112855033
 31
0.0
  0
SPLINE
  5
CA6
330
1B
100
AcDbEntity
  8
0
  6
Continuous
100
AcDbSpline
210
0.0
220
0.0
230
1.0
 70
     8
 71
     3
 72
     8
 73
     4
 74
     2
 42
0.0000000001
 43
0.0000000001
 44
0.0000000001
 12
-0.997533415787118
 22
-0.07019319331733541
 32
0.0
 13
-0.9971476630414928
 23
-0.07547541381727808
 33
0.0
 40
0.0
 40
0.0
 40
0.0
 40
0.0
 40
0.018828877657324
 40
0.018828877657324
 40
0.018828877657324
 40
0.018828877657324
 10
83.18240077430001
 20
123.2112855033
 30
0.0
 10
83.17613996275169
 20
123.2108449502836
 30
0.0
 10
83.16988024185123
 20
123.2103885564776
 30
0.0
 10
83.1636218514
 20
123.2099148507
 30
0.0
 11
83.18240077430001
 21
123.2112855033
 31
0.0
 11
83.1636218514
 21
123.2099148507
 31
0.0
  0
SPLINE
  5
CA7
330
1B
100
AcDbEntity
  8
0
  6
Continuous
100
AcDbSpline
210
0.0
220
0.0
230
1.0
 70
     8
 71
     3
 72
     8
 73
     4
 74
     2
 42
0.0000000001
 43
0.0000000001
 44
0.0000000001
 12
-0.9965491356936936
 22
-0.0830049405044803
 32
0.0
 13
-0.9803463112931286
 23
-0.1972843377816811
 33
0.0
 40
0.0
 40
0.0
 40
0.0
 40
0.0
 40
0.1000471328266112
 40
0.1000471328266112
 40
0.1000471328266112
 40
0.1000471328266112
 10
83.1636218514
 20
123.2099148507
 30
0.0
 10
83.130387890151
 20
123.207146715264
 30
0.0
 10
83.09724351614067
 20
123.2025593201156
 30
0.0
 10
83.0645499036
 20
123.195980076
 30
0.0
 11
83.1636218514
 21
123.2099148507
 31
0.0
 11
83.0645499036
 21
123.195980076
 31
0.0
  0
SPLINE
  5
CA8
330
1B
100
AcDbEntity
  8
0
  6
Continuous
100
AcDbSpline
210
0.0
220
0.0
230
1.0
 70
     8
 71
     3
 72
     9
 73
     5
 74
     3
 42
0.0000000001
 43
0.0000000001
 44
0.0000000001
 12
-0.9803463113440404
 22
-0.1972843375286899
 32
0.0
 13
-0.8960084750353176
 23
-0.4440369496617202
 33
0.0
 40
0.0
 40
0.0
 40
0.0
 40
0.0
 40
0.177005082763553
 40
0.1838194552221439
 40
0.1838194552221439
 40
0.1838194552221439
 40
0.1838194552221439
 10
83.0645499036
 20
123.195980076
 30
0.0
 10
83.00670781027453
 20
123.1843399658359
 30
0.0
 10
82.9473704663294
 20
123.1655814477811
 30
0.0
 10
82.89232223415833
 20
123.1386832406535
 30
0.0
 10
82.89028698900002
 20
123.1376746296
 30
0.0
 11
83.0645499036
 21
123.195980076
 31
0.0
 11
82.8964095154
 21
123.1406663419
 31
0.0
 11
82.89028698900002
 21
123.1376746296
 31
0.0
  0
SPLINE
  5
CA9
330
1B
100
AcDbEntity
  8
0
  6
Continuous
100
AcDbSpline
210
0.0
220
0.0
230
1.0
 70
     8
 71
     3
 72
    15
 73
    11
 74
     9
 42
0.0000000001
 43
0.0000000001
 44
0.0000000001
 12
-0.8980389954738123
 22
-0.4399158585552311
 32
0.0
 13
-0.1973016990384864
 23
0.9803428173636641
 33
0.0
 40
0.0
 40
0.0
 40
0.0
 40
0.0
 40
0.1232031008883577
 40
0.2538387684283203
 40
0.31808801471231
 40
0.3826744933851716
 40
0.4165150516448432
 40
0.451397572384079
 40
0.4848835253462973
 40
0.5165650903594025
 40
0.5165650903594025
 40
0.5165650903594025
 40
0.5165650903594025
 10
82.89028698900002
 20
123.1376746296
 30
0.0
 10
82.85340659267968
 20
123.1196082969653
 30
0.0
 10
82.77724510643621
 20
123.0809655539937
 30
0.0
 10
82.66831997791196
 20
123.0713347791598
 30
0.0
 10
82.58312699110813
 20
123.088505764085
 30
0.0
 10
82.53283269675183
 20
123.1096499875725
 30
0.0
 10
82.49399384971287
 20
123.131244908241
 30
0.0
 10
82.46514399462568
 20
123.149444355154
 30
0.0
 10
82.43993165896019
 20
123.1717243406031
 30
0.0
 10
82.42954981376845
 20
123.1918727947322
 30
0.0
 10
82.42746620490001
 20
123.2022257263
 30
0.0
 11
82.89028698900002
 21
123.1376746296
 31
0.0
 11
82.77693984249999
 21
123.0893897619
 31
0.0
 11
82.6468218827
 21
123.0777710627
 31
0.0
 11
82.5838517696
 21
123.0905276494
 31
0.0
 11
82.52408246580001
 21
123.1150030156
 31
0.0
 11
82.4944487259
 21
123.1313439104
 31
0.0
 11
82.46528845509997
 21
123.1504872868
 31
0.0
 11
82.4410717853
 21
123.1736143694
 31
0.0
 11
82.42746620490001
 21
123.2022257263
 31
0.0
  0
SPLINE
  5
CAA
330
1B
100
AcDbEntity
  8
0
  6
Continuous
100
AcDbSpline
210
0.0
220
0.0
230
1.0
 70
     8
 71
     3
 72
    15
 73
    11
 74
     9
 42
0.0000000001
 43
0.0000000001
 44
0.0000000001
 12
-0.2992484986163559
 22
0.954175212461452
 32
0.0
 13
0.9794869082005856
 23
0.2015078079471303
 33
0.0
 40
0.0
 40
0.0
 40
0.0
 40
0.0
 40
0.0167579560839363
 40
0.0339541614546569
 40
0.053480721434769
 40
0.0749837598472767
 40
0.1182061581318124
 40
0.1556405691057521
 40
0.225675547031966
 40
0.2989025695747415
 40
0.2989025695747415
 40
0.2989025695747415
 40
0.2989025695747415
 10
82.42746620490001
 20
123.2022257263
 30
0.0
 10
82.42579460716735
 20
123.2075557350689
 30
0.0
 10
82.4253488212446
 20
123.2195578506649
 30
0.0
 10
82.43411988920242
 20
123.235670537636
 30
0.0
 10
82.44809552360172
 20
123.2493265756712
 30
0.0
 10
82.47133817571037
 20
123.265236935421
 30
0.0
 10
82.50214699023888
 20
123.2801149328139
 30
0.0
 10
82.54974260539777
 20
123.2964064490618
 30
0.0
 10
82.60880793696441
 20
123.3086867459195
 30
0.0
 10
82.65529138419761
 20
123.3195498982016
 30
0.0
 10
82.6791996875
 20
123.3244685038
 30
0.0
 11
82.42746620490001
 21
123.2022257263
 31
0.0
 11
82.4268196148
 21
123.2189712037
 31
0.0
 11
82.4343498546
 21
123.2344309892
 31
0.0
 11
82.4479542343
 21
123.2484383943
 31
0.0
 11
82.46553006399999
 21
123.2608267304
 31
0.0
 11
82.5042230883
 21
123.2800887548
 31
0.0
 11
82.53958960629998
 21
123.2923584137
 31
0.0
 11
82.607681972
 21
123.30873913
 31
0.0
 11
82.6791996875
 21
123.3244685038
 31
0.0
  0
SPLINE
  5
CAB
330
1B
100
AcDbEntity
  8
0
  6
Continuous
100
AcDbSpline
210
0.0
220
0.0
230
1.0
 70
     8
 71
     3
 72
     9
 73
     5
 74
     3
 42
0.0000000001
 43
0.0000000001
 44
0.0000000001
 12
0.9865036962538814
 22
0.16373899131676
 32
0.0
 13
0.5908399997318523
 23
0.8067887547040209
 33
0.0
 40
0.0
 40
0.0
 40
0.0
 40
0.0
 40
0.7001600514180026
 40
0.8905026551947359
 40
0.8905026551947359
 40
0.8905026551947359
 40
0.8905026551947359
 10
82.6791996875
 20
123.3244685038
 30
0.0
 10
82.90943651373105
 20
123.3626830039932
 30
0.0
 10
83.20385022542686
 20
123.4942526254394
 30
0.0
 10
83.3972967902785
 20
123.7208632704773
 30
0.0
 10
83.43478413159997
 20
123.7720520279
 30
0.0
 11
82.6791996875
 21
123.3244685038
 31
0.0
 11
83.309986419
 21
123.6283306386
 31
0.0
 11
83.43478413159997
 21
123.7720520279
 31
0.0
  0
SPLINE
  5
CAC
330
1B
100
AcDbEntity
  8
0
  6
Continuous
100
AcDbSpline
210
0.0
220
0.0
230
1.0
 70
     8
 71
     3
 72
    19
 73
    15
 74
    13
 42
0.0000000001
 43
0.0000000001
 44
0.0000000001
 12
0.6327197961456834
 22
0.7743808233455715
 32
0.0
 13
0.9654074783298106
 23
0.2607458547798538
 33
0.0
 40
0.0
 40
0.0
 40
0.0
 40
0.0
 40
0.192103351574786
 40
0.2875816936209562
 40
0.3834473347090009
 40
0.4795268095645343
 40
0.5757461924030165
 40
0.6713037853088218
 40
0.766426686854894
 40
0.8625790108246756
 40
0.9589554907519012
 40
1.149739298676608
 40
1.341736928025572
 40
1.533355050432741
 40
1.533355050432741
 40
1.533355050432741
 40
1.533355050432741
 10
83.43478413159997
 20
123.7720520279
 30
0.0
 10
83.4752999960824
 20
123.82163907842
 30
0.0
 10
83.53615988795437
 20
123.8962596892308
 30
0.0
 10
83.6343719584556
 20
123.9789668153406
 30
0.0
 10
83.71867045614894
 20
124.0258804066532
 30
0.0
 10
83.81134729658645
 20
124.0541354273175
 30
0.0
 10
83.90799110995795
 20
124.0598597315212
 30
0.0
 10
84.00314520019444
 20
124.0443461631401
 30
0.0
 10
84.09272327755519
 20
124.0097172269033
 30
0.0
 10
84.17800474821962
 20
123.96583528377
 30
0.0
 10
84.29051903357494
 20
123.9053826424415
 30
0.0
 10
84.43867881421525
 20
123.8432547283322
 30
0.0
 10
84.62885722340192
 20
123.8094923360785
 30
0.0
 10
84.75861508704818
 20
123.8210008281939
 30
0.0
 10
84.82027827649998
 20
123.8376553719
 30
0.0
 11
83.43478413159997
 21
123.7720520279
 31
0.0
 11
83.5623190805
 21
123.9157132074
 31
0.0
 11
83.63604320529998
 21
123.9763833584
 31
0.0
 11
83.71996371660001
 21
124.0227252285
 31
0.0
 11
83.81198038029999
 21
124.0503693796
 31
0.0
 11
83.90801666580001
 21
124.0563024649
 31
0.0
 11
84.0023621501
 21
124.0411306768
 31
0.0
 11
84.09165313669998
 21
124.0083360719
 31
0.0
 11
84.1777969506
 21
123.9656217566
 31
0.0
 11
84.26331461270002
 21
123.9211790367
 31
0.0
 11
84.44038424919999
 21
123.8501522446
 31
0.0
 11
84.6296707882
 21
123.8180011042
 31
0.0
 11
84.82027827649998
 21
123.8376553719
 31
0.0
  0
SPLINE
  5
CAD
330
1B
100
AcDbEntity
  8
0
  6
Continuous
100
AcDbSpline
210
0.0
220
0.0
230
1.0
 70
     8
 71
     3
 72
    19
 73
    15
 74
    13
 42
0.0000000001
 43
0.0000000001
 44
0.0000000001
 12
0.9717277120712825
 22
0.2361043277720904
 32
0.0
 13
0.2926734601661727
 23
0.9562124480021998
 33
0.0
 40
0.0
 40
0.0
 40
0.0
 40
0.0
 40
0.2005728972178805
 40
0.4763213307569743
 40
1.094318112932665
 40
1.27160118261805
 40
1.438297986939789
 40
1.580734451694982
 40
1.776494648112692
 40
2.038705010690852
 40
2.340212063053094
 40
4.839059926625949
 40
4.938041072889654
 40
5.185975237322001
 40
5.185975237322001
 40
5.185975237322001
 40
5.185975237322001
 10
84.82027827649998
 20
123.8376553719
 30
0.0
 10
84.88524569067232
 20
123.8534407482556
 30
0.0
 10
85.0320626164276
 20
123.9224099076181
 30
0.0
 10
85.31532450121365
 20
124.1448417831748
 30
0.0
 10
85.70077840547832
 20
124.2664709826127
 30
0.0
 10
85.99743692541512
 20
124.1792137879705
 30
0.0
 10
86.17452230548145
 20
124.1025802558492
 30
0.0
 10
86.28536301687718
 20
124.2863032823512
 30
0.0
 10
86.17542162824901
 20
124.4763314430794
 30
0.0
 10
86.00253351784618
 20
124.6548471208169
 30
0.0
 10
85.50637229805611
 20
125.5545558260236
 30
0.0
 10
84.98187209659852
 20
126.4686126876657
 30
0.0
 10
85.04364640176368
 20
127.4161544573954
 30
0.0
 10
85.06359168490073
 20
127.5310437359616
 30
0.0
 10
85.0877796015
 20
127.6100696474
 30
0.0
 11
84.82027827649998
 21
123.8376553719
 31
0.0
 11
85.00472037279999
 21
123.9164627333
 31
0.0
 11
85.23533074339998
 21
124.0676449266
 31
0.0
 11
85.8346520556
 21
124.2184228677
 31
0.0
 11
86.00578874700001
 21
124.1721463115
 31
0.0
 11
86.17036297069998
 21
124.1456293459
 31
0.0
 11
86.24950239639998
 21
124.2640569516
 31
0.0
 11
86.18386328299999
 21
124.4484846103
 31
0.0
 11
86.01948396659999
 21
124.6527729227
 31
0.0
 11
85.86174652439998
 21
124.909727008
 31
0.0
 11
85.03473123270001
 21
127.267752952
 31
0.0
 11
85.04142363850001
 21
127.3665075925
 31
0.0
 11
85.0877796015
 21
127.6100696474
 31
0.0
  0
SPLINE
  5
CAE
330
1B
100
AcDbEntity
  8
0
  6
Continuous
100
AcDbSpline
210
0.0
220
0.0
230
1.0
 70
     8
 71
     3
 72
     9
 73
     5
 74
     3
 42
0.0000000001
 43
0.0000000001
 44
0.0000000001
 12
0.2381956261971437
 22
0.9712171969547032
 32
0.0
 13
0.4284775849535306
 23
0.9035524108718819
 33
0.0
 40
0.0
 40
0.0
 40
0.0
 40
0.0
 40
0.5905875512063132
 40
1.181174809053972
 40
1.181174809053972
 40
1.181174809053972
 40
1.181174809053972
 10
85.0877796015
 20
127.6100696474
 30
0.0
 10
85.13467139202794
 20
127.801265909413
 30
0.0
 10
85.28109934313454
 20
128.1692282145704
 30
0.0
 10
85.44447205701771
 20
128.5268183874472
 30
0.0
 10
85.528823191
 20
128.704693901
 30
0.0
 11
85.0877796015
 21
127.6100696474
 31
0.0
 11
85.2853355723
 21
128.1666352716
 31
0.0
 11
85.528823191
 21
128.704693901
 31
0.0
  0
SPLINE
  5
CAF
330
1B
100
AcDbEntity
  8
0
  6
Continuous
100
AcDbSpline
210
0.0
220
0.0
230
1.0
 70
     8
 71
     3
 72
     9
 73
     5
 74
     3
 42
0.0000000001
 43
0.0000000001
 44
0.0000000001
 12
0.5241210596775792
 22
0.8516437722442709
 32
0.0
 13
0.1799680913382839
 23
0.98367244858238
 33
0.0
 40
0.0
 40
0.0
 40
0.0
 40
0.0
 40
0.2941807191205979
 40
0.5883575600572286
 40
0.5883575600572286
 40
0.5883575600572286
 40
0.5883575600572286
 10
85.528823191
 20
128.704693901
 30
0.0
 10
85.5802186277474
 20
128.7882062934511
 30
0.0
 10
85.67210328939072
 20
128.9621719165126
 30
0.0
 10
85.73329348827357
 20
129.1504661942199
 30
0.0
 10
85.7509409698
 20
129.2469240787
 30
0.0
 11
85.528823191
 21
128.704693901
 31
0.0
 11
85.66443017820002
 21
128.9657552741
 31
0.0
 11
85.7509409698
 21
129.2469240787
 31
0.0
  0
SPLINE
  5
CB0
330
1B
100
AcDbEntity
  8
0
  6
Continuous
100
AcDbSpline
210
0.0
220
0.0
230
1.0
 70
     8
 71
     3
 72
    11
 73
     7
 74
     5
 42
0.0000000001
 43
0.0000000001
 44
0.0000000001
 12
0.1815452983172565
 22
0.9833825830565124
 32
0.0
 13
0.0567577210508435
 23
0.9983879812483296
 33
0.0
 40
0.0
 40
0.0
 40
0.0
 40
0.0
 40
0.317321949171845
 40
0.6393246958423563
 40
0.9576221755628731
 40
1.276321077751938
 40
1.276321077751938
 40
1.276321077751938
 40
1.276321077751938
 10
85.7509409698
 20
129.2469240787
 30
0.0
 10
85.77014373910834
 20
129.350940371379
 30
0.0
 10
85.76581539057965
 20
129.5674538313052
 30
0.0
 10
85.71213326204263
 20
129.8814071515088
 30
0.0
 10
85.68025537452755
 20
130.2001600525165
 30
0.0
 10
85.6824760529701
 20
130.4129108402391
 30
0.0
 10
85.68850559409999
 20
130.5189725581
 30
0.0
 11
85.7509409698
 21
129.2469240787
 31
0.0
 11
85.7580843245
 21
129.5641656143
 31
0.0
 11
85.71562037060001
 21
129.883356124
 31
0.0
 11
85.68611008409999
 21
130.200282659
 31
0.0
 11
85.68850559409999
 21
130.5189725581
 31
0.0
  0
SPLINE
  5
CB1
330
1B
100
AcDbEntity
  8
0
  6
Continuous
100
AcDbSpline
210
0.0
220
0.0
230
1.0
 70
     8
 71
     3
 72
    11
 73
     7
 74
     5
 42
0.0000000001
 43
0.0000000001
 44
0.0000000001
 12
0.0414648369513757
 22
0.9991399638171801
 32
0.0
 13
-0.0650529624903514
 23
0.9978818126768466
 33
0.0
 40
0.0
 40
0.0
 40
0.0
 40
0.0
 40
0.5900227627326509
 40
1.180033726448068
 40
1.770055077178872
 40
2.360076085962851
 40
2.360076085962851
 40
2.360076085962851
 40
2.360076085962851
 10
85.68850559409999
 20
130.5189725581
 30
0.0
 10
85.69666065998476
 20
130.7154776653693
 30
0.0
 10
85.72476079608956
 20
131.1085538505242
 30
0.0
 10
85.65362729617807
 20
131.6992596183595
 30
0.0
 10
85.47237331728769
 20
132.2614907428245
 30
0.0
 10
85.40693074275094
 20
132.6519281877791
 30
0.0
 10
85.39413653789997
 20
132.8481852657
 30
0.0
 11
85.68850559409999
 21
130.5189725581
 31
0.0
 11
85.70588011220001
 21
131.1087394499
 31
0.0
 11
85.6352746621
 21
131.6945105722
 31
0.0
 11
85.48622181749998
 21
132.2653944867
 31
0.0
 11
85.39413653789997
 21
132.8481852657
 31
0.0
  0
SPLINE
  5
CB2
330
1B
100
AcDbEntity
  8
0
  6
Continuous
100
AcDbSpline
210
0.0
220
0.0
230
1.0
 70
     8
 71
     3
 72
    15
 73
    11
 74
     9
 42
0.0000000001
 43
0.0000000001
 44
0.0000000001
 12
-0.3315731265560797
 22
0.9434295213453022
 32
0.0
 13
0.7728667534566487
 23
0.6345683425773617
 33
0.0
 40
0.0
 40
0.0
 40
0.0
 40
0.0
 40
0.6071139686286792
 40
0.9937666662387059
 40
1.464372839388721
 40
3.006070761666606
 40
3.7159636445871
 40
4.359905250844772
 40
5.527882329694846
 40
6.272509615609025
 40
6.272509615609025
 40
6.272509615609025
 40
6.272509615609025
 10
85.39413653789997
 20
132.8481852657
 30
0.0
 10
85.32703564564861
 20
133.0391083459751
 30
0.0
 10
85.30553210324706
 20
133.3823139082344
 30
0.0
 10
85.50309467435508
 20
133.8715418869733
 30
0.0
 10
86.33015390525834
 20
134.0990878479747
 30
0.0
 10
87.15485072474476
 20
134.3602664721311
 30
0.0
 10
88.06333546283332
 20
134.7667703997522
 30
0.0
 10
88.57208826584758
 20
135.4547710263714
 30
0.0
 10
89.13304472109419
 20
136.0915697077042
 30
0.0
 10
89.60735192923343
 20
136.5206813310799
 30
0.0
 10
89.7991844869
 20
136.6781869653
 30
0.0
 11
85.39413653789997
 21
132.8481852657
 31
0.0
 11
85.358826392
 21
133.4542715339
 31
0.0
 11
85.52836388779998
 21
133.801773111
 31
0.0
 11
85.9562855991
 21
133.9976127883
 31
0.0
 11
87.41825037319998
 21
134.4869914585
 31
0.0
 11
88.0423325225
 21
134.8253246909
 31
0.0
 11
88.47041461419998
 21
135.3063720015
 31
0.0
 11
89.2463140319
 21
136.1793843441
 31
0.0
 11
89.7991844869
 21
136.6781869653
 31
0.0
  0
SPLINE
  5
CB3
330
1B
100
AcDbEntity
  8
0
  6
Continuous
100
AcDbSpline
210
0.0
220
0.0
230
1.0
 70
     8
 71
     3
 72
    14
 73
    10
 74
     8
 42
0.0000000001
 43
0.0000000001
 44
0.0000000001
 12
0.8398507168292171
 22
0.5428174402517392
 32
0.0
 13
0.2729788220535099
 23
-0.9620200427799196
 33
0.0
 40
0.0
 40
0.0
 40
0.0
 40
0.0
 40
0.1613407220693925
 40
0.3227379854432608
 40
0.483006045565417
 40
0.6439778472841959
 40
0.8044236238288032
 40
0.9650292937646994
 40
1.283809380051658
 40
1.283809380051658
 40
1.283809380051658
 40
1.283809380051658
 10
89.7991844869
 20
136.6781869653
 30
0.0
 10
89.84435186059457
 20
136.7073798178874
 30
0.0
 10
89.93946374218476
 20
136.7588257702646
 30
0.0
 10
90.09469867992505
 20
136.8070171836466
 30
0.0
 10
90.25795355076254
 20
136.810220978338
 30
0.0
 10
90.41460740260186
 20
136.7654003527418
 30
0.0
 10
90.55177194997742
 20
136.6777617110544
 30
0.0
 10
90.69694844072978
 20
136.5186943943344
 30
0.0
 10
90.76075834621709
 20
136.3672585547157
 30
0.0
 10
90.7897650837
 20
136.2650342773
 30
0.0
 11
89.7991844869
 21
136.6781869653
 31
0.0
 11
89.94159981610001
 21
136.7540071645
 31
0.0
 11
90.09642716160001
 21
136.7995875299
 31
0.0
 11
90.25667318069999
 21
136.8022454347
 31
0.0
 11
90.41150055790001
 21
136.7581954152
 31
0.0
 11
90.54710293979998
 21
136.6724350442
 31
0.0
 11
90.6560124305
 21
136.5543973212
 31
0.0
 11
90.7897650837
 21
136.2650342773
 31
0.0
  0
SPLINE
  5
CB4
330
1B
100
AcDbEntity
  8
0
  6
Continuous
100
AcDbSpline
210
0.0
220
0.0
230
1.0
 70
     8
 71
     3
 72
     8
 73
     4
 74
     2
 42
0.0000000001
 43
0.0000000001
 44
0.0000000001
 12
0.2729788209359478
 22
-0.9620200430970344
 32
0.0
 13
0.2543025839216703
 23
-0.9671247054081298
 33
0.0
 40
0.0
 40
0.0
 40
0.0
 40
0.0
 40
0.0251857752416009
 40
0.0251857752416009
 40
0.0251857752416009
 40
0.0251857752416009
 10
90.7897650837
 20
136.2650342773
 30
0.0
 10
90.79205681144327
 20
136.2569578704389
 30
0.0
 10
90.79426859859268
 20
136.2488583905203
 30
0.0
 10
90.79640353450002
 20
136.2407391287
 30
0.0
 11
90.7897650837
 21
136.2650342773
 31
0.0
 11
90.79640353450002
 21
136.2407391287
 31
0.0
  0
SPLINE
  5
CB5
330
1B
100
AcDbEntity
  8
0
  6
Continuous
100
AcDbSpline
210
0.0
220
0.0
230
1.0
 70
     8
 71
     3
 72
    10
 73
     6
 74
     4
 42
0.0000000001
 43
0.0000000001
 44
0.0000000001
 12
0.2578392139114504
 22
-0.9661878387609344
 32
0.0
 13
0.3159901099613757
 23
-0.9487624836631124
 33
0.0
 40
0.0
 40
0.0
 40
0.0
 40
0.0
 40
0.7128145481319385
 40
1.081809683533016
 40
1.45103826813143
 40
1.45103826813143
 40
1.45103826813143
 40
1.45103826813143
 10
90.79640353450002
 20
136.2407391287
 30
0.0
 10
90.85766738208501
 20
136.011168212801
 30
0.0
 10
90.89224600579638
 20
135.6501297222814
 30
0.0
 10
90.98152442720487
 20
135.1746280802552
 30
0.0
 10
91.04946473475062
 20
134.937615615221
 30
0.0
 10
91.0883555951
 20
134.8208455389
 30
0.0
 11
90.79640353450002
 21
136.2407391287
 31
0.0
 11
90.9171211709
 21
135.5382209209
 31
0.0
 11
90.98713635819999
 21
135.1759292104
 31
0.0
 11
91.0883555951
 21
134.8208455389
 31
0.0
  0
SPLINE
  5
CB6
330
1B
100
AcDbEntity
  8
0
  6
Continuous
100
AcDbSpline
210
0.0
220
0.0
230
1.0
 70
     8
 71
     3
 72
    11
 73
     7
 74
     5
 42
0.0000000001
 43
0.0000000001
 44
0.0000000001
 12
0.9903017614397665
 22
-0.138933154032059
 32
0.0
 13
0.1586561141476096
 23
0.9873339037243585
 33
0.0
 40
0.0
 40
0.0
 40
0.0
 40
0.0
 40
0.6975144020285278
 40
1.304828335996576
 40
1.646797528781957
 40
1.993086810815741
 40
1.993086810815741
 40
1.993086810815741
 40
1.993086810815741
 10
87.93218195719999
 20
131.5394303534
 30
0.0
 10
88.1624318708528
 20
131.5071277281145
 30
0.0
 10
88.60455159300389
 20
131.5148365735723
 30
0.0
 10
89.13628154969298
 20
131.7506389604016
 30
0.0
 10
89.37943728369481
 20
132.1206353012578
 30
0.0
 10
89.44578620051385
 20
132.3430574610839
 30
0.0
 10
89.46409983780001
 20
132.4570251773
 30
0.0
 11
87.93218195719999
 21
131.5394303534
 31
0.0
 11
88.62916868640001
 21
131.5665567309
 31
0.0
 11
89.16942597280001
 21
131.8439594686
 31
0.0
 11
89.36311681479997
 21
132.1257870516
 31
0.0
 11
89.46409983780001
 21
132.4570251773
 31
0.0
  0
SPLINE
  5
CB7
330
1B
100
AcDbEntity
  8
0
  6
Continuous
100
AcDbSpline
210
0.0
220
0.0
230
1.0
 70
     8
 71
     3
 72
    11
 73
     7
 74
     5
 42
0.0000000001
 43
0.0000000001
 44
0.0000000001
 12
0.2202321478741505
 22
0.975447487588511
 32
0.0
 13
-0.5389828861240613
 23
-0.8423167150575709
 33
0.0
 40
0.0
 40
0.0
 40
0.0
 40
0.0
 40
0.076524766055861
 40
0.1530488471028705
 40
0.2295731482360556
 40
0.3060981159130473
 40
0.3060981159130473
 40
0.3060981159130473
 40
0.3060981159130473
 10
89.46409983780001
 20
132.4570251773
 30
0.0
 10
89.46971757566469
 20
132.4819071408958
 30
0.0
 10
89.46004172684572
 20
132.5373162913061
 30
0.0
 10
89.39902186882225
 20
132.5923305404958
 30
0.0
 10
89.31699994643898
 20
132.597050467891
 30
0.0
 10
89.27079045771302
 20
132.5649823990646
 30
0.0
 10
89.25704190839998
 20
132.5434963126
 30
0.0
 11
89.46409983780001
 21
132.4570251773
 31
0.0
 11
89.45229059459999
 21
132.5326332562
 31
0.0
 11
89.39552161410001
 21
132.5839481452
 31
0.0
 11
89.31911814729997
 21
132.5882468572
 31
0.0
 11
89.25704190839998
 21
132.5434963126
 31
0.0
  0
SPLINE
  5
CB8
330
1B
100
AcDbEntity
  8
0
  6
Continuous
100
AcDbSpline
210
0.0
220
0.0
230
1.0
 70
     8
 71
     3
 72
     9
 73
     5
 74
     3
 42
0.0000000001
 43
0.0000000001
 44
0.0000000001
 12
-0.5641123378047059
 22
-0.8256980503407462
 32
0.0
 13
-0.9980945714786418
 23
-0.0617027259111506
 33
0.0
 40
0.0
 40
0.0
 40
0.0
 40
0.0
 40
0.7727468994091993
 40
1.545493817220313
 40
1.545493817220313
 40
1.545493817220313
 40
1.545493817220313
 10
89.25704190839998
 20
132.5434963126
 30
0.0
 10
89.11173655508097
 20
132.3308111098503
 30
0.0
 10
88.71558613011757
 20
131.971254082573
 30
0.0
 10
88.20388691226471
 20
131.8151092859228
 30
0.0
 10
87.946795411
 20
131.7992157555
 30
0.0
 11
89.25704190839998
 21
132.5434963126
 31
0.0
 11
88.68669893729999
 21
132.0221071433
 31
0.0
 11
87.946795411
 21
131.7992157555
 31
0.0
  0
SPLINE
  5
CB9
330
1B
100
AcDbEntity
  8
0
  6
Continuous
100
AcDbSpline
210
0.0
220
0.0
230
1.0
 70
     8
 71
     3
 72
    11
 73
     7
 74
     5
 42
0.0000000001
 43
0.0000000001
 44
0.0000000001
 12
-0.9997864184188046
 22
-0.0206668223319187
 32
0.0
 13
0.9911692818355454
 23
-0.1326026196785309
 33
0.0
 40
0.0
 40
0.0
 40
0.0
 40
0.0
 40
0.0927301718626696
 40
0.1854591792156691
 40
0.2781880564969239
 40
0.3709181449808614
 40
0.3709181449808614
 40
0.3709181449808614
 40
0.3709181449808614
 10
87.946795411
 20
131.7992157555
 30
0.0
 10
87.91589195553135
 20
131.7985769428378
 30
0.0
 10
87.85370757783869
 20
131.768297138205
 30
0.0
 10
87.81324144744147
 20
131.6764238416235
 30
0.0
 10
87.84314629647489
 20
131.5805901492172
 30
0.0
 10
87.90154488546426
 20
131.5435291042853
 30
0.0
 10
87.93218195719999
 20
131.5394303534
 30
0.0
 11
87.946795411
 21
131.7992157555
 31
0.0
 11
87.86250902000001
 21
131.7605545467
 31
0.0
 11
87.82496989120001
 21
131.6757637299
 31
0.0
 11
87.85276153789999
 21
131.587297527
 31
0.0
 11
87.93218195719999
 21
131.5394303534
 31
0.0
  0
SPLINE
  5
CBA
330
1B
100
AcDbEntity
  8
0
  6
Continuous
100
AcDbSpline
210
0.0
220
0.0
230
1.0
 70
     8
 71
     3
 72
    18
 73
    14
 74
    12
 42
0.0000000001
 43
0.0000000001
 44
0.0000000001
 12
0.539569704660867
 22
-0.8419409324959708
 32
0.0
 13
-0.5892461063601672
 23
0.8079536039522212
 33
0.0
 40
0.0
 40
0.0
 40
0.0
 40
0.0
 40
0.2371820328752166
 40
0.554304137990385
 40
0.7583115644227635
 40
0.9027273886339581
 40
1.688328077255793
 40
2.469029332380287
 40
3.220816093132685
 40
3.321560688506982
 40
3.378289215261789
 40
3.438458904173528
 40
3.51212474189823
 40
3.51212474189823
 40
3.51212474189823
 40
3.51212474189823
 10
86.56995677570001
 20
132.0281283047
 30
0.0
 10
86.61261552217646
 20
131.9615638840566
 30
0.0
 10
86.7601569192135
 20
131.8122351894869
 30
0.0
 10
87.0714380047055
 20
131.9379427120168
 30
0.0
 10
87.10486839367694
 20
132.1795275720948
 30
0.0
 10
86.96649902728944
 20
132.5327816629946
 30
0.0
 10
87.03346424061638
 20
133.1440112968908
 30
0.0
 10
87.47244294401114
 20
133.8113713665403
 30
0.0
 10
88.00505781772185
 20
134.0515672721688
 30
0.0
 10
88.300402195133
 20
134.0863793280575
 30
0.0
 10
88.37765410233331
 20
134.0888328495649
 30
0.0
 10
88.41646736605973
 20
134.1508916863794
 30
0.0
 10
88.40377943288368
 20
134.1995056766407
 30
0.0
 10
88.3893103302
 20
134.219345203
 30
0.0
 11
86.56995677570001
 21
132.0281283047
 31
0.0
 11
86.75352553979998
 21
131.8779356765
 31
0.0
 11
87.0483480943
 21
131.9947521604
 31
0.0
 11
87.08728692219999
 21
132.1950089898
 31
0.0
 11
87.0483480943
 21
132.3340762324
 31
0.0
 11
87.09284961189998
 21
133.118415481
 31
0.0
 11
87.53230209870002
 21
133.7636874869
 31
0.0
 11
88.21651293249997
 21
134.0751981104
 31
0.0
 11
88.31664134719998
 21
134.0863234898
 31
0.0
 11
88.3722682443
 21
134.0974488692
 31
0.0
 11
88.4056443825
 21
134.1475130766
 31
0.0
 11
88.3893103302
 21
134.219345203
 31
0.0
  0
SPLINE
  5
CBB
330
1B
100
AcDbEntity
  8
0
  6
Continuous
100
AcDbSpline
210
0.0
220
0.0
230
1.0
 70
     8
 71
     3
 72
    14
 73
    10
 74
     8
 42
0.0000000001
 43
0.0000000001
 44
0.0000000001
 12
-0.5892461061928555
 22
0.8079536040742427
 32
0.0
 13
0.5395697046458167
 23
-0.8419409325056161
 33
0.0
 40
0.0
 40
0.0
 40
0.0
 40
0.0
 40
0.1075395804060556
 40
0.3766266095149769
 40
1.878697041085145
 40
2.125720552248297
 40
2.341736346293534
 40
3.172441689592126
 40
3.510349327971204
 40
3.510349327971204
 40
3.510349327971204
 40
3.510349327971204
 10
88.3893103302
 20
134.219345203
 30
0.0
 10
88.36818790386138
 20
134.2483075335232
 30
0.0
 10
88.23817536196637
 20
134.2978789452289
 30
0.0
 10
87.61709084912945
 20
134.1337635784273
 30
0.0
 10
87.08193303398454
 20
133.7128081399317
 30
0.0
 10
86.51669196222747
 20
133.3724663828388
 30
0.0
 10
86.26354263425957
 20
133.0006734250535
 30
0.0
 10
86.41791770905942
 20
132.5009209438858
 30
0.0
 10
86.50918186748741
 20
132.1229610620859
 30
0.0
 10
86.56995677570001
 20
132.0281283047
 30
0.0
 11
88.3893103302
 21
134.219345203
 31
0.0
 11
88.29439058840001
 21
134.2698922501
 31
0.0
 11
88.0273814825
 21
134.2365161119
 31
0.0
 11
86.7201494016
 21
133.496678381
 31
0.0
 11
86.51989257220001
 21
133.3520484486
 31
0.0
 11
86.3975133987
 21
133.174042378
 31
0.0
 11
86.4531402957
 21
132.3452016118
 31
0.0
 11
86.56995677570001
 21
132.0281283047
 31
0.0
  0
SPLINE
  5
CBC
330
1B
100
AcDbEntity
  8
0
  6
Continuous
100
AcDbSpline
210
0.0
220
0.0
230
1.0
 70
     8
 71
     3
 72
    11
 73
     7
 74
     5
 42
0.0000000001
 43
0.0000000001
 44
0.0000000001
 12
-0.1080726391688379
 22
0.9941430001076718
 32
0.0
 13
-0.4660759615410086
 23
0.8847447078528496
 33
0.0
 40
0.0
 40
0.0
 40
0.0
 40
0.0
 40
0.192283763995741
 40
2.250273846631101
 40
4.224520779514156
 40
4.941033007836508
 40
4.941033007836508
 40
4.941033007836508
 40
4.941033007836508
 10
92.95644026540001
 20
128.2293720432
 30
0.0
 10
92.94951339411855
 20
128.2930912292036
 30
0.0
 10
92.93103845767533
 20
129.0435762414477
 30
0.0
 10
92.90986679004969
 20
130.4643818534448
 30
0.0
 10
92.36541186964163
 20
131.9765350060956
 30
0.0
 10
91.96567231025709
 20
132.77829371746
 30
0.0
 10
91.85435593500002
 20
132.9896038515
 30
0.0
 11
92.95644026540001
 21
128.2293720432
 31
0.0
 11
92.94640861489999
 21
128.4213939479
 31
0.0
 11
92.79428431600002
 21
130.4737539012
 31
0.0
 11
92.17209309410001
 21
132.3473944845
 31
0.0
 11
91.85435593500002
 21
132.9896038515
 31
0.0
  0
SPLINE
  5
CBD
330
1B
100
AcDbEntity
  8
0
  6
Continuous
100
AcDbSpline
210
0.0
220
0.0
230
1.0
 70
     8
 71
     3
 72
    15
 73
    11
 74
     9
 42
0.0000000001
 43
0.0000000001
 44
0.0000000001
 12
-0.9999999888005599
 22
0.0001496625551377
 32
0.0
 13
-0.000151035829535
 23
0.999999988594089
 33
0.0
 40
0.0
 40
0.0
 40
0.0
 40
0.0
 40
0.4660244601289057
 40
1.092559805137641
 40
1.719095730549905
 40
2.345632199657334
 40
2.972169204137458
 40
3.598706695413192
 40
4.225244643207952
 40
4.704563044069547
 40
4.704563044069547
 40
4.704563044069547
 40
4.704563044069547
 10
108.2739519613
 20
119.3389827295
 30
0.0
 10
108.1186104763301
 20
119.3390059783038
 30
0.0
 10
107.7539106165573
 20
119.3672903369755
 30
0.0
 10
107.1960192832178
 20
119.515779232098
 30
0.0
 10
106.6331627934227
 20
119.8012229069134
 30
0.0
 10
106.1418424844849
 20
120.1973656312688
 30
0.0
 10
105.743521582865
 20
120.6869200121493
 30
0.0
 10
105.4555787781976
 20
121.24851095839
 30
0.0
 10
105.3034475127129
 20
121.8100246788067
 30
0.0
 10
105.2739870661174
 20
122.1792067748352
 30
0.0
 10
105.2739629347
 20
122.3389795733
 30
0.0
 11
108.2739519613
 21
119.3389827295
 31
0.0
 11
107.8093337423
 21
119.3751587991
 31
0.0
 11
107.2038736559
 21
119.5362942152
 31
0.0
 11
106.6450857204
 21
119.8196726
 31
0.0
 11
106.1573425744
 21
120.2129340533
 31
0.0
 11
105.7619180666
 21
120.6989259016
 31
0.0
 11
105.476059415
 21
121.2564508421
 31
0.0
 11
105.3122349305
 21
121.861191562
 31
0.0
 11
105.2739629347
 21
122.3389795733
 31
0.0
  0
SPLINE
  5
CBE
330
1B
100
AcDbEntity
  8
0
  6
Continuous
100
AcDbSpline
210
0.0
220
0.0
230
1.0
 70
     8
 71
     3
 72
    15
 73
    11
 74
     9
 42
0.0000000001
 43
0.0000000001
 44
0.0000000001
 12
-0.0001510358083075
 22
-0.9999999885940923
 32
0.0
 13
-0.9999999888005694
 23
-0.0001496624914482
 33
0.0
 40
0.0
 40
0.0
 40
0.0
 40
0.0
 40
0.479318400961292
 40
1.105856348852561
 40
1.732393840128301
 40
2.358930844530855
 40
2.985467313638285
 40
3.612003238961373
 40
4.238538583776832
 40
4.704563043897975
 40
4.704563043897975
 40
4.704563043897975
 40
4.704563043897975
 10
68.8739405441
 20
122.3389795732
 30
0.0
 10
68.87391641268596
 20
122.1792067747019
 30
0.0
 10
68.84445596608639
 20
121.8100246786082
 30
0.0
 10
68.69232470061947
 20
121.2485109581212
 30
0.0
 10
68.40438189596384
 20
120.6869200118577
 30
0.0
 10
68.00606099428006
 20
120.1973656310646
 30
0.0
 10
67.51474068539977
 20
119.8012229067331
 30
0.0
 10
66.95188419571311
 20
119.5157792319362
 30
0.0
 10
66.3939928624886
 20
119.3672903367003
 30
0.0
 10
66.0292930027673
 20
119.3390059781939
 30
0.0
 10
65.8739515178
 20
119.3389827294
 30
0.0
 11
68.8739405441
 21
122.3389795732
 31
0.0
 11
68.83566854829999
 21
121.8611915618
 31
0.0
 11
68.6718440638
 21
121.2564508418
 31
0.0
 11
68.3859854122
 21
120.6989259013
 31
0.0
 11
67.9905609044
 21
120.2129340531
 31
0.0
 11
67.5028177584
 21
119.8196725998
 31
0.0
 11
66.94402982299999
 21
119.536294215
 31
0.0
 11
66.3385697368
 21
119.3751587989
 31
0.0
 11
65.8739515178
 21
119.3389827294
 31
0.0
  0
SPLINE
  5
CBF
330
1B
100
AcDbEntity
  8
0
  6
Continuous
100
AcDbSpline
210
0.0
220
0.0
230
1.0
 70
     8
 71
     3
 72
   110
 73
   106
 74
   104
 42
0.0000000001
 43
0.0000000001
 44
0.0000000001
 12
0.4153549347492409
 22
-0.9096594297754814
 32
0.0
 13
0.415352727846239
 23
0.9096604374549265
 33
0.0
 40
0.0
 40
0.0
 40
0.0
 40
0.0
 40
2.175351167981618
 40
4.059572212644312
 40
5.691981545391553
 40
7.106496546298978
 40
8.326854280109391
 40
9.383181364931861
 40
10.30476898494373
 40
11.11231367616323
 40
11.82161169968154
 40
12.44556545885105
 40
12.99545813007745
 40
13.48246133283099
 40
13.91634154086902
 40
14.30229296989107
 40
14.64707659050838
 40
14.9583821503555
 40
15.24082204712875
 40
15.49433986480302
 40
15.72087054682972
 40
15.9245566778012
 40
16.10925018146783
 40
16.2785834047303
 40
16.43601596791482
 40
16.58471616413511
 40
16.72398563631906
 40
16.85157202407302
 40
16.9691461632451
 40
17.07732934870722
 40
17.17632338999936
 40
17.26725559824312
 40
17.35128392651459
 40
17.42954721574819
 40
17.50291357896727
 40
17.57152888916568
 40
17.63541024337927
 40
17.69470043120561
 40
17.74976642714763
 40
17.8010065019597
 40
17.84882213426319
 40
17.89354188953713
 40
17.9354299826673
 40
17.97472763845449
 40
18.01165858153755
 40
18.04642140051549
 40
18.07914493146936
 40
18.10997441234383
 40
18.13910018623899
 40
18.16674806680641
 40
18.19317206734306
 40
18.21864853026799
 40
18.24347004377766
 40
18.26794025179788
 40
18.2924487842709
 40
18.31760739274213
 40
18.34430318812641
 40
18.37362819708062
 40
18.40663203252436
 40
18.44421594186718
 40
18.48599434095132
 40
18.52919815109511
 40
18.57188597137849
 40
18.6139488253013
 40
18.65500655084908
 40
18.69578963181721
 40
18.73757647851168
 40
18.78148127774449
 40
18.82849618130661
 40
18.87952305085027
 40
18.93538367866145
 40
18.9968180015345
 40
19.06448116141089
 40
19.1389006194042
 40
19.22056180468968
 40
19.30999265939718
 40
19.40779150096416
 40
19.51464019533749
 40
19.63124439819598
 40
19.75830253950226
 40
19.8967999436334
 40
20.04662317668145
 40
20.20658529025367
 40
20.37953785794239
 40
20.56889224032445
 40
20.77824802106845
 40
21.01090093698098
 40
21.26693747854563
 40
21.54971603023164
 40
21.86422985232856
 40
22.21100122907951
 40
22.59633664360232
 40
23.03023984154332
 40
23.52081126396819
 40
24.0740723266625
 40
24.70196256136519
 40
25.41929444461745
 40
26.23848258691113
 40
27.17616771552316
 40
28.25329813709253
 40
29.50035919075151
 40
30.95064283524748
 40
32.63114720700325
 40
34.57655196013455
 40
36.82879978418861
 40
36.82879978418861
 40
36.82879978418861
 40
36.82879978418861
 10
75.20877597180001
 20
106.3389793581
 30
0.0
 10
75.50995691927791
 20
105.6793697904242
 30
0.0
 10
76.08970930189318
 20
104.4563661578823
 30
0.0
 10
76.95806125856198
 20
102.7690290954036
 30
0.0
 10
77.76018393259362
 20
101.3339253058361
 30
0.0
 10
78.49853898442265
 20
100.1177684030498
 30
0.0
 10
79.17600848817494
 20
99.0903252095886
 30
0.0
 10
79.79664122951604
 20
98.22318654732806
 30
0.0
 10
80.36627201926366
 20
97.48966451054663
 30
0.0
 10
80.89008930726523
 20
96.86786975186759
 30
0.0
 10
81.3715679349166
 20
96.34091814290107
 30
0.0
 10
81.81347106240375
 20
95.89486774025224
 30
0.0
 10
82.2186944198437
 20
95.51744478250521
 30
0.0
 10
82.59051395292318
 20
95.19771430293127
 30
0.0
 10
82.93170891499852
 20
94.92672048637053
 30
0.0
 10
83.24473554352366
 20
94.69696434644573
 30
0.0
 10
83.53219131370356
 20
94.50184516259515
 30
0.0
 10
83.79717806504898
 20
94.33543406168457
 30
0.0
 10
84.04141856464936
 20
94.19352348935654
 30
0.0
 10
84.26530255905126
 20
94.07312090288714
 30
0.0
 10
84.46931437889218
 20
93.97144274505487
 30
0.0
 10
84.65537105611014
 20
93.88538030024293
 30
0.0
 10
84.8261883244205
 20
93.81196418678739
 30
0.0
 10
84.98452006440338
 20
93.74869684766304
 30
0.0
 10
85.13310543596109
 20
93.69350773410116
 30
0.0
 10
85.27347551112196
 20
93.64510552873279
 30
0.0
 10
85.40543085246529
 20
93.60293463937158
 30
0.0
 10
85.52831205587927
 20
93.56655770309897
 30
0.0
 10
85.64190586054009
 20
93.53540290220973
 30
0.0
 10
85.74682769684287
 20
93.50874090855068
 30
0.0
 10
85.84355537166999
 20
93.48595822093458
 30
0.0
 10
85.93277360563674
 20
93.46646976748289
 30
0.0
 10
86.01550321546927
 20
93.44970616383016
 30
0.0
 10
86.09270686394393
 20
93.43519741920777
 30
0.0
 10
86.16503522567429
 20
93.42260099675252
 30
0.0
 10
86.23278301410909
 20
93.41167793502676
 30
0.0
 10
86.29601394592891
 20
93.40224727465864
 30
0.0
 10
86.35487064986529
 20
93.39413135188444
 30
0.0
 10
86.40962751811887
 20
93.38715369901954
 30
0.0
 10
86.46065000877525
 20
93.38114881499689
 30
0.0
 10
86.50829558832521
 20
93.37597419411763
 30
0.0
 10
86.55288103818754
 20
93.37151064702414
 30
0.0
 10
86.59467286065824
 20
93.36765929792074
 30
0.0
 10
86.63390498020281
 20
93.36433665679506
 30
0.0
 10
86.67079127975734
 20
93.36147134113675
 30
0.0
 10
86.70550968180326
 20
93.35900351543215
 30
0.0
 10
86.73821309044701
 20
93.35688213764438
 30
0.0
 10
86.76905253076801
 20
93.35506220738489
 30
0.0
 10
86.79821203202529
 20
93.35350250816259
 30
0.0
 10
86.82591247008601
 20
93.35216580393499
 30
0.0
 10
86.85240390017933
 20
93.35101950189998
 30
0.0
 10
86.87795906859482
 20
93.35003601557312
 30
0.0
 10
86.90286762066569
 20
93.34919296210418
 30
0.0
 10
86.92745723658676
 20
93.34847250812526
 30
0.0
 10
86.9521621859475
 20
93.34786030319249
 30
0.0
 10
86.97761139858156
 20
93.34734628086916
 30
0.0
 10
87.00466809814888
 20
93.34692924701777
 30
0.0
 10
87.03434156580551
 20
93.34662529582947
 30
0.0
 10
87.06764568638769
 20
93.3464756809293
 30
0.0
 10
87.10510129153006
 20
93.34655148244153
 30
0.0
 10
87.14595528666997
 20
93.3469333981044
 30
0.0
 10
87.18850613227697
 20
93.3476646796229
 30
0.0
 10
87.23114462150657
 20
93.34873556582164
 30
0.0
 10
87.27305845267951
 20
93.35011589445402
 30
0.0
 10
87.31432606883998
 20
93.35179132784572
 30
0.0
 10
87.3554879951888
 20
93.35377304593695
 30
0.0
 10
87.39758127646923
 20
93.3561199397966
 30
0.0
 10
87.44172793725298
 20
93.3589298338519
 30
0.0
 10
87.48892180552939
 20
93.36232878547476
 30
0.0
 10
87.54005569926352
 20
93.36647284661426
 30
0.0
 10
87.59593370172307
 20
93.37155061369234
 30
0.0
 10
87.65727161442551
 20
93.37778553137756
 30
0.0
 10
87.72467952771382
 20
93.38543606667503
 30
0.0
 10
87.79867318762203
 20
93.39479754935395
 30
0.0
 10
87.8797139431834
 20
93.40620789167718
 30
0.0
 10
87.96827120302498
 20
93.42005996994277
 30
0.0
 10
88.06485966727635
 20
93.43681544641767
 30
0.0
 10
88.17002775085216
 20
93.45701378468534
 30
0.0
 10
88.28432579086373
 20
93.48127680030233
 30
0.0
 10
88.40836499318624
 20
93.51033112604364
 30
0.0
 10
88.5424449734017
 20
93.5449297499803
 30
0.0
 10
88.68621239888182
 20
93.58572260170064
 30
0.0
 10
88.83987569346137
 20
93.63353650306144
 30
0.0
 10
89.00469944403807
 20
93.68964146581966
 30
0.0
 10
89.18332581920927
 20
93.7560762185241
 30
0.0
 10
89.37833550594445
 20
93.83529886725063
 30
0.0
 10
89.59104870318475
 20
93.92970960680381
 30
0.0
 10
89.82249138556298
 20
94.04191347300868
 30
0.0
 10
90.07395291917305
 20
94.17499254082327
 30
0.0
 10
90.34652307974611
 20
94.33241298146386
 30
0.0
 10
90.64179181554542
 20
94.51839779637824
 30
0.0
 10
90.96231574050817
 20
94.73841858698172
 30
0.0
 10
91.31202681879063
 20
95.0000152420147
 30
0.0
 10
91.69388695086232
 20
95.31140134353781
 30
0.0
 10
92.11048160828553
 20
95.6817468085807
 30
0.0
 10
92.56506379767066
 20
96.12228494922488
 30
0.0
 10
93.06113547874291
 20
96.64645658015843
 30
0.0
 10
93.60189068898679
 20
97.26950278938779
 30
0.0
 10
94.19042164636502
 20
98.00879564735328
 30
0.0
 10
94.83185102468242
 20
98.88710901635656
 30
0.0
 10
95.53229069329856
 20
99.93266505718196
 30
0.0
 10
96.29636963592159
 20
101.1763478738177
 30
0.0
 10
97.1271942782754
 20
102.6508385035371
 30
0.0
 10
98.02718584162339
 20
104.3917314423849
 30
0.0
 10
98.62730174813115
 20
105.6560524444714
 30
0.0
 10
98.93912750730001
 20
106.3389793581
 30
0.0
 11
75.20877597180001
 21
106.3389793581
 31
0.0
 11
76.14264647209998
 21
104.3742812661
 31
0.0
 11
77.0066811728
 21
102.6998461431
 31
0.0
 11
77.8046903338
 21
101.2757879952
 31
0.0
 11
78.54011398469999
 21
100.0674814358
 31
0.0
 11
79.21299309440001
 21
99.04939170390001
 31
0.0
 11
79.8286825269
 21
98.19104828030001
 31
0.0
 11
80.3946609663
 21
97.4637298167
 31
0.0
 11
80.9155318697
 21
96.84662210299999
 31
0.0
 11
81.3944438544
 21
96.3234137343
 31
0.0
 11
81.83394255279997
 21
95.88051511419999
 31
0.0
 11
82.2366104804
 21
95.50602814520001
 31
0.0
 11
82.6060762126
 21
95.18874720940001
 31
0.0
 11
82.94598961350002
 21
94.91909759450002
 31
0.0
 11
83.25724337649999
 21
94.69088804040001
 31
0.0
 11
83.54260136569999
 21
94.4973768959
 31
0.0
 11
83.80629552390002
 21
94.3319183134
 31
0.0
 11
84.05055266179997
 21
94.19010595189999
 31
0.0
 11
84.2738633327
 21
94.0700908356
 31
0.0
 11
84.47663128070002
 21
93.96908930509999
 31
0.0
 11
84.66151369080001
 21
93.88361103660002
 31
0.0
 11
84.83120959819999
 21
93.8107070634
 31
0.0
 11
84.98846178089998
 21
93.74789391559997
 31
0.0
 11
85.1360487908
 21
93.6930934917
 31
0.0
 11
85.27663082300001
 21
93.64463278
 31
0.0
 11
85.4092937603
 21
93.602247276
 31
0.0
 11
85.5316344142
 21
93.56603884129999
 31
0.0
 11
85.6450229286
 21
93.53494667179999
 31
0.0
 11
85.74987489820001
 21
93.50830711309999
 31
0.0
 11
85.84623299250004
 21
93.48561487049999
 31
0.0
 11
85.93507101040001
 21
93.4662119565
 31
0.0
 11
86.01742598969999
 21
93.4495261141
 31
0.0
 11
86.0943430824
 21
93.43507262690001
 31
0.0
 11
86.16662170229998
 21
93.42248595309999
 31
0.0
 11
86.23436231739998
 21
93.411564879
 31
0.0
 11
86.29754489280001
 21
93.4021420566
 31
0.0
 11
86.35627937169997
 21
93.3940434542
 31
0.0
 11
86.4109036935
 21
93.38708303919998
 31
0.0
 11
86.46179257590001
 21
93.3810941399
 31
0.0
 11
86.509328698
 21
93.37593160290001
 31
0.0
 11
86.55382603779999
 21
93.37147702520001
 31
0.0
 11
86.59553739579997
 21
93.3676332042
 31
0.0
 11
86.6346948771
 21
93.36431697010001
 31
0.0
 11
86.67151490390002
 21
93.36145686809999
 31
0.0
 11
86.7061902376
 21
93.35899215389998
 31
0.0
 11
86.7388451413
 21
93.35687396069999
 31
0.0
 11
86.76962108119999
 21
93.35505780700001
 31
0.0
 11
86.79870528070003
 21
93.35350215780001
 31
0.0
 11
86.82632102760002
 21
93.3521695577
 31
0.0
 11
86.85272032589997
 21
93.35102725580001
 31
0.0
 11
86.8781779438
 21
93.35004753440001
 31
0.0
 11
86.90298525270001
 21
93.34920791659999
 31
0.0
 11
86.92744496459999
 21
93.3484912756
 31
0.0
 11
86.9519459756
 21
93.3478841315
 31
0.0
 11
86.9770994539
 21
93.34737608659999
 31
0.0
 11
87.00379207890001
 21
93.34696467219997
 31
0.0
 11
87.03311554949998
 21
93.3466643022
 31
0.0
 11
87.06611905200001
 21
93.3465160567
 31
0.0
 11
87.10370288440001
 21
93.34659210679999
 31
0.0
 11
87.14547945850001
 21
93.34698260200001
 31
0.0
 11
87.18867688900004
 21
93.3477250366
 31
0.0
 11
87.23135125399998
 21
93.34879675129999
 31
0.0
 11
87.27339131769999
 21
93.35018120940001
 31
0.0
 11
87.3144152496
 21
93.35184669390002
 31
0.0
 11
87.35515114979999
 21
93.35380784870002
 31
0.0
 11
87.39687320260001
 21
93.35613397569998
 31
0.0
 11
87.44068934320004
 21
93.35892274219999
 31
0.0
 11
87.48758279419999
 21
93.3622999319
 31
0.0
 11
87.5384429264
 21
93.36642162670002
 31
0.0
 11
87.59407435399999
 21
93.37147672339999
 31
0.0
 11
87.655193771
 21
93.37768904120001
 31
0.0
 11
87.72242536429997
 21
93.38531898659998
 31
0.0
 11
87.7962563816
 21
93.39465904079998
 31
0.0
 11
87.8771201532
 21
93.40604322389999
 31
0.0
 11
87.9654769022
 21
93.4198621486
 31
0.0
 11
88.06183705319999
 21
93.43657545799999
 31
0.0
 11
88.16676869570001
 21
93.45672474809999
 31
0.0
 11
88.2808323042
 21
93.48093287360001
 31
0.0
 11
88.40454361639999
 21
93.5099032465
 31
0.0
 11
88.53865055709998
 21
93.54449890239999
 31
0.0
 11
88.68278754959999
 21
93.58538323379999
 31
0.0
 11
88.83553121209999
 21
93.63289377309999
 31
0.0
 11
88.99926528549999
 21
93.68860502760001
 31
0.0
 11
89.17675253149997
 21
93.7545850218
 31
0.0
 11
89.37072878159999
 21
93.83334451219999
 31
0.0
 11
89.58339985109998
 21
93.92767581920001
 31
0.0
 11
89.81382145469998
 21
94.03930285540001
 31
0.0
 11
90.06380277479998
 21
94.17148851610001
 31
0.0
 11
90.33622184389999
 21
94.32867246909999
 31
0.0
 11
90.62972525470001
 21
94.51335093450001
 31
0.0
 11
90.9475338906
 21
94.73125240909999
 31
0.0
 11
91.29514844090001
 21
94.99093704399999
 31
0.0
 11
91.67556440730002
 21
95.30068534989998
 31
0.0
 11
92.08935570369999
 21
95.6679380783
 31
0.0
 11
92.54064343899999
 21
96.10449910129999
 31
0.0
 11
93.034228089
 21
96.62501732770001
 31
0.0
 11
93.5718328987
 21
97.2431194884
 31
0.0
 11
94.1566528236
 21
97.97608541930001
 31
0.0
 11
94.79290834779999
 21
98.8452165101
 31
0.0
 11
95.4882131083
 21
99.88045202030001
 31
0.0
 11
96.2488911438
 21
101.1152360402
 31
0.0
 11
97.0756106283
 21
102.5783251822
 31
0.0
 11
97.9710607378
 21
104.3053945945
 31
0.0
 11
98.93912750730001
 21
106.3389793581
 31
0.0
  0
SPLINE
  5
CC0
330
1B
100
AcDbEntity
  8
0
  6
Continuous
100
AcDbSpline
210
0.0
220
0.0
230
1.0
 70
     8
 71
     3
 72
    14
 73
    10
 74
     8
 42
0.0000000001
 43
0.0000000001
 44
0.0000000001
 12
0.3704422436443462
 22
0.9288555022842588
 32
0.0
 13
0.5437682960961375
 23
0.8392353901979488
 33
0.0
 40
0.0
 40
0.0
 40
0.0
 40
0.0
 40
2.635910613768798
 40
4.996140797781503
 40
6.879753051330997
 40
8.268874345624248
 40
9.211377519213492
 40
9.744869061091917
 40
9.913360676488978
 40
9.913360676488978
 40
9.913360676488978
 40
9.913360676488978
 10
100.5575178783
 20
113.6357308242
 30
0.0
 10
100.8830020922368
 20
114.4518575165762
 30
0.0
 10
101.5696644853214
 20
115.971320938995
 30
0.0
 10
102.6399876489716
 20
118.0002845332508
 30
0.0
 10
103.5795861050527
 20
119.6262888524325
 30
0.0
 10
104.311315240428
 20
120.8258799813597
 30
0.0
 10
104.8203720932235
 20
121.6339623096683
 30
0.0
 10
105.1163438889996
 20
122.0953574576887
 30
0.0
 10
105.2434116066297
 20
122.2918446492357
 30
0.0
 10
105.2739517395
 20
122.3389793581
 30
0.0
 11
100.5575178783
 21
113.6357308242
 31
0.0
 11
101.6327766901
 21
116.0423556914
 31
0.0
 11
102.7288760044
 21
118.1326314662
 31
0.0
 11
103.6694277755
 21
119.7646110885
 31
0.0
 11
104.3922231151
 21
120.95087618
 31
0.0
 11
104.8944296082
 21
121.748435501
 31
0.0
 11
105.1824552595
 21
122.1974950176
 31
0.0
 11
105.2739517395
 21
122.3389793581
 31
0.0
  0
SPLINE
  5
CC1
330
1B
100
AcDbEntity
  8
0
  6
Continuous
100
AcDbSpline
210
0.0
220
0.0
230
1.0
 70
     8
 71
     3
 72
    10
 73
     6
 74
     4
 42
0.0000000001
 43
0.0000000001
 44
0.0000000001
 12
0.6237971112431177
 22
-0.7815863125750999
 32
0.0
 13
0.8756944364774094
 23
-0.4828656686103419
 33
0.0
 40
0.0
 40
0.0
 40
0.0
 40
0.0
 40
0.6703589700046415
 40
1.459721500197188
 40
2.37036674338184
 40
2.37036674338184
 40
2.37036674338184
 40
2.37036674338184
 10
73.59038560080001
 20
113.6357308242
 30
0.0
 10
73.7297749304616
 20
113.4610830257108
 30
0.0
 10
74.05913433059592
 20
113.1008328992417
 30
0.0
 10
74.66498239265715
 20
112.5903360121835
 30
0.0
 10
75.14506092031286
 20
112.2854323754724
 30
0.0
 10
75.410876578
 20
112.1388592674
 30
0.0
 11
73.59038560080001
 21
113.6357308242
 31
0.0
 11
74.04150693379999
 21
113.1398773261
 31
0.0
 11
74.6438082146
 21
112.6296554418
 31
0.0
 11
75.410876578
 21
112.1388592674
 31
0.0
  0
SPLINE
  5
CC2
330
1B
100
AcDbEntity
  8
0
  6
Continuous
100
AcDbSpline
210
0.0
220
0.0
230
1.0
 70
     8
 71
     3
 72
    10
 73
     6
 74
     4
 42
0.0000000001
 43
0.0000000001
 44
0.0000000001
 12
0.8756964273495778
 22
0.482862058073717
 32
0.0
 13
0.6237959656087756
 23
0.781587226923659
 33
0.0
 40
0.0
 40
0.0
 40
0.0
 40
0.0
 40
0.9106452576532798
 40
1.700006787824001
 40
2.370366738826459
 40
2.370366738826459
 40
2.370366738826459
 40
2.370366738826459
 10
98.7370269011
 20
112.1388592674
 30
0.0
 10
99.00284316733659
 20
112.2854312818285
 30
0.0
 10
99.48291956976021
 20
112.5903376567598
 30
0.0
 10
100.0887699353543
 20
113.100831576767
 30
0.0
 10
100.418128600653
 20
113.4610825658184
 30
0.0
 10
100.5575178783
 20
113.6357308242
 30
0.0
 11
98.7370269011
 21
112.1388592674
 31
0.0
 11
99.50409489880001
 21
112.6296560402
 31
0.0
 11
100.1063963451
 21
113.139876182
 31
0.0
 11
100.5575178783
 21
113.6357308242
 31
0.0
  0
SPLINE
  5
CC3
330
1B
100
AcDbEntity
  8
0
  6
Continuous
100
AcDbSpline
210
0.0
220
0.0
230
1.0
 70
     8
 71
     3
 72
    10
 73
     6
 74
     4
 42
0.0000000001
 43
0.0000000001
 44
0.0000000001
 12
0.3529669754890868
 22
-0.9356357807470205
 32
0.0
 13
0.0031795613941876
 23
-0.9999949451818947
 33
0.0
 40
0.0
 40
0.0
 40
0.0
 40
0.0
 40
0.4902647781485679
 40
0.9967312934913377
 40
1.512316544234785
 40
1.512316544234785
 40
1.512316544234785
 40
1.512316544234785
 10
75.410876578
 20
112.1388592674
 30
0.0
 10
75.46855900331065
 20
111.9859561779081
 30
0.0
 10
75.56618694172263
 20
111.667198959469
 30
0.0
 10
75.65075426225161
 20
111.1692106712886
 30
0.0
 10
75.67247902201378
 20
110.8284061874179
 30
0.0
 10
75.673025467
 20
110.6565453059
 30
0.0
 11
75.410876578
 21
112.1388592674
 31
0.0
 11
75.55446480169996
 21
111.670092828
 31
0.0
 11
75.6415448339
 21
111.1711685861
 31
0.0
 11
75.673025467
 21
110.6565453059
 31
0.0
  0
SPLINE
  5
CC4
330
1B
100
AcDbEntity
  8
0
  6
Continuous
100
AcDbSpline
210
0.0
220
0.0
230
1.0
 70
     8
 71
     3
 72
    10
 73
     6
 74
     4
 42
0.0000000001
 43
0.0000000001
 44
0.0000000001
 12
0.0031795613941876
 22
0.9999949451818947
 32
0.0
 13
0.3529669754890868
 23
0.9356357807470205
 33
0.0
 40
0.0
 40
0.0
 40
0.0
 40
0.0
 40
0.5155852507434463
 40
1.022051766086214
 40
1.512316544234786
 40
1.512316544234786
 40
1.512316544234786
 40
1.512316544234786
 10
98.47487801210001
 20
110.6565453059
 30
0.0
 10
98.47542445708623
 20
110.8284061874179
 30
0.0
 10
98.49714921684839
 20
111.1692106712887
 30
0.0
 10
98.58171653737735
 20
111.667198959469
 30
0.0
 10
98.67934447578935
 20
111.9859561779081
 30
0.0
 10
98.7370269011
 20
112.1388592674
 30
0.0
 11
98.47487801210001
 21
110.6565453059
 31
0.0
 11
98.5063586452
 21
111.1711685861
 31
0.0
 11
98.59343867740002
 21
111.670092828
 31
0.0
 11
98.7370269011
 21
112.1388592674
 31
0.0
  0
SPLINE
  5
CC5
330
1B
100
AcDbEntity
  8
0
  6
Continuous
100
AcDbSpline
210
0.0
220
0.0
230
1.0
 70
     8
 71
     3
 72
    10
 73
     6
 74
     4
 42
0.0000000001
 43
0.0000000001
 44
0.0000000001
 12
0.3127965645807691
 22
-0.949820145704685
 32
0.0
 13
0.3478379810933811
 23
-0.9375546591580038
 33
0.0
 40
0.0
 40
0.0
 40
0.0
 40
0.0
 40
1.268250241045428
 40
2.565836949648864
 40
3.887416608415527
 40
3.887416608415527
 40
3.887416608415527
 40
3.887416608415527
 10
75.673025467
 20
110.6565453059
 30
0.0
 10
75.80526023980924
 20
110.2550087629867
 30
0.0
 10
76.07699408070079
 20
109.4440235840354
 30
0.0
 10
76.50279353929918
 20
108.2201440464484
 30
0.0
 10
76.8004228944135
 20
107.399350021475
 30
0.0
 10
76.9536547612
 20
106.9863322993
 30
0.0
 11
75.673025467
 21
110.6565453059
 31
0.0
 11
76.0761616385
 21
109.4540728941
 31
0.0
 11
76.502802747
 21
108.2286306756
 31
0.0
 11
76.9536547612
 21
106.9863322993
 31
0.0
  0
SPLINE
  5
CC6
330
1B
100
AcDbEntity
  8
0
  6
Continuous
100
AcDbSpline
210
0.0
220
0.0
230
1.0
 70
     8
 71
     3
 72
    10
 73
     6
 74
     4
 42
0.0000000001
 43
0.0000000001
 44
0.0000000001
 12
0.3478379768649511
 22
0.9375546607267749
 32
0.0
 13
0.3127965724540593
 23
0.9498201431118382
 33
0.0
 40
0.0
 40
0.0
 40
0.0
 40
0.0
 40
1.321579662354644
 40
2.619166370974875
 40
3.887416608443703
 40
3.887416608443703
 40
3.887416608443703
 40
3.887416608443703
 10
97.19424871790002
 20
106.9863322993
 30
0.0
 10
97.34748058323979
 20
107.3993500232874
 30
0.0
 10
97.64510994097346
 20
108.2201440485367
 30
0.0
 10
98.07090940351014
 20
109.4440235848444
 30
0.0
 10
98.34264323633524
 20
110.2550087652152
 30
0.0
 10
98.47487801210001
 20
110.6565453059
 30
0.0
 11
97.19424871790002
 21
106.9863322993
 31
0.0
 11
97.64510073380002
 21
108.2286306788
 31
0.0
 11
98.07174184350001
 21
109.4540728969
 31
0.0
 11
98.47487801210001
 21
110.6565453059
 31
0.0
  0
SPLINE
  5
CC7
330
1B
100
AcDbEntity
  8
0
  6
Continuous
100
AcDbSpline
210
0.0
220
0.0
230
1.0
 70
     8
 71
     3
 72
   110
 73
   106
 74
   104
 42
0.0000000001
 43
0.0000000001
 44
0.0000000001
 12
0.3478297992808755
 22
-0.9375576946152305
 32
0.0
 13
0.3478294859293438
 23
0.9375578108672172
 33
0.0
 40
0.0
 40
0.0
 40
0.0
 40
0.0
 40
2.210930733289134
 40
4.11696323022452
 40
5.759570643260133
 40
7.174647883856182
 40
8.387764300454418
 40
9.430693240246095
 40
10.33402414647659
 40
11.11955136871409
 40
11.80404741734437
 40
12.40128863935256
 40
12.92331132061122
 40
13.38183738817052
 40
13.78703653156599
 40
14.14463016362315
 40
14.46165923984431
 40
14.74583636211221
 40
15.00189656785196
 40
15.23026534648805
 40
15.43312857421471
 40
15.61456538707818
 40
15.77829411063259
 40
15.92775327347632
 40
16.06615851998309
 40
16.19641218584638
 40
16.31799992878159
 40
16.42905668453734
 40
16.53112969136306
 40
16.62483269592065
 40
16.71040317122361
 40
16.78886667442656
 40
16.86126166984619
 40
16.928599115006
 40
16.99164860009374
 40
17.05055380917362
 40
17.10534514540362
 40
17.15615846950393
 40
17.20331928519074
 40
17.24717746113329
 40
17.28808357043376
 40
17.32632418416723
 40
17.36212961836005
 40
17.3957095898166
 40
17.42725810286555
 40
17.45694708256361
 40
17.48488841396316
 40
17.51120762426285
 40
17.53606842957258
 40
17.5596645409875
 40
17.58221349741581
 40
17.6039516923035
 40
17.62512922187111
 40
17.64600548438123
 40
17.66691314909065
 40
17.68837426613751
 40
17.71114577020519
 40
17.73615938556062
 40
17.76431078724905
 40
17.79636868025335
 40
17.83200409765995
 40
17.86885563810706
 40
17.9052710180019
 40
17.94115780932847
 40
17.97619240905026
 40
18.01099865697576
 40
18.04666878655259
 40
18.08415585986411
 40
18.12431002509529
 40
18.16790597073618
 40
18.21565212554466
 40
18.26818972597914
 40
18.32609100746678
 40
18.38982326760511
 40
18.45982301668287
 40
18.53656964070292
 40
18.62061102738194
 40
18.71257709953576
 40
18.81313096397677
 40
18.92294470577684
 40
19.04295709519629
 40
19.17317384954715
 40
19.3126757365743
 40
19.46408269495692
 40
19.63056176686681
 40
19.81552049150417
 40
20.02218622930134
 40
20.25100559697388
 40
20.50540334228926
 40
20.79039013654135
 40
21.10702314438649
 40
21.46171357604405
 40
21.8644856457498
 40
22.3238493113348
 40
22.84653597872088
 40
23.44502962031099
 40
24.13482778738227
 40
24.92936701869757
 40
25.84635632835122
 40
26.90794431183349
 40
28.14599556707753
 40
29.59555352509945
 40
31.28560769574543
 40
33.25296147019297
 40
35.54185813678735
 40
35.54185813678735
 40
35.54185813678735
 40
35.54185813678735
 10
76.9536547612
 20
106.9863322993
 30
0.0
 10
77.20999729226129
 20
106.2953739255478
 30
0.0
 10
77.7032234917652
 20
105.0145333194238
 30
0.0
 10
78.44382802959218
 20
103.2429896722098
 30
0.0
 10
79.12795307181075
 20
101.7361813316683
 30
0.0
 10
79.75772759655852
 20
100.4591740584079
 30
0.0
 10
80.33560191642356
 20
99.38023688587106
 30
0.0
 10
80.86501144416326
 20
98.46959809242414
 30
0.0
 10
81.35092776515674
 20
97.69924597419565
 30
0.0
 10
81.79778637680109
 20
97.04618841813729
 30
0.0
 10
82.20855443358906
 20
96.49269945361299
 30
0.0
 10
82.58558663544483
 20
96.02414944735834
 30
0.0
 10
82.93134377117237
 20
95.62766582255014
 30
0.0
 10
83.2486100347603
 20
95.2917782036608
 30
0.0
 10
83.53975939362398
 20
95.00707794356084
 30
0.0
 10
83.80688516278816
 20
94.76569260671427
 30
0.0
 10
84.05218724712762
 20
94.56070276713474
 30
0.0
 10
84.27831007815584
 20
94.38587980912922
 30
0.0
 10
84.48673759776266
 20
94.23679220851977
 30
0.0
 10
84.67780383865377
 20
94.11029640660344
 30
0.0
 10
84.85190804971741
 20
94.00347713374427
 30
0.0
 10
85.01067989634798
 20
93.91307062492693
 30
0.0
 10
85.15643733348958
 20
93.83595552685026
 30
0.0
 10
85.29153123874623
 20
93.76950637476297
 30
0.0
 10
85.41830023874815
 20
93.71154650402777
 30
0.0
 10
85.53805736466414
 20
93.6607158546272
 30
0.0
 10
85.65063939730466
 20
93.61642804471364
 30
0.0
 10
85.75547970208272
 20
93.57822554036476
 30
0.0
 10
85.8523929750389
 20
93.54550871860735
 30
0.0
 10
85.94190606412606
 20
93.51751080100961
 30
0.0
 10
86.02442638403754
 20
93.4935874163199
 30
0.0
 10
86.10053779422032
 20
93.47312405910036
 30
0.0
 10
86.17111168553825
 20
93.45552252796787
 30
0.0
 10
86.23696990659074
 20
93.44028904300532
 30
0.0
 10
86.29866833651832
 20
93.42706367450701
 30
0.0
 10
86.35645890221227
 20
93.41559537025908
 30
0.0
 10
86.41039602535251
 20
93.405694091017
 30
0.0
 10
86.46060133878113
 20
93.39717328285326
 30
0.0
 10
86.5073089440276
 20
93.38984763744347
 30
0.0
 10
86.55083068888074
 20
93.38354335903468
 30
0.0
 10
86.59147160758974
 20
93.37811080037507
 30
0.0
 10
86.62950201654945
 20
93.37342480435183
 30
0.0
 10
86.66514931131081
 20
93.3693815482701
 30
0.0
 10
86.69861307656868
 20
93.36589336865364
 30
0.0
 10
86.7300757916784
 20
93.36288531725174
 30
0.0
 10
86.75968925876771
 20
93.3602945694727
 30
0.0
 10
86.78758392698119
 20
93.35806753550617
 30
0.0
 10
86.81388862895632
 20
93.35615697051465
 30
0.0
 10
86.83876034652576
 20
93.35451960218398
 30
0.0
 10
86.86238749030316
 20
93.3531163382207
 30
0.0
 10
86.88498335814165
 20
93.35191296071307
 30
0.0
 10
86.90678060142388
 20
93.35088050777819
 30
0.0
 10
86.92802628346745
 20
93.34999548161106
 30
0.0
 10
86.94899991099015
 20
93.34923915859956
 30
0.0
 10
86.97007190239812
 20
93.3485964756992
 30
0.0
 10
86.99177874245203
 20
93.34805685829529
 30
0.0
 10
87.01485680990669
 20
93.3476190600235
 30
0.0
 10
87.04016715873581
 20
93.34729995699462
 30
0.0
 10
87.06857462680999
 20
93.3471429213906
 30
0.0
 10
87.10052315320129
 20
93.34722248697699
 30
0.0
 10
87.1353696574498
 20
93.34762339853907
 30
0.0
 10
87.17166289957191
 20
93.34839124520957
 30
0.0
 10
87.20803066803063
 20
93.34951540579431
 30
0.0
 10
87.24378077901547
 20
93.35096447771457
 30
0.0
 10
87.27897991586987
 20
93.35272332532125
 30
0.0
 10
87.31408915472598
 20
93.3548037400065
 30
0.0
 10
87.34999306834165
 20
93.35726753732503
 30
0.0
 10
87.38764877088343
 20
93.36021743197311
 30
0.0
 10
87.42790407212743
 20
93.36378578001595
 30
0.0
 10
87.47152066832881
 20
93.36813644149288
 30
0.0
 10
87.51918461356414
 20
93.37346745754438
 30
0.0
 10
87.57150670451088
 20
93.38001347629562
 30
0.0
 10
87.62900759528239
 20
93.38804593971766
 30
0.0
 10
87.69212750201143
 20
93.39787502243563
 30
0.0
 10
87.76126033195286
 20
93.40985565619209
 30
0.0
 10
87.83680697664489
 20
93.42440054810942
 30
0.0
 10
87.91920706806801
 20
93.44199471140938
 30
0.0
 10
88.00892905002881
 20
93.46320494347336
 30
0.0
 10
88.10644297328669
 20
93.48868460145459
 30
0.0
 10
88.21227105771985
 20
93.51919728370548
 30
0.0
 10
88.32666842491904
 20
93.55553401645595
 30
0.0
 10
88.44933062269269
 20
93.59837665825137
 30
0.0
 10
88.58043876843016
 20
93.6485948457607
 30
0.0
 10
88.72107918011365
 20
93.70752616438523
 30
0.0
 10
88.8735087619163
 20
93.7773145071635
 30
0.0
 10
89.03993010153245
 20
93.86054403010533
 30
0.0
 10
89.22146126774263
 20
93.95973357537686
 30
0.0
 10
89.4189746196332
 20
94.07761857115472
 30
0.0
 10
89.63357842253009
 20
94.2174430492875
 30
0.0
 10
89.86618962764212
 20
94.3828414880584
 30
0.0
 10
90.11816190763817
 20
94.57824694178976
 30
0.0
 10
90.39169520277471
 20
94.80942326654866
 30
0.0
 10
90.69013780710981
 20
95.08428911877709
 30
0.0
 10
91.01599136711627
 20
95.41144881157689
 30
0.0
 10
91.37145909537895
 20
95.80052691009792
 30
0.0
 10
91.7593238503918
 20
96.26332767243227
 30
0.0
 10
92.18255550656164
 20
96.81394222804281
 30
0.0
 10
92.64386833961268
 20
97.46835163720724
 30
0.0
 10
93.14590511465649
 20
98.2447941426484
 30
0.0
 10
93.69304725381269
 20
99.16719019543393
 30
0.0
 10
94.29050675902772
 20
100.2651685033592
 30
0.0
 10
94.94221411440051
 20
101.5710977611343
 30
0.0
 10
95.65080550131115
 20
103.1192693857594
 30
0.0
 10
96.41838042372255
 20
104.9470362763347
 30
0.0
 10
96.92886680093773
 20
106.2710079832888
 30
0.0
 10
97.19424871790002
 20
106.9863322993
 30
0.0
 11
76.9536547612
 21
106.9863322993
 31
0.0
 11
77.7501801288
 21
104.9238672581
 31
0.0
 11
78.48715890779999
 21
103.1660782609
 31
0.0
 11
79.1678148837
 21
101.6711312532
 31
0.0
 11
79.79509004720001
 21
100.4026796514
 31
0.0
 11
80.36901678479997
 21
99.33391422340002
 31
0.0
 11
80.8941639001
 21
98.4328474774
 31
0.0
 11
81.37691023690002
 21
97.66932753629999
 31
0.0
 11
81.82118245739999
 21
97.0215040951
 31
0.0
 11
82.22966614609999
 21
96.4722537727
 31
0.0
 11
82.60453260629998
 21
96.007310535
 31
0.0
 11
82.94798457349997
 21
95.61418405919999
 31
0.0
 11
83.2631170296
 21
95.2811109595
 31
0.0
 11
83.55304311599998
 21
94.9980399256
 31
0.0
 11
83.8185242146
 21
94.75847158049999
 31
0.0
 11
84.06191774189998
 21
94.55532870949999
 31
0.0
 11
84.2868333144
 21
94.3816346622
 31
0.0
 11
84.49517027330001
 21
94.2327637768
 31
0.0
 11
84.6856411238
 21
94.10677507029999
 31
0.0
 11
84.85859023539999
 21
94.0007463291
 31
0.0
 11
85.01628403949998
 21
93.91101349669999
 31
0.0
 11
85.16102465359997
 21
93.83448082690001
 31
0.0
 11
85.29515150439998
 21
93.76854123900002
 31
0.0
 11
85.4210345323
 21
93.7110131976
 31
0.0
 11
85.5409427364
 21
93.66014041450001
 31
0.0
 11
85.65409642429997
 21
93.61564522209999
 31
0.0
 11
85.7584458016
 21
93.57763455969999
 31
0.0
 11
85.8551595333
 21
93.5449948167
 31
0.0
 11
85.94459209629999
 21
93.51702930690001
 31
0.0
 11
86.02677988069999
 21
93.49320758700002
 31
0.0
 11
86.10255348200001
 21
93.47283891790001
 31
0.0
 11
86.17279743220001
 21
93.4553225592
 31
0.0
 11
86.2384031858
 21
93.4401496684
 31
0.0
 11
86.3000525976
 21
93.42693650850001
 31
0.0
 11
86.35783135920001
 21
93.4154718513
 31
0.0
 11
86.41172238059997
 21
93.40558001940001
 31
0.0
 11
86.46181943640001
 21
93.39707831920001
 31
0.0
 11
86.50841076949999
 21
93.3897714583
 31
0.0
 11
86.55181599230004
 21
93.3834844693
 31
0.0
 11
86.592361508
 21
93.37806497349999
 31
0.0
 11
86.63031512139999
 21
93.3733886749
 31
0.0
 11
86.66589245609998
 21
93.36935353260002
 31
0.0
 11
86.69929148399997
 21
93.36587223709999
 31
0.0
 11
86.73069680060002
 21
93.36286977729999
 31
0.0
 11
86.7602728199
 21
93.36028238519999
 31
0.0
 11
86.78812553070002
 21
93.35805876170001
 31
0.0
 11
86.81437559539999
 21
93.35615221139999
 31
0.0
 11
86.8391827051
 21
93.3545191318
 31
0.0
 11
86.8627373113
 21
93.3531202034
 31
0.0
 11
86.88525435939999
 21
93.351921045
 31
0.0
 11
86.90696821059997
 21
93.35089255920001
 31
0.0
 11
86.92812739009999
 21
93.35001115039998
 31
0.0
 11
86.9489900928
 21
93.349258839
 31
0.0
 11
86.96988804030001
 21
93.3486214742
 31
0.0
 11
86.99134252929999
 21
93.34808813879999
 31
0.0
 11
87.0141099372
 21
93.3476562418
 31
0.0
 11
87.0391215649
 21
93.34734091190001
 31
0.0
 11
87.06727253649997
 21
93.34718530020001
 31
0.0
 11
87.09933033010002
 21
93.3472651336
 31
0.0
 11
87.13496338949999
 21
93.3476750745
 31
0.0
 11
87.1718066859
 21
93.34845452540002
 31
0.0
 11
87.20820468280002
 21
93.3495795652
 31
0.0
 11
87.2440620329
 21
93.35103291840001
 31
0.0
 11
87.27905298010001
 21
93.35278128669999
 31
0.0
 11
87.31379828759997
 21
93.35484004879999
 31
0.0
 11
87.34938473520001
 21
93.35728195200001
 31
0.0
 11
87.3867573186
 21
93.36020952360001
 31
0.0
 11
87.42675466790001
 21
93.36375480700001
 31
0.0
 11
87.470135365
 21
93.36808165289999
 31
0.0
 11
87.51758569859999
 21
93.37338836000001
 31
0.0
 11
87.56971696689999
 21
93.37990988780001
 31
0.0
 11
87.62706156420001
 21
93.3879196043
 31
0.0
 11
87.6900350829
 21
93.3977245482
 31
0.0
 11
87.75900712690003
 21
93.4096753648
 31
0.0
 11
87.83437023899997
 21
93.4241821092
 31
0.0
 11
87.9165597813
 21
93.4417273026
 31
0.0
 11
88.00606030110001
 21
93.46287949829998
 31
0.0
 11
88.10334985
 21
93.4882925526
 31
0.0
 11
88.2088683209
 21
93.51870488870002
 31
0.0
 11
88.3232536551
 21
93.55502250059998
 31
0.0
 11
88.44619403450002
 21
93.59794179959999
 31
0.0
 11
88.57647538299997
 21
93.64781711129999
 31
0.0
 11
88.7161309042
 21
93.70630131809999
 31
0.0
 11
88.8675170711
 21
93.77556537700001
 31
0.0
 11
89.03296738820001
 21
93.85824501409999
 31
0.0
 11
89.21436329329997
 21
93.95727153979999
 31
0.0
 11
89.41089934590001
 21
94.0744546574
 31
0.0
 11
89.6241186785
 21
94.21321967110001
 31
0.0
 11
89.8564761033
 21
94.37822724680001
 31
0.0
 11
90.1068172029
 21
94.57209781059999
 31
0.0
 11
90.37788920440001
 21
94.8008449905
 31
0.0
 11
90.67438390149999
 21
95.07345503200001
 31
0.0
 11
90.9988562841
 21
95.39862060549999
 31
0.0
 11
91.35179581930001
 21
95.78415275299999
 31
0.0
 11
91.73671760190003
 21
96.2424429016
 31
0.0
 11
92.1577162088
 21
96.78886918599999
 31
0.0
 11
92.6162614559
 21
97.43773654260001
 31
0.0
 11
93.1150784643
 21
98.2071850374
 31
0.0
 11
93.6577672499
 21
99.11957636170001
 31
0.0
 11
94.25082171639998
 21
100.2063409684
 31
0.0
 11
94.8996375525
 21
101.5025879682
 31
0.0
 11
95.6047817465
 21
103.0385094393
 31
0.0
 11
96.3685569407
 21
104.8515533788
 31
0.0
 11
97.19424871790002
 21
106.9863322993
 31
0.0
  0
SPLINE
  5
CC8
330
1B
100
AcDbEntity
  8
0
  6
Continuous
100
AcDbSpline
210
0.0
220
0.0
230
1.0
 70
     8
 71
     3
 72
    10
 73
     6
 74
     4
 42
0.0000000001
 43
0.0000000001
 44
0.0000000001
 12
0.9384907451536872
 22
0.3453043892870129
 32
0.0
 13
0.6966439522212596
 23
0.7174170362024752
 33
0.0
 40
0.0
 40
0.0
 40
0.0
 40
0.0
 40
0.9258293945833179
 40
1.82436560591589
 40
2.627552733648648
 40
2.627552733648648
 40
2.627552733648648
 40
2.627552733648648
 10
71.36781975380001
 20
112.2675922603
 30
0.0
 10
71.65744719326924
 20
112.3741565781935
 30
0.0
 10
72.21480596767441
 20
112.6226426040936
 30
0.0
 10
72.96450694551291
 20
113.0794061783131
 30
0.0
 10
73.40389851055434
 20
113.4436574502687
 30
0.0
 10
73.59041032890001
 20
113.6357308265
 30
0.0
 11
71.36781975380001
 21
112.2675922603
 31
0.0
 11
72.21366036870001
 21
112.6440410909
 31
0.0
 11
72.97884584480001
 21
113.1150596789
 31
0.0
 11
73.59041032890001
 21
113.6357308265
 31
0.0
  0
SPLINE
  5
CC9
330
1B
100
AcDbEntity
  8
0
  6
Continuous
100
AcDbSpline
210
0.0
220
0.0
230
1.0
 70
     8
 71
     3
 72
    11
 73
     7
 74
     5
 42
0.0000000001
 43
0.0000000001
 44
0.0000000001
 12
0.6527508986710356
 22
0.757572613208896
 32
0.0
 13
0.4567861320531746
 23
0.8895765450841764
 33
0.0
 40
0.0
 40
0.0
 40
0.0
 40
0.0
 40
0.7840397197547245
 40
1.557161283306588
 40
2.268048305697714
 40
2.87020587025106
 40
2.87020587025106
 40
2.87020587025106
 40
2.87020587025106
 10
73.7073485235
 20
109.8351736446
 30
0.0
 10
73.87794273405456
 20
110.0331626510514
 30
0.0
 10
74.22106149314863
 20
110.4227657692937
 30
0.0
 10
74.68497626294828
 20
111.0205558012879
 30
0.0
 10
75.08255033367479
 20
111.5907345378321
 30
0.0
 10
75.31919082670036
 20
111.9603041931428
 30
0.0
 10
75.4108765683
 20
112.1388592751
 30
0.0
 11
73.7073485235
 21
109.8351736446
 31
0.0
 11
74.2172278666
 21
110.4307753048
 31
0.0
 11
74.6920803507
 21
111.0408835496
 31
0.0
 11
75.09928671430001
 21
111.6235870214
 31
0.0
 11
75.4108765683
 21
112.1388592751
 31
0.0
  0
SPLINE
  5
CCA
330
1B
100
AcDbEntity
  8
0
  6
Continuous
100
AcDbSpline
210
0.0
220
0.0
230
1.0
 70
     8
 71
     3
 72
    10
 73
     6
 74
     4
 42
0.0000000001
 43
0.0000000001
 44
0.0000000001
 12
0.9546503501970977
 22
0.29772925430424
 32
0.0
 13
0.8625580623369705
 23
0.5059580902579688
 33
0.0
 40
0.0
 40
0.0
 40
0.0
 40
0.0
 40
0.7552605835779901
 40
1.480741013241085
 40
2.134024130612644
 40
2.134024130612644
 40
2.134024130612644
 40
2.134024130612644
 10
73.7073485235
 20
109.8351736446
 30
0.0
 10
73.94768511703427
 20
109.910128034718
 30
0.0
 10
74.4160634083635
 20
110.0672135640832
 30
0.0
 10
75.07243303762424
 20
110.34223548641
 30
0.0
 10
75.48519392864084
 20
110.5463673404123
 30
0.0
 10
75.6730254686
 20
110.6565452999
 30
0.0
 11
73.7073485235
 21
109.8351736446
 31
0.0
 11
74.42211649019998
 21
110.0791517233
 31
0.0
 11
75.0915075293
 21
110.3588613774
 31
0.0
 11
75.6730254686
 21
110.6565452999
 31
0.0
  0
SPLINE
  5
CCB
330
1B
100
AcDbEntity
  8
0
  6
Continuous
100
AcDbSpline
210
0.0
220
0.0
230
1.0
 70
     8
 71
     3
 72
    10
 73
     6
 74
     4
 42
0.0000000001
 43
0.0000000001
 44
0.0000000001
 12
-0.9546505045015932
 22
0.297728759536014
 32
0.0
 13
-0.862558448166601
 23
0.5059574324944988
 33
0.0
 40
0.0
 40
0.0
 40
0.0
 40
0.0
 40
0.7552566457455697
 40
1.480736623385981
 40
2.134024130165843
 40
2.134024130165843
 40
2.134024130165843
 40
2.134024130165843
 10
100.4405549556
 20
109.8351736446
 30
0.0
 10
100.2002195763036
 20
109.9101275193564
 30
0.0
 10
99.73184272175189
 20
110.0672127092458
 30
0.0
 10
99.07547291078568
 20
110.342234208003
 30
0.0
 10
98.66271089651823
 20
110.546366743363
 30
0.0
 10
98.47487801050001
 20
110.6565452999
 30
0.0
 11
100.4405549556
 21
109.8351736446
 31
0.0
 11
99.72579067299999
 21
110.0791503264
 31
0.0
 11
99.0563999371
 21
110.3588595337
 31
0.0
 11
98.47487801050001
 21
110.6565452999
 31
0.0
  0
SPLINE
  5
CCC
330
1B
100
AcDbEntity
  8
0
  6
Continuous
100
AcDbSpline
210
0.0
220
0.0
230
1.0
 70
     8
 71
     3
 72
    11
 73
     7
 74
     5
 42
0.0000000001
 43
0.0000000001
 44
0.0000000001
 12
-0.6527553391824469
 22
0.7575687870872246
 32
0.0
 13
-0.4567782689671799
 23
0.8895805826339438
 33
0.0
 40
0.0
 40
0.0
 40
0.0
 40
0.0
 40
0.7840418049745959
 40
1.557162260227839
 40
2.268048200995586
 40
2.870206535616373
 40
2.870206535616373
 40
2.870206535616373
 40
2.870206535616373
 10
100.4405549556
 20
109.8351736446
 30
0.0
 10
100.2699591308202
 20
110.0331621776734
 30
0.0
 10
99.92683824319836
 20
110.4227638747487
 30
0.0
 10
99.4629225447656
 20
111.0205532235206
 30
0.0
 10
99.06534963090822
 20
111.5907321894994
 30
0.0
 10
98.82871119127741
 20
111.9603031543834
 30
0.0
 10
98.7370269107
 20
112.1388592751
 30
0.0
 11
100.4405549556
 21
109.8351736446
 31
0.0
 11
99.93067150160002
 21
110.4307745305
 31
0.0
 11
99.45581876840002
 21
111.040881177
 31
0.0
 11
99.04861406010001
 21
111.623584486
 31
0.0
 11
98.7370269107
 21
112.1388592751
 31
0.0
  0
SPLINE
  5
CCD
330
1B
100
AcDbEntity
  8
0
  6
Continuous
100
AcDbSpline
210
0.0
220
0.0
230
1.0
 70
     8
 71
     3
 72
    10
 73
     6
 74
     4
 42
0.0000000001
 43
0.0000000001
 44
0.0000000001
 12
-0.9384843614814989
 22
0.3453217387519403
 32
0.0
 13
-0.6966492658124047
 23
0.7174118764301561
 33
0.0
 40
0.0
 40
0.0
 40
0.0
 40
0.0
 40
0.9258234995125184
 40
1.824352669213357
 40
2.627534321352967
 40
2.627534321352967
 40
2.627534321352967
 40
2.627534321352967
 10
102.7800837254
 20
112.2675891956
 30
0.0
 10
102.4904601001385
 20
112.374158189143
 30
0.0
 10
101.9331087419587
 20
112.6226494417921
 30
0.0
 10
101.1834152380153
 20
113.0794129947358
 30
0.0
 10
100.7440261084257
 20
113.4436601384081
 30
0.0
 10
100.557514139
 20
113.6357308238
 30
0.0
 11
102.7800837254
 21
112.2675891956
 31
0.0
 11
101.9342534939
 21
112.6440468582
 31
0.0
 11
101.1690761361
 21
113.1150652017
 31
0.0
 11
100.557514139
 21
113.6357308238
 31
0.0
  0
SPLINE
  5
CCE
330
1B
100
AcDbEntity
  8
0
  6
Continuous
100
AcDbSpline
210
0.0
220
0.0
230
1.0
 70
     8
 71
     3
 72
    14
 73
    10
 74
     8
 42
0.0000000001
 43
0.0000000001
 44
0.0000000001
 12
0.6805652757087241
 22
-0.7326874541709504
 32
0.0
 13
0.4963802927413862
 23
-0.8681051808265953
 33
0.0
 40
0.0
 40
0.0
 40
0.0
 40
0.0
 40
0.1565818210960225
 40
0.6521785130415549
 40
1.525337671332402
 40
2.804661832670137
 40
4.523675504699552
 40
6.647777769641907
 40
8.972127457930347
 40
8.972127457930347
 40
8.972127457930347
 40
8.972127457930347
 10
65.8739517395
 20
119.3389793581
 30
0.0
 10
65.90947312291506
 20
119.3007375128106
 30
0.0
 10
66.05727287936207
 20
119.1413169113057
 30
0.0
 10
66.4014537791208
 20
118.7670712140734
 30
0.0
 10
66.99311093494789
 20
118.1119922333978
 30
0.0
 10
67.84275396615256
 20
117.140552583333
 30
0.0
 10
68.93257215003507
 20
115.8256251114793
 30
0.0
 10
70.17395863750399
 20
114.1859139887216
 30
0.0
 10
70.98323262746469
 20
112.9401832597853
 30
0.0
 10
71.36781975370001
 20
112.2675899243
 30
0.0
 11
65.8739517395
 21
119.3389793581
 31
0.0
 11
65.9804068107
 21
119.2241525994
 31
0.0
 11
66.3158624296
 21
118.8593435962
 31
0.0
 11
66.9009566779
 21
118.2112142601
 31
0.0
 11
67.74259792620001
 21
117.2477256411
 31
0.0
 11
68.8375656704
 21
115.9225638986
 31
0.0
 11
70.1140199381
 21
114.2247785958
 31
0.0
 11
71.36781975370001
 21
112.2675899243
 31
0.0
  0
SPLINE
  5
CCF
330
1B
100
AcDbEntity
  8
0
  6
Continuous
100
AcDbSpline
210
0.0
220
0.0
230
1.0
 70
     8
 71
     3
 72
    10
 73
     6
 74
     4
 42
0.0000000001
 43
0.0000000001
 44
0.0000000001
 12
0.4964706535057708
 22
-0.8680535065349099
 32
0.0
 13
0.8280246000567018
 23
-0.5606917706734593
 33
0.0
 40
0.0
 40
0.0
 40
0.0
 40
0.0
 40
0.9750586921844037
 40
2.111905141345627
 40
3.40072627894943
 40
3.40072627894943
 40
3.40072627894943
 40
3.40072627894943
 10
71.36781975370001
 20
112.2675899243
 30
0.0
 10
71.52918242907177
 20
111.985455552024
 30
0.0
 10
71.93060667310394
 20
111.4030966166793
 30
0.0
 10
72.71166189039997
 20
110.5760249638791
 30
0.0
 10
73.35162332116367
 20
110.0760507798415
 30
0.0
 10
73.7073485235
 20
109.8351736446
 30
0.0
 11
71.36781975370001
 21
112.2675899243
 31
0.0
 11
71.9176800355
 21
111.4623613085
 31
0.0
 11
72.6949560173
 21
110.6327457969
 31
0.0
 11
73.7073485235
 21
109.8351736446
 31
0.0
  0
SPLINE
  5
CD0
330
1B
100
AcDbEntity
  8
0
  6
Continuous
100
AcDbSpline
210
0.0
220
0.0
230
1.0
 70
     8
 71
     3
 72
    10
 73
     6
 74
     4
 42
0.0000000001
 43
0.0000000001
 44
0.0000000001
 12
0.3756422943095499
 22
-0.9267647310541428
 32
0.0
 13
0.4153553147911203
 23
-0.9096592562464088
 33
0.0
 40
0.0
 40
0.0
 40
0.0
 40
0.0
 40
1.239157334303675
 40
2.509126078587774
 40
3.805214131023611
 40
3.805214131023611
 40
3.805214131023611
 40
3.805214131023611
 10
73.7073485235
 20
109.8351736446
 30
0.0
 10
73.86250849152278
 20
109.4523712067134
 30
0.0
 10
74.1813883570924
 20
108.6791416857998
 30
0.0
 10
74.68069074465126
 20
107.513103557016
 30
0.0
 10
75.02933028479451
 20
106.7319788560362
 30
0.0
 10
75.20877597180001
 20
106.3389793581
 30
0.0
 11
73.7073485235
 21
109.8351736446
 31
0.0
 11
74.179998381
 21
108.689698629
 31
0.0
 11
74.68018646029999
 21
107.522380122
 31
0.0
 11
75.20877597180001
 21
106.3389793581
 31
0.0
  0
SPLINE
  5
CD1
330
1B
100
AcDbEntity
  8
0
  6
Continuous
100
AcDbSpline
210
0.0
220
0.0
230
1.0
 70
     8
 71
     3
 72
    10
 73
     6
 74
     4
 42
0.0000000001
 43
0.0000000001
 44
0.0000000001
 12
0.4153553454609702
 22
0.9096592422423894
 32
0.0
 13
0.3756422971046739
 23
0.926764729921205
 33
0.0
 40
0.0
 40
0.0
 40
0.0
 40
0.0
 40
1.296088055898122
 40
2.566056800522936
 40
3.805214131004721
 40
3.805214131004721
 40
3.805214131004721
 40
3.805214131004721
 10
98.93912750730001
 20
106.3389793581
 30
0.0
 10
99.11857320803514
 20
106.7319788510359
 30
0.0
 10
99.46721271745487
 20
107.5131035672214
 30
0.0
 10
99.96651513599075
 20
108.6791416825147
 30
0.0
 10
100.2853949869013
 20
109.4523712083621
 30
0.0
 10
100.4405549556
 20
109.8351736446
 30
0.0
 11
98.93912750730001
 21
106.3389793581
 31
0.0
 11
99.46771701520001
 21
107.5223801274
 31
0.0
 11
99.967905104
 21
108.6896986307
 31
0.0
 11
100.4405549556
 21
109.8351736446
 31
0.0
  0
SPLINE
  5
CD2
330
1B
100
AcDbEntity
  8
0
  6
Continuous
100
AcDbSpline
210
0.0
220
0.0
230
1.0
 70
     8
 71
     3
 72
    10
 73
     6
 74
     4
 42
0.0000000001
 43
0.0000000001
 44
0.0000000001
 12
0.8280253266863198
 22
0.5606906975918303
 32
0.0
 13
0.4964677567636139
 23
0.8680551632782938
 33
0.0
 40
0.0
 40
0.0
 40
0.0
 40
0.0
 40
1.288820908101222
 40
2.425666471217487
 40
3.400726152349082
 40
3.400726152349082
 40
3.400726152349082
 40
3.400726152349082
 10
100.4405549556
 20
109.8351736446
 30
0.0
 10
100.7962804067569
 20
110.0760502759447
 30
0.0
 10
101.4362423760111
 20
110.5760236822158
 30
0.0
 10
102.2172941099439
 20
111.403098042891
 30
0.0
 10
102.618721827866
 20
111.9854547273964
 30
0.0
 10
102.7800837254
 20
112.2675899243
 30
0.0
 11
100.4405549556
 21
109.8351736446
 31
0.0
 11
101.4529475414
 21
110.632745325
 31
0.0
 11
102.2302218141
 21
111.4623612237
 31
0.0
 11
102.7800837254
 21
112.2675899243
 31
0.0
  0
SPLINE
  5
CD3
330
1B
100
AcDbEntity
  8
0
  6
Continuous
100
AcDbSpline
210
0.0
220
0.0
230
1.0
 70
     8
 71
     3
 72
    14
 73
    10
 74
     8
 42
0.0000000001
 43
0.0000000001
 44
0.0000000001
 12
0.4963800597346865
 22
0.868105314059181
 32
0.0
 13
0.6805658991507569
 23
0.7326868750790627
 33
0.0
 40
0.0
 40
0.0
 40
0.0
 40
0.0
 40
2.322233152111585
 40
4.446871252012765
 40
6.166865316615201
 40
7.446630342081692
 40
8.319649962352221
 40
8.815339957676404
 40
8.972129011856065
 40
8.972129011856065
 40
8.972129011856065
 40
8.972129011856065
 10
102.7800837254
 20
112.2675899243
 30
0.0
 10
103.1643204689877
 20
112.9395709042442
 30
0.0
 10
103.9732420385558
 20
114.1848958749945
 30
0.0
 10
105.2144282132084
 20
115.8245105441558
 30
0.0
 10
106.3046370361284
 20
117.139962151756
 30
0.0
 10
107.1545583609738
 20
118.111726117677
 30
0.0
 10
107.746299736632
 20
118.7669062602121
 30
0.0
 10
108.0905155543871
 20
119.1411927644877
 30
0.0
 10
108.2383833116218
 20
119.3006869307155
 30
0.0
 10
108.2739517395
 20
119.3389793581
 30
0.0
 11
102.7800837254
 21
112.2675899243
 31
0.0
 11
104.0326629327
 21
114.2230469405
 31
0.0
 11
105.3093507144
 21
115.9213270598
 31
0.0
 11
106.4049142496
 21
117.2472682812
 31
0.0
 11
107.2468407893
 21
118.2110930693
 31
0.0
 11
107.8318384634
 21
118.8591216016
 31
0.0
 11
108.1673558569
 21
119.2240005543
 31
0.0
 11
108.2739517395
 21
119.3389793581
 31
0.0
  0
SPLINE
  5
CD4
330
1B
100
AcDbEntity
  8
0
  6
Continuous
100
AcDbSpline
210
0.0
220
0.0
230
1.0
 70
     8
 71
     3
 72
    14
 73
    10
 74
     8
 42
0.0000000001
 43
0.0000000001
 44
0.0000000001
 12
0.5437707267625646
 22
-0.839233815283984
 32
0.0
 13
0.3704425322786428
 23
-0.9288553871722911
 33
0.0
 40
0.0
 40
0.0
 40
0.0
 40
0.0
 40
0.1682751895307429
 40
0.7016742226778703
 40
1.64433853306709
 40
3.032985047180995
 40
4.915509330054673
 40
7.275094947215857
 40
9.913359380159463
 40
9.913359380159463
 40
9.913359380159463
 40
9.913359380159463
 10
68.8739517395
 20
122.3389793581
 30
0.0
 10
68.90445278020242
 20
122.2919052816575
 30
0.0
 10
69.03146525167105
 20
122.0955049986434
 30
0.0
 10
69.32741173255258
 20
121.6341521373323
 30
0.0
 10
69.83639481782839
 20
120.826183345143
 30
0.0
 10
70.56788878408075
 20
119.6269961651898
 30
0.0
 10
71.50714568738921
 20
118.0016446862372
 30
0.0
 10
72.57765229281836
 20
115.9725456826626
 30
0.0
 10
73.26461048167991
 20
114.4525862013082
 30
0.0
 10
73.59038560080001
 20
113.6357308242
 30
0.0
 11
68.8739517395
 21
122.3389793581
 31
0.0
 11
68.9653311812
 21
122.1976770685
 31
0.0
 11
69.253308163
 21
121.7486962376
 31
0.0
 11
69.7556003875
 21
120.951000479
 31
0.0
 11
70.4781550789
 21
119.7651447293
 31
0.0
 11
71.41819471069999
 21
118.1341256717
 31
0.0
 11
72.5140875713
 21
116.0444694505
 31
0.0
 11
73.59038560080001
 21
113.6357308242
 31
0.0
  0
ENDSEC
  0
SECTION
  2
OBJECTS
  0
DICTIONARY
  5
CD5
330
0
100
AcDbDictionary
281
     1
  3
ACAD_COLOR
350
10CC
  3
ACAD_GROUP
350
CD6
  3
ACAD_LAYOUT
350
10CD
  3
ACAD_MATERIAL
350
10CB
  3
ACAD_MLINESTYLE
350
CD7
  3
ACAD_PLOTSETTINGS
350
10CE
  3
ACAD_PLOTSTYLENAME
350
10C9
  3
ACDBHEADERROUNDTRIPXREC
350
10E6
  3
AcDbVariableDictionary
350
10D9
  3
DWGPROPS
350
10E9
  0
DICTIONARY
  5
10CC
102
{ACAD_REACTORS
330
CD5
102
}
330
CD5
100
AcDbDictionary
281
     1
  0
DICTIONARY
  5
CD6
102
{ACAD_REACTORS
330
CD5
102
}
330
CD5
100
AcDbDictionary
281
     1
  0
DICTIONARY
  5
10CD
102
{ACAD_REACTORS
330
CD5
102
}
330
CD5
100
AcDbDictionary
281
     1
  3
Layout1
350
10D0
  3
Model
350
10CF
  0
DICTIONARY
  5
10CB
102
{ACAD_REACTORS
330
CD5
102
}
330
CD5
100
AcDbDictionary
281
     1
  0
DICTIONARY
  5
CD7
102
{ACAD_REACTORS
330
CD5
102
}
330
CD5
100
AcDbDictionary
281
     1
  3
STANDARD
350
CD8
  0
DICTIONARY
  5
10CE
102
{ACAD_REACTORS
330
CD5
102
}
330
CD5
100
AcDbDictionary
281
     1
  0
ACDBDICTIONARYWDFLT
  5
10C9
102
{ACAD_REACTORS
330
CD5
102
}
330
CD5
100
AcDbDictionary
281
     1
  3
Normal
350
10CA
100
AcDbDictionaryWithDefault
340
10CA
  0
DICTIONARY
  5
10E6
102
{ACAD_REACTORS
330
CD5
102
}
330
CD5
100
AcDbDictionary
281
     1
  3
COLORDICT
350
10E7
  3
MATERIALDICT
350
10E8
  0
DICTIONARY
  5
10D9
102
{ACAD_REACTORS
330
CD5
102
}
330
CD5
100
AcDbDictionary
281
     1
  0
XRECORD
  5
10E9
102
{ACAD_REACTORS
330
CD5
102
}
330
CD5
100
AcDbXrecord
280
     1
  1
DWGPROPS COOKIE
  2

  3

  4

  6

  7

  8

  9

300
=
301
=
302
=
303
=
304
=
305
=
306
=
307
=
308
=
309
=
 40
0.0
 41
2444972.0
 42
2453691.647851227
  1

 90
        0
  0
LAYOUT
  5
10D0
102
{ACAD_REACTORS
330
10CD
102
}
330
10CD
100
AcDbPlotSettings
  1

  2
Microsoft Office Document Image Writer
  4

  6

 40
0.0
 41
0.0
 42
0.0
 43
0.0
 44
0.0
 45
0.0
 46
0.0
 47
0.0
 48
0.0
 49
0.0
140
0.0
141
0.0
142
1.0
143
1.0
 70
   688
 72
     0
 73
     0
 74
     5
  7

 75
    16
147
1.0
148
0.0
149
0.0
100
AcDbLayout
  1
Layout1
 70
     0
 71
     1
 10
0.0
 20
0.0
 11
12.0
 21
9.0
 12
0.0
 22
0.0
 32
0.0
 14
1.000000000000000E+20
 24
1.000000000000000E+20
 34
1.000000000000000E+20
 15
-1.000000000000000E+20
 25
-1.000000000000000E+20
 35
-1.000000000000000E+20
146
0.0
 13
0.0
 23
0.0
 33
0.0
 16
1.0
 26
0.0
 36
0.0
 17
0.0
 27
1.0
 37
0.0
 76
     0
330
1C
  0
LAYOUT
  5
10CF
102
{ACAD_REACTORS
330
10CD
102
}
330
10CD
100
AcDbPlotSettings
  1

  2
Microsoft Office Document Image Writer
  4

  6

 40
0.0
 41
0.0
 42
0.0
 43
0.0
 44
0.0
 45
0.0
 46
0.0
 47
0.0
 48
0.0
 49
0.0
140
0.0
141
0.0
142
1.0
143
1.0
 70
  1712
 72
     0
 73
     0
 74
     0
  7

 75
     0
147
1.0
148
0.0
149
0.0
100
AcDbLayout
  1
Model
 70
     1
 71
     0
 10
0.0
 20
0.0
 11
12.0
 21
9.0
 12
0.0
 22
0.0
 32
0.0
 14
0.0
 24
0.0
 34
0.0
 15
0.0
 25
0.0
 35
0.0
146
0.0
 13
0.0
 23
0.0
 33
0.0
 16
1.0
 26
0.0
 36
0.0
 17
0.0
 27
1.0
 37
0.0
 76
     0
330
1B
  0
MLINESTYLE
  5
CD8
102
{ACAD_REACTORS
330
CD7
102
}
330
CD7
100
AcDbMlineStyle
  2
STANDARD
 70
     0
  3

 62
   256
 51
90.00000000000019
 52
90.00000000000019
 71
     2
 49
0.5
 62
   256
  6
BYLAYER
 49
-0.5
 62
   256
  6
BYLAYER
  0
ACDBPLACEHOLDER
  5
10CA
102
{ACAD_REACTORS
330
10C9
102
}
330
10C9
  0
XRECORD
  5
10E7
102
{ACAD_REACTORS
330
10E6
102
}
330
10E6
100
AcDbXrecord
280
     1
340
10CC
  0
XRECORD
  5
10E8
102
{ACAD_REACTORS
330
10E6
102
}
330
10E6
100
AcDbXrecord
280
     1
340
10CB
  0
ENDSEC
  0
EOF
