  0
SECTION
  2
HEADER
  9
$ACADVER
  1
AC1015
  9
$ACADMAINTVER
 70
     6
  9
$DWGCODEPAGE
  3
ANSI_1252
  9
$INSBASE
 10
0.0
 20
0.0
 30
0.0
  9
$EXTMIN
 10
342.5233528182166
 20
-228.4649057300403
 30
-12.04633173209143
  9
$EXTMAX
 10
402.1382807117438
 20
-167.9416152571186
 30
0.000573774241424
  9
$LIMMIN
 10
0.0
 20
0.0
  9
$LIMMAX
 10
420.0
 20
297.0
  9
$ORTHOMODE
 70
     1
  9
$REGENMODE
 70
     1
  9
$FILLMODE
 70
     1
  9
$QTEXTMODE
 70
     0
  9
$MIRRTEXT
 70
     0
  9
$LTSCALE
 40
1.0
  9
$ATTMODE
 70
     1
  9
$TEXTSIZE
 40
2.5
  9
$TRACEWID
 40
1.0
  9
$TEXTSTYLE
  7
Standard
  9
$CLAYER
  8
0
  9
$CELTYPE
  6
ByLayer
  9
$CECOLOR
 62
   256
  9
$CELTSCALE
 40
1.0
  9
$DISPSILH
 70
     0
  9
$DIMSCALE
 40
1.0
  9
$DIMASZ
 40
2.5
  9
$DIMEXO
 40
0.625
  9
$DIMDLI
 40
3.75
  9
$DIMRND
 40
0.0
  9
$DIMDLE
 40
0.0
  9
$DIMEXE
 40
1.25
  9
$DIMTP
 40
0.0
  9
$DIMTM
 40
0.0
  9
$DIMTXT
 40
2.5
  9
$DIMCEN
 40
2.5
  9
$DIMTSZ
 40
0.0
  9
$DIMTOL
 70
     0
  9
$DIMLIM
 70
     0
  9
$DIMTIH
 70
     0
  9
$DIMTOH
 70
     0
  9
$DIMSE1
 70
     0
  9
$DIMSE2
 70
     0
  9
$DIMTAD
 70
     1
  9
$DIMZIN
 70
     8
  9
$DIMBLK
  1

  9
$DIMASO
 70
     1
  9
$DIMSHO
 70
     1
  9
$DIMPOST
  1

  9
$DIMAPOST
  1

  9
$DIMALT
 70
     0
  9
$DIMALTD
 70
     3
  9
$DIMALTF
 40
0.03937007874016
  9
$DIMLFAC
 40
1.0
  9
$DIMTOFL
 70
     1
  9
$DIMTVP
 40
0.0
  9
$DIMTIX
 70
     0
  9
$DIMSOXD
 70
     0
  9
$DIMSAH
 70
     0
  9
$DIMBLK1
  1

  9
$DIMBLK2
  1

  9
$DIMSTYLE
  2
ISO-25
  9
$DIMCLRD
 70
     0
  9
$DIMCLRE
 70
     0
  9
$DIMCLRT
 70
     0
  9
$DIMTFAC
 40
1.0
  9
$DIMGAP
 40
0.625
  9
$DIMJUST
 70
     0
  9
$DIMSD1
 70
     0
  9
$DIMSD2
 70
     0
  9
$DIMTOLJ
 70
     0
  9
$DIMTZIN
 70
     8
  9
$DIMALTZ
 70
     0
  9
$DIMALTTZ
 70
     0
  9
$DIMUPT
 70
     0
  9
$DIMDEC
 70
     2
  9
$DIMTDEC
 70
     2
  9
$DIMALTU
 70
     2
  9
$DIMALTTD
 70
     3
  9
$DIMTXSTY
  7
Standard
  9
$DIMAUNIT
 70
     0
  9
$DIMADEC
 70
     0
  9
$DIMALTRND
 40
0.0
  9
$DIMAZIN
 70
     0
  9
$DIMDSEP
 70
    44
  9
$DIMATFIT
 70
     3
  9
$DIMFRAC
 70
     0
  9
$DIMLDRBLK
  1

  9
$DIMLUNIT
 70
     2
  9
$DIMLWD
 70
    -2
  9
$DIMLWE
 70
    -2
  9
$DIMTMOVE
 70
     0
  9
$LUNITS
 70
     2
  9
$LUPREC
 70
     4
  9
$SKETCHINC
 40
1.0
  9
$FILLETRAD
 40
0.0
  9
$AUNITS
 70
     0
  9
$AUPREC
 70
     0
  9
$MENU
  1
.
  9
$ELEVATION
 40
0.0
  9
$PELEVATION
 40
0.0
  9
$THICKNESS
 40
0.0
  9
$LIMCHECK
 70
     0
  9
$CHAMFERA
 40
0.0
  9
$CHAMFERB
 40
0.0
  9
$CHAMFERC
 40
0.0
  9
$CHAMFERD
 40
0.0
  9
$SKPOLY
 70
     0
  9
$TDCREATE
 40
2453308.69662904
  9
$TDUCREATE
 40
2453308.654962373
  9
$TDUPDATE
 40
2453691.689322037
  9
$TDUUPDATE
 40
2453691.64765537
  9
$TDINDWG
 40
1.1033038079
  9
$TDUSRTIMER
 40
1.1033035069
  9
$USRTIMER
 70
     1
  9
$ANGBASE
 50
0.0
  9
$ANGDIR
 70
     0
  9
$PDMODE
 70
     0
  9
$PDSIZE
 40
0.0
  9
$PLINEWID
 40
0.0
  9
$SPLFRAME
 70
     0
  9
$SPLINETYPE
 70
     6
  9
$SPLINESEGS
 70
     8
  9
$HANDSEED
  5
47A9
  9
$SURFTAB1
 70
     6
  9
$SURFTAB2
 70
     6
  9
$SURFTYPE
 70
     6
  9
$SURFU
 70
     6
  9
$SURFV
 70
     6
  9
$UCSBASE
  2

  9
$UCSNAME
  2

  9
$UCSORG
 10
0.0
 20
0.0
 30
0.0
  9
$UCSXDIR
 10
1.0
 20
0.0
 30
0.0
  9
$UCSYDIR
 10
0.0
 20
1.0
 30
0.0
  9
$UCSORTHOREF
  2

  9
$UCSORTHOVIEW
 70
     0
  9
$UCSORGTOP
 10
0.0
 20
0.0
 30
0.0
  9
$UCSORGBOTTOM
 10
0.0
 20
0.0
 30
0.0
  9
$UCSORGLEFT
 10
0.0
 20
0.0
 30
0.0
  9
$UCSORGRIGHT
 10
0.0
 20
0.0
 30
0.0
  9
$UCSORGFRONT
 10
0.0
 20
0.0
 30
0.0
  9
$UCSORGBACK
 10
0.0
 20
0.0
 30
0.0
  9
$PUCSBASE
  2

  9
$PUCSNAME
  2

  9
$PUCSORG
 10
0.0
 20
0.0
 30
0.0
  9
$PUCSXDIR
 10
1.0
 20
0.0
 30
0.0
  9
$PUCSYDIR
 10
0.0
 20
1.0
 30
0.0
  9
$PUCSORTHOREF
  2

  9
$PUCSORTHOVIEW
 70
     0
  9
$PUCSORGTOP
 10
0.0
 20
0.0
 30
0.0
  9
$PUCSORGBOTTOM
 10
0.0
 20
0.0
 30
0.0
  9
$PUCSORGLEFT
 10
0.0
 20
0.0
 30
0.0
  9
$PUCSORGRIGHT
 10
0.0
 20
0.0
 30
0.0
  9
$PUCSORGFRONT
 10
0.0
 20
0.0
 30
0.0
  9
$PUCSORGBACK
 10
0.0
 20
0.0
 30
0.0
  9
$USERI1
 70
     0
  9
$USERI2
 70
     0
  9
$USERI3
 70
     0
  9
$USERI4
 70
     0
  9
$USERI5
 70
     0
  9
$USERR1
 40
0.0
  9
$USERR2
 40
0.0
  9
$USERR3
 40
0.0
  9
$USERR4
 40
0.0
  9
$USERR5
 40
0.0
  9
$WORLDVIEW
 70
     1
  9
$SHADEDGE
 70
     3
  9
$SHADEDIF
 70
    70
  9
$TILEMODE
 70
     1
  9
$MAXACTVP
 70
    64
  9
$PINSBASE
 10
0.0
 20
0.0
 30
0.0
  9
$PLIMCHECK
 70
     0
  9
$PEXTMIN
 10
26.66999878883363
 20
20.31999878883363
 30
0.0
  9
$PEXTMAX
 10
240.0299890995026
 20
182.8799890995025
 30
0.0
  9
$PLIMMIN
 10
-6.350006103515625
 20
-6.349999904632567
  9
$PLIMMAX
 10
273.0499877929688
 20
209.5499939918518
  9
$UNITMODE
 70
     0
  9
$VISRETAIN
 70
     1
  9
$PLINEGEN
 70
     0
  9
$PSLTSCALE
 70
     1
  9
$TREEDEPTH
 70
  3020
  9
$CMLSTYLE
  2
Standard
  9
$CMLJUST
 70
     0
  9
$CMLSCALE
 40
20.0
  9
$PROXYGRAPHICS
 70
     1
  9
$MEASUREMENT
 70
     1
  9
$CELWEIGHT
370
    -1
  9
$ENDCAPS
280
     0
  9
$JOINSTYLE
280
     0
  9
$LWDISPLAY
290
     0
  9
$INSUNITS
 70
     4
  9
$HYPERLINKBASE
  1

  9
$STYLESHEET
  1

  9
$XEDIT
290
     1
  9
$CEPSNTYPE
380
     0
  9
$PSTYLEMODE
290
     1
  9
$FINGERPRINTGUID
  2
{FDEAD578-A652-11D2-9A35-0060089B3A3F}
  9
$VERSIONGUID
  2
{9CB804AF-0550-44E8-8357-6F757ABF1C67}
  9
$EXTNAMES
290
     1
  9
$PSVPSCALE
 40
0.0
  9
$OLESTARTUP
290
     0
  0
ENDSEC
  0
SECTION
  2
CLASSES
  0
CLASS
  1
ACDBDICTIONARYWDFLT
  2
AcDbDictionaryWithDefault
  3
ObjectDBX Classes
 90
        0
280
     0
281
     0
  0
CLASS
  1
DICTIONARYVAR
  2
AcDbDictionaryVar
  3
ObjectDBX Classes
 90
        0
280
     0
281
     0
  0
CLASS
  1
DIMASSOC
  2
AcDbDimAssoc
  3
"AcDbDimAssoc|Product Desc:     AcDim ARX App For Dimension|Company:          Autodesk, Inc.|WEB Address:      www.autodesk.com"
 90
        0
280
     0
281
     0
  0
CLASS
  1
ACDBPLACEHOLDER
  2
AcDbPlaceHolder
  3
ObjectDBX Classes
 90
        0
280
     0
281
     0
  0
CLASS
  1
LAYOUT
  2
AcDbLayout
  3
ObjectDBX Classes
 90
        0
280
     0
281
     0
  0
ENDSEC
  0
SECTION
  2
TABLES
  0
TABLE
  2
VPORT
  5
8
330
0
100
AcDbSymbolTable
 70
     1
  0
VPORT
  5
4796
330
8
100
AcDbSymbolTableRecord
100
AcDbViewportTableRecord
  2
*Active
 70
     0
 10
0.0
 20
0.0
 11
1.0
 21
1.0
 12
372.3308167649802
 22
-198.2032604935795
 13
0.0
 23
0.0
 14
10.0
 24
10.0
 15
10.0
 25
10.0
 16
0.0
 26
0.0
 36
1.0
 17
0.0
 27
0.0
 37
0.0
 40
60.99428884236073
 41
1.6
 42
50.0
 43
0.0
 44
0.0
 50
0.0
 51
0.0
 71
     0
 72
  1000
 73
     1
 74
     3
 75
     0
 76
     0
 77
     0
 78
     0
281
     0
 65
     1
110
0.0
120
0.0
130
0.0
111
1.0
121
0.0
131
0.0
112
0.0
122
1.0
132
0.0
 79
     0
146
0.0
  0
ENDTAB
  0
TABLE
  2
LTYPE
  5
5
330
0
100
AcDbSymbolTable
 70
     2
  0
LTYPE
  5
14
330
5
100
AcDbSymbolTableRecord
100
AcDbLinetypeTableRecord
  2
ByBlock
 70
     0
  3

 72
    65
 73
     0
 40
0.0
  0
LTYPE
  5
15
330
5
100
AcDbSymbolTableRecord
100
AcDbLinetypeTableRecord
  2
ByLayer
 70
     0
  3

 72
    65
 73
     0
 40
0.0
  0
LTYPE
  5
16
330
5
100
AcDbSymbolTableRecord
100
AcDbLinetypeTableRecord
  2
Continuous
 70
     0
  3
Solid line
 72
    65
 73
     0
 40
0.0
  0
LTYPE
  5
8B
330
5
100
AcDbSymbolTableRecord
100
AcDbLinetypeTableRecord
  2
CENTER
 70
     0
  3
____ _ ____ _ ____ _ ____ _ ____ _ ____ _ ____
 72
    65
 73
     4
 40
0.6
 49
0.375
 74
     0
 49
-0.075
 74
     0
 49
0.075
 74
     0
 49
-0.075
 74
     0
  0
ENDTAB
  0
TABLE
  2
LAYER
  5
2
330
0
100
AcDbSymbolTable
 70
     2
  0
LAYER
  5
10
330
2
100
AcDbSymbolTableRecord
100
AcDbLayerTableRecord
  2
0
 70
     0
 62
     7
  6
Continuous
370
    -3
390
F
  0
LAYER
  5
396
330
2
100
AcDbSymbolTableRecord
100
AcDbLayerTableRecord
  2
Defpoints
 70
     0
 62
     7
  6
Continuous
290
     0
370
    -3
390
F
  0
ENDTAB
  0
TABLE
  2
STYLE
  5
3
330
0
100
AcDbSymbolTable
 70
     1
  0
STYLE
  5
11
330
3
100
AcDbSymbolTableRecord
100
AcDbTextStyleTableRecord
  2
Standard
 70
     0
 40
0.0
 41
1.0
 50
0.0
 71
     0
 42
2.5
  3
verdana.TTF
  4

1001
ACAD
1000
Verdana
1071
       34
  0
ENDTAB
  0
TABLE
  2
VIEW
  5
6
330
0
100
AcDbSymbolTable
 70
     0
  0
ENDTAB
  0
TABLE
  2
UCS
  5
7
330
0
100
AcDbSymbolTable
 70
     0
  0
ENDTAB
  0
TABLE
  2
APPID
  5
9
330
0
100
AcDbSymbolTable
 70
     1
  0
APPID
  5
12
330
9
100
AcDbSymbolTableRecord
100
AcDbRegAppTableRecord
  2
ACAD
 70
     0
  0
ENDTAB
  0
TABLE
  2
DIMSTYLE
  5
A
330
0
100
AcDbSymbolTable
 70
     2
100
AcDbDimStyleTable
  0
DIMSTYLE
105
27
330
A
100
AcDbSymbolTableRecord
100
AcDbDimStyleTableRecord
  2
ISO-25
 70
     0
 41
2.5
 42
0.625
 43
3.75
 44
1.25
 73
     0
 74
     0
 77
     1
 78
     8
140
2.5
141
2.5
143
0.03937007874016
147
0.625
171
     3
172
     1
271
     2
272
     2
274
     3
278
    44
283
     0
284
     8
340
11
  0
DIMSTYLE
105
8D
330
A
100
AcDbSymbolTableRecord
100
AcDbDimStyleTableRecord
  2
STANDARD
 70
     0
 41
3.0
 47
0.01
 48
0.01
 71
     1
 73
     0
 74
     0
 77
     1
 78
     8
140
1.5
271
     2
272
     2
284
     8
340
11
  0
ENDTAB
  0
TABLE
  2
BLOCK_RECORD
  5
1
330
0
100
AcDbSymbolTable
 70
     1
  0
BLOCK_RECORD
  5
1F
330
1
100
AcDbSymbolTableRecord
100
AcDbBlockTableRecord
  2
*Model_Space
340
22
  0
BLOCK_RECORD
  5
50
330
1
100
AcDbSymbolTableRecord
100
AcDbBlockTableRecord
  2
*Paper_Space
340
51
  0
BLOCK_RECORD
  5
55
330
1
100
AcDbSymbolTableRecord
100
AcDbBlockTableRecord
  2
*Paper_Space0
340
56
  0
ENDTAB
  0
ENDSEC
  0
SECTION
  2
BLOCKS
  0
BLOCK
  5
20
330
1F
100
AcDbEntity
  8
0
100
AcDbBlockBegin
  2
*Model_Space
 70
     0
 71
     0
 10
0.0
 20
0.0
 30
0.0
  3
*Model_Space
  1

  0
ENDBLK
  5
21
330
1F
100
AcDbEntity
  8
0
100
AcDbBlockEnd
  0
BLOCK
  5
52
330
50
100
AcDbEntity
 67
     1
  8
0
100
AcDbBlockBegin
  2
*Paper_Space
 70
     0
 71
     0
 10
0.0
 20
0.0
 30
0.0
  3
*Paper_Space
  1

  0
ENDBLK
  5
53
330
50
100
AcDbEntity
 67
     1
  8
0
100
AcDbBlockEnd
  0
BLOCK
  5
57
330
55
100
AcDbEntity
  8
0
100
AcDbBlockBegin
  2
*Paper_Space0
 70
     0
 71
     0
 10
0.0
 20
0.0
 30
0.0
  3
*Paper_Space0
  1

  0
ENDBLK
  5
58
330
55
100
AcDbEntity
  8
0
100
AcDbBlockEnd
  0
ENDSEC
  0
SECTION
  2
ENTITIES
  0
ARC
  5
25F2
330
1F
100
AcDbEntity
  8
0
100
AcDbCircle
 10
358.1829377443041
 20
-198.5209213237974
 30
0.0
 40
28.53193933378328
100
AcDbArc
 50
0.6035138356827267
 51
28.01058379832223
  0
LINE
  5
25F3
330
1F
100
AcDbEntity
  8
0
100
AcDbLine
 10
383.4419196984378
 20
-185.1180040806008
 30
0.0
 11
383.8666769444862
 21
-184.2788303616116
 31
0.0
  0
LINE
  5
25F4
330
1F
100
AcDbEntity
  8
0
100
AcDbLine
 10
383.8951505264304
 20
-184.3324952406554
 30
0.0
 11
383.870369454407
 21
-182.1601429454607
 31
0.0
  0
LINE
  5
25F5
330
1F
100
AcDbEntity
  8
0
100
AcDbLine
 10
383.4477491802955
 20
-181.5101412067485
 30
0.0
 11
383.9285092503662
 21
-182.1222617224531
 31
0.0
  0
ARC
  5
25F6
330
1F
100
AcDbEntity
  8
0
100
AcDbCircle
 10
363.2959921051839
 20
-197.2046950279296
 30
0.0
 40
23.92930953087287
100
AcDbArc
 50
32.65348769191669
 51
32.65348769191669
  0
ARC
  5
25F7
330
1F
100
AcDbEntity
  8
0
100
AcDbCircle
 10
405.7898063320723
 20
-198.7044713312821
 30
0.0
 40
51.42243490315327
100
AcDbArc
 50
164.6356823160126
 51
179.4283877202169
  0
LINE
  5
25F8
330
1F
100
AcDbEntity
  8
0
100
AcDbLine
 10
355.9067191194783
 20
-184.3001915581423
 30
0.0
 11
355.8590778278435
 21
-182.1797690437476
 31
0.0
  0
LINE
  5
25F9
330
1F
100
AcDbEntity
  8
0
100
AcDbLine
 10
356.205175895537
 20
-185.0739957273429
 30
0.0
 11
355.9067191194783
 21
-184.3001915581423
 31
0.0
  0
ARC
  5
25FA
330
1F
100
AcDbEntity
  8
0
100
AcDbCircle
 10
405.4913469848403
 20
-197.9248563548479
 30
0.0
 40
51.42243490315327
100
AcDbArc
 50
164.6356823160126
 51
180.3292920406182
  0
LINE
  5
25FB
330
1F
100
AcDbEntity
  8
0
100
AcDbLine
 10
356.205393117635
 20
-181.5123527922768
 30
0.0
 11
355.8590778278435
 21
-182.1797690437476
 31
0.0
  0
LINE
  5
25FC
330
1F
100
AcDbEntity
  8
0
100
AcDbLine
 10
383.4419196984378
 20
-185.1180040806008
 30
0.0
 11
356.205198371849
 21
-185.0806924741267
 31
0.0
  0
LINE
  5
25FD
330
1F
100
AcDbEntity
  8
0
100
AcDbLine
 10
383.8775258282042
 20
-184.2788220731464
 30
0.0
 11
355.9067191194783
 21
-184.3001915581423
 31
0.0
  0
LINE
  5
25FE
330
1F
100
AcDbEntity
  8
0
100
AcDbLine
 10
383.4889334393881
 20
-168.2453976569484
 30
0.0
 11
356.1915199093294
 21
-168.2453976569485
 31
0.0
  0
ARC
  5
25FF
330
1F
100
AcDbEntity
  8
0
100
AcDbCircle
 10
358.6769445606606
 20
-197.6784178395131
 30
0.0
 40
28.53193933378328
100
AcDbArc
 50
358.9115825774462
 51
28.01058379832223
  0
LINE
  5
2600
330
1F
100
AcDbEntity
  8
0
100
AcDbLine
 10
356.1927094246619
 20
-168.6267210092387
 30
0.0
 11
356.2059573337344
 21
-168.2203913043485
 31
0.0
  0
ARC
  5
2601
330
1F
100
AcDbEntity
  8
0
100
AcDbCircle
 10
367.7419632084747
 20
-175.0581748850263
 30
0.0
 40
13.21926102016662
100
AcDbArc
 50
150.8877989667952
 51
209.2249967196742
  0
LINE
  5
2602
330
1F
100
AcDbEntity
  8
0
100
AcDbLine
 10
356.2053932525202
 20
-181.5101411723455
 30
0.0
 11
356.205175895537
 21
-185.0739957273429
 31
0.0
  0
LINE
  5
2603
330
1F
100
AcDbEntity
  8
0
100
AcDbLine
 10
383.4477491802955
 20
-168.5957476202088
 30
0.0
 11
356.1927094246619
 21
-168.6267210092387
 31
0.0
  0
ARC
  5
2604
330
1F
100
AcDbEntity
  8
0
100
AcDbCircle
 10
379.0371152806548
 20
-175.0529444134787
 30
0.0
 40
7.819787837510241
100
AcDbArc
 50
304.3353056084435
 51
55.66469439155647
  0
ARC
  5
2605
330
1F
100
AcDbEntity
  8
0
100
AcDbCircle
 10
394.2298232353863
 20
-197.2530925622798
 30
0.0
 40
40.17170942939361
100
AcDbArc
 50
161.1794173053281
 51
161.1826625100113
  0
LINE
  5
2606
330
1F
100
AcDbEntity
  8
0
100
AcDbLine
 10
383.4477491802955
 20
-181.5101412067485
 30
0.0
 11
383.4419196984378
 21
-185.1180040806008
 31
0.0
  0
ARC
  5
2607
330
1F
100
AcDbEntity
  8
0
100
AcDbCircle
 10
378.6063849716926
 20
-175.3459471719824
 30
0.0
 40
8.616463643779225
100
AcDbArc
 50
307.6568776803195
 51
55.78871760273292
  0
LINE
  5
2608
330
1F
100
AcDbEntity
  8
0
100
AcDbLine
 10
383.4477491802955
 20
-168.2203913043485
 30
0.0
 11
383.4477491802955
 21
-168.5957476202089
 31
0.0
  0
LINE
  5
2609
330
1F
100
AcDbEntity
  8
0
100
AcDbLine
 10
383.4477491802955
 20
-168.5957476202088
 30
0.0
 11
383.4477491802955
 21
-168.2203913043485
 31
0.0
  0
ARC
  5
260A
330
1F
100
AcDbEntity
  8
0
100
AcDbCircle
 10
367.417791753809
 20
-175.4986844260239
 30
0.0
 40
13.35082339041881
100
AcDbArc
 50
149.0223805463082
 51
210.0295539733141
  0
LINE
  5
260B
330
1F
100
AcDbEntity
  8
0
100
AcDbLine
 10
355.9712174445865
 20
-168.6269727189161
 30
0.0
 11
355.9712174445865
 21
-168.6269727189161
 31
0.0
  0
LINE
  5
260C
330
1F
100
AcDbEntity
  8
0
100
AcDbLine
 10
383.4477491802955
 20
-181.5101412067484
 30
0.0
 11
356.2059573337344
 21
-181.5101412067484
 31
0.0
  0
LINE
  5
260D
330
1F
100
AcDbEntity
  8
0
  6
Continuous
100
AcDbLine
 10
354.0697613377345
 20
-171.9203913043484
 30
0.0
 11
356.2059573337344
 21
-168.2203913043485
 31
0.0
  0
ARC
  5
260E
330
1F
100
AcDbEntity
  8
0
  6
Continuous
100
AcDbCircle
 10
383.4509591843345
 20
-170.2203913043485
 30
0.0
 40
2.0
100
AcDbArc
 50
30.00000000000057
 51
90.0
  0
LINE
  5
260F
330
1F
100
AcDbEntity
  8
0
  6
Continuous
100
AcDbLine
 10
385.1830099919343
 20
-169.2203913043485
 30
0.0
 11
387.2037359341344
 21
-172.7203913043485
 31
0.0
  0
LINE
  5
2610
330
1F
100
AcDbEntity
  8
0
  6
Continuous
100
AcDbLine
 10
389.8018121453345
 20
-174.2203913043485
 30
0.0
 11
390.0697613377344
 21
-174.2203913043485
 31
0.0
  0
LINE
  5
2611
330
1F
100
AcDbEntity
  8
0
  6
Continuous
100
AcDbLine
 10
356.2059573337344
 20
-168.2203913043485
 30
0.0
 11
383.4509591843345
 21
-168.2203913043485
 31
0.0
  0
LINE
  5
2612
330
1F
100
AcDbEntity
  8
0
100
AcDbLine
 10
383.8703692582371
 20
-182.1601257488691
 30
0.0
 11
355.8590840412114
 21
-182.1800455888365
 31
0.0
  0
LINE
  5
2613
330
1F
100
AcDbEntity
  8
0
  6
Continuous
100
AcDbLine
 10
354.3584707531346
 20
-171.4203319283484
 30
0.0
 11
354.0697613377345
 21
-171.9203913043484
 31
0.0
  0
LINE
  5
2614
330
1F
100
AcDbEntity
  8
0
  6
Continuous
100
AcDbLine
 10
352.5697613377344
 20
-198.2203913043483
 30
0.0
 11
352.5697613377344
 21
-183.2203913043484
 31
0.0
  0
LINE
  5
2615
330
1F
100
AcDbEntity
  8
0
  6
Continuous
100
AcDbLine
 10
353.5697613377345
 20
-198.2203913043484
 30
0.0
 11
353.5697613377345
 21
-182.2203913043484
 31
0.0
  0
LINE
  5
2616
330
1F
100
AcDbEntity
  8
0
  6
Continuous
100
AcDbLine
 10
354.0697613377345
 20
-171.9206994665484
 30
0.0
 11
354.0697613377345
 21
-198.2203913043484
 31
0.0
  0
LINE
  5
2617
330
1F
100
AcDbEntity
  8
0
  6
Continuous
100
AcDbLine
 10
394.5697613377345
 20
-186.2603913043484
 30
0.0
 11
393.7697613377345
 21
-186.2603913043484
 31
0.0
  0
LINE
  5
2618
330
1F
100
AcDbEntity
  8
0
  6
Continuous
100
AcDbLine
 10
387.2037359489345
 20
-198.2203913043484
 30
0.0
 11
387.2037359489345
 21
-172.7203913303484
 31
0.0
  0
LINE
  5
2619
330
1F
100
AcDbEntity
  8
0
  6
Continuous
100
AcDbLine
 10
389.8018121421344
 20
-198.2203913043484
 30
0.0
 11
389.8018121421344
 21
-174.2203913047484
 31
0.0
  0
LINE
  5
261A
330
1F
100
AcDbEntity
  8
0
  6
Continuous
100
AcDbLine
 10
390.0697613377344
 20
-174.2203913043484
 30
0.0
 11
390.0697613377344
 21
-198.2203913043484
 31
0.0
  0
LINE
  5
261B
330
1F
100
AcDbEntity
  8
0
  6
Continuous
100
AcDbLine
 10
391.0697613377345
 20
-198.2203913043483
 30
0.0
 11
391.0697613377345
 21
-175.2203913043484
 31
0.0
  0
LINE
  5
261C
330
1F
100
AcDbEntity
  8
0
  6
Continuous
100
AcDbLine
 10
354.0697613377345
 20
-182.2203913043484
 30
0.0
 11
353.5697613377345
 21
-182.2203913043484
 31
0.0
  0
LINE
  5
261D
330
1F
100
AcDbEntity
  8
0
  6
Continuous
100
AcDbLine
 10
393.3697613377344
 20
-186.7479362055484
 30
0.0
 11
391.0697613377345
 21
-186.3423841499484
 31
0.0
  0
LINE
  5
261E
330
1F
100
AcDbEntity
  8
0
  6
Continuous
100
AcDbLine
 10
396.9434095155346
 20
-186.6789295207484
 30
0.0
 11
394.5697613377345
 21
-186.2603913043484
 31
0.0
  0
LINE
  5
261F
330
1F
100
AcDbEntity
  8
0
  6
Continuous
100
AcDbLine
 10
393.3697613377344
 20
-186.6603913043485
 30
0.0
 11
393.3697613377344
 21
-198.2203913043484
 31
0.0
  0
LINE
  5
2620
330
1F
100
AcDbEntity
  8
0
  6
Continuous
100
AcDbLine
 10
393.7697613377345
 20
-198.2203913043484
 30
0.0
 11
393.7697613377345
 21
-186.2603913043484
 31
0.0
  0
LINE
  5
2621
330
1F
100
AcDbEntity
  8
0
  6
Continuous
100
AcDbLine
 10
394.5697613377345
 20
-198.2203913043484
 30
0.0
 11
394.5697613377345
 21
-186.2603913043484
 31
0.0
  0
LINE
  5
2622
330
1F
100
AcDbEntity
  8
0
  6
Continuous
100
AcDbLine
 10
396.9434095155346
 20
-186.6789295207484
 30
0.0
 11
396.9434095155346
 21
-198.2203913043484
 31
0.0
  0
LINE
  5
2623
330
1F
100
AcDbEntity
  8
0
  6
Continuous
100
AcDbLine
 10
397.7697613377345
 20
-198.2203913043484
 30
0.0
 11
397.7697613377345
 21
-187.6637372737484
 31
0.0
  0
LINE
  5
2624
330
1F
100
AcDbEntity
  8
0
  6
Continuous
100
AcDbLine
 10
387.2037359489345
 20
-172.7203913301484
 30
0.0
 11
387.0075342947345
 21
-172.3805600965484
 31
0.0
  0
LINE
  5
2625
330
1F
100
AcDbEntity
  8
0
  6
Continuous
100
AcDbLine
 10
390.0697613377344
 20
-174.2203913043484
 30
0.0
 11
389.8018121421344
 21
-174.2203913043484
 31
0.0
  0
LINE
  5
2626
330
1F
100
AcDbEntity
  8
0
  6
Continuous
100
AcDbLine
 10
356.1915199093294
 20
-168.2453976569485
 30
0.0
 11
383.4889334393881
 21
-168.2453976569484
 31
0.0
  0
LINE
  5
2627
330
1F
100
AcDbEntity
  8
0
  6
Continuous
100
AcDbLine
 10
360.0685387335345
 20
-228.2203913043485
 30
0.0
 11
354.0697613377345
 21
-224.0200021519485
 31
0.0
  0
LINE
  5
2628
330
1F
100
AcDbEntity
  8
0
  6
Continuous
100
AcDbLine
 10
356.2059573337344
 20
-228.2203913043485
 30
0.0
 11
383.4509591843345
 21
-228.2203913043485
 31
0.0
  0
LINE
  5
2629
330
1F
100
AcDbEntity
  8
0
  6
Continuous
100
AcDbLine
 10
364.0446882031345
 20
-228.2203913043485
 30
0.0
 11
355.4722483463345
 21
-222.2179042959485
 31
0.0
  0
LINE
  5
262A
330
1F
100
AcDbEntity
  8
0
  6
Continuous
100
AcDbLine
 10
354.0697613377345
 20
-224.5203913043485
 30
0.0
 11
356.2059573337344
 21
-228.2203913043485
 31
0.0
  0
LINE
  5
262B
330
1F
100
AcDbEntity
  8
0
  6
Continuous
100
AcDbLine
 10
368.0208376725345
 20
-228.2203913043485
 30
0.0
 11
357.3097276219345
 21
-220.7203913043485
 31
0.0
  0
LINE
  5
262C
330
1F
100
AcDbEntity
  8
0
  6
Continuous
100
AcDbLine
 10
371.9969871421345
 20
-228.2203913043485
 30
0.0
 11
361.2858770915345
 21
-220.7203913043485
 31
0.0
  0
LINE
  5
262D
330
1F
100
AcDbEntity
  8
0
  6
Continuous
100
AcDbLine
 10
352.5697613377344
 20
-198.2203913043484
 30
0.0
 11
352.5697613377344
 21
-213.2203913043485
 31
0.0
  0
LINE
  5
262E
330
1F
100
AcDbEntity
  8
0
  6
Continuous
100
AcDbLine
 10
352.8662337197345
 20
-198.2203913043484
 30
0.0
 11
352.8662337197345
 21
-211.6409517691485
 31
0.0
  0
LINE
  5
262F
330
1F
100
AcDbEntity
  8
0
  6
Continuous
100
AcDbLine
 10
354.9040759129344
 20
-222.6203913043485
 30
0.0
 11
354.6697613377345
 21
-222.6203913043485
 31
0.0
  0
LINE
  5
2630
330
1F
100
AcDbEntity
  8
0
  6
Continuous
100
AcDbLine
 10
374.0697613377345
 20
-222.2203913043485
 30
0.0
 11
355.4697613377344
 21
-222.2203913043485
 31
0.0
  0
LINE
  5
2631
330
1F
100
AcDbEntity
  8
0
  6
Continuous
100
AcDbLine
 10
389.8018121453345
 20
-222.2203913043485
 30
0.0
 11
390.0697613377344
 21
-222.2203913043485
 31
0.0
  0
LINE
  5
2632
330
1F
100
AcDbEntity
  8
0
  6
Continuous
100
AcDbLine
 10
381.6555477755344
 20
-220.7203913043485
 30
0.0
 11
357.1354467627344
 21
-220.7203913043485
 31
0.0
  0
LINE
  5
2633
330
1F
100
AcDbEntity
  8
0
  6
Continuous
100
AcDbLine
 10
375.9731366117344
 20
-228.2203913043485
 30
0.0
 11
365.2620265611345
 21
-220.7203913043485
 31
0.0
  0
LINE
  5
2634
330
1F
100
AcDbEntity
  8
0
  6
Continuous
100
AcDbLine
 10
354.0697613377345
 20
-224.5203913043485
 30
0.0
 11
354.0697613377345
 21
-214.2203913043485
 31
0.0
  0
LINE
  5
2635
330
1F
100
AcDbEntity
  8
0
  6
Continuous
100
AcDbLine
 10
354.6697613377345
 20
-214.2203913043485
 30
0.0
 11
354.6697613377345
 21
-222.6203913043485
 31
0.0
  0
LINE
  5
2636
330
1F
100
AcDbEntity
  8
0
  6
Continuous
100
AcDbLine
 10
354.9040759129344
 20
-214.2203913043485
 30
0.0
 11
354.9040759129344
 21
-222.6203913043485
 31
0.0
  0
LINE
  5
2637
330
1F
100
AcDbEntity
  8
0
  6
Continuous
100
AcDbLine
 10
355.1869186253345
 20
-214.2203913043485
 30
0.0
 11
355.1869186253345
 21
-222.5032340169485
 31
0.0
  0
LINE
  5
2638
330
1F
100
AcDbEntity
  8
0
  6
Continuous
100
AcDbLine
 10
355.4697613139345
 20
-214.2213838215485
 30
0.0
 11
355.4697613139345
 21
-222.2203913043485
 31
0.0
  0
LINE
  5
2639
330
1F
100
AcDbEntity
  8
0
  6
Continuous
100
AcDbLine
 10
372.9697613377344
 20
-219.2203913043485
 30
0.0
 11
365.7697613377345
 21
-219.2203913043485
 31
0.0
  0
LINE
  5
263A
330
1F
100
AcDbEntity
  8
0
  6
Continuous
100
AcDbLine
 10
379.9492860811345
 20
-228.2203913043485
 30
0.0
 11
369.2381760307344
 21
-220.7203913043485
 31
0.0
  0
LINE
  5
263B
330
1F
100
AcDbEntity
  8
0
  6
Continuous
100
AcDbLine
 10
356.2509455263346
 20
-198.2203913043484
 30
0.0
 11
356.2509455263346
 21
-210.7340209739485
 31
0.0
  0
LINE
  5
263C
330
1F
100
AcDbEntity
  8
0
  6
Continuous
100
AcDbLine
 10
356.3544731443344
 20
-198.2203913043484
 30
0.0
 11
356.3544731443344
 21
-210.7203913043485
 31
0.0
  0
LINE
  5
263D
330
1F
100
AcDbEntity
  8
0
  6
Continuous
100
AcDbLine
 10
356.8526040503344
 20
-220.8375485919485
 30
0.0
 11
356.8526040503344
 21
-214.2203913043485
 31
0.0
  0
LINE
  5
263E
330
1F
100
AcDbEntity
  8
0
  6
Continuous
100
AcDbLine
 10
357.1354467627344
 20
-220.7203913043485
 30
0.0
 11
357.1354467627344
 21
-214.2203913043485
 31
0.0
  0
LINE
  5
263F
330
1F
100
AcDbEntity
  8
0
  6
Continuous
100
AcDbLine
 10
385.2629555897345
 20
-217.2203913043485
 30
0.0
 11
373.0765670859345
 21
-217.2203913043485
 31
0.0
  0
LINE
  5
2640
330
1F
100
AcDbEntity
  8
0
  6
Continuous
100
AcDbLine
 10
383.8591540905345
 20
-228.1739805263485
 30
0.0
 11
373.2143255001345
 21
-220.7203913043485
 31
0.0
  0
LINE
  5
2641
330
1F
100
AcDbEntity
  8
0
  6
Continuous
100
AcDbLine
 10
385.5545029007344
 20
-226.5769467115485
 30
0.0
 11
377.1904749697343
 21
-220.7203913043485
 31
0.0
  0
LINE
  5
2642
330
1F
100
AcDbEntity
  8
0
  6
Continuous
100
AcDbLine
 10
358.9697613377345
 20
-214.6203913043485
 30
0.0
 11
358.9697613377345
 21
-215.2203913043485
 31
0.0
  0
LINE
  5
2643
330
1F
100
AcDbEntity
  8
0
  6
Continuous
100
AcDbLine
 10
359.9697613377344
 20
-215.3072153933485
 30
0.0
 11
359.9697613377344
 21
-216.9203913043485
 31
0.0
  0
LINE
  5
2644
330
1F
100
AcDbEntity
  8
0
  6
Continuous
100
AcDbLine
 10
396.9434095155346
 20
-209.7618530879485
 30
0.0
 11
394.5697613377345
 21
-210.1803913043485
 31
0.0
  0
LINE
  5
2645
330
1F
100
AcDbEntity
  8
0
  6
Continuous
100
AcDbLine
 10
370.6040759129343
 20
-215.2203913043485
 30
0.0
 11
368.5597613377345
 21
-215.2203913043485
 31
0.0
  0
LINE
  5
2646
330
1F
100
AcDbEntity
  8
0
  6
Continuous
100
AcDbLine
 10
390.1697613377345
 20
-214.9203913043485
 30
0.0
 11
388.2839749001345
 21
-214.9203913043485
 31
0.0
  0
LINE
  5
2647
330
1F
100
AcDbEntity
  8
0
  6
Continuous
100
AcDbLine
 10
371.5697613377344
 20
-214.8203913043485
 30
0.0
 11
372.4697613377344
 21
-214.8203913043485
 31
0.0
  0
LINE
  5
2648
330
1F
100
AcDbEntity
  8
0
  6
Continuous
100
AcDbLine
 10
373.8697613377344
 20
-214.8203913043485
 30
0.0
 11
376.4697613377344
 21
-214.8203913043485
 31
0.0
  0
LINE
  5
2649
330
1F
100
AcDbEntity
  8
0
  6
Continuous
100
AcDbLine
 10
377.8697613377344
 20
-214.8203913043485
 30
0.0
 11
380.4697613377344
 21
-214.8203913043485
 31
0.0
  0
LINE
  5
264A
330
1F
100
AcDbEntity
  8
0
  6
Continuous
100
AcDbLine
 10
381.8697613377344
 20
-214.8203913043485
 30
0.0
 11
384.4697613377346
 21
-214.8203913043485
 31
0.0
  0
LINE
  5
264B
330
1F
100
AcDbEntity
  8
0
  6
Continuous
100
AcDbLine
 10
385.8697613377344
 20
-214.8203913043485
 30
0.0
 11
386.7697613377345
 21
-214.8203913043485
 31
0.0
  0
LINE
  5
264C
330
1F
100
AcDbEntity
  8
0
  6
Continuous
100
AcDbLine
 10
385.4787937259345
 20
-214.2203913043485
 30
0.0
 11
384.8607289497345
 21
-214.2203913043485
 31
0.0
  0
LINE
  5
264D
330
1F
100
AcDbEntity
  8
0
  6
Continuous
100
AcDbLine
 10
381.4787937259345
 20
-214.2203913043485
 30
0.0
 11
380.8607289497345
 21
-214.2203913043485
 31
0.0
  0
LINE
  5
264E
330
1F
100
AcDbEntity
  8
0
  6
Continuous
100
AcDbLine
 10
377.4787937259345
 20
-214.2203913043485
 30
0.0
 11
376.8607289497345
 21
-214.2203913043485
 31
0.0
  0
LINE
  5
264F
330
1F
100
AcDbEntity
  8
0
  6
Continuous
100
AcDbLine
 10
373.4787937259345
 20
-214.2203913043485
 30
0.0
 11
372.8607289497345
 21
-214.2203913043485
 31
0.0
  0
LINE
  5
2650
330
1F
100
AcDbEntity
  8
0
  6
Continuous
100
AcDbLine
 10
364.7697613377345
 20
-214.2203913043485
 30
0.0
 11
360.4894414769344
 21
-214.2203913043485
 31
0.0
  0
LINE
  5
2651
330
1F
100
AcDbEntity
  8
0
  6
Continuous
100
AcDbLine
 10
358.5697613377345
 20
-214.2203913043485
 30
0.0
 11
353.5697613377345
 21
-214.2203913043485
 31
0.0
  0
LINE
  5
2652
330
1F
100
AcDbEntity
  8
0
  6
Continuous
100
AcDbLine
 10
386.6991715321344
 20
-224.5943224843485
 30
0.0
 11
381.1666244393344
 21
-220.7203913043485
 31
0.0
  0
LINE
  5
2653
330
1F
100
AcDbEntity
  8
0
  6
Continuous
100
AcDbLine
 10
373.0765670859345
 20
-217.2203913043485
 30
0.0
 11
371.1697613377345
 21
-215.6203913043484
 31
0.0
  0
LINE
  5
2654
330
1F
100
AcDbEntity
  8
0
  6
Continuous
100
AcDbLine
 10
373.2526040503344
 20
-217.7032340169485
 30
0.0
 11
370.8869186253344
 21
-215.3375485919485
 31
0.0
  0
LINE
  5
2655
330
1F
100
AcDbEntity
  8
0
  6
Continuous
100
AcDbLine
 10
362.3244618761345
 20
-210.7203913043485
 30
0.0
 11
362.3244618761345
 21
-198.2203913043484
 31
0.0
  0
LINE
  5
2656
330
1F
100
AcDbEntity
  8
0
  6
Continuous
100
AcDbLine
 10
393.3697613377344
 20
-209.6928464031485
 30
0.0
 11
390.6392206089345
 21
-210.1743144055485
 31
0.0
  0
LINE
  5
2657
330
1F
100
AcDbEntity
  8
0
  6
Continuous
100
AcDbLine
 10
390.1697613377345
 20
-209.6928464031485
 30
0.0
 11
387.4392206089344
 21
-210.1743144055485
 31
0.0
  0
LINE
  5
2658
330
1F
100
AcDbEntity
  8
0
  6
Continuous
100
AcDbLine
 10
386.9697613377344
 20
-209.6928464031485
 30
0.0
 11
384.2392206089344
 21
-210.1743144055485
 31
0.0
  0
LINE
  5
2659
330
1F
100
AcDbEntity
  8
0
  6
Continuous
100
AcDbLine
 10
383.7697613377345
 20
-209.6928464031485
 30
0.0
 11
381.0392206089344
 21
-210.1743144055485
 31
0.0
  0
LINE
  5
265A
330
1F
100
AcDbEntity
  8
0
  6
Continuous
100
AcDbLine
 10
380.5697613377345
 20
-209.6928464031485
 30
0.0
 11
377.8392206089344
 21
-210.1743144055485
 31
0.0
  0
LINE
  5
265B
330
1F
100
AcDbEntity
  8
0
  6
Continuous
100
AcDbLine
 10
362.3244618761345
 20
-210.7203913043485
 30
0.0
 11
356.3544731443344
 21
-210.7203913043485
 31
0.0
  0
LINE
  5
265C
330
1F
100
AcDbEntity
  8
0
  6
Continuous
100
AcDbLine
 10
388.0720887981345
 20
-222.7715196717485
 30
0.0
 11
383.3353401091344
 21
-219.4548125331485
 31
0.0
  0
LINE
  5
265D
330
1F
100
AcDbEntity
  8
0
  6
Continuous
100
AcDbLine
 10
363.1904872799345
 20
-210.2203913043485
 30
0.0
 11
363.1904872799345
 21
-198.2203913043484
 31
0.0
  0
LINE
  5
265E
330
1F
100
AcDbEntity
  8
0
  6
Continuous
100
AcDbLine
 10
364.7782005203344
 20
-207.4703913043485
 30
0.0
 11
364.7782005203344
 21
-198.2203913043484
 31
0.0
  0
LINE
  5
265F
330
1F
100
AcDbEntity
  8
0
  6
Continuous
100
AcDbLine
 10
365.3697613377344
 20
-214.8203913043485
 30
0.0
 11
365.3697613377344
 21
-218.8203913043485
 31
0.0
  0
LINE
  5
2660
330
1F
100
AcDbEntity
  8
0
  6
Continuous
100
AcDbLine
 10
359.9621652143344
 20
-215.3072153933485
 30
0.0
 11
360.0955183757344
 21
-214.5509320333485
 31
0.0
  0
LINE
  5
2661
330
1F
100
AcDbEntity
  8
0
  6
Continuous
100
AcDbLine
 10
377.3697613377344
 20
-209.6928464031485
 30
0.0
 11
374.6392206089345
 21
-210.1743144055485
 31
0.0
  0
LINE
  5
2662
330
1F
100
AcDbEntity
  8
0
  6
Continuous
100
AcDbLine
 10
394.5697613377345
 20
-210.1803913043485
 30
0.0
 11
393.7697613377345
 21
-210.1803913043485
 31
0.0
  0
LINE
  5
2663
330
1F
100
AcDbEntity
  8
0
  6
Continuous
100
AcDbLine
 10
374.5697613377345
 20
-210.1803913043485
 30
0.0
 11
368.7697613377345
 21
-210.1803913043485
 31
0.0
  0
LINE
  5
2664
330
1F
100
AcDbEntity
  8
0
  6
Continuous
100
AcDbLine
 10
390.8014199899344
 20
-221.8984881149485
 30
0.0
 11
384.9728636285345
 21
-217.8172890137485
 31
0.0
  0
LINE
  5
2665
330
1F
100
AcDbEntity
  8
0
  6
Continuous
100
AcDbLine
 10
356.2509455263346
 20
-210.7340209739485
 30
0.0
 11
352.8662337197345
 21
-211.6409517691485
 31
0.0
  0
LINE
  5
2666
330
1F
100
AcDbEntity
  8
0
  6
Continuous
100
AcDbLine
 10
396.1697613377345
 20
-207.4703913043485
 30
0.0
 11
364.7782005203344
 21
-207.4703913043485
 31
0.0
  0
LINE
  5
2667
330
1F
100
AcDbEntity
  8
0
  6
Continuous
100
AcDbLine
 10
391.0697613377345
 20
-219.3022529179485
 30
0.0
 11
386.6103871479345
 21
-216.1797654943485
 31
0.0
  0
LINE
  5
2668
330
1F
100
AcDbEntity
  8
0
  6
Continuous
100
AcDbLine
 10
368.3697613377344
 20
-210.5803913043485
 30
0.0
 11
368.3697613377344
 21
-215.0303913043485
 31
0.0
  0
LINE
  5
2669
330
1F
100
AcDbEntity
  8
0
  6
Continuous
100
AcDbLine
 10
368.5597613377345
 20
-215.2203913043485
 30
0.0
 11
368.5597613377345
 21
-210.2414722387485
 31
0.0
  0
LINE
  5
266A
330
1F
100
AcDbEntity
  8
0
  6
Continuous
100
AcDbLine
 10
353.5827778423345
 20
-211.4489543501485
 30
0.0
 11
352.5697613377344
 21
-212.4619708547485
 31
0.0
  0
LINE
  5
266B
330
1F
100
AcDbEntity
  8
0
  6
Continuous
100
AcDbLine
 10
391.0697613377345
 20
-216.5181230863485
 30
0.0
 11
388.7879638783345
 21
-214.9203913043485
 31
0.0
  0
LINE
  5
266C
330
1F
100
AcDbEntity
  8
0
  6
Continuous
100
AcDbLine
 10
373.1602836045345
 20
-217.2203913043485
 30
0.0
 11
372.4934834403344
 21
-214.7318592129485
 31
0.0
  0
LINE
  5
266D
330
1F
100
AcDbEntity
  8
0
  6
Continuous
100
AcDbLine
 10
373.8697613377344
 20
-214.8203913043485
 30
0.0
 11
373.7685714739344
 21
-214.4427455909485
 31
0.0
  0
LINE
  5
266E
330
1F
100
AcDbEntity
  8
0
  6
Continuous
100
AcDbLine
 10
374.7474117951345
 20
-217.2203913043485
 30
0.0
 11
374.1043337333345
 21
-214.8203913043485
 31
0.0
  0
LINE
  5
266F
330
1F
100
AcDbEntity
  8
0
  6
Continuous
100
AcDbLine
 10
370.6040759129343
 20
-210.1803913043485
 30
0.0
 11
370.6040759129343
 21
-215.2203913043485
 31
0.0
  0
LINE
  5
2670
330
1F
100
AcDbEntity
  8
0
  6
Continuous
100
AcDbLine
 10
370.8869186253344
 20
-210.1803913043485
 30
0.0
 11
370.8869186253344
 21
-215.3375485919485
 31
0.0
  0
LINE
  5
2671
330
1F
100
AcDbEntity
  8
0
  6
Continuous
100
AcDbLine
 10
371.1697613377345
 20
-210.1803913043485
 30
0.0
 11
371.1697613377345
 21
-215.6203913043484
 31
0.0
  0
LINE
  5
2672
330
1F
100
AcDbEntity
  8
0
  6
Continuous
100
AcDbLine
 10
371.5697613377344
 20
-214.8203913043485
 30
0.0
 11
371.5697613377344
 21
-210.1803913043485
 31
0.0
  0
LINE
  5
2673
330
1F
100
AcDbEntity
  8
0
  6
Continuous
100
AcDbLine
 10
372.4697613377344
 20
-210.1803913043485
 30
0.0
 11
372.4697613377344
 21
-214.8203913043485
 31
0.0
  0
LINE
  5
2674
330
1F
100
AcDbEntity
  8
0
  6
Continuous
100
AcDbLine
 10
372.5709512017345
 20
-210.1803913043485
 30
0.0
 11
372.5709512017345
 21
-214.4427455909485
 31
0.0
  0
LINE
  5
2675
330
1F
100
AcDbEntity
  8
0
  6
Continuous
100
AcDbLine
 10
372.8607289497345
 20
-214.2203913043485
 30
0.0
 11
372.8607289497345
 21
-210.1803913043485
 31
0.0
  0
LINE
  5
2676
330
1F
100
AcDbEntity
  8
0
  6
Continuous
100
AcDbLine
 10
364.7782005203344
 20
-207.4703913043485
 30
0.0
 11
363.1904872799345
 21
-210.2203913043485
 31
0.0
  0
LINE
  5
2677
330
1F
100
AcDbEntity
  8
0
  6
Continuous
100
AcDbLine
 10
358.5115551683343
 20
-210.7203913043485
 30
0.0
 11
355.0115551683343
 21
-214.2203913043485
 31
0.0
  0
LINE
  5
2678
330
1F
100
AcDbEntity
  8
0
  6
Continuous
100
AcDbLine
 10
376.3345399859345
 20
-217.2203913043485
 30
0.0
 11
375.6914619241345
 21
-214.8203913043485
 31
0.0
  0
LINE
  5
2679
330
1F
100
AcDbEntity
  8
0
  6
Continuous
100
AcDbLine
 10
377.9216681765344
 20
-217.2203913043485
 30
0.0
 11
377.1178205993344
 21
-214.2203913043485
 31
0.0
  0
LINE
  5
267A
330
1F
100
AcDbEntity
  8
0
  6
Continuous
100
AcDbLine
 10
373.2526040503344
 20
-217.2203913043485
 30
0.0
 11
373.2526040503344
 21
-217.7032340169485
 31
0.0
  0
LINE
  5
267B
330
1F
100
AcDbEntity
  8
0
  6
Continuous
100
AcDbLine
 10
373.3697613377344
 20
-217.2203913043485
 30
0.0
 11
373.3697613377344
 21
-218.8203913043485
 31
0.0
  0
LINE
  5
267C
330
1F
100
AcDbEntity
  8
0
  6
Continuous
100
AcDbLine
 10
373.4787937259345
 20
-210.1803913043485
 30
0.0
 11
373.4787937259345
 21
-214.2203913043485
 31
0.0
  0
LINE
  5
267D
330
1F
100
AcDbEntity
  8
0
  6
Continuous
100
AcDbLine
 10
373.7685714739344
 20
-214.4427455909485
 30
0.0
 11
373.7685714739344
 21
-210.1803913043485
 31
0.0
  0
LINE
  5
267E
330
1F
100
AcDbEntity
  8
0
  6
Continuous
100
AcDbLine
 10
373.8697613377344
 20
-214.8203913043485
 30
0.0
 11
373.8697613377344
 21
-210.1803913043485
 31
0.0
  0
LINE
  5
267F
330
1F
100
AcDbEntity
  8
0
  6
Continuous
100
AcDbLine
 10
374.0697613377345
 20
-220.7203913043485
 30
0.0
 11
374.0697613377345
 21
-222.2203913043485
 31
0.0
  0
LINE
  5
2680
330
1F
100
AcDbEntity
  8
0
  6
Continuous
100
AcDbLine
 10
365.9617694485345
 20
-207.4703913043485
 30
0.0
 11
363.1396187603345
 21
-210.2925419927485
 31
0.0
  0
LINE
  5
2681
330
1F
100
AcDbEntity
  8
0
  6
Continuous
100
AcDbLine
 10
362.8961465323345
 20
-210.5360142207485
 30
0.0
 11
358.9452393513345
 21
-214.4869214017485
 31
0.0
  0
LINE
  5
2682
330
1F
100
AcDbEntity
  8
0
  6
CENTER
 48
25.0
100
AcDbLine
 10
342.5697613377345
 20
-198.2203913043484
 30
0.0
 11
402.0552645617343
 21
-198.2203913043484
 31
0.0
  0
LINE
  5
2683
330
1F
100
AcDbEntity
  8
0
  6
Continuous
100
AcDbLine
 10
390.7768681189347
 20
-215.5274980855485
 30
0.0
 11
390.1697613377345
 21
-214.9203913043485
 31
0.0
  0
LINE
  5
2684
330
1F
100
AcDbEntity
  8
0
  6
Continuous
100
AcDbLine
 10
377.8697613377344
 20
-214.8203913043485
 30
0.0
 11
377.7685714739345
 21
-214.4427455909485
 31
0.0
  0
LINE
  5
2685
330
1F
100
AcDbEntity
  8
0
  6
Continuous
100
AcDbLine
 10
379.5087963673345
 20
-217.2203913043485
 30
0.0
 11
378.8657183055345
 21
-214.8203913043485
 31
0.0
  0
LINE
  5
2686
330
1F
100
AcDbEntity
  8
0
  6
Continuous
100
AcDbLine
 10
376.4697613377344
 20
-209.8515406857485
 30
0.0
 11
376.4697613377344
 21
-214.8203913043485
 31
0.0
  0
LINE
  5
2687
330
1F
100
AcDbEntity
  8
0
  6
Continuous
100
AcDbLine
 10
376.5709512017345
 20
-209.8336981827485
 30
0.0
 11
376.5709512017345
 21
-214.4427455909485
 31
0.0
  0
LINE
  5
2688
330
1F
100
AcDbEntity
  8
0
  6
Continuous
100
AcDbLine
 10
376.8607289497345
 20
-214.2203913043485
 30
0.0
 11
376.8607289497345
 21
-209.7826025473485
 31
0.0
  0
LINE
  5
2689
330
1F
100
AcDbEntity
  8
0
  6
Continuous
100
AcDbLine
 10
377.3697613377344
 20
-209.6928464031485
 30
0.0
 11
377.3697613377344
 21
-209.7803913043485
 31
0.0
  0
LINE
  5
268A
330
1F
100
AcDbEntity
  8
0
  6
Continuous
100
AcDbLine
 10
377.4787937259345
 20
-210.0511747821485
 30
0.0
 11
377.4787937259345
 21
-214.2203913043485
 31
0.0
  0
LINE
  5
268B
330
1F
100
AcDbEntity
  8
0
  6
Continuous
100
AcDbLine
 10
377.7685714739345
 20
-214.4427455909485
 30
0.0
 11
377.7685714739345
 21
-210.1785044775485
 31
0.0
  0
LINE
  5
268C
330
1F
100
AcDbEntity
  8
0
  6
Continuous
100
AcDbLine
 10
377.8697613377344
 20
-214.8203913043485
 30
0.0
 11
377.8697613377344
 21
-210.1743144055485
 31
0.0
  0
LINE
  5
268D
330
1F
100
AcDbEntity
  8
0
  6
Continuous
100
AcDbLine
 10
372.5709512017345
 20
-214.4427455909485
 30
0.0
 11
372.4697613377344
 21
-214.8203913043485
 31
0.0
  0
LINE
  5
268E
330
1F
100
AcDbEntity
  8
0
  6
Continuous
100
AcDbLine
 10
361.5832286865345
 20
-214.4526389243485
 30
0.0
 11
360.2020089577345
 21
-215.8338586531485
 31
0.0
  0
LINE
  5
268F
330
1F
100
AcDbEntity
  8
0
  6
Continuous
100
AcDbLine
 10
397.7697613377345
 20
-208.3941517351485
 30
0.0
 11
396.1697613377345
 21
-207.4703913043485
 31
0.0
  0
LINE
  5
2690
330
1F
100
AcDbEntity
  8
0
  6
Continuous
100
AcDbLine
 10
381.0959245579345
 20
-217.2203913043485
 30
0.0
 11
380.4528464961345
 21
-214.8203913043485
 31
0.0
  0
LINE
  5
2691
330
1F
100
AcDbEntity
  8
0
  6
Continuous
100
AcDbLine
 10
381.8697613377344
 20
-214.8203913043485
 30
0.0
 11
381.7685714739345
 21
-214.4427455909485
 31
0.0
  0
LINE
  5
2692
330
1F
100
AcDbEntity
  8
0
  6
Continuous
100
AcDbLine
 10
382.6830527487345
 20
-217.2203913043485
 30
0.0
 11
382.0399746869345
 21
-214.8203913043485
 31
0.0
  0
LINE
  5
2693
330
1F
100
AcDbEntity
  8
0
  6
Continuous
100
AcDbLine
 10
380.4697613377344
 20
-209.7104791013485
 30
0.0
 11
380.4697613377344
 21
-214.8203913043485
 31
0.0
  0
LINE
  5
2694
330
1F
100
AcDbEntity
  8
0
  6
Continuous
100
AcDbLine
 10
363.2381996001345
 20
-214.2825922513485
 30
0.0
 11
360.0319722455345
 21
-217.4888196057485
 31
0.0
  0
LINE
  5
2695
330
1F
100
AcDbEntity
  8
0
  6
Continuous
100
AcDbLine
 10
370.1619837289345
 20
-207.4703913043485
 30
0.0
 11
363.4119837289345
 21
-214.2203913043485
 31
0.0
  0
LINE
  5
2696
330
1F
100
AcDbEntity
  8
0
  6
Continuous
100
AcDbLine
 10
356.8526040503344
 20
-220.8375485919485
 30
0.0
 11
355.1869186253345
 21
-222.5032340169485
 31
0.0
  0
LINE
  5
2697
330
1F
100
AcDbEntity
  8
0
  6
Continuous
100
AcDbLine
 10
364.2613538775345
 20
-214.7443622143485
 30
0.0
 11
360.4937322477344
 21
-218.5119838441485
 31
0.0
  0
LINE
  5
2698
330
1F
100
AcDbEntity
  8
0
  6
Continuous
100
AcDbLine
 10
364.9739029257345
 20
-215.5167374065485
 30
0.0
 11
361.2661074399345
 21
-219.2245328923485
 31
0.0
  0
LINE
  5
2699
330
1F
100
AcDbEntity
  8
0
  6
Continuous
100
AcDbLine
 10
384.2701809393345
 20
-217.2203913043485
 30
0.0
 11
383.6271028775345
 21
-214.8203913043485
 31
0.0
  0
LINE
  5
269A
330
1F
100
AcDbEntity
  8
0
  6
Continuous
100
AcDbLine
 10
380.5697613377345
 20
-209.6928464031485
 30
0.0
 11
380.5697613377345
 21
-209.7803913043485
 31
0.0
  0
LINE
  5
269B
330
1F
100
AcDbEntity
  8
0
  6
Continuous
100
AcDbLine
 10
380.5709512017345
 20
-209.7906657831485
 30
0.0
 11
380.5709512017345
 21
-214.4427455909485
 31
0.0
  0
LINE
  5
269C
330
1F
100
AcDbEntity
  8
0
  6
Continuous
100
AcDbLine
 10
380.8607289497345
 20
-214.2203913043485
 30
0.0
 11
380.8607289497345
 21
-210.1645967087485
 31
0.0
  0
LINE
  5
269D
330
1F
100
AcDbEntity
  8
0
  6
Continuous
100
AcDbLine
 10
381.4787937259345
 20
-210.0968058051485
 30
0.0
 11
381.4787937259345
 21
-214.2203913043485
 31
0.0
  0
LINE
  5
269E
330
1F
100
AcDbEntity
  8
0
  6
Continuous
100
AcDbLine
 10
381.6555477755344
 20
-217.2203913043485
 30
0.0
 11
381.6555477755344
 21
-220.7203913043485
 31
0.0
  0
LINE
  5
269F
330
1F
100
AcDbEntity
  8
0
  6
Continuous
100
AcDbLine
 10
381.7685714739345
 20
-214.4427455909485
 30
0.0
 11
381.7685714739345
 21
-210.0457101697485
 31
0.0
  0
LINE
  5
26A0
330
1F
100
AcDbEntity
  8
0
  6
Continuous
100
AcDbLine
 10
381.8697613377344
 20
-214.8203913043485
 30
0.0
 11
381.8697613377344
 21
-210.0278676665485
 31
0.0
  0
LINE
  5
26A1
330
1F
100
AcDbEntity
  8
0
  6
Continuous
100
AcDbLine
 10
382.3626545567345
 20
-217.2203913043485
 30
0.0
 11
382.3626545567345
 21
-220.4274980855485
 31
0.0
  0
LINE
  5
26A2
330
1F
100
AcDbEntity
  8
0
  6
Continuous
100
AcDbLine
 10
376.5709512017345
 20
-214.4427455909485
 30
0.0
 11
376.4697613377344
 21
-214.8203913043485
 31
0.0
  0
LINE
  5
26A3
330
1F
100
AcDbEntity
  8
0
  6
Continuous
100
AcDbLine
 10
374.3621980091344
 20
-207.4703913043485
 30
0.0
 11
371.6521980091345
 21
-210.1803913043485
 31
0.0
  0
LINE
  5
26A4
330
1F
100
AcDbEntity
  8
0
  6
Continuous
100
AcDbLine
 10
368.3697613377344
 20
-213.4628279757485
 30
0.0
 11
365.3697613377344
 21
-216.4628279757485
 31
0.0
  0
LINE
  5
26A5
330
1F
100
AcDbEntity
  8
0
  6
Continuous
100
AcDbLine
 10
365.3528848459345
 20
-216.6226797269485
 30
0.0
 11
362.3721473721345
 21
-219.6034172005485
 31
0.0
  0
LINE
  5
26A6
330
1F
100
AcDbEntity
  8
0
  6
Continuous
100
AcDbLine
 10
385.7482070905344
 20
-216.8132169491485
 30
0.0
 11
385.0534615527345
 21
-214.2203913043485
 31
0.0
  0
LINE
  5
26A7
330
1F
100
AcDbEntity
  8
0
  6
Continuous
100
AcDbLine
 10
385.8697613377344
 20
-214.8203913043485
 30
0.0
 11
385.7685714739345
 21
-214.4427455909485
 31
0.0
  0
LINE
  5
26A8
330
1F
100
AcDbEntity
  8
0
  6
Continuous
100
AcDbLine
 10
387.0439953445345
 20
-215.7259215031485
 30
0.0
 11
386.8020610135344
 21
-214.8230102881485
 31
0.0
  0
LINE
  5
26A9
330
1F
100
AcDbEntity
  8
0
  6
Continuous
100
AcDbLine
 10
383.7697613377345
 20
-209.6928464031485
 30
0.0
 11
383.7697613377345
 21
-209.7803913043485
 31
0.0
  0
LINE
  5
26AA
330
1F
100
AcDbEntity
  8
0
  6
Continuous
100
AcDbLine
 10
384.4697613377346
 20
-210.1336638549485
 30
0.0
 11
384.4697613377346
 21
-214.8203913043485
 31
0.0
  0
LINE
  5
26AB
330
1F
100
AcDbEntity
  8
0
  6
Continuous
100
AcDbLine
 10
384.5709512017345
 20
-210.1158213517485
 30
0.0
 11
384.5709512017345
 21
-214.4427455909485
 31
0.0
  0
LINE
  5
26AC
330
1F
100
AcDbEntity
  8
0
  6
Continuous
100
AcDbLine
 10
384.8607289497345
 20
-214.2203913043485
 30
0.0
 11
384.8607289497345
 21
-210.0647257163485
 31
0.0
  0
LINE
  5
26AD
330
1F
100
AcDbEntity
  8
0
  6
Continuous
100
AcDbLine
 10
385.4787937259345
 20
-209.9557442205485
 30
0.0
 11
385.4787937259345
 21
-214.2203913043485
 31
0.0
  0
LINE
  5
26AE
330
1F
100
AcDbEntity
  8
0
  6
Continuous
100
AcDbLine
 10
380.5709512017345
 20
-214.4427455909485
 30
0.0
 11
380.4697613377344
 21
-214.8203913043485
 31
0.0
  0
LINE
  5
26AF
330
1F
100
AcDbEntity
  8
0
  6
Continuous
100
AcDbLine
 10
378.5624122893345
 20
-207.4703913043485
 30
0.0
 11
376.1195028941346
 21
-209.9133006997485
 31
0.0
  0
LINE
  5
26B0
330
1F
100
AcDbEntity
  8
0
  6
Continuous
100
AcDbLine
 10
370.7737473603345
 20
-215.2590562333485
 30
0.0
 11
366.8124122893345
 21
-219.2203913043485
 31
0.0
  0
LINE
  5
26B1
330
1F
100
AcDbEntity
  8
0
  6
Continuous
100
AcDbLine
 10
385.7685714739345
 20
-214.4427455909485
 30
0.0
 11
385.7685714739345
 21
-209.9046485851485
 31
0.0
  0
LINE
  5
26B2
330
1F
100
AcDbEntity
  8
0
  6
Continuous
100
AcDbLine
 10
385.8697613377344
 20
-214.8203913043485
 30
0.0
 11
385.8697613377344
 21
-209.8868060819485
 31
0.0
  0
LINE
  5
26B3
330
1F
100
AcDbEntity
  8
0
  6
Continuous
100
AcDbLine
 10
386.7697613377345
 20
-209.7281117993485
 30
0.0
 11
386.7697613377345
 21
-214.8203913043485
 31
0.0
  0
LINE
  5
26B4
330
1F
100
AcDbEntity
  8
0
  6
Continuous
100
AcDbLine
 10
386.9697613377344
 20
-209.6928464031485
 30
0.0
 11
386.9697613377344
 21
-209.7803913043485
 31
0.0
  0
LINE
  5
26B5
330
1F
100
AcDbEntity
  8
0
  6
Continuous
100
AcDbLine
 10
387.1697613377346
 20
-215.6203913043484
 30
0.0
 11
387.1697613377346
 21
-210.1246574265485
 31
0.0
  0
LINE
  5
26B6
330
1F
100
AcDbEntity
  8
0
  6
Continuous
100
AcDbLine
 10
387.5768681189345
 20
-215.2132845233485
 30
0.0
 11
387.5768681189345
 21
-210.1500434357485
 31
0.0
  0
LINE
  5
26B7
330
1F
100
AcDbEntity
  8
0
  6
Continuous
100
AcDbLine
 10
382.7626265695344
 20
-207.4703913043485
 30
0.0
 11
380.5338370495345
 21
-209.6991808245485
 31
0.0
  0
LINE
  5
26B8
330
1F
100
AcDbEntity
  8
0
  6
Continuous
100
AcDbLine
 10
372.8911939537345
 20
-217.3418239203485
 30
0.0
 11
371.0126265695344
 21
-219.2203913043485
 31
0.0
  0
LINE
  5
26B9
330
1F
100
AcDbEntity
  8
0
  6
Continuous
100
AcDbLine
 10
388.2839749001345
 20
-214.9203913043485
 30
0.0
 11
388.2839749001345
 21
-210.0253614319485
 31
0.0
  0
LINE
  5
26BA
330
1F
100
AcDbEntity
  8
0
  6
Continuous
100
AcDbLine
 10
390.1697613377345
 20
-209.6928464031485
 30
0.0
 11
390.1697613377345
 21
-214.9203913043485
 31
0.0
  0
LINE
  5
26BB
330
1F
100
AcDbEntity
  8
0
  6
Continuous
100
AcDbLine
 10
384.5709512017345
 20
-214.4427455909485
 30
0.0
 11
384.4697613377346
 21
-214.8203913043485
 31
0.0
  0
LINE
  5
26BC
330
1F
100
AcDbEntity
  8
0
  6
Continuous
100
AcDbLine
 10
386.9628408497344
 20
-207.4703913043485
 30
0.0
 11
384.2631343941345
 21
-210.1700977601485
 31
0.0
  0
LINE
  5
26BD
330
1F
100
AcDbEntity
  8
0
  6
Continuous
100
AcDbLine
 10
390.7768681189347
 20
-210.1500434357485
 30
0.0
 11
390.7768681189347
 21
-215.5274980855485
 31
0.0
  0
LINE
  5
26BE
330
1F
100
AcDbEntity
  8
0
  6
Continuous
100
AcDbLine
 10
391.0697613377345
 20
-221.2203913043485
 30
0.0
 11
391.0697613377345
 21
-210.0983984587485
 31
0.0
  0
LINE
  5
26BF
330
1F
100
AcDbEntity
  8
0
  6
Continuous
100
AcDbLine
 10
391.1630551301345
 20
-207.4703913043485
 30
0.0
 11
388.6774685495345
 21
-209.9559778849485
 31
0.0
  0
LINE
  5
26C0
330
1F
100
AcDbEntity
  8
0
  6
Continuous
100
AcDbLine
 10
393.3697613377344
 20
-209.6928464031485
 30
0.0
 11
393.3697613377344
 21
-209.7803913043485
 31
0.0
  0
LINE
  5
26C1
330
1F
100
AcDbEntity
  8
0
  6
Continuous
100
AcDbLine
 10
396.1697613377345
 20
-207.4703913043485
 30
0.0
 11
396.1697613377345
 21
-198.2203913043484
 31
0.0
  0
LINE
  5
26C2
330
1F
100
AcDbEntity
  8
0
  6
Continuous
100
AcDbLine
 10
397.7697613377345
 20
-208.7770453349485
 30
0.0
 11
397.7697613377345
 21
-198.2203913043484
 31
0.0
  0
LINE
  5
26C3
330
1F
100
AcDbEntity
  8
0
  6
Continuous
100
AcDbLine
 10
387.5768681189345
 20
-215.2132845233485
 30
0.0
 11
382.3626545567345
 21
-220.4274980855485
 31
0.0
  0
LINE
  5
26C4
330
1F
100
AcDbEntity
  8
0
  6
Continuous
100
AcDbLine
 10
395.3632694103344
 20
-207.4703913043485
 30
0.0
 11
393.0918027051345
 21
-209.7418580097485
 31
0.0
  0
LINE
  5
26C5
330
1F
100
AcDbEntity
  8
0
  6
Continuous
100
AcDbLine
 10
387.1697613377346
 20
-215.6203913043484
 30
0.0
 11
385.2629555897345
 21
-217.2203913043485
 31
0.0
  0
LINE
  5
26C6
330
1F
100
AcDbEntity
  8
0
  6
Continuous
100
AcDbLine
 10
385.1830099919343
 20
-227.2203913043485
 30
0.0
 11
387.2037359341344
 21
-223.7203913043485
 31
0.0
  0
ARC
  5
26C7
330
1F
100
AcDbEntity
  8
0
  6
Continuous
100
AcDbCircle
 10
353.5697613377345
 20
-183.2203913043484
 30
0.0
 40
1.0
100
AcDbArc
 50
90.0
 51
180.0
  0
ARC
  5
26C8
330
1F
100
AcDbEntity
  8
0
  6
Continuous
100
AcDbCircle
 10
396.7697613377345
 20
-187.6637372737484
 30
0.0
 40
1.0
100
AcDbArc
 50
0.0
 51
79.99999999970046
  0
ARC
  5
26C9
330
1F
100
AcDbEntity
  8
0
  6
Continuous
100
AcDbCircle
 10
393.7697613377345
 20
-186.6603913043485
 30
0.0
 40
0.4
100
AcDbArc
 50
90.0
 51
180.0
  0
ARC
  5
26CA
330
1F
100
AcDbEntity
  8
0
  6
Continuous
100
AcDbCircle
 10
389.8018121453345
 20
-171.2203913043484
 30
0.0
 40
3.0
100
AcDbArc
 50
210.0000005701997
 51
269.9999999366991
  0
ARC
  5
26CB
330
1F
100
AcDbEntity
  8
0
  6
Continuous
100
AcDbCircle
 10
390.0697613377344
 20
-175.2203913043484
 30
0.0
 40
1.0
100
AcDbArc
 50
0.0
 51
90.0
  0
CIRCLE
  5
26CC
330
1F
100
AcDbEntity
  8
0
  6
Continuous
100
AcDbCircle
 10
362.6697613377345
 20
-216.9203913043485
 30
0.0
 40
2.7
  0
ARC
  5
26CD
330
1F
100
AcDbEntity
  8
0
  6
Continuous
100
AcDbCircle
 10
386.7697613377345
 20
-215.2203913043485
 30
0.0
 40
0.4
100
AcDbArc
 50
0.0
 51
90.0
  0
ARC
  5
26CE
330
1F
100
AcDbEntity
  8
0
  6
Continuous
100
AcDbCircle
 10
371.5697613377344
 20
-215.2203913043485
 30
0.0
 40
0.4
100
AcDbArc
 50
90.0
 51
180.0
  0
ARC
  5
26CF
330
1F
100
AcDbEntity
  8
0
  6
Continuous
100
AcDbCircle
 10
372.8607289497345
 20
-214.5203913043485
 30
0.0
 40
0.3
100
AcDbArc
 50
90.0
 51
165.0000000000008
  0
ARC
  5
26D0
330
1F
100
AcDbEntity
  8
0
  6
Continuous
100
AcDbCircle
 10
373.4787937259345
 20
-214.5203913043485
 30
0.0
 40
0.3
100
AcDbArc
 50
14.99999999999917
 51
90.0
  0
ARC
  5
26D1
330
1F
100
AcDbEntity
  8
0
  6
Continuous
100
AcDbCircle
 10
376.8607289497345
 20
-214.5203913043485
 30
0.0
 40
0.3
100
AcDbArc
 50
90.0
 51
165.0000000000008
  0
ARC
  5
26D2
330
1F
100
AcDbEntity
  8
0
  6
Continuous
100
AcDbCircle
 10
377.4787937259345
 20
-214.5203913043485
 30
0.0
 40
0.3
100
AcDbArc
 50
14.99999999999917
 51
90.0
  0
ARC
  5
26D3
330
1F
100
AcDbEntity
  8
0
  6
Continuous
100
AcDbCircle
 10
380.8607289497345
 20
-214.5203913043485
 30
0.0
 40
0.3
100
AcDbArc
 50
90.0
 51
165.0000000000008
  0
ARC
  5
26D4
330
1F
100
AcDbEntity
  8
0
  6
Continuous
100
AcDbCircle
 10
381.4787937259345
 20
-214.5203913043485
 30
0.0
 40
0.3
100
AcDbArc
 50
14.99999999999917
 51
90.0
  0
ARC
  5
26D5
330
1F
100
AcDbEntity
  8
0
  6
Continuous
100
AcDbCircle
 10
384.8607289497345
 20
-214.5203913043485
 30
0.0
 40
0.3
100
AcDbArc
 50
90.0
 51
165.0000000000008
  0
ARC
  5
26D6
330
1F
100
AcDbEntity
  8
0
  6
Continuous
100
AcDbCircle
 10
385.4787937259345
 20
-214.5203913043485
 30
0.0
 40
0.3
100
AcDbArc
 50
14.99999999999917
 51
90.0
  0
ARC
  5
26D7
330
1F
100
AcDbEntity
  8
0
  6
Continuous
100
AcDbCircle
 10
372.9697613377344
 20
-218.8203913043485
 30
0.0
 40
0.4
100
AcDbArc
 50
270.0
 51
0.0
  0
ARC
  5
26D8
330
1F
100
AcDbEntity
  8
0
  6
Continuous
100
AcDbCircle
 10
396.7697613377345
 20
-208.7770453349485
 30
0.0
 40
1.0
100
AcDbArc
 50
280.0000000000018
 51
0.0
  0
ARC
  5
26D9
330
1F
100
AcDbEntity
  8
0
  6
Continuous
100
AcDbCircle
 10
358.5697613377345
 20
-214.6203913043485
 30
0.0
 40
0.4
100
AcDbArc
 50
0.0
 51
90.0
  0
ARC
  5
26DA
330
1F
100
AcDbEntity
  8
0
  6
Continuous
100
AcDbCircle
 10
359.4697613377344
 20
-215.2203913043485
 30
0.0
 40
0.5
100
AcDbArc
 50
180.0
 51
350.0000000000014
  0
ARC
  5
26DB
330
1F
100
AcDbEntity
  8
0
  6
Continuous
100
AcDbCircle
 10
362.3244618761345
 20
-209.7203913043485
 30
0.0
 40
1.0
100
AcDbArc
 50
270.0
 51
329.9999999999995
  0
ARC
  5
26DC
330
1F
100
AcDbEntity
  8
0
  6
Continuous
100
AcDbCircle
 10
356.3544731443344
 20
-211.1203913043484
 30
0.0
 40
0.4
100
AcDbArc
 50
90.0
 51
105.0000000000011
  0
ARC
  5
26DD
330
1F
100
AcDbEntity
  8
0
  6
Continuous
100
AcDbCircle
 10
352.9697613377345
 20
-212.0273220995485
 30
0.0
 40
0.4
100
AcDbArc
 50
105.0000000000011
 51
180.0
  0
ARC
  5
26DE
330
1F
100
AcDbEntity
  8
0
  6
Continuous
100
AcDbCircle
 10
353.5697613377345
 20
-213.2203913043485
 30
0.0
 40
1.0
100
AcDbArc
 50
180.0
 51
270.0
  0
ARC
  5
26DF
330
1F
100
AcDbEntity
  8
0
  6
Continuous
100
AcDbCircle
 10
360.4894414769344
 20
-214.6203913043485
 30
0.0
 40
0.4
100
AcDbArc
 50
90.0
 51
169.9999999999997
  0
ARC
  5
26E0
330
1F
100
AcDbEntity
  8
0
  6
Continuous
100
AcDbCircle
 10
364.7697613377345
 20
-214.8203913043485
 30
0.0
 40
0.6
100
AcDbArc
 50
0.0
 51
90.0
  0
ARC
  5
26E1
330
1F
100
AcDbEntity
  8
0
  6
Continuous
100
AcDbCircle
 10
365.7697613377345
 20
-218.8203913043485
 30
0.0
 40
0.4
100
AcDbArc
 50
180.0
 51
270.0
  0
ARC
  5
26E2
330
1F
100
AcDbEntity
  8
0
  6
Continuous
100
AcDbCircle
 10
393.7697613377345
 20
-209.7803913043485
 30
0.0
 40
0.4
100
AcDbArc
 50
180.0
 51
270.0
  0
ARC
  5
26E3
330
1F
100
AcDbEntity
  8
0
  6
Continuous
100
AcDbCircle
 10
390.5697613377345
 20
-209.7803913043485
 30
0.0
 40
0.4
100
AcDbArc
 50
180.0
 51
280.0000000000018
  0
ARC
  5
26E4
330
1F
100
AcDbEntity
  8
0
  6
Continuous
100
AcDbCircle
 10
387.3697613377343
 20
-209.7803913043485
 30
0.0
 40
0.4
100
AcDbArc
 50
180.0
 51
280.0000000000018
  0
ARC
  5
26E5
330
1F
100
AcDbEntity
  8
0
  6
Continuous
100
AcDbCircle
 10
384.1697613377346
 20
-209.7803913043485
 30
0.0
 40
0.4
100
AcDbArc
 50
180.0
 51
280.0000000000018
  0
ARC
  5
26E6
330
1F
100
AcDbEntity
  8
0
  6
Continuous
100
AcDbCircle
 10
380.9697613377344
 20
-209.7803913043485
 30
0.0
 40
0.4
100
AcDbArc
 50
180.0
 51
280.0000000000018
  0
ARC
  5
26E7
330
1F
100
AcDbEntity
  8
0
  6
Continuous
100
AcDbCircle
 10
377.7697613377345
 20
-209.7803913043485
 30
0.0
 40
0.4
100
AcDbArc
 50
180.0
 51
280.0000000000018
  0
ARC
  5
26E8
330
1F
100
AcDbEntity
  8
0
  6
Continuous
100
AcDbCircle
 10
374.5697613377345
 20
-209.7803913043485
 30
0.0
 40
0.4
100
AcDbArc
 50
270.0
 51
280.0000000000018
  0
ARC
  5
26E9
330
1F
100
AcDbEntity
  8
0
  6
Continuous
100
AcDbCircle
 10
368.7697613377345
 20
-210.5803913043485
 30
0.0
 40
0.4
100
AcDbArc
 50
90.0
 51
180.0
  0
ARC
  5
26EA
330
1F
100
AcDbEntity
  8
0
  6
Continuous
100
AcDbCircle
 10
368.5597613377345
 20
-215.0303913043485
 30
0.0
 40
0.19
100
AcDbArc
 50
180.0
 51
270.0
  0
ARC
  5
26EB
330
1F
100
AcDbEntity
  8
0
  6
Continuous
100
AcDbCircle
 10
370.6040759129343
 20
-215.6203913043484
 30
0.0
 40
0.4
100
AcDbArc
 50
45.0
 51
90.0
  0
ARC
  5
26EC
330
1F
100
AcDbEntity
  8
0
  6
Continuous
100
AcDbCircle
 10
372.9697613377344
 20
-217.9860767293485
 30
0.0
 40
0.4
100
AcDbArc
 50
0.0
 51
45.0
  0
ARC
  5
26ED
330
1F
100
AcDbEntity
  8
0
  6
Continuous
100
AcDbCircle
 10
354.6697613377345
 20
-223.2203913043485
 30
0.0
 40
0.6
100
AcDbArc
 50
90.0
 51
179.9999999991011
  0
ARC
  5
26EE
330
1F
100
AcDbEntity
  8
0
  6
Continuous
100
AcDbCircle
 10
383.4509591843345
 20
-226.2203913043485
 30
0.0
 40
2.0
100
AcDbArc
 50
270.0
 51
329.9999999999995
  0
ARC
  5
26EF
330
1F
100
AcDbEntity
  8
0
  6
Continuous
100
AcDbCircle
 10
389.8018121453345
 20
-225.2203913043485
 30
0.0
 40
3.0
100
AcDbArc
 50
90.0
 51
149.9999999999994
  0
ARC
  5
26F0
330
1F
100
AcDbEntity
  8
0
  6
Continuous
100
AcDbCircle
 10
390.0697613377344
 20
-221.2203913043485
 30
0.0
 40
1.0
100
AcDbArc
 50
270.0
 51
359.9999999997004
  0
ARC
  5
26F1
330
1F
100
AcDbEntity
  8
0
  6
Continuous
100
AcDbCircle
 10
390.0697613377344
 20
-216.2346048667485
 30
0.0
 40
1.0
100
AcDbArc
 50
0.0000000000993351
 51
45.00000000230182
  0
ARC
  5
26F2
330
1F
100
AcDbEntity
  8
0
  6
Continuous
100
AcDbCircle
 10
388.2839749001345
 20
-215.9203913043485
 30
0.0
 40
1.0
100
AcDbArc
 50
89.99999999980133
 51
135.0000000050999
  0
ARC
  5
26F3
330
1F
100
AcDbEntity
  8
0
  6
Continuous
100
AcDbCircle
 10
381.6555477755344
 20
-219.7203913043485
 30
0.0
 40
1.0
100
AcDbArc
 50
270.0
 51
315.0000000032989
  0
ARC
  5
26F4
330
1F
100
AcDbEntity
  8
0
  6
Continuous
100
AcDbCircle
 10
357.1354467627344
 20
-221.1203913043485
 30
0.0
 40
0.4
100
AcDbArc
 50
90.0
 51
135.0000000129991
  0
ARC
  5
26F5
330
1F
100
AcDbEntity
  8
0
  6
Continuous
100
AcDbCircle
 10
354.9040759129344
 20
-222.2203913043485
 30
0.0
 40
0.4
100
AcDbArc
 50
270.0
 51
315.0000000100007
  0
SPLINE
  5
26F6
330
1F
100
AcDbEntity
  8
0
  6
Continuous
100
AcDbSpline
210
1.0
220
-1.140000000000000E-14
230
-1.000000000000000E-15
 70
     8
 71
     3
 72
    11
 73
     7
 74
     5
 42
0.0000000001
 43
0.0000000001
 44
0.0000000001
 12
0.0
 22
0.0011149277497895
 32
-0.9999993784678634
 13
0.0
 23
0.5353974994048261
 33
-0.8446002117162056
 40
0.0
 40
0.0
 40
0.0
 40
0.0
 40
3.716070546334957
 40
7.432141092576904
 40
11.14821163883833
 40
12.69865260783236
 40
12.69865260783236
 40
12.69865260783236
 40
12.69865260783236
 10
374.0697613377345
 20
-220.7203913043485
 30
0.0
 10
374.0697613377345
 20
-220.7190102542911
 30
-1.238689412225897
 10
374.0697613377344
 20
-220.5154726751203
 30
-3.72103759439183
 10
374.0697613377347
 20
-219.598454041366
 30
-7.338603989497235
 10
374.0697613377345
 20
-218.3897867516118
 30
-10.09454031357156
 10
374.0697613377345
 20
-217.5007038790066
 30
-11.60960832484472
 10
374.0697613377345
 20
-217.2240031397485
 30
-12.0461092484
 11
374.0697613377345
 21
-220.7203913043485
 31
0.0
 11
374.0697613377345
 21
-220.4135206309485
 31
-3.7033782814
 11
374.0697613377345
 21
-219.5012792427485
 31
-7.3057380572
 11
374.0697613377345
 21
-218.0085507065485
 31
-10.7088163434
 11
374.0697613377345
 21
-217.2240031397485
 31
-12.0461092484
  0
VIEWPORT
  5
86E
330
50
100
AcDbEntity
 67
     1
  8
0
100
AcDbViewport
 10
133.3499908447265
 20
101.5999970436096
 30
0.0
 40
467.3964992866515
 41
228.4221935424805
 68
     1
 69
     1
 12
133.3499908447265
 22
101.5999970436096
 13
0.0
 23
0.0
 14
10.0
 24
10.0
 15
10.0
 25
10.0
 16
0.0
 26
0.0
 36
1.0
 17
0.0
 27
0.0
 37
0.0
 42
50.0
 43
0.0
 44
0.0
 45
228.4221935424805
 50
0.0
 51
0.0
 72
  1000
 90
    32800
  1

281
     0
 71
     1
 74
     0
110
0.0
120
0.0
130
0.0
111
1.0
121
0.0
131
0.0
112
0.0
122
1.0
132
0.0
 79
     0
146
0.0
  0
VIEWPORT
  5
870
330
50
100
AcDbEntity
 67
     1
  8
0
100
AcDbViewport
 10
133.3499939441681
 20
101.5999939441681
 30
0.0
 40
213.3599903106689
 41
162.5599903106689
 68
     2
 69
     2
 12
232.2178593412737
 22
236.3528153148605
 13
0.0
 23
0.0
 14
10.0
 24
10.0
 15
10.0
 25
10.0
 16
0.0
 26
0.0
 36
1.0
 17
0.0
 27
0.0
 37
0.0
 42
50.0
 43
0.0
 44
0.0
 45
372.3835153371155
 50
0.0
 51
0.0
 72
  1000
 90
    32864
  1

281
     0
 71
     1
 74
     0
110
0.0
120
0.0
130
0.0
111
1.0
121
0.0
131
0.0
112
0.0
122
1.0
132
0.0
 79
     0
146
0.0
  0
ENDSEC
  0
SECTION
  2
OBJECTS
  0
DICTIONARY
  5
C
330
0
100
AcDbDictionary
281
     1
  3
ACAD_COLOR
350
6B
  3
ACAD_GROUP
350
D
  3
ACAD_LAYOUT
350
1A
  3
ACAD_MATERIAL
350
6A
  3
ACAD_MLINESTYLE
350
17
  3
ACAD_PLOTSETTINGS
350
19
  3
ACAD_PLOTSTYLENAME
350
E
  3
ACDBHEADERROUNDTRIPXREC
350
47A5
  3
AcDbVariableDictionary
350
5E
  3
DWGPROPS
350
47A8
  0
DICTIONARY
  5
6B
102
{ACAD_REACTORS
330
C
102
}
330
C
100
AcDbDictionary
281
     1
  0
DICTIONARY
  5
D
102
{ACAD_REACTORS
330
C
102
}
330
C
100
AcDbDictionary
281
     1
  0
DICTIONARY
  5
1A
102
{ACAD_REACTORS
330
C
102
}
330
C
100
AcDbDictionary
281
     1
  3
Layout1
350
51
  3
Layout2
350
56
  3
Model
350
22
  0
DICTIONARY
  5
6A
102
{ACAD_REACTORS
330
C
102
}
330
C
100
AcDbDictionary
281
     1
  0
DICTIONARY
  5
17
102
{ACAD_REACTORS
330
C
102
}
330
C
100
AcDbDictionary
281
     1
  3
Standard
350
18
  0
DICTIONARY
  5
19
102
{ACAD_REACTORS
330
C
102
}
330
C
100
AcDbDictionary
281
     1
  0
ACDBDICTIONARYWDFLT
  5
E
102
{ACAD_REACTORS
330
C
102
}
330
C
100
AcDbDictionary
281
     1
  3
Normal
350
F
100
AcDbDictionaryWithDefault
340
F
  0
DICTIONARY
  5
47A5
102
{ACAD_REACTORS
330
C
102
}
330
C
100
AcDbDictionary
281
     1
  3
COLORDICT
350
47A6
  3
MATERIALDICT
350
47A7
  0
DICTIONARY
  5
5E
102
{ACAD_REACTORS
330
C
102
}
330
C
100
AcDbDictionary
281
     1
  3
DIMASSOC
350
5F
  3
HIDETEXT
350
63
  0
XRECORD
  5
47A8
102
{ACAD_REACTORS
330
C
102
}
330
C
100
AcDbXrecord
280
     1
  1
DWGPROPS COOKIE
  2

  3

  4

  6

  7

  8

  9

300
=
301
=
302
=
303
=
304
=
305
=
306
=
307
=
308
=
309
=
 40
0.0
 41
2453308.654962373
 42
2453691.64765537
  1

 90
        0
  0
LAYOUT
  5
51
102
{ACAD_REACTORS
330
1A
102
}
330
1A
100
AcDbPlotSettings
  1

  2
none_device
  4
Letter_(8.50_x_11.00_Inches)
  6

 40
6.349999904632567
 41
6.349999904632567
 42
6.350006103515625
 43
6.350006103515625
 44
215.8999938964844
 45
279.3999938964844
 46
0.0
 47
0.0
 48
0.0
 49
0.0
140
0.0
141
0.0
142
1.0
143
1.0
 70
   688
 72
     1
 73
     1
 74
     5
  7

 75
    16
147
1.0
148
0.0
149
0.0
100
AcDbLayout
  1
Layout1
 70
     1
 71
     1
 10
-6.350006103515625
 20
-6.349999904632567
 11
273.0499877929688
 21
209.5499939918518
 12
0.0
 22
0.0
 32
0.0
 14
26.66999878883363
 24
20.31999878883363
 34
0.0
 15
240.0299890995026
 25
182.8799890995025
 35
0.0
146
0.0
 13
0.0
 23
0.0
 33
0.0
 16
1.0
 26
0.0
 36
0.0
 17
0.0
 27
1.0
 37
0.0
 76
     0
330
50
331
86E
  0
LAYOUT
  5
56
102
{ACAD_REACTORS
330
1A
102
}
330
1A
100
AcDbPlotSettings
  1

  2
None
  4

  6

 40
0.0
 41
0.0
 42
0.0
 43
0.0
 44
0.0
 45
0.0
 46
0.0
 47
0.0
 48
0.0
 49
0.0
140
0.0
141
0.0
142
1.0
143
1.0
 70
   688
 72
     0
 73
     0
 74
     5
  7

 75
    16
147
1.0
148
0.0
149
0.0
100
AcDbLayout
  1
Layout2
 70
     1
 71
     2
 10
0.0
 20
0.0
 11
12.0
 21
9.0
 12
0.0
 22
0.0
 32
0.0
 14
0.0
 24
0.0
 34
0.0
 15
0.0
 25
0.0
 35
0.0
146
0.0
 13
0.0
 23
0.0
 33
0.0
 16
1.0
 26
0.0
 36
0.0
 17
0.0
 27
1.0
 37
0.0
 76
     0
330
55
  0
LAYOUT
  5
22
102
{ACAD_REACTORS
330
1A
102
}
330
1A
100
AcDbPlotSettings
  1

  2
\\alderaan\HP LaserJet 5Si/5Si MX PS Tecnico
  4
A3
  6

 40
5.746749877929687
 41
5.704421997070312
 42
5.746734619140625
 43
5.74676513671875
 44
297.0530090332031
 45
420.1583251953125
 46
10.34
 47
0.0
 48
-69.22767503670229
 49
-366.6080453569757
140
1188.996887231578
141
448.8355352667507
142
1.0
143
3.078548048453406
 70
 11956
 72
     1
 73
     1
 74
     4
  7

 75
     0
147
0.3248284529787921
148
69.22767503670229
149
366.6080453569757
100
AcDbLayout
  1
Model
 70
     1
 71
     0
 10
0.0
 20
0.0
 11
12.0
 21
9.0
 12
0.0
 22
0.0
 32
0.0
 14
0.0
 24
0.0
 34
0.0
 15
0.0
 25
0.0
 35
0.0
146
0.0
 13
0.0
 23
0.0
 33
0.0
 16
1.0
 26
0.0
 36
0.0
 17
0.0
 27
1.0
 37
0.0
 76
     0
330
1F
  0
MLINESTYLE
  5
18
102
{ACAD_REACTORS
330
17
102
}
330
17
100
AcDbMlineStyle
  2
STANDARD
 70
     0
  3

 62
   256
 51
90.0
 52
90.0
 71
     2
 49
0.5
 62
   256
  6
BYLAYER
 49
-0.5
 62
   256
  6
BYLAYER
  0
ACDBPLACEHOLDER
  5
F
102
{ACAD_REACTORS
330
E
102
}
330
E
  0
XRECORD
  5
47A6
102
{ACAD_REACTORS
330
47A5
102
}
330
47A5
100
AcDbXrecord
280
     1
340
6B
  0
XRECORD
  5
47A7
102
{ACAD_REACTORS
330
47A5
102
}
330
47A5
100
AcDbXrecord
280
     1
340
6A
  0
DICTIONARYVAR
  5
5F
102
{ACAD_REACTORS
330
5E
102
}
330
5E
100
DictionaryVariables
280
     0
  1
2
  0
DICTIONARYVAR
  5
63
102
{ACAD_REACTORS
330
5E
102
}
330
5E
100
DictionaryVariables
280
     0
  1
1
  0
ENDSEC
  0
EOF
