  0
SECTION
  2
HEADER
  9
$ACADVER
  1
AC1015
  9
$ACADMAINTVER
 70
     6
  9
$DWGCODEPAGE
  3
ANSI_1252
  9
$INSBASE
 10
0.0
 20
0.0
 30
0.0
  9
$EXTMIN
 10
739.5353326143272
 20
-218.4097133938724
 30
-0.0008605300456423
  9
$EXTMAX
 10
886.9041579048595
 20
-113.4386300464246
 30
0.000573774241424
  9
$LIMMIN
 10
0.0
 20
0.0
  9
$LIMMAX
 10
420.0
 20
297.0
  9
$ORTHOMODE
 70
     1
  9
$REGENMODE
 70
     1
  9
$FILLMODE
 70
     1
  9
$QTEXTMODE
 70
     0
  9
$MIRRTEXT
 70
     0
  9
$LTSCALE
 40
1.0
  9
$ATTMODE
 70
     1
  9
$TEXTSIZE
 40
2.5
  9
$TRACEWID
 40
1.0
  9
$TEXTSTYLE
  7
Standard
  9
$CLAYER
  8
0
  9
$CELTYPE
  6
ByLayer
  9
$CECOLOR
 62
   256
  9
$CELTSCALE
 40
1.0
  9
$DISPSILH
 70
     0
  9
$DIMSCALE
 40
1.0
  9
$DIMASZ
 40
2.5
  9
$DIMEXO
 40
0.625
  9
$DIMDLI
 40
3.75
  9
$DIMRND
 40
0.0
  9
$DIMDLE
 40
0.0
  9
$DIMEXE
 40
1.25
  9
$DIMTP
 40
0.0
  9
$DIMTM
 40
0.0
  9
$DIMTXT
 40
2.5
  9
$DIMCEN
 40
2.5
  9
$DIMTSZ
 40
0.0
  9
$DIMTOL
 70
     0
  9
$DIMLIM
 70
     0
  9
$DIMTIH
 70
     0
  9
$DIMTOH
 70
     0
  9
$DIMSE1
 70
     0
  9
$DIMSE2
 70
     0
  9
$DIMTAD
 70
     1
  9
$DIMZIN
 70
     8
  9
$DIMBLK
  1

  9
$DIMASO
 70
     1
  9
$DIMSHO
 70
     1
  9
$DIMPOST
  1

  9
$DIMAPOST
  1

  9
$DIMALT
 70
     0
  9
$DIMALTD
 70
     3
  9
$DIMALTF
 40
0.03937007874016
  9
$DIMLFAC
 40
1.0
  9
$DIMTOFL
 70
     1
  9
$DIMTVP
 40
0.0
  9
$DIMTIX
 70
     0
  9
$DIMSOXD
 70
     0
  9
$DIMSAH
 70
     0
  9
$DIMBLK1
  1

  9
$DIMBLK2
  1

  9
$DIMSTYLE
  2
ISO-25
  9
$DIMCLRD
 70
     0
  9
$DIMCLRE
 70
     0
  9
$DIMCLRT
 70
     0
  9
$DIMTFAC
 40
1.0
  9
$DIMGAP
 40
0.625
  9
$DIMJUST
 70
     0
  9
$DIMSD1
 70
     0
  9
$DIMSD2
 70
     0
  9
$DIMTOLJ
 70
     0
  9
$DIMTZIN
 70
     8
  9
$DIMALTZ
 70
     0
  9
$DIMALTTZ
 70
     0
  9
$DIMUPT
 70
     0
  9
$DIMDEC
 70
     2
  9
$DIMTDEC
 70
     2
  9
$DIMALTU
 70
     2
  9
$DIMALTTD
 70
     3
  9
$DIMTXSTY
  7
Standard
  9
$DIMAUNIT
 70
     0
  9
$DIMADEC
 70
     0
  9
$DIMALTRND
 40
0.0
  9
$DIMAZIN
 70
     0
  9
$DIMDSEP
 70
    44
  9
$DIMATFIT
 70
     3
  9
$DIMFRAC
 70
     0
  9
$DIMLDRBLK
  1

  9
$DIMLUNIT
 70
     2
  9
$DIMLWD
 70
    -2
  9
$DIMLWE
 70
    -2
  9
$DIMTMOVE
 70
     0
  9
$LUNITS
 70
     2
  9
$LUPREC
 70
     4
  9
$SKETCHINC
 40
1.0
  9
$FILLETRAD
 40
0.0
  9
$AUNITS
 70
     0
  9
$AUPREC
 70
     0
  9
$MENU
  1
.
  9
$ELEVATION
 40
0.0
  9
$PELEVATION
 40
0.0
  9
$THICKNESS
 40
0.0
  9
$LIMCHECK
 70
     0
  9
$CHAMFERA
 40
0.0
  9
$CHAMFERB
 40
0.0
  9
$CHAMFERC
 40
0.0
  9
$CHAMFERD
 40
0.0
  9
$SKPOLY
 70
     0
  9
$TDCREATE
 40
2453308.69662904
  9
$TDUCREATE
 40
2453308.654962373
  9
$TDUPDATE
 40
2453691.688843727
  9
$TDUUPDATE
 40
2453691.64717706
  9
$TDINDWG
 40
1.1026162847
  9
$TDUSRTIMER
 40
1.1026159838
  9
$USRTIMER
 70
     1
  9
$ANGBASE
 50
0.0
  9
$ANGDIR
 70
     0
  9
$PDMODE
 70
     0
  9
$PDSIZE
 40
0.0
  9
$PLINEWID
 40
0.0
  9
$SPLFRAME
 70
     0
  9
$SPLINETYPE
 70
     6
  9
$SPLINESEGS
 70
     8
  9
$HANDSEED
  5
47A9
  9
$SURFTAB1
 70
     6
  9
$SURFTAB2
 70
     6
  9
$SURFTYPE
 70
     6
  9
$SURFU
 70
     6
  9
$SURFV
 70
     6
  9
$UCSBASE
  2

  9
$UCSNAME
  2

  9
$UCSORG
 10
0.0
 20
0.0
 30
0.0
  9
$UCSXDIR
 10
1.0
 20
0.0
 30
0.0
  9
$UCSYDIR
 10
0.0
 20
1.0
 30
0.0
  9
$UCSORTHOREF
  2

  9
$UCSORTHOVIEW
 70
     0
  9
$UCSORGTOP
 10
0.0
 20
0.0
 30
0.0
  9
$UCSORGBOTTOM
 10
0.0
 20
0.0
 30
0.0
  9
$UCSORGLEFT
 10
0.0
 20
0.0
 30
0.0
  9
$UCSORGRIGHT
 10
0.0
 20
0.0
 30
0.0
  9
$UCSORGFRONT
 10
0.0
 20
0.0
 30
0.0
  9
$UCSORGBACK
 10
0.0
 20
0.0
 30
0.0
  9
$PUCSBASE
  2

  9
$PUCSNAME
  2

  9
$PUCSORG
 10
0.0
 20
0.0
 30
0.0
  9
$PUCSXDIR
 10
1.0
 20
0.0
 30
0.0
  9
$PUCSYDIR
 10
0.0
 20
1.0
 30
0.0
  9
$PUCSORTHOREF
  2

  9
$PUCSORTHOVIEW
 70
     0
  9
$PUCSORGTOP
 10
0.0
 20
0.0
 30
0.0
  9
$PUCSORGBOTTOM
 10
0.0
 20
0.0
 30
0.0
  9
$PUCSORGLEFT
 10
0.0
 20
0.0
 30
0.0
  9
$PUCSORGRIGHT
 10
0.0
 20
0.0
 30
0.0
  9
$PUCSORGFRONT
 10
0.0
 20
0.0
 30
0.0
  9
$PUCSORGBACK
 10
0.0
 20
0.0
 30
0.0
  9
$USERI1
 70
     0
  9
$USERI2
 70
     0
  9
$USERI3
 70
     0
  9
$USERI4
 70
     0
  9
$USERI5
 70
     0
  9
$USERR1
 40
0.0
  9
$USERR2
 40
0.0
  9
$USERR3
 40
0.0
  9
$USERR4
 40
0.0
  9
$USERR5
 40
0.0
  9
$WORLDVIEW
 70
     1
  9
$SHADEDGE
 70
     3
  9
$SHADEDIF
 70
    70
  9
$TILEMODE
 70
     1
  9
$MAXACTVP
 70
    64
  9
$PINSBASE
 10
0.0
 20
0.0
 30
0.0
  9
$PLIMCHECK
 70
     0
  9
$PEXTMIN
 10
26.66999878883363
 20
20.31999878883363
 30
0.0
  9
$PEXTMAX
 10
240.0299890995026
 20
182.8799890995025
 30
0.0
  9
$PLIMMIN
 10
-6.350006103515625
 20
-6.349999904632567
  9
$PLIMMAX
 10
273.0499877929688
 20
209.5499939918518
  9
$UNITMODE
 70
     0
  9
$VISRETAIN
 70
     1
  9
$PLINEGEN
 70
     0
  9
$PSLTSCALE
 70
     1
  9
$TREEDEPTH
 70
  3020
  9
$CMLSTYLE
  2
Standard
  9
$CMLJUST
 70
     0
  9
$CMLSCALE
 40
20.0
  9
$PROXYGRAPHICS
 70
     1
  9
$MEASUREMENT
 70
     1
  9
$CELWEIGHT
370
    -1
  9
$ENDCAPS
280
     0
  9
$JOINSTYLE
280
     0
  9
$LWDISPLAY
290
     0
  9
$INSUNITS
 70
     4
  9
$HYPERLINKBASE
  1

  9
$STYLESHEET
  1

  9
$XEDIT
290
     1
  9
$CEPSNTYPE
380
     0
  9
$PSTYLEMODE
290
     1
  9
$FINGERPRINTGUID
  2
{FDEAD578-A652-11D2-9A35-0060089B3A3F}
  9
$VERSIONGUID
  2
{C834AB34-96D4-4CB1-A628-49C7C835F62A}
  9
$EXTNAMES
290
     1
  9
$PSVPSCALE
 40
0.0
  9
$OLESTARTUP
290
     0
  0
ENDSEC
  0
SECTION
  2
CLASSES
  0
CLASS
  1
ACDBDICTIONARYWDFLT
  2
AcDbDictionaryWithDefault
  3
ObjectDBX Classes
 90
        0
280
     0
281
     0
  0
CLASS
  1
DICTIONARYVAR
  2
AcDbDictionaryVar
  3
ObjectDBX Classes
 90
        0
280
     0
281
     0
  0
CLASS
  1
DIMASSOC
  2
AcDbDimAssoc
  3
"AcDbDimAssoc|Product Desc:     AcDim ARX App For Dimension|Company:          Autodesk, Inc.|WEB Address:      www.autodesk.com"
 90
        0
280
     0
281
     0
  0
CLASS
  1
ACDBPLACEHOLDER
  2
AcDbPlaceHolder
  3
ObjectDBX Classes
 90
        0
280
     0
281
     0
  0
CLASS
  1
LAYOUT
  2
AcDbLayout
  3
ObjectDBX Classes
 90
        0
280
     0
281
     0
  0
ENDSEC
  0
SECTION
  2
TABLES
  0
TABLE
  2
VPORT
  5
8
330
0
100
AcDbSymbolTable
 70
     1
  0
VPORT
  5
4796
330
8
100
AcDbSymbolTableRecord
100
AcDbViewportTableRecord
  2
*Active
 70
     0
 10
0.0
 20
0.0
 11
1.0
 21
1.0
 12
813.2197452595933
 22
-165.9241717201485
 13
0.0
 23
0.0
 14
10.0
 24
10.0
 15
10.0
 25
10.0
 16
0.0
 26
0.0
 36
1.0
 17
0.0
 27
0.0
 37
0.0
 40
105.7879789377003
 41
1.6
 42
50.0
 43
0.0
 44
0.0
 50
0.0
 51
0.0
 71
     0
 72
  1000
 73
     1
 74
     3
 75
     0
 76
     0
 77
     0
 78
     0
281
     0
 65
     1
110
0.0
120
0.0
130
0.0
111
1.0
121
0.0
131
0.0
112
0.0
122
1.0
132
0.0
 79
     0
146
0.0
  0
ENDTAB
  0
TABLE
  2
LTYPE
  5
5
330
0
100
AcDbSymbolTable
 70
     2
  0
LTYPE
  5
14
330
5
100
AcDbSymbolTableRecord
100
AcDbLinetypeTableRecord
  2
ByBlock
 70
     0
  3

 72
    65
 73
     0
 40
0.0
  0
LTYPE
  5
15
330
5
100
AcDbSymbolTableRecord
100
AcDbLinetypeTableRecord
  2
ByLayer
 70
     0
  3

 72
    65
 73
     0
 40
0.0
  0
LTYPE
  5
16
330
5
100
AcDbSymbolTableRecord
100
AcDbLinetypeTableRecord
  2
Continuous
 70
     0
  3
Solid line
 72
    65
 73
     0
 40
0.0
  0
LTYPE
  5
8B
330
5
100
AcDbSymbolTableRecord
100
AcDbLinetypeTableRecord
  2
CENTER
 70
     0
  3
____ _ ____ _ ____ _ ____ _ ____ _ ____ _ ____
 72
    65
 73
     4
 40
0.6
 49
0.375
 74
     0
 49
-0.075
 74
     0
 49
0.075
 74
     0
 49
-0.075
 74
     0
  0
ENDTAB
  0
TABLE
  2
LAYER
  5
2
330
0
100
AcDbSymbolTable
 70
     2
  0
LAYER
  5
10
330
2
100
AcDbSymbolTableRecord
100
AcDbLayerTableRecord
  2
0
 70
     0
 62
     7
  6
Continuous
370
    -3
390
F
  0
LAYER
  5
396
330
2
100
AcDbSymbolTableRecord
100
AcDbLayerTableRecord
  2
Defpoints
 70
     0
 62
     7
  6
Continuous
290
     0
370
    -3
390
F
  0
ENDTAB
  0
TABLE
  2
STYLE
  5
3
330
0
100
AcDbSymbolTable
 70
     1
  0
STYLE
  5
11
330
3
100
AcDbSymbolTableRecord
100
AcDbTextStyleTableRecord
  2
Standard
 70
     0
 40
0.0
 41
1.0
 50
0.0
 71
     0
 42
2.5
  3
verdana.TTF
  4

1001
ACAD
1000
Verdana
1071
       34
  0
ENDTAB
  0
TABLE
  2
VIEW
  5
6
330
0
100
AcDbSymbolTable
 70
     0
  0
ENDTAB
  0
TABLE
  2
UCS
  5
7
330
0
100
AcDbSymbolTable
 70
     0
  0
ENDTAB
  0
TABLE
  2
APPID
  5
9
330
0
100
AcDbSymbolTable
 70
     1
  0
APPID
  5
12
330
9
100
AcDbSymbolTableRecord
100
AcDbRegAppTableRecord
  2
ACAD
 70
     0
  0
ENDTAB
  0
TABLE
  2
DIMSTYLE
  5
A
330
0
100
AcDbSymbolTable
 70
     2
100
AcDbDimStyleTable
  0
DIMSTYLE
105
27
330
A
100
AcDbSymbolTableRecord
100
AcDbDimStyleTableRecord
  2
ISO-25
 70
     0
 41
2.5
 42
0.625
 43
3.75
 44
1.25
 73
     0
 74
     0
 77
     1
 78
     8
140
2.5
141
2.5
143
0.03937007874016
147
0.625
171
     3
172
     1
271
     2
272
     2
274
     3
278
    44
283
     0
284
     8
340
11
  0
DIMSTYLE
105
8D
330
A
100
AcDbSymbolTableRecord
100
AcDbDimStyleTableRecord
  2
STANDARD
 70
     0
 41
3.0
 47
0.01
 48
0.01
 71
     1
 73
     0
 74
     0
 77
     1
 78
     8
140
1.5
271
     2
272
     2
284
     8
340
11
  0
ENDTAB
  0
TABLE
  2
BLOCK_RECORD
  5
1
330
0
100
AcDbSymbolTable
 70
     1
  0
BLOCK_RECORD
  5
1F
330
1
100
AcDbSymbolTableRecord
100
AcDbBlockTableRecord
  2
*Model_Space
340
22
  0
BLOCK_RECORD
  5
50
330
1
100
AcDbSymbolTableRecord
100
AcDbBlockTableRecord
  2
*Paper_Space
340
51
  0
BLOCK_RECORD
  5
55
330
1
100
AcDbSymbolTableRecord
100
AcDbBlockTableRecord
  2
*Paper_Space0
340
56
  0
ENDTAB
  0
ENDSEC
  0
SECTION
  2
BLOCKS
  0
BLOCK
  5
20
330
1F
100
AcDbEntity
  8
0
100
AcDbBlockBegin
  2
*Model_Space
 70
     0
 71
     0
 10
0.0
 20
0.0
 30
0.0
  3
*Model_Space
  1

  0
ENDBLK
  5
21
330
1F
100
AcDbEntity
  8
0
100
AcDbBlockEnd
  0
BLOCK
  5
52
330
50
100
AcDbEntity
 67
     1
  8
0
100
AcDbBlockBegin
  2
*Paper_Space
 70
     0
 71
     0
 10
0.0
 20
0.0
 30
0.0
  3
*Paper_Space
  1

  0
ENDBLK
  5
53
330
50
100
AcDbEntity
 67
     1
  8
0
100
AcDbBlockEnd
  0
BLOCK
  5
57
330
55
100
AcDbEntity
  8
0
100
AcDbBlockBegin
  2
*Paper_Space0
 70
     0
 71
     0
 10
0.0
 20
0.0
 30
0.0
  3
*Paper_Space0
  1

  0
ENDBLK
  5
58
330
55
100
AcDbEntity
  8
0
100
AcDbBlockEnd
  0
ENDSEC
  0
SECTION
  2
ENTITIES
  0
SPLINE
  5
2E9D
330
1F
100
AcDbEntity
  8
0
  6
Continuous
100
AcDbSpline
210
0.0
220
0.0
230
1.0
 70
     8
 71
     3
 72
    15
 73
    11
 74
     9
 42
0.0000000001
 43
0.0000000001
 44
0.0000000001
 12
-0.8451667084140915
 22
-0.5345027923112191
 32
0.0
 13
-0.9711935629394938
 23
0.2382919707100762
 33
0.0
 40
0.0
 40
0.0
 40
0.0
 40
0.0
 40
1.836165011726617
 40
3.741188646296927
 40
5.567002929974827
 40
7.255400283167953
 40
8.837151867914963
 40
10.36174483125884
 40
11.89123830144071
 40
13.48795719565949
 40
13.48795719565949
 40
13.48795719565949
 40
13.48795719565949
 10
830.5866422466987
 20
-171.5260935952598
 30
0.0
 10
830.0693537336767
 20
-171.8532387038972
 30
0.0
 10
828.9973781131803
 20
-172.4920674828274
 30
0.0
 10
827.3401339436604
 20
-173.3311473311782
 30
0.0
 10
825.6608332483272
 20
-174.00431494353
 30
0.0
 10
824.0246686881901
 20
-174.472891630065
 30
0.0
 10
822.4451029394129
 20
-174.7387291811215
 30
0.0
 10
820.8980275159004
 20
-174.8145745916827
 30
0.0
 10
819.348116670204
 20
-174.7055930149088
 30
0.0
 10
818.3216863604616
 20
-174.5109999903176
 30
0.0
 10
817.8047786564986
 20
-174.3841715596598
 30
0.0
 11
830.5866422466987
 21
-171.5260935952598
 31
0.0
 11
829.0070537852988
 21
-172.4622571722597
 31
0.0
 11
827.3046991112987
 21
-173.3173031430597
 31
0.0
 11
825.6076331378986
 21
-173.9907753996597
 31
0.0
 11
823.9831346518988
 21
-174.4508735318598
 31
0.0
 11
822.4228225626987
 21
-174.7104197900598
 31
0.0
 11
820.9000163012987
 21
-174.7842086382598
 31
0.0
 11
819.3742062024988
 21
-174.6781246256598
 31
0.0
 11
817.8047786564986
 21
-174.3841715596598
 31
0.0
  0
SPLINE
  5
2E9E
330
1F
100
AcDbEntity
  8
0
  6
Continuous
100
AcDbSpline
210
0.0
220
0.0
230
1.0
 70
     8
 71
     3
 72
     8
 73
     4
 74
     2
 42
0.0000000001
 43
0.0000000001
 44
0.0000000001
 12
0.7999080949463517
 22
-0.60012252052335
 32
0.0
 13
0.90980523848849
 23
-0.4150354539300249
 33
0.0
 40
0.0
 40
0.0
 40
0.0
 40
0.0
 40
0.6106809126548662
 40
0.6106809126548662
 40
0.6106809126548662
 40
0.6106809126548662
 10
832.1098467602988
 20
-173.8309394006598
 30
0.0
 10
832.2726762954527
 20
-173.9531005235058
 30
0.0
 10
832.4480348349725
 20
-174.0610907303964
 30
0.0
 10
832.6332350660987
 20
-174.1455754736598
 30
0.0
 11
832.1098467602988
 21
-173.8309394006598
 31
0.0
 11
832.6332350660987
 21
-174.1455754736598
 31
0.0
  0
SPLINE
  5
2E9F
330
1F
100
AcDbEntity
  8
0
  6
Continuous
100
AcDbSpline
210
0.0
220
0.0
230
1.0
 70
     8
 71
     3
 72
    11
 73
     7
 74
     5
 42
0.0000000001
 43
0.0000000001
 44
0.0000000001
 12
0.2682514409003259
 22
-0.9633489318283895
 32
0.0
 13
0.7999080949260689
 23
-0.600122520550385
 33
0.0
 40
0.0
 40
0.0
 40
0.0
 40
0.0
 40
0.7135645384764933
 40
1.435271272551112
 40
2.140488468844242
 40
2.806790827574012
 40
2.806790827574012
 40
2.806790827574012
 40
2.806790827574012
 10
830.5866529580987
 20
-171.5260935966598
 30
0.0
 10
830.650457863306
 20
-171.7552308086371
 30
0.0
 10
830.8170430560455
 20
-172.2061948599969
 30
0.0
 10
831.1642534178158
 20
-172.8325476300218
 30
0.0
 10
831.593701234979
 20
-173.3859481367869
 30
0.0
 10
831.9321865434933
 20
-173.6976517170033
 30
0.0
 10
832.1098467602988
 20
-173.8309394006598
 30
0.0
 11
830.5866529580987
 21
-171.5260935966598
 31
0.0
 11
830.8324685292987
 21
-172.1959809420596
 31
0.0
 11
831.1826059226987
 21
-172.8270628826598
 31
0.0
 11
831.6167824772987
 21
-173.3827804488598
 31
0.0
 11
832.1098467602988
 21
-173.8309394006598
 31
0.0
  0
SPLINE
  5
2EA0
330
1F
100
AcDbEntity
  8
0
  6
Continuous
100
AcDbSpline
210
0.0
220
0.0
230
1.0
 70
     8
 71
     3
 72
    15
 73
    11
 74
     9
 42
0.0000000001
 43
0.0000000001
 44
0.0000000001
 12
-0.90866577985285
 22
-0.417524251420695
 32
0.0
 13
-0.9844812361197374
 23
0.175489873577235
 33
0.0
 40
0.0
 40
0.0
 40
0.0
 40
0.0
 40
2.088360714273512
 40
4.288208096083869
 40
6.432124938600971
 40
8.446082662861397
 40
10.35478457671449
 40
12.20532965583668
 40
14.06090671658868
 40
15.98464487099675
 40
15.98464487099675
 40
15.98464487099675
 40
15.98464487099675
 10
832.6332350664989
 20
-174.1455542836598
 30
0.0
 10
832.0006944274824
 20
-174.4362013649676
 30
0.0
 10
830.6882211789107
 20
-175.0040822372259
 30
0.0
 10
828.6743144950042
 20
-175.7437992869534
 30
0.0
 10
826.6373799826422
 20
-176.3358085427793
 30
0.0
 10
824.6552141760842
 20
-176.7472078737759
 30
0.0
 10
822.7426888414503
 20
-176.9804572903767
 30
0.0
 10
820.8699333627986
 20
-177.0470600831936
 30
0.0
 10
818.9935277833581
 20
-176.9515713554911
 30
0.0
 10
817.7437466181061
 20
-176.7799212071639
 30
0.0
 10
817.1124519126987
 20
-176.6673890186597
 30
0.0
 11
832.6332350664989
 21
-174.1455542836598
 31
0.0
 11
830.7151879404989
 21
-174.9715964710597
 31
0.0
 11
828.6486851374988
 21
-175.7258475356598
 31
0.0
 11
826.5887252192987
 21
-176.3199389116598
 31
0.0
 11
824.6161282706989
 21
-176.7260017066598
 31
0.0
 11
822.7212312184986
 21
-176.9551482918599
 31
0.0
 11
820.8718357612989
 21
-177.0203674052598
 31
0.0
 11
819.0186192002988
 21
-176.9268013514598
 31
0.0
 11
817.1124519126987
 21
-176.6673890186597
 31
0.0
  0
SPLINE
  5
2EA1
330
1F
100
AcDbEntity
  8
0
  6
Continuous
100
AcDbSpline
210
0.0
220
0.0
230
1.0
 70
     8
 71
     3
 72
    11
 73
     7
 74
     5
 42
0.0000000001
 43
0.0000000001
 44
0.0000000001
 12
-0.1879810915308727
 22
-0.9821726473623982
 32
0.0
 13
-0.4330666344070586
 23
-0.901361908538043
 33
0.0
 40
0.0
 40
0.0
 40
0.0
 40
0.0
 40
0.6631035263855648
 40
1.301766119503251
 40
1.886570997408263
 40
2.391342681855865
 40
2.391342681855865
 40
2.391342681855865
 40
2.391342681855865
 10
817.8048208270986
 20
-174.3842104362598
 30
0.0
 10
817.7632705188694
 20
-174.6013044849216
 30
0.0
 10
817.6711029143362
 20
-175.0255375310728
 30
0.0
 10
817.5065603605411
 20
-175.6328047588889
 30
0.0
 10
817.3243250433686
 20
-176.1796160943232
 30
0.0
 10
817.1853185042079
 20
-176.5157614335698
 30
0.0
 10
817.1124519126987
 20
-176.6674220898597
 30
0.0
 11
817.8048208270986
 21
-174.3842104362598
 31
0.0
 11
817.6638275658987
 21
-175.0321511642598
 31
0.0
 11
817.4957860488987
 21
-175.6483101992598
 31
0.0
 11
817.3089388264989
 21
-176.2024625796598
 31
0.0
 11
817.1124519126987
 21
-176.6674220898597
 31
0.0
  0
SPLINE
  5
2EA2
330
1F
100
AcDbEntity
  8
0
  6
Continuous
100
AcDbSpline
210
0.0
220
0.0
230
1.0
 70
     8
 71
     3
 72
    12
 73
     8
 74
     6
 42
0.0000000001
 43
0.0000000001
 44
0.0000000001
 12
-0.9224277880460178
 22
0.3861696205562147
 32
0.0
 13
-0.8452085490345229
 23
-0.5344366273366342
 33
0.0
 40
0.0
 40
0.0
 40
0.0
 40
0.0
 40
0.4469367559911956
 40
1.028322843079845
 40
1.783571316723618
 40
2.67602112759714
 40
3.683322469920752
 40
3.683322469920752
 40
3.683322469920752
 40
3.683322469920752
 10
834.0805816360989
 20
-170.8651362750598
 30
0.0
 10
833.9431593416905
 20
-170.8076051425686
 30
0.0
 10
833.6122639599573
 20
-170.7085805042231
 30
0.0
 10
833.0152772385947
 20
-170.6603915554154
 30
0.0
 10
832.2733093147298
 20
-170.7597082780273
 30
0.0
 10
831.4306895968057
 20
-171.0449945675927
 30
0.0
 10
830.8704354820274
 20
-171.3466473512254
 30
0.0
 10
830.5866422466987
 20
-171.5260935952598
 30
0.0
 11
834.0805816360989
 21
-170.8651362750598
 31
0.0
 11
833.6530151094986
 21
-170.7349850968598
 31
0.0
 11
833.0739409370987
 21
-170.6831885224598
 31
0.0
 11
832.3243390504988
 21
-170.7753691524597
 31
0.0
 11
831.4765571656988
 21
-171.0541747132598
 31
0.0
 11
830.5866422466987
 21
-171.5260935952598
 31
0.0
  0
SPLINE
  5
2EA3
330
1F
100
AcDbEntity
  8
0
  6
Continuous
100
AcDbSpline
210
0.0
220
0.0
230
1.0
 70
     8
 71
     3
 72
    10
 73
     6
 74
     4
 42
0.0000000001
 43
0.0000000001
 44
0.0000000001
 12
-0.0453904331729694
 22
-0.998969323140791
 32
0.0
 13
0.6454730973855529
 23
-0.7637830061944952
 33
0.0
 40
0.0
 40
0.0
 40
0.0
 40
0.0
 40
0.7470551279730265
 40
1.48144334632964
 40
2.20154258102914
 40
2.20154258102914
 40
2.20154258102914
 40
2.20154258102914
 10
834.0805818916987
 20
-170.8651362750598
 30
0.0
 10
834.0692788397444
 20
-171.1138979935732
 30
0.0
 10
834.10520998068
 20
-171.6120862816548
 30
0.0
 10
834.3349489977953
 20
-172.3162589385429
 30
0.0
 10
834.5996183186167
 20
-172.7301949601808
 30
0.0
 10
834.7545532130988
 20
-172.9135281462598
 30
0.0
 11
834.0805818916987
 21
-170.8651362750598
 31
0.0
 11
834.1356924032989
 21
-171.6101558692598
 31
0.0
 11
834.3652193994989
 21
-172.3077541872598
 31
0.0
 11
834.7545532130988
 21
-172.9135281462598
 31
0.0
  0
SPLINE
  5
2EA4
330
1F
100
AcDbEntity
  8
0
  6
Continuous
100
AcDbSpline
210
0.0
220
0.0
230
1.0
 70
     8
 71
     3
 72
    12
 73
     8
 74
     6
 42
0.0000000001
 43
0.0000000001
 44
0.0000000001
 12
-0.9866359022081839
 22
-0.1629404691101727
 32
0.0
 13
-0.7361626754778141
 23
-0.6768046359425641
 33
0.0
 40
0.0
 40
0.0
 40
0.0
 40
0.0
 40
0.2667772736371106
 40
0.6427950568421723
 40
1.156331532528771
 40
1.776692574415709
 40
2.481030067060484
 40
2.481030067060484
 40
2.481030067060484
 40
2.481030067060484
 10
834.7545554100989
 20
-172.9135260246598
 30
0.0
 10
834.6668180647444
 20
-172.9280156293646
 30
0.0
 10
834.458210078358
 20
-172.980141246109
 30
0.0
 10
834.0983876884743
 20
-173.1207745642395
 30
0.0
 10
833.6532772196714
 20
-173.3581089046209
 30
0.0
 10
833.1454776064595
 20
-173.7028439477934
 30
0.0
 10
832.8060707241738
 20
-173.9866546568964
 30
0.0
 10
832.6332350664989
 20
-174.1455542836598
 30
0.0
 11
834.7545554100989
 21
-172.9135260246598
 31
0.0
 11
834.4951410586988
 21
-172.9757699642597
 31
0.0
 11
834.143784336299
 21
-173.1097021370596
 31
0.0
 11
833.6890822220986
 21
-173.3483770188598
 31
0.0
 11
833.1744941704988
 21
-173.6948549538596
 31
0.0
 11
832.6332350664989
 21
-174.1455542836598
 31
0.0
  0
SPLINE
  5
2EA5
330
1F
100
AcDbEntity
  8
0
  6
Continuous
100
AcDbSpline
210
0.0
220
0.0
230
1.0
 70
     8
 71
     3
 72
    15
 73
    11
 74
     9
 42
0.0000000001
 43
0.0000000001
 44
0.0000000001
 12
-0.9194697225241746
 22
0.393160818700589
 32
0.0
 13
-0.7944209638922377
 23
0.6073675428671903
 33
0.0
 40
0.0
 40
0.0
 40
0.0
 40
0.0
 40
1.952283783626965
 40
3.774809526189581
 40
5.355377180690201
 40
6.642627476148297
 40
7.618841698383039
 40
8.293432511832112
 40
8.685925386196583
 40
8.81407460962272
 40
8.81407460962272
 40
8.81407460962272
 40
8.81407460962272
 10
814.5365397944987
 20
-171.3798056748598
 30
0.0
 10
813.9381845182254
 20
-171.1239518446242
 30
0.0
 10
812.8024983223072
 20
-170.5785734160115
 30
0.0
 10
811.2482988071306
 20
-169.6986430248658
 30
0.0
 10
809.9268821300605
 20
-168.8621768502702
 30
0.0
 10
808.8684111525892
 20
-168.1397435055312
 30
0.0
 10
808.0727295300599
 20
-167.5686586878479
 30
0.0
 10
807.5256052306121
 20
-167.1629821942501
 30
0.0
 10
807.2077916671642
 20
-166.9227153017635
 30
0.0
 10
807.0698105635642
 20
-166.8174540061106
 30
0.0
 10
807.0358757536988
 20
-166.7915094464597
 30
0.0
 11
814.5365397944987
 21
-171.3798056748598
 31
0.0
 11
812.7742089638987
 21
-170.5398044752598
 31
0.0
 11
811.1863579268987
 21
-169.6451932934598
 31
0.0
 11
809.8498005014986
 21
-168.8015059348598
 31
0.0
 11
808.7860861042987
 21
-168.0765749006597
 31
0.0
 11
807.9928070852988
 21
-167.5076262160598
 31
0.0
 11
807.4508642720989
 21
-167.1059164292598
 31
0.0
 11
807.1377627958989
 21
-166.8692349512598
 31
0.0
 11
807.0358757536988
 21
-166.7915094464597
 31
0.0
  0
SPLINE
  5
2EA6
330
1F
100
AcDbEntity
  8
0
  6
Continuous
100
AcDbSpline
210
0.0
220
0.0
230
1.0
 70
     8
 71
     3
 72
    11
 73
     7
 74
     5
 42
0.0000000001
 43
0.0000000001
 44
0.0000000001
 12
-0.2662740639511697
 22
-0.9638973611681528
 32
0.0
 13
-0.7495380854602231
 23
-0.6619612212544053
 33
0.0
 40
0.0
 40
0.0
 40
0.0
 40
0.0
 40
0.7881884629886621
 40
1.558363446848578
 40
2.268998947508639
 40
2.885987047935756
 40
2.885987047935756
 40
2.885987047935756
 40
2.885987047935756
 10
814.5365412616989
 20
-171.3798056748598
 30
0.0
 10
814.466583213299
 20
-171.6330499347191
 30
0.0
 10
814.2984978208535
 20
-172.1259846715492
 30
0.0
 10
813.9729253828853
 20
-172.8106855678881
 30
0.0
 10
813.5941941003166
 20
-173.4006953338459
 30
0.0
 10
813.2979769728139
 20
-173.7338588839071
 30
0.0
 10
813.1438249462987
 20
-173.8699996160598
 30
0.0
 11
814.5365412616989
 21
-171.3798056748598
 31
0.0
 11
814.2823521686986
 21
-172.1258813802598
 31
0.0
 11
813.9495409846988
 21
-172.8204360732598
 31
0.0
 11
813.5610902988988
 21
-173.4155065560598
 31
0.0
 11
813.1438249462987
 21
-173.8699996160598
 31
0.0
  0
SPLINE
  5
2EA7
330
1F
100
AcDbEntity
  8
0
  6
Continuous
100
AcDbSpline
210
0.0
220
0.0
230
1.0
 70
     8
 71
     3
 72
    15
 73
    11
 74
     9
 42
0.0000000001
 43
0.0000000001
 44
0.0000000001
 12
-0.95434649440761
 22
0.2987018055049311
 32
0.0
 13
-0.8726223764101412
 23
0.4883955243328075
 33
0.0
 40
0.0
 40
0.0
 40
0.0
 40
0.0
 40
2.265444536051067
 40
4.351478627633451
 40
6.139647957512511
 40
7.583348824204203
 40
8.671449812381699
 40
9.420214362794297
 40
9.854726785395616
 40
9.996359405843903
 40
9.996359405843903
 40
9.996359405843903
 40
9.996359405843903
 10
813.1438249460988
 20
-173.8699949828598
 30
0.0
 10
812.4231519290137
 20
-173.6444308584632
 30
0.0
 10
811.0534080149948
 20
-173.1636855030652
 30
0.0
 10
809.1618934712526
 20
-172.3804788084966
 30
0.0
 10
807.55306114987
 20
-171.6353489915475
 30
0.0
 10
806.2647177666722
 20
-170.9918061989508
 30
0.0
 10
805.2966063261813
 20
-170.483218454181
 30
0.0
 10
804.6311624734499
 20
-170.1220462434897
 30
0.0
 10
804.244746864523
 20
-169.9082050815471
 30
0.0
 10
804.0770730183098
 20
-169.8145670257685
 30
0.0
 10
804.0358757536989
 20
-169.7915094464597
 30
0.0
 11
813.1438249460988
 21
-173.8699949828598
 31
0.0
 11
811.0048297312989
 21
-173.1237119152597
 31
0.0
 11
809.076361266099
 21
-172.3283832976597
 31
0.0
 11
807.4531046308987
 21
-171.5783250008598
 31
0.0
 11
806.1612396810989
 21
-170.9338429266598
 31
0.0
 11
805.1978430610986
 21
-170.4280458200598
 31
0.0
 11
804.5397192860988
 21
-170.0709443656598
 31
0.0
 11
804.1595327288987
 21
-169.8605655950597
 31
0.0
 11
804.0358757536989
 21
-169.7915094464597
 31
0.0
  0
SPLINE
  5
2EA8
330
1F
100
AcDbEntity
  8
0
  6
Continuous
100
AcDbSpline
210
0.0
220
0.0
230
1.0
 70
     8
 71
     3
 72
    11
 73
     7
 74
     5
 42
0.0000000001
 43
0.0000000001
 44
0.0000000001
 12
-0.5178664865069118
 22
0.8554614556793232
 32
0.0
 13
-0.9194298623234224
 23
0.3932540251134533
 33
0.0
 40
0.0
 40
0.0
 40
0.0
 40
0.0
 40
1.320871073608147
 40
2.490166293262235
 40
3.546877204920534
 40
4.50600389005599
 40
4.50600389005599
 40
4.50600389005599
 40
4.50600389005599
 10
817.8047786564986
 20
-174.3841715596598
 30
0.0
 10
817.5767670358259
 20
-174.0075201291953
 30
0.0
 10
817.0960064664596
 20
-173.3263065980394
 30
0.0
 10
816.2731502998472
 20
-172.4712517192567
 30
0.0
 10
815.4257269615295
 20
-171.8249138995869
 30
0.0
 10
814.8304896998536
 20
-171.5055324847009
 30
0.0
 10
814.5365397944987
 20
-171.3798056748598
 30
0.0
 11
817.8047786564986
 21
-174.3841715596598
 31
0.0
 11
817.0394662824989
 21
-173.3076041612598
 31
0.0
 11
816.2261102916989
 21
-172.4675426498598
 31
0.0
 11
815.3835757156986
 21
-171.8297547234597
 31
0.0
 11
814.5365397944987
 21
-171.3798056748598
 31
0.0
  0
SPLINE
  5
2EA9
330
1F
100
AcDbEntity
  8
0
  6
Continuous
100
AcDbSpline
210
0.0
220
0.0
230
1.0
 70
     8
 71
     3
 72
    13
 73
     9
 74
     7
 42
0.0000000001
 43
0.0000000001
 44
0.0000000001
 12
-0.7811163206639556
 22
-0.6243855328179894
 32
0.0
 13
-0.9122971194375534
 23
-0.4095289560775188
 33
0.0
 40
0.0
 40
0.0
 40
0.0
 40
0.0
 40
0.6188940242677644
 40
1.235311607607594
 40
1.82329673435407
 40
2.358245898241553
 40
2.818043019453079
 40
3.184206211626667
 40
3.184206211626667
 40
3.184206211626667
 40
3.184206211626667
 10
817.8048208270986
 20
-174.3842104362598
 30
0.0
 10
817.6436780860597
 20
-174.5130199279599
 30
0.0
 10
817.3120289131653
 20
-174.7573953297933
 30
0.0
 10
816.8171042975703
 20
-175.1101071808449
 30
0.0
 10
816.3341703967971
 20
-175.4312350583419
 30
0.0
 10
815.8848533582302
 20
-175.7077440929365
 30
0.0
 10
815.4898815055901
 20
-175.931686902428
 30
0.0
 10
815.2394883084536
 20
-176.0466343705115
 30
0.0
 10
815.1281384332989
 20
-176.0966191804598
 30
0.0
 11
817.8048208270986
 21
-174.3842104362598
 31
0.0
 11
817.3104429022988
 21
-174.7565278824598
 31
0.0
 11
816.8074283230989
 21
-175.1128240656598
 31
0.0
 11
816.3175251136987
 21
-175.4379722698598
 31
0.0
 11
815.8616949624986
 21
-175.7179534856598
 31
0.0
 11
815.4593975014988
 21
-175.9405970248597
 31
0.0
 11
815.1281384332989
 21
-176.0966191804598
 31
0.0
  0
SPLINE
  5
2EAA
330
1F
100
AcDbEntity
  8
0
  6
Continuous
100
AcDbSpline
210
0.0
220
0.0
230
1.0
 70
     8
 71
     3
 72
    11
 73
     7
 74
     5
 42
0.0000000001
 43
0.0000000001
 44
0.0000000001
 12
-0.4602508726758961
 22
0.8877889018235563
 32
0.0
 13
-0.8476182691965407
 23
0.5306065111966312
 33
0.0
 40
0.0
 40
0.0
 40
0.0
 40
0.0
 40
0.8945491089004793
 40
1.677579543849814
 40
2.380745028957596
 40
3.015624469035947
 40
3.015624469035947
 40
3.015624469035947
 40
3.015624469035947
 10
815.1281384292987
 20
-176.0966642598598
 30
0.0
 10
814.9908994266244
 20
-175.8319406695205
 30
0.0
 10
814.7006765448125
 20
-175.3514663406737
 30
0.0
 10
814.199947641178
 20
-174.7328593169296
 30
0.0
 10
813.6852244366856
 20
-174.2453438031968
 30
0.0
 10
813.3232034168146
 20
-173.9822853711033
 30
0.0
 10
813.1438249460988
 20
-173.8699949828598
 30
0.0
 11
815.1281384292987
 21
-176.0966642598598
 31
0.0
 11
814.6635801198987
 21
-175.3322012552598
 31
0.0
 11
814.1698054334987
 21
-174.7244815656598
 31
0.0
 11
813.6583477732989
 21
-174.2419333698598
 31
0.0
 11
813.1438249460988
 21
-173.8699949828598
 31
0.0
  0
SPLINE
  5
2EAB
330
1F
100
AcDbEntity
  8
0
  6
Continuous
100
AcDbSpline
210
0.0
220
0.0
230
1.0
 70
     8
 71
     3
 72
    10
 73
     6
 74
     4
 42
0.0000000001
 43
0.0000000001
 44
0.0000000001
 12
-0.9999999999998344
 22
-5.755808720000000E-7
 32
0.0
 13
-0.830311380803738
 23
0.5572997496032006
 33
0.0
 40
0.0
 40
0.0
 40
0.0
 40
0.0
 40
0.7187941470363926
 40
1.420565105169093
 40
2.091104931629952
 40
2.091104931629952
 40
2.091104931629952
 40
2.091104931629952
 10
817.1124519126987
 20
-176.6674220898597
 30
0.0
 10
816.8728538636866
 20
-176.6674222277678
 30
0.0
 10
816.3980848729032
 20
-176.6242319461164
 30
0.0
 10
815.7238958854741
 20
-176.432847955779
 30
0.0
 10
815.3137240496965
 20
-176.2211830729217
 30
0.0
 10
815.1281384332989
 20
-176.0966191804598
 30
0.0
 11
817.1124519126987
 21
-176.6674220898597
 31
0.0
 11
816.3966884512987
 21
-176.6014850506597
 31
0.0
 11
815.7222661624986
 21
-176.4074823340598
 31
0.0
 11
815.1281384332989
 21
-176.0966191804598
 31
0.0
  0
SPLINE
  5
2EAC
330
1F
100
AcDbEntity
  8
0
  6
Continuous
100
AcDbSpline
210
0.0
220
0.0
230
1.0
 70
     8
 71
     3
 72
    11
 73
     7
 74
     5
 42
0.0000000001
 43
0.0000000001
 44
0.0000000001
 12
-0.952999617193541
 22
0.3029714996975199
 32
0.0
 13
-0.9284262261371306
 23
0.3715168133756075
 33
0.0
 40
0.0
 40
0.0
 40
0.0
 40
0.0
 40
0.0797346496371748
 40
0.3175469689835386
 40
0.7061203452668314
 40
1.232803439557417
 40
1.232803439557417
 40
1.232803439557417
 40
1.232803439557417
 10
835.9145554100987
 20
-173.3301891028598
 30
0.0
 10
835.8892263799049
 20
-173.3221366607337
 30
0.0
 10
835.7884316344168
 20
-173.2898179283497
 30
0.0
 10
835.5650036347757
 20
-173.2157588494328
 30
0.0
 10
835.202493609215
 20
-173.0879284895033
 30
0.0
 10
834.9175508759663
 20
-172.9787498996097
 30
0.0
 10
834.7545554100989
 20
-172.9135260246598
 30
0.0
 11
835.9145554100987
 21
-173.3301891028598
 31
0.0
 11
835.8386281746989
 21
-173.3058443030598
 31
0.0
 11
835.6128901002987
 21
-173.2310310622598
 31
0.0
 11
835.2464186022986
 21
-173.1018493688596
 31
0.0
 11
834.7545554100989
 21
-172.9135260246598
 31
0.0
  0
SPLINE
  5
2EAD
330
1F
100
AcDbEntity
  8
0
  6
Continuous
100
AcDbSpline
210
0.0
220
0.0
230
1.0
 70
     8
 71
     3
 72
    11
 73
     7
 74
     5
 42
0.0000000001
 43
0.0000000001
 44
0.0000000001
 12
-0.9577796084826962
 22
0.2875034288051763
 32
0.0
 13
-0.9224580766055502
 23
0.3860972635297859
 33
0.0
 40
0.0
 40
0.0
 40
0.0
 40
0.0
 40
0.0654221732460565
 40
0.2604833400141371
 40
0.5800300453727824
 40
1.015665992553887
 40
1.015665992553887
 40
1.015665992553887
 40
1.015665992553887
 10
835.0358757536989
 20
-171.2088687594598
 30
0.0
 10
835.0149890792063
 20
-171.2025990597504
 30
0.0
 10
834.9319180773708
 20
-171.177332895932
 30
0.0
 10
834.7477536152261
 20
-171.118416939245
 30
0.0
 10
834.44878865182
 20
-171.0136121349714
 30
0.0
 10
834.214533602078
 20
-170.9212022240938
 30
0.0
 10
834.0805816360989
 20
-170.8651362750598
 30
0.0
 11
835.0358757536989
 21
-171.2088687594598
 31
0.0
 11
834.9732844230988
 21
-171.1898323184597
 31
0.0
 11
834.7874924560988
 21
-171.1304168004598
 31
0.0
 11
834.4859105576988
 21
-171.0247832098598
 31
0.0
 11
834.0805816360989
 21
-170.8651362750598
 31
0.0
  0
SPLINE
  5
2EAE
330
1F
100
AcDbEntity
  8
0
  6
Continuous
100
AcDbSpline
210
0.0
220
0.0
230
1.0
 70
     8
 71
     3
 72
    14
 73
    10
 74
     8
 42
0.0000000001
 43
0.0000000001
 44
0.0000000001
 12
-0.895953424784969
 22
-0.4441480165621421
 32
0.0
 13
-0.0389626513954564
 23
-0.9992406676052754
 33
0.0
 40
0.0
 40
0.0
 40
0.0
 40
0.0
 40
0.5473838236773593
 40
1.087442333251075
 40
1.622920760052097
 40
2.14889285865038
 40
2.654825863174142
 40
3.131142285279504
 40
3.569716819028699
 40
3.569716819028699
 40
3.569716819028699
 40
3.569716819028699
 10
795.7688217810988
 20
-133.0816520398597
 30
0.0
 10
795.605344977267
 20
-133.1626918530545
 30
0.0
 10
795.2923050187911
 20
-133.3488072035179
 30
0.0
 10
794.8742108469526
 20
-133.6954285877002
 30
0.0
 10
794.520523756283
 20
-134.0983512759501
 30
0.0
 10
794.2416139433506
 20
-134.5427730462885
 30
0.0
 10
794.0440305103182
 20
-135.0073137094632
 30
0.0
 10
793.9265317684769
 20
-135.4678449773904
 30
0.0
 10
793.8937950577885
 20
-135.7721586045604
 30
0.0
 10
793.8880990488987
 20
-135.9182391078598
 30
0.0
 11
795.7688217810988
 21
-133.0816520398597
 31
0.0
 11
795.2985311762986
 21
-133.3617516604598
 31
0.0
 11
794.8830027904988
 21
-133.7067144908598
 31
0.0
 11
794.5300132076987
 21
-134.1093750178598
 31
0.0
 11
794.2506328548986
 21
-134.5550130626598
 31
0.0
 11
794.0527390288988
 21
-135.0206376310597
 31
0.0
 11
793.9350448516989
 21
-135.4821843942598
 31
0.0
 11
793.8880990488987
 21
-135.9182391078598
 31
0.0
  0
SPLINE
  5
2EAF
330
1F
100
AcDbEntity
  8
0
  6
Continuous
100
AcDbSpline
210
0.0
220
0.0
230
1.0
 70
     8
 71
     3
 72
    11
 73
     7
 74
     5
 42
0.0000000001
 43
0.0000000001
 44
0.0000000001
 12
-0.9999999993794396
 22
3.522954787830000E-5
 32
0.0
 13
-0.9157286840888881
 23
-0.4017971840827575
 33
0.0
 40
0.0
 40
0.0
 40
0.0
 40
0.0
 40
0.1533503692106741
 40
0.3224300276338729
 40
0.5064691330614192
 40
0.7020470455696471
 40
0.7020470455696471
 40
0.7020470455696471
 40
0.7020470455696471
 10
797.2757682832988
 20
-134.5915094464598
 30
0.0
 10
797.2246514935937
 20
-134.5915076456384
 30
0.0
 10
797.1171047368731
 20
-134.5984479780967
 30
0.0
 10
796.9505900439629
 20
-134.6280245061792
 30
0.0
 10
796.7743970218696
 20
-134.6781433188618
 30
0.0
 10
796.6562578870514
 20
-134.7240384484882
 30
0.0
 10
796.5965591188988
 20
-134.7502326666597
 30
0.0
 11
797.2757682832988
 21
-134.5915094464598
 31
0.0
 11
797.1226995214987
 21
-134.6007986820597
 31
0.0
 11
796.9561287874988
 21
-134.6298180112598
 31
0.0
 11
796.7789860880989
 21
-134.6797264912598
 31
0.0
 11
796.5965591188988
 21
-134.7502326666597
 31
0.0
  0
SPLINE
  5
2EB0
330
1F
100
AcDbEntity
  8
0
  6
Continuous
100
AcDbSpline
210
0.0
220
0.0
230
1.0
 70
     8
 71
     3
 72
    13
 73
     9
 74
     7
 42
0.0000000001
 43
0.0000000001
 44
0.0000000001
 12
0.0422131714457727
 22
-0.9991086268051587
 32
0.0
 13
0.99999999993502
 23
1.140000846260000E-5
 33
0.0
 40
0.0
 40
0.0
 40
0.0
 40
0.0
 40
0.470554165963438
 40
0.9054188470118936
 40
1.284159857224338
 40
1.592245519864744
 40
1.82604961903348
 40
2.004735353885818
 40
2.004735353885818
 40
2.004735353885818
 40
2.004735353885818
 10
796.5756442358987
 20
-132.8294628898598
 30
0.0
 10
796.5822654304595
 20
-132.9861744653909
 30
0.0
 10
796.6075717378478
 20
-133.2874021277806
 30
0.0
 10
796.6831783890061
 20
-133.7093633662645
 30
0.0
 10
796.7905070308664
 20
-134.06883281182
 30
0.0
 10
796.9248752969493
 20
-134.3463159661285
 30
0.0
 10
797.0795521271076
 20
-134.5356744831256
 30
0.0
 10
797.2162063714851
 20
-134.5915146626661
 30
0.0
 10
797.2757682830987
 20
-134.5915139836598
 30
0.0
 11
796.5756442358987
 21
-132.8294628898598
 31
0.0
 11
796.6161323690989
 21
-133.2982719492598
 31
0.0
 11
796.6950381392987
 21
-133.7259180298598
 31
0.0
 11
796.8077661552987
 21
-134.0874939516597
 31
0.0
 11
796.9477511492986
 21
-134.3619406258597
 31
0.0
 11
797.1068403444988
 21
-134.5332735904598
 31
0.0
 11
797.2757682830987
 21
-134.5915139836598
 31
0.0
  0
SPLINE
  5
2EB1
330
1F
100
AcDbEntity
  8
0
  6
Continuous
100
AcDbSpline
210
0.0
220
0.0
230
1.0
 70
     8
 71
     3
 72
    11
 73
     7
 74
     5
 42
0.0000000001
 43
0.0000000001
 44
0.0000000001
 12
-0.99020347768159
 22
0.1396319189414977
 32
0.0
 13
-0.7782846777916331
 23
-0.6279115863836036
 33
0.0
 40
0.0
 40
0.0
 40
0.0
 40
0.0
 40
0.1979897380701845
 40
0.4050918607576872
 40
0.6274864920854687
 40
0.8687629441847501
 40
0.8687629441847501
 40
0.8687629441847501
 40
0.8687629441847501
 10
796.5756442358987
 20
-132.8294628898598
 30
0.0
 10
796.5102941935046
 20
-132.8202476608406
 30
0.0
 10
796.3740993515316
 20
-132.815590612523
 30
0.0
 10
796.1670243718675
 20
-132.8551562682836
 30
0.0
 10
795.9600111743023
 20
-132.9436494802644
 30
0.0
 10
795.8314158318256
 20
-133.0311522089949
 30
0.0
 10
795.7688219098986
 20
-133.0816523022598
 30
0.0
 11
796.5756442358987
 21
-132.8294628898598
 31
0.0
 11
796.3777629858989
 21
-132.8229094724598
 31
0.0
 11
796.1742069310989
 21
-132.8610699464598
 31
0.0
 11
795.9691747506987
 21
-132.9472162002598
 31
0.0
 11
795.7688219098986
 21
-133.0816523022598
 31
0.0
  0
SPLINE
  5
2EB2
330
1F
100
AcDbEntity
  8
0
  6
Continuous
100
AcDbSpline
210
0.0
220
0.0
230
1.0
 70
     8
 71
     3
 72
    13
 73
     9
 74
     7
 42
0.0000000001
 43
0.0000000001
 44
0.0000000001
 12
0.2001435078006097
 22
-0.97976659275833
 32
0.0
 13
0.9999999999942506
 23
3.390980112599999E-6
 33
0.0
 40
0.0
 40
0.0
 40
0.0
 40
0.0
 40
0.4264289417495673
 40
0.8798854011014412
 40
1.329574728215791
 40
1.775401365022592
 40
2.218076542397598
 40
2.658984390459455
 40
2.658984390459455
 40
2.658984390459455
 40
2.658984390459455
 10
797.9469882488987
 20
-133.0066223726598
 30
0.0
 10
797.9754372436419
 20
-133.1458893164303
 30
0.0
 10
798.064067308153
 20
-133.4280458124147
 30
0.0
 10
798.2863639137871
 20
-133.8156720723998
 30
0.0
 10
798.5947058185468
 20
-134.1483790382536
 30
0.0
 10
798.9682139730109
 20
-134.3996496922858
 30
0.0
 10
799.3870556699051
 20
-134.5560776702274
 30
0.0
 10
799.6827758744123
 20
-134.5915044428297
 30
0.0
 10
799.8297451570987
 20
-134.5915039444598
 30
0.0
 11
797.9469882488987
 21
-133.0066223726598
 31
0.0
 11
798.0750807802989
 21
-133.4133580924597
 31
0.0
 11
798.3009687522987
 21
-133.8065468316598
 31
0.0
 11
798.6070011302987
 21
-134.1360383710598
 31
0.0
 11
798.9771344524988
 21
-134.3845594242597
 31
0.0
 11
799.3919648256989
 21
-134.5390815072598
 31
0.0
 11
799.8297451570987
 21
-134.5915039444598
 31
0.0
  0
SPLINE
  5
2EB3
330
1F
100
AcDbEntity
  8
0
  6
Continuous
100
AcDbSpline
210
0.0
220
0.0
230
1.0
 70
     8
 71
     3
 72
     8
 73
     4
 74
     2
 42
0.0000000001
 43
0.0000000001
 44
0.0000000001
 12
0.1857817780939505
 22
-0.9825910293343056
 32
0.0
 13
0.2001435069573956
 23
-0.9797665929305791
 33
0.0
 40
0.0
 40
0.0
 40
0.0
 40
0.0
 40
0.0301034723877892
 40
0.0301034723877892
 40
0.0301034723877892
 40
0.0301034723877892
 10
797.9411791802987
 20
-132.9770847056598
 30
0.0
 10
797.9430434058411
 20
-132.9869445062998
 30
0.0
 10
797.9449799107202
 20
-132.9967909138009
 30
0.0
 10
797.9469882488987
 20
-133.0066223726598
 30
0.0
 11
797.9411791802987
 21
-132.9770847056598
 31
0.0
 11
797.9469882488987
 21
-133.0066223726598
 31
0.0
  0
SPLINE
  5
2EB4
330
1F
100
AcDbEntity
  8
0
  6
Continuous
100
AcDbSpline
210
0.0
220
0.0
230
1.0
 70
     8
 71
     3
 72
    13
 73
     9
 74
     7
 42
0.0000000001
 43
0.0000000001
 44
0.0000000001
 12
-0.9999155493896564
 22
-0.012995925853188
 32
0.0
 13
-0.9901095891090243
 23
0.1402961209526449
 33
0.0
 40
0.0
 40
0.0
 40
0.0
 40
0.0
 40
0.1187019768833123
 40
0.2873818919259616
 40
0.5013765518482494
 40
0.7569702414507369
 40
1.05022446657223
 40
1.374164057307474
 40
1.374164057307474
 40
1.374164057307474
 40
1.374164057307474
 10
797.9411791802987
 20
-132.9770847056598
 30
0.0
 10
797.9016151961557
 20
-132.9775989196899
 30
0.0
 10
797.8058147522039
 20
-132.9735126222547
 30
0.0
 10
797.6392054058479
 20
-132.9605682960014
 30
0.0
 10
797.4275054547427
 20
-132.9391373502335
 30
0.0
 10
797.1749290496406
 20
-132.9097286562755
 30
0.0
 10
796.8863578086982
 20
-132.8727092015925
 30
0.0
 10
796.6825515154586
 20
-132.8446136158609
 30
0.0
 10
796.5756396170989
 20
-132.8294644598598
 30
0.0
 11
797.9411791802987
 21
-132.9770847056598
 31
0.0
 11
797.8225267734987
 21
-132.9736545924598
 31
0.0
 11
797.6543101530987
 21
-132.9611612998597
 31
0.0
 11
797.4413594914986
 21
-132.9400489764597
 31
0.0
 11
797.1874540318988
 21
-132.9107206326598
 31
0.0
 11
796.8965615116988
 21
-132.8735779046598
 31
0.0
 11
796.5756396170989
 21
-132.8294644598598
 31
0.0
  0
SPLINE
  5
2EB5
330
1F
100
AcDbEntity
  8
0
  6
Continuous
100
AcDbSpline
210
0.0
220
0.0
230
1.0
 70
     8
 71
     3
 72
    14
 73
    10
 74
     8
 42
0.0000000001
 43
0.0000000001
 44
0.0000000001
 12
-0.9157430657756184
 22
-0.4017644054466144
 32
0.0
 13
-0.02506785856555971
 23
-0.9996857518575211
 33
0.0
 40
0.0
 40
0.0
 40
0.0
 40
0.0
 40
0.2466240313026395
 40
0.4843898777719394
 40
0.715154258404165
 40
0.9375804333584161
 40
1.148364798128226
 40
1.344951421543651
 40
1.525328695431653
 40
1.525328695431653
 40
1.525328695431653
 40
1.525328695431653
 10
796.5965591188988
 20
-134.7502326666597
 30
0.0
 10
796.5212777033925
 20
-134.7832609190948
 30
0.0
 10
796.3777981727957
 20
-134.8588420435109
 30
0.0
 10
796.1855636535918
 20
-135.0014021480647
 30
0.0
 10
796.0243099099753
 20
-135.1673477098489
 30
0.0
 10
795.8983570619463
 20
-135.3506601418118
 30
0.0
 10
795.8104292001261
 20
-135.5424425249543
 30
0.0
 10
795.7596419314716
 20
-135.7325541495341
 30
0.0
 10
795.7468701896955
 20
-135.8581322443049
 30
0.0
 10
795.7453629656988
 20
-135.9182391078598
 30
0.0
 11
796.5965591188988
 21
-134.7502326666597
 31
0.0
 11
796.3786155134989
 21
-134.8656622888598
 31
0.0
 11
796.1879558748987
 21
-135.0077238950597
 31
0.0
 11
796.0274968648988
 21
-135.1735705274598
 31
0.0
 11
795.9018681420988
 21
-135.3571211398598
 31
0.0
 11
795.8142496226988
 21
-135.5488319728598
 31
0.0
 11
795.7636265874988
 21
-135.7387888332598
 31
0.0
 11
795.7453629656988
 21
-135.9182391078598
 31
0.0
  0
SPLINE
  5
2EB6
330
1F
100
AcDbEntity
  8
0
  6
Continuous
100
AcDbSpline
210
0.0
220
0.0
230
1.0
 70
     8
 71
     3
 72
    10
 73
     6
 74
     4
 42
0.0000000001
 43
0.0000000001
 44
0.0000000001
 12
-0.0389610768829018
 22
-0.999240728997835
 32
0.0
 13
-0.0389258289545714
 23
-0.9992421027159532
 33
0.0
 40
0.0
 40
0.0
 40
0.0
 40
0.0
 40
0.2246436959293168
 40
0.449237515278406
 40
0.6737814582421415
 40
0.6737814582421415
 40
0.6737814582421415
 40
0.6737814582421415
 10
793.8880990488987
 20
-135.9182391078598
 30
0.0
 10
793.8851815954625
 20
-135.9930634846882
 30
0.0
 10
793.8793482173099
 20
-136.1426956597927
 30
0.0
 10
793.8706017621107
 20
-136.367119106078
 30
0.0
 10
793.8647731976042
 20
-136.5167181925534
 30
0.0
 10
793.8618596778987
 20
-136.5915094464598
 30
0.0
 11
793.8880990488987
 21
-135.9182391078598
 31
0.0
 11
793.8793480098987
 21
-136.1427122898598
 31
0.0
 11
793.8706015542987
 21
-136.3671357360597
 31
0.0
 11
793.8618596778987
 21
-136.5915094464598
 31
0.0
  0
SPLINE
  5
2EB7
330
1F
100
AcDbEntity
  8
0
  6
Continuous
100
AcDbSpline
210
0.0
220
0.0
230
1.0
 70
     8
 71
     3
 72
    12
 73
     8
 74
     6
 42
0.0000000001
 43
0.0000000001
 44
0.0000000001
 12
0.999295138255665
 22
-0.0375396678007598
 32
0.0
 13
0.9920722034571964
 23
0.125669181295906
 33
0.0
 40
0.0
 40
0.0
 40
0.0
 40
0.0
 40
0.4906400548153015
 40
0.9477408120796436
 40
1.343254191879452
 40
1.652987336212713
 40
1.858237013951566
 40
1.858237013951566
 40
1.858237013951566
 40
1.858237013951566
 10
793.8880990488987
 20
-135.9182391078598
 30
0.0
 10
794.0515304560355
 20
-135.9243785960823
 30
0.0
 10
794.367303232181
 20
-135.9342933928814
 30
0.0
 10
794.8149807322425
 20
-135.9422817848562
 30
0.0
 10
795.2025000536064
 20
-135.9431287702241
 30
0.0
 10
795.5058464601688
 20
-135.9363130557945
 30
0.0
 10
795.6774887990143
 20
-135.9268369608474
 30
0.0
 10
795.7453629656988
 20
-135.9182391078598
 30
0.0
 11
793.8880990488987
 21
-135.9182391078598
 31
0.0
 11
794.3785017836987
 21
-135.9334975838598
 31
0.0
 11
794.8355347576988
 21
-135.9413692398597
 31
0.0
 11
795.2310481374987
 21
-135.9413692398597
 31
0.0
 11
795.5406812392988
 21
-135.9334975838598
 31
0.0
 11
795.7453629656988
 21
-135.9182391078598
 31
0.0
  0
SPLINE
  5
2EB8
330
1F
100
AcDbEntity
  8
0
  6
Continuous
100
AcDbSpline
210
0.0
220
0.0
230
1.0
 70
     8
 71
     3
 72
    10
 73
     6
 74
     4
 42
0.0000000001
 43
0.0000000001
 44
0.0000000001
 12
-0.0397376163001233
 22
-0.9992101489930856
 32
0.0
 13
-0.039702918275743
 23
-0.9992115282963812
 33
0.0
 40
0.0
 40
0.0
 40
0.0
 40
0.0
 40
0.2246505707524382
 40
0.4492512629887375
 40
0.6738020768822413
 40
0.6738020768822413
 40
0.6738020768822413
 40
0.6738020768822413
 10
795.7453629656988
 20
-135.9182391078598
 30
0.0
 10
795.7423872729713
 20
-135.9930634846174
 30
0.0
 10
795.7364374156232
 20
-136.1426956595909
 30
0.0
 10
795.7275162191977
 20
-136.3671191058601
 30
0.0
 10
795.721571146503
 20
-136.5167181924829
 30
0.0
 10
795.7185993722987
 20
-136.5915094464598
 30
0.0
 11
795.7453629656988
 21
-135.9182391078598
 31
0.0
 11
795.7364371882989
 21
-136.1427122898598
 31
0.0
 11
795.7275159916989
 21
-136.3671357360597
 31
0.0
 11
795.7185993722987
 21
-136.5915094464598
 31
0.0
  0
SPLINE
  5
2EB9
330
1F
100
AcDbEntity
  8
0
  6
Continuous
100
AcDbSpline
210
0.0
220
0.0
230
1.0
 70
     8
 71
     3
 72
    13
 73
     9
 74
     7
 42
0.0000000001
 43
0.0000000001
 44
0.0000000001
 12
1.0
 22
0.0
 32
0.0
 13
0.9999988952117694
 23
0.0014864640058531
 33
0.0
 40
0.0
 40
0.0
 40
0.0
 40
0.0
 40
0.4114262203425068
 40
0.8032904577703144
 40
1.154566264044156
 40
1.454812014250662
 40
1.693556773021745
 40
1.856767462514102
 40
1.856767462514102
 40
1.856767462514102
 40
1.856767462514102
 10
793.8618596778987
 20
-136.5915094464598
 30
0.0
 10
793.9990017513462
 20
-136.5915094464598
 30
0.0
 10
794.2667577170503
 20
-136.5942049929265
 30
0.0
 10
794.6516120309361
 20
-136.5950563518417
 30
0.0
 10
794.9994081673131
 20
-136.5957929083614
 30
0.0
 10
795.2961602349346
 20
-136.595032142066
 30
0.0
 10
795.5302348384879
 20
-136.5948534238165
 30
0.0
 10
795.6641958692391
 20
-136.5915903153982
 30
0.0
 10
795.7185993722987
 20
-136.5915094464598
 30
0.0
 11
793.8618596778987
 21
-136.5915094464598
 31
0.0
 11
794.2732799654987
 21
-136.5937189116598
 31
0.0
 11
794.6651418398986
 21
-136.5950797814598
 31
0.0
 11
795.0164173532988
 21
-136.5955333878598
 31
0.0
 11
795.3166627610987
 21
-136.5950799430598
 31
0.0
 11
795.5554036414987
 21
-136.5937191100598
 31
0.0
 11
795.7185993722987
 21
-136.5915094464598
 31
0.0
  0
SPLINE
  5
2EBA
330
1F
100
AcDbEntity
  8
0
  6
Continuous
100
AcDbSpline
210
0.0
220
0.0
230
1.0
 70
     8
 71
     3
 72
    10
 73
     6
 74
     4
 42
0.0000000001
 43
0.0000000001
 44
0.0000000001
 12
0.0259472881320553
 22
-0.9996633124400396
 32
0.0
 13
0.02634893769853691
 23
-0.9996528064694056
 33
0.0
 40
0.0
 40
0.0
 40
0.0
 40
0.0
 40
5.60642165121149
 40
11.23393857805099
 40
16.88255077642031
 40
16.88255077642031
 40
16.88255077642031
 40
16.88255077642031
 10
793.8607671124988
 20
-136.5915094464598
 30
0.0
 10
793.9092575918235
 20
-138.4596874593884
 30
0.0
 10
794.0066648509694
 20
-142.2030665519708
 30
0.0
 10
794.1537959982716
 20
-147.828659795553
 30
0.0
 10
794.2525753530661
 20
-151.5860713270074
 30
0.0
 10
794.3021869966988
 20
-153.4682883392598
 30
0.0
 11
793.8607671124988
 21
-136.5915094464598
 31
0.0
 11
794.0066055542987
 21
-142.1960339472597
 31
0.0
 11
794.1537386980987
 21
-147.8216271248598
 31
0.0
 11
794.3021869966988
 21
-153.4682883392598
 31
0.0
  0
SPLINE
  5
2EBB
330
1F
100
AcDbEntity
  8
0
  6
Continuous
100
AcDbSpline
210
0.0
220
0.0
230
1.0
 70
     8
 71
     3
 72
    10
 73
     6
 74
     4
 42
0.0000000001
 43
0.0000000001
 44
0.0000000001
 12
0.0264661636061135
 22
-0.9996497097403544
 32
0.0
 13
0.0268608761772819
 23
-0.999639181570525
 33
0.0
 40
0.0
 40
0.0
 40
0.0
 40
0.0
 40
5.606497978802059
 40
11.23409156941055
 40
16.88278075542979
 40
16.88278075542979
 40
16.88278075542979
 40
16.88278075542979
 10
795.7188996216987
 20
-136.5915094464598
 30
0.0
 10
795.7683604526202
 20
-138.4596874721829
 30
0.0
 10
795.8677083024145
 20
-142.2030665795594
 30
0.0
 10
796.0177434054472
 20
-147.8286598097759
 30
0.0
 10
796.1184532983689
 20
-151.5860713276403
 30
0.0
 10
796.1690295452987
 20
-153.4682883392598
 30
0.0
 11
795.7188996216987
 21
-136.5915094464598
 31
0.0
 11
795.8676433066987
 21
-142.1960339492597
 31
0.0
 11
796.0176802194987
 21
-147.8216271220598
 31
0.0
 11
796.1690295452987
 21
-153.4682883392598
 31
0.0
  0
SPLINE
  5
2EBC
330
1F
100
AcDbEntity
  8
0
  6
Continuous
100
AcDbSpline
210
0.0
220
0.0
230
1.0
 70
     8
 71
     3
 72
    12
 73
     8
 74
     6
 42
0.0000000001
 43
0.0000000001
 44
0.0000000001
 12
0.9996764050304766
 22
0.0254378699057651
 32
0.0
 13
0.9959514035335577
 23
-0.08989328005772541
 33
0.0
 40
0.0
 40
0.0
 40
0.0
 40
0.0
 40
0.4965887925219856
 40
0.958523117386848
 40
1.356701289386766
 40
1.666074766544875
 40
1.867301396698157
 40
1.867301396698157
 40
1.867301396698157
 40
1.867301396698157
 10
794.3021870300987
 20
-153.4682882936598
 30
0.0
 10
794.467663063061
 20
-153.4640775732929
 30
0.0
 10
794.7871056744582
 20
-153.4572747724428
 30
0.0
 10
795.2393030765777
 20
-153.451796810077
 30
0.0
 10
795.6291694498519
 20
-153.4511749881052
 30
0.0
 10
795.9320127594847
 20
-153.4558888839613
 30
0.0
 10
796.1022224239223
 20
-153.4622588128533
 30
0.0
 10
796.1690264054988
 20
-153.4682884534598
 30
0.0
 11
794.3021870300987
 21
-153.4682882936598
 31
0.0
 11
794.7986653866986
 21
-153.4578159354598
 31
0.0
 11
795.2605680684987
 21
-153.4524091772597
 31
0.0
 11
795.6587462404987
 21
-153.4524092144598
 31
0.0
 11
795.9680724672987
 21
-153.4578160418597
 31
0.0
 11
796.1690264054988
 21
-153.4682884534598
 31
0.0
  0
SPLINE
  5
2EBD
330
1F
100
AcDbEntity
  8
0
  6
Continuous
100
AcDbSpline
210
0.0
220
0.0
230
1.0
 70
     8
 71
     3
 72
     9
 73
     5
 74
     3
 42
0.0000000001
 43
0.0000000001
 44
0.0000000001
 12
0.0268677635451347
 22
-0.9996389964792705
 32
0.0
 13
-0.0242078498727056
 23
-0.9997069470622582
 33
0.0
 40
0.0
 40
0.0
 40
0.0
 40
0.0
 40
0.3879955239397815
 40
0.7721440812489577
 40
0.7721440812489577
 40
0.7721440812489577
 40
0.7721440812489577
 10
796.1690295452987
 20
-153.4682883392598
 30
0.0
 10
796.17250440263
 20
-153.597573491323
 30
0.0
 10
796.1761620679033
 20
-153.8549600299753
 30
0.0
 10
796.1732626524336
 20
-154.1123567480444
 30
0.0
 10
796.1701628488988
 20
-154.2403687418597
 30
0.0
 11
796.1690295452987
 21
-153.4682883392598
 31
0.0
 11
796.1745246458987
 21
-153.8562449482597
 31
0.0
 11
796.1701628488988
 21
-154.2403687418597
 31
0.0
  0
SPLINE
  5
2EBE
330
1F
100
AcDbEntity
  8
0
  6
Continuous
100
AcDbSpline
210
0.0
220
0.0
230
1.0
 70
     8
 71
     3
 72
     9
 73
     5
 74
     3
 42
0.0000000001
 43
0.0000000001
 44
0.0000000001
 12
0.0494697591537054
 22
-0.9987756219137882
 32
0.0
 13
-0.0599030367867022
 23
-0.9982042006442025
 33
0.0
 40
0.0
 40
0.0
 40
0.0
 40
0.0
 40
0.2032462503410853
 40
0.4045791314765246
 40
0.4045791314765246
 40
0.4045791314765246
 40
0.4045791314765246
 10
794.3021869966988
 20
-153.4682883392598
 30
0.0
 10
794.3055385110498
 20
-153.5359541392885
 30
0.0
 10
794.3085603237996
 20
-153.6708549144537
 30
0.0
 10
794.3042153386272
 20
-153.8057209647007
 30
0.0
 10
794.3001951882989
 20
-153.8727114072598
 30
0.0
 11
794.3021869966988
 21
-153.4682883392598
 31
0.0
 11
794.3067154542989
 21
-153.6714841348597
 31
0.0
 11
794.3001951882989
 21
-153.8727114072598
 31
0.0
  0
SPLINE
  5
2EBF
330
1F
100
AcDbEntity
  8
0
  6
Continuous
100
AcDbSpline
210
0.0
220
0.0
230
1.0
 70
     8
 71
     3
 72
    16
 73
    12
 74
    10
 42
0.0000000001
 43
0.0000000001
 44
0.0000000001
 12
-0.0596314264708495
 22
-0.9982204631127594
 32
0.0
 13
0.9999999935731776
 23
-0.0001133739164795
 33
0.0
 40
0.0
 40
0.0
 40
0.0
 40
0.0
 40
0.2549789195963201
 40
0.5227033274908346
 40
0.8124294497175268
 40
1.132597425006721
 40
1.489979960207218
 40
1.888396823934715
 40
2.335693949757173
 40
2.839726048340835
 40
3.405950962956826
 40
3.405950962956826
 40
3.405950962956826
 40
3.405950962956826
 10
794.3001951882989
 20
-153.8727114072598
 30
0.0
 10
794.2951269360671
 20
-153.9575531323276
 30
0.0
 10
794.3036602209295
 20
-154.1332194430325
 30
0.0
 10
794.377182175527
 20
-154.3961211990315
 30
0.0
 10
794.5172188650407
 20
-154.6556326546218
 30
0.0
 10
794.7279885047738
 20
-154.9025535617731
 30
0.0
 10
795.0106111787162
 20
-155.1266396758048
 30
0.0
 10
795.3647697720923
 20
-155.3185746806494
 30
0.0
 10
795.7904105988728
 20
-155.4694379556457
 30
0.0
 10
796.2879201274602
 20
-155.5690845231976
 30
0.0
 10
796.6452227271066
 20
-155.5914880480811
 30
0.0
 10
796.8339643640989
 20
-155.5915094464598
 30
0.0
 11
794.3001951882989
 21
-153.8727114072598
 31
0.0
 11
794.3126776096987
 21
-154.1273846068598
 31
0.0
 11
794.3840717850989
 21
-154.3854141212596
 31
0.0
 11
794.5203903062989
 21
-154.6410671804597
 31
0.0
 11
794.7266525182988
 21
-154.8859414998598
 31
0.0
 11
795.0051904218987
 21
-155.1098587004598
 31
0.0
 11
795.3543178968987
 21
-155.3018118288598
 31
0.0
 11
795.7751455716987
 21
-155.4533993840597
 31
0.0
 11
796.2689579066989
 21
-155.5543832154598
 31
0.0
 11
796.8339643640989
 21
-155.5915094464598
 31
0.0
  0
SPLINE
  5
2EC0
330
1F
100
AcDbEntity
  8
0
  6
Continuous
100
AcDbSpline
210
0.0
220
0.0
230
1.0
 70
     8
 71
     3
 72
    12
 73
     8
 74
     6
 42
0.0000000001
 43
0.0000000001
 44
0.0000000001
 12
0.9994622170844252
 22
-0.0327914107760791
 32
0.0
 13
0.7866741713188199
 23
-0.6173684055568832
 33
0.0
 40
0.0
 40
0.0
 40
0.0
 40
0.0
 40
0.499032048912629
 40
0.9657044869748007
 40
1.372364943253537
 40
1.696259404731323
 40
1.923213106945693
 40
1.923213106945693
 40
1.923213106945693
 40
1.923213106945693
 10
794.3001947314987
 20
-153.8727153910596
 30
0.0
 10
794.4664492908328
 20
-153.8781700460284
 30
0.0
 10
794.7880089770599
 20
-153.8974073664323
 30
0.0
 10
795.2424379041053
 20
-153.9511021066488
 30
0.0
 10
795.6354115572306
 20
-154.0253489568831
 30
0.0
 10
795.9413745353489
 20
-154.1148775274496
 30
0.0
 10
796.1106609050263
 20
-154.1936636629026
 30
0.0
 10
796.1701737768987
 20
-154.2403683446597
 30
0.0
 11
794.3001947314987
 21
-153.8727153910596
 31
0.0
 11
794.7983067186988
 21
-153.9030045648598
 31
0.0
 11
795.2615884198985
 21
-153.9591581914598
 31
0.0
 11
795.6606099534987
 21
-154.0376090832598
 31
0.0
 11
795.9700235524987
 21
-154.1333736222597
 31
0.0
 11
796.1701737768987
 21
-154.2403683446597
 31
0.0
  0
SPLINE
  5
2EC1
330
1F
100
AcDbEntity
  8
0
  6
Continuous
100
AcDbSpline
210
0.0
220
0.0
230
1.0
 70
     8
 71
     3
 72
    16
 73
    12
 74
    10
 42
0.0000000001
 43
0.0000000001
 44
0.0000000001
 12
-0.1065438772609195
 22
-0.9943080016867059
 32
0.0
 13
0.9999999354391492
 23
-0.0003593350771245
 33
0.0
 40
0.0
 40
0.0
 40
0.0
 40
0.0
 40
0.2008334275226649
 40
0.403726853195045
 40
0.6061643046295975
 40
0.8041073237717782
 40
0.9932615812535582
 40
1.170456838108033
 40
1.338227774468505
 40
1.503886401712584
 40
1.680904087723481
 40
1.680904087723481
 40
1.680904087723481
 40
1.680904087723481
 10
796.1701628488988
 20
-154.2403687418597
 30
0.0
 10
796.1630303248816
 20
-154.306932169857
 30
0.0
 10
796.1544526774435
 20
-154.4414285450755
 30
0.0
 10
796.1592008614897
 20
-154.6436922308041
 30
0.0
 10
796.1832741451379
 20
-154.8436980976913
 30
0.0
 10
796.228452313408
 20
-155.0354461439516
 30
0.0
 10
796.2963299659007
 20
-155.2116524110231
 30
0.0
 10
796.3886084972106
 20
-155.3652341784238
 30
0.0
 10
796.5082176997886
 20
-155.4890298131466
 30
0.0
 10
796.6594751285631
 20
-155.5731001535686
 30
0.0
 10
796.7749584725714
 20
-155.5914882435719
 30
0.0
 10
796.8339643640989
 20
-155.5915094464598
 30
0.0
 11
796.1701628488988
 21
-154.2403687418597
 31
0.0
 11
796.1574015956987
 21
-154.4407963248598
 31
0.0
 11
796.1624616148987
 21
-154.6436266440598
 31
0.0
 11
796.1872129078987
 21
-154.8445452724598
 31
0.0
 11
796.2335444702987
 21
-155.0369896154598
 31
0.0
 11
796.3028938454988
 21
-155.2129725614598
 31
0.0
 11
796.3958319202988
 21
-155.3638389702598
 31
0.0
 11
796.5139532970987
 21
-155.4829793388598
 31
0.0
 11
796.6593670452987
 21
-155.5623369006597
 31
0.0
 11
796.8339643640989
 21
-155.5915094464598
 31
0.0
  0
SPLINE
  5
2EC2
330
1F
100
AcDbEntity
  8
0
  6
Continuous
100
AcDbSpline
210
0.0
220
0.0
230
1.0
 70
     8
 71
     3
 72
    16
 73
    12
 74
    10
 42
0.0000000001
 43
0.0000000001
 44
0.0000000001
 12
0.999999935912251
 22
0.0003580160530013
 32
0.0
 13
-0.106543766593356
 23
0.9943080135451492
 33
0.0
 40
0.0
 40
0.0
 40
0.0
 40
0.0
 40
0.1769054111205123
 40
0.3424612777686614
 40
0.5101074564270074
 40
0.687200767180577
 40
0.8762948038417799
 40
1.074190561216404
 40
1.276676603566696
 40
1.479782808297382
 40
1.680906749737892
 40
1.680906749737892
 40
1.680906749737892
 40
1.680906749737892
 10
845.2377871432988
 20
-155.5915094464598
 30
0.0
 10
845.2967556098931
 20
-155.5914883348008
 30
0.0
 10
845.4121646881729
 20
-155.5731246141637
 30
0.0
 10
845.5633469780433
 20
-155.4891623025256
 30
0.0
 10
845.6829335353019
 20
-155.3655005755798
 30
0.0
 10
845.7752310792555
 20
-155.2120419116463
 30
0.0
 10
845.8431516632697
 20
-155.0359265690749
 30
0.0
 10
845.8883882966148
 20
-154.8442121616902
 30
0.0
 10
845.9125235360993
 20
-154.644141251406
 30
0.0
 10
845.917311669097
 20
-154.4416935916686
 30
0.0
 10
845.9087314923897
 20
-154.3070284574231
 30
0.0
 10
845.9015886582987
 20
-154.2403687418597
 30
0.0
 11
845.2377871432988
 21
-155.5915094464598
 31
0.0
 11
845.4122769468987
 21
-155.5623747090598
 31
0.0
 11
845.5576253166986
 21
-155.4831118780598
 31
0.0
 11
845.6757096850989
 21
-155.3641105202598
 31
0.0
 11
845.7686609734986
 21
-155.2133720092598
 31
0.0
 11
845.8380570462987
 21
-155.0374722088598
 31
0.0
 11
845.8844416328988
 21
-154.8450892550598
 31
0.0
 11
845.9092536986988
 21
-154.6441291626598
 31
0.0
 11
845.9143558040988
 21
-154.4410870514597
 31
0.0
 11
845.9015886582987
 21
-154.2403687418597
 31
0.0
  0
SPLINE
  5
2EC3
330
1F
100
AcDbEntity
  8
0
  6
Continuous
100
AcDbSpline
210
0.0
220
0.0
230
1.0
 70
     8
 71
     3
 72
    16
 73
    12
 74
    10
 42
0.0000000001
 43
0.0000000001
 44
0.0000000001
 12
0.9999999936201571
 22
0.0001129587796363
 32
0.0
 13
-0.05963211183498372
 23
0.9982204221704243
 33
0.0
 40
0.0
 40
0.0
 40
0.0
 40
0.0
 40
0.5658658230579883
 40
1.069634040035368
 40
1.516715235561593
 40
1.915058501651717
 40
2.27247788508644
 40
2.592689529657451
 40
2.882563934369088
 40
3.150601786413755
 40
3.405950393991473
 40
3.405950393991473
 40
3.405950393991473
 40
3.405950393991473
 10
845.2377871432988
 20
-155.5915094464598
 30
0.0
 10
845.4264090831147
 20
-155.5914881399555
 30
0.0
 10
845.7835028727238
 20
-155.5691116234898
 30
0.0
 10
846.2807483597564
 20
-155.4695856118452
 30
0.0
 10
846.7062478685648
 20
-155.3188862288644
 30
0.0
 10
847.0603982834489
 20
-155.1271190637659
 30
0.0
 10
847.3431242600404
 20
-154.9031623499934
 30
0.0
 10
847.5540761041101
 20
-154.6562986259478
 30
0.0
 10
847.6943433906438
 20
-154.3967180283905
 30
0.0
 10
847.7680585388425
 20
-154.1335754969746
 30
0.0
 10
847.7766319778068
 20
-153.9576761388788
 30
0.0
 10
847.7715563188988
 20
-153.8727114072598
 30
0.0
 11
845.2377871432988
 21
-155.5915094464598
 31
0.0
 11
845.8024368956989
 21
-155.5544313286597
 31
0.0
 11
846.2960045220987
 21
-155.4535679824598
 31
0.0
 11
846.7166663458987
 21
-155.3021571988598
 31
0.0
 11
847.0657991636988
 21
-155.1103666016598
 31
0.0
 11
847.3444692342987
 21
-154.8865550572598
 31
0.0
 11
847.5508921380988
 21
-154.6417590562598
 31
0.0
 11
847.6874252486988
 21
-154.3860524270598
 31
0.0
 11
847.7590150746987
 21
-154.1277518522598
 31
0.0
 11
847.7715563188988
 21
-153.8727114072598
 31
0.0
  0
SPLINE
  5
2EC4
330
1F
100
AcDbEntity
  8
0
  6
Continuous
100
AcDbSpline
210
0.0
220
0.0
230
1.0
 70
     8
 71
     3
 72
     9
 73
     5
 74
     3
 42
0.0000000001
 43
0.0000000001
 44
0.0000000001
 12
-0.0242087364892222
 22
0.9997069255924936
 32
0.0
 13
0.0268640334125352
 23
0.9996390967288196
 33
0.0
 40
0.0
 40
0.0
 40
0.0
 40
0.0
 40
0.3838724259737209
 40
0.7721440813809446
 40
0.7721440813809446
 40
0.7721440813809446
 40
0.7721440813809446
 10
845.9015886582987
 20
-154.2403687418597
 30
0.0
 10
845.8984909694967
 20
-154.1124487675964
 30
0.0
 10
845.8955890876318
 20
-153.8550521257119
 30
0.0
 10
845.899245114524
 20
-153.597665514892
 30
0.0
 10
845.9027219620987
 20
-153.4682883392598
 30
0.0
 11
845.9015886582987
 21
-154.2403687418597
 31
0.0
 11
845.8972264696988
 21
-153.8565211018597
 31
0.0
 11
845.9027219620987
 21
-153.4682883392598
 31
0.0
  0
SPLINE
  5
2EC5
330
1F
100
AcDbEntity
  8
0
  6
Continuous
100
AcDbSpline
210
0.0
220
0.0
230
1.0
 70
     8
 71
     3
 72
    12
 73
     8
 74
     6
 42
0.0000000001
 43
0.0000000001
 44
0.0000000001
 12
-0.9994621146567695
 22
-0.0327945325598448
 32
0.0
 13
-0.7866806683531417
 23
-0.6173601267003357
 33
0.0
 40
0.0
 40
0.0
 40
0.0
 40
0.0
 40
0.4990261624844041
 40
0.9656930105198338
 40
1.372349651326035
 40
1.696243276509985
 40
1.923199773701903
 40
1.923199773701903
 40
1.923199773701903
 40
1.923199773701903
 10
847.7715562878989
 20
-153.8727111372598
 30
0.0
 10
847.6053037066903
 20
-153.8781662471711
 30
0.0
 10
847.2837479065338
 20
-153.8974043452093
 30
0.0
 10
846.8293242016343
 20
-153.951100055422
 30
0.0
 10
846.4363542637874
 20
-154.025347813199
 30
0.0
 10
846.1303920596674
 20
-154.1148773828627
 30
0.0
 10
845.9611055987982
 20
-154.1936642146391
 30
0.0
 10
845.9015915024988
 20
-154.2403688452597
 30
0.0
 11
847.7715562878989
 21
-153.8727111372598
 31
0.0
 11
847.2734502726988
 21
-153.9030015394598
 31
0.0
 11
846.8101743156989
 21
-153.9591561004598
 31
0.0
 11
846.4111568212986
 21
-154.0376077586598
 31
0.0
 11
846.1017443414986
 21
-154.1333730852598
 31
0.0
 11
845.9015915024988
 21
-154.2403688452597
 31
0.0
  0
SPLINE
  5
2EC6
330
1F
100
AcDbEntity
  8
0
  6
Continuous
100
AcDbSpline
210
0.0
220
0.0
230
1.0
 70
     8
 71
     3
 72
     9
 73
     5
 74
     3
 42
0.0000000001
 43
0.0000000001
 44
0.0000000001
 12
-0.0599034810823869
 22
0.9982041739815618
 32
0.0
 13
0.04946568667628179
 23
0.9987758236169135
 33
0.0
 40
0.0
 40
0.0
 40
0.0
 40
0.0
 40
0.2011797669242731
 40
0.4045791323646282
 40
0.4045791323646282
 40
0.4045791323646282
 40
0.4045791323646282
 10
847.7715563188988
 20
-153.8727114072598
 30
0.0
 10
847.7675391961114
 20
-153.805771912905
 30
0.0
 10
847.7631912541428
 20
-153.6709060971921
 30
0.0
 10
847.7662107476051
 20
-153.5360051288401
 30
0.0
 10
847.7695645106987
 20
-153.4682883392598
 30
0.0
 11
847.7715563188988
 21
-153.8727114072598
 31
0.0
 11
847.7650368124988
 21
-153.6716373048597
 31
0.0
 11
847.7695645106987
 21
-153.4682883392598
 31
0.0
  0
SPLINE
  5
2EC7
330
1F
100
AcDbEntity
  8
0
  6
Continuous
100
AcDbSpline
210
0.0
220
0.0
230
1.0
 70
     8
 71
     3
 72
    10
 73
     6
 74
     4
 42
0.0000000001
 43
0.0000000001
 44
0.0000000001
 12
0.0268608761772819
 22
0.999639181570525
 32
0.0
 13
0.0264661636061135
 23
0.9996497097403544
 33
0.0
 40
0.0
 40
0.0
 40
0.0
 40
0.0
 40
5.64868918601925
 40
11.27628277662241
 40
16.88278075542446
 40
16.88278075542446
 40
16.88278075542446
 40
16.88278075542446
 10
845.9027219620987
 20
-153.4682883392598
 30
0.0
 10
845.9532982090285
 20
-151.5860713276403
 30
0.0
 10
846.0540081020312
 20
-147.8286598097798
 30
0.0
 10
846.2040432047031
 20
-142.2030665795554
 30
0.0
 10
846.3033910545772
 20
-138.4596874721829
 30
0.0
 10
846.3528518854987
 20
-136.5915094464598
 30
0.0
 11
845.9027219620987
 21
-153.4682883392598
 31
0.0
 11
846.0540712878989
 21
-147.8216271220598
 31
0.0
 11
846.2041082004988
 21
-142.1960339492597
 31
0.0
 11
846.3528518854987
 21
-136.5915094464598
 31
0.0
  0
SPLINE
  5
2EC8
330
1F
100
AcDbEntity
  8
0
  6
Continuous
100
AcDbSpline
210
0.0
220
0.0
230
1.0
 70
     8
 71
     3
 72
    12
 73
     8
 74
     6
 42
0.0000000001
 43
0.0000000001
 44
0.0000000001
 12
-0.9996764035354974
 22
0.025437928656507
 32
0.0
 13
-0.9959514571745805
 23
-0.08989268575268
 33
0.0
 40
0.0
 40
0.0
 40
0.0
 40
0.0
 40
0.4965891990963109
 40
0.9585240376176203
 40
1.356702844417781
 40
1.666077077984753
 40
1.867304568723957
 40
1.867304568723957
 40
1.867304568723957
 40
1.867304568723957
 10
847.7695645106987
 20
-153.4682883392598
 30
0.0
 10
847.604088342503
 20
-153.4640776057204
 30
0.0
 10
847.2846454249313
 20
-153.4572747777632
 30
0.0
 10
846.8324475047516
 20
-153.4517967732994
 30
0.0
 10
846.4425804971024
 20
-153.4511749184894
 30
0.0
 10
846.1397364352238
 20
-153.4558887842668
 30
0.0
 10
845.9695262329738
 20
-153.4622587127299
 30
0.0
 10
845.9027219620987
 20
-153.4682883392598
 30
0.0
 11
847.7695645106987
 21
-153.4682883392598
 31
0.0
 11
847.2730857482989
 21
-153.4578159400598
 31
0.0
 11
846.8111825532988
 21
-153.4524091398597
 31
0.0
 11
846.4130037464986
 21
-153.4524091398597
 31
0.0
 11
846.1036767626987
 21
-153.4578159400598
 31
0.0
 11
845.9027219620987
 21
-153.4682883392598
 31
0.0
  0
SPLINE
  5
2EC9
330
1F
100
AcDbEntity
  8
0
  6
Continuous
100
AcDbSpline
210
0.0
220
0.0
230
1.0
 70
     8
 71
     3
 72
    10
 73
     6
 74
     4
 42
0.0000000001
 43
0.0000000001
 44
0.0000000001
 12
0.02634893769853691
 22
0.9996528064694056
 32
0.0
 13
0.0259472881320553
 23
0.9996633124400396
 33
0.0
 40
0.0
 40
0.0
 40
0.0
 40
0.0
 40
5.64861219836932
 40
11.27612912520882
 40
16.88255077641511
 40
16.88255077641511
 40
16.88255077641511
 40
16.88255077641511
 10
847.7695645106987
 20
-153.4682883392598
 30
0.0
 10
847.8191761543314
 20
-151.5860713270074
 30
0.0
 10
847.9179555090987
 20
-147.8286597955524
 30
0.0
 10
848.0650866565218
 20
-142.2030665519749
 30
0.0
 10
848.1624939153743
 20
-138.4596874593866
 30
0.0
 10
848.2109843946988
 20
-136.5915094464598
 30
0.0
 11
847.7695645106987
 21
-153.4682883392598
 31
0.0
 11
847.9180128092988
 21
-147.8216271248598
 31
0.0
 11
848.0651459530989
 21
-142.1960339472597
 31
0.0
 11
848.2109843946988
 21
-136.5915094464598
 31
0.0
  0
SPLINE
  5
2ECA
330
1F
100
AcDbEntity
  8
0
  6
Continuous
100
AcDbSpline
210
0.0
220
0.0
230
1.0
 70
     8
 71
     3
 72
    10
 73
     6
 74
     4
 42
0.0000000001
 43
0.0000000001
 44
0.0000000001
 12
-0.039702918275743
 22
0.9992115282963812
 32
0.0
 13
-0.0397376163001233
 23
0.9992101489930856
 33
0.0
 40
0.0
 40
0.0
 40
0.0
 40
0.0
 40
0.2245508139014355
 40
0.4491515061297872
 40
0.6738020768822299
 40
0.6738020768822299
 40
0.6738020768822299
 40
0.6738020768822299
 10
846.3531521350986
 20
-136.5915094464598
 30
0.0
 10
846.3501803608942
 20
-136.5167181924803
 30
0.0
 10
846.344235287827
 20
-136.3671191058723
 30
0.0
 10
846.335314091881
 20
-136.142695659584
 30
0.0
 10
846.3293642344263
 20
-135.9930634846174
 30
0.0
 10
846.3263885416989
 20
-135.9182391078598
 30
0.0
 11
846.3531521350986
 21
-136.5915094464598
 31
0.0
 11
846.3442355154988
 21
-136.3671357360597
 31
0.0
 11
846.3353143190989
 21
-136.1427122898598
 31
0.0
 11
846.3263885416989
 21
-135.9182391078598
 31
0.0
  0
SPLINE
  5
2ECB
330
1F
100
AcDbEntity
  8
0
  6
Continuous
100
AcDbSpline
210
0.0
220
0.0
230
1.0
 70
     8
 71
     3
 72
    13
 73
     9
 74
     7
 42
0.0000000001
 43
0.0000000001
 44
0.0000000001
 12
-1.0
 22
0.0
 32
0.0
 13
-0.9999988952117694
 23
0.0014864640058531
 33
0.0
 40
0.0
 40
0.0
 40
0.0
 40
0.0
 40
0.4114262203425068
 40
0.8032904577706554
 40
1.154566264244245
 40
1.454812014250889
 40
1.693556773222058
 40
1.856767462514344
 40
1.856767462514344
 40
1.856767462514344
 40
1.856767462514344
 10
848.2098918294989
 20
-136.5915094464598
 30
0.0
 10
848.0727497560514
 20
-136.5915094464598
 30
0.0
 10
847.804993790347
 20
-136.5942049929265
 30
0.0
 10
847.4201394763952
 20
-136.5950563518417
 30
0.0
 10
847.0723433400176
 20
-136.595792908362
 30
0.0
 10
846.7755912723296
 20
-136.5950321420642
 30
0.0
 10
846.5415166688425
 20
-136.5948534238204
 30
0.0
 10
846.4075556380917
 20
-136.5915903153982
 30
0.0
 10
846.3531521350986
 20
-136.5915094464598
 30
0.0
 11
848.2098918294989
 21
-136.5915094464598
 31
0.0
 11
847.798471541899
 21
-136.5937189116598
 31
0.0
 11
847.4066096674986
 21
-136.5950797814598
 31
0.0
 11
847.0553341538987
 21
-136.5955333878598
 31
0.0
 11
846.7550887462987
 21
-136.5950799430598
 31
0.0
 11
846.5163478656986
 21
-136.5937191100598
 31
0.0
 11
846.3531521350986
 21
-136.5915094464598
 31
0.0
  0
SPLINE
  5
2ECC
330
1F
100
AcDbEntity
  8
0
  6
Continuous
100
AcDbSpline
210
0.0
220
0.0
230
1.0
 70
     8
 71
     3
 72
    10
 73
     6
 74
     4
 42
0.0000000001
 43
0.0000000001
 44
0.0000000001
 12
-0.0389258289545714
 22
0.9992421027159532
 32
0.0
 13
-0.0389610768829018
 23
0.999240728997835
 33
0.0
 40
0.0
 40
0.0
 40
0.0
 40
0.0
 40
0.2245439429715298
 40
0.4491377623206145
 40
0.6737814582421413
 40
0.6737814582421413
 40
0.6737814582421413
 40
0.6737814582421413
 10
848.2098918294989
 20
-136.5915094464598
 30
0.0
 10
848.2069783097933
 20
-136.5167181925508
 30
0.0
 10
848.2011497450203
 20
-136.3671191060832
 30
0.0
 10
848.1924032898212
 20
-136.1426956597979
 30
0.0
 10
848.1865699119348
 20
-135.9930634846856
 30
0.0
 10
848.1836524584988
 20
-135.9182391078598
 30
0.0
 11
848.2098918294989
 21
-136.5915094464598
 31
0.0
 11
848.2011499528987
 21
-136.3671357360597
 31
0.0
 11
848.1924034972989
 21
-136.1427122898598
 31
0.0
 11
848.1836524584988
 21
-135.9182391078598
 31
0.0
  0
SPLINE
  5
2ECD
330
1F
100
AcDbEntity
  8
0
  6
Continuous
100
AcDbSpline
210
0.0
220
0.0
230
1.0
 70
     8
 71
     3
 72
    14
 73
    10
 74
     8
 42
0.0000000001
 43
0.0000000001
 44
0.0000000001
 12
-0.0250674353734579
 22
0.999685762469286
 32
0.0
 13
-0.9157432194641773
 23
0.401764055143543
 33
0.0
 40
0.0
 40
0.0
 40
0.0
 40
0.0
 40
0.1803197189276996
 40
0.3768537889509472
 40
0.5875994060559203
 40
0.8100108839758072
 40
1.040795911885036
 40
1.278620375883074
 40
1.525328651799068
 40
1.525328651799068
 40
1.525328651799068
 40
1.525328651799068
 10
846.3263885416989
 20
-135.9182391078598
 30
0.0
 10
846.3248818240653
 20
-135.858151422625
 30
0.0
 10
846.3121168936889
 20
-135.7326100641071
 30
0.0
 10
846.2613560652956
 20
-135.542543430556
 30
0.0
 10
846.1734634926835
 20
-135.3507842986959
 30
0.0
 10
846.0475390518893
 20
-135.1674657342177
 30
0.0
 10
845.8862882928177
 20
-135.0014866814281
 30
0.0
 10
845.6940199737737
 20
-134.8588793668018
 30
0.0
 10
845.5504995323172
 20
-134.7832721722496
 30
0.0
 10
845.4751923886986
 20
-134.7502326664598
 30
0.0
 11
846.3263885416989
 21
-135.9182391078598
 31
0.0
 11
846.3081351318987
 21
-135.7388456462598
 31
0.0
 11
846.2575389692986
 21
-135.5489360124598
 31
0.0
 11
846.1699567350986
 21
-135.3572511998598
 31
0.0
 11
846.0443584188988
 21
-135.1736975878597
 31
0.0
 11
845.8839033532989
 21
-135.0078184118598
 31
0.0
 11
845.6932074438988
 21
-134.8657073784598
 31
0.0
 11
845.4751923886986
 21
-134.7502326664598
 31
0.0
  0
SPLINE
  5
2ECE
330
1F
100
AcDbEntity
  8
0
  6
Continuous
100
AcDbSpline
210
0.0
220
0.0
230
1.0
 70
     8
 71
     3
 72
    12
 73
     8
 74
     6
 42
0.0000000001
 43
0.0000000001
 44
0.0000000001
 12
-0.9992951380968522
 22
-0.0375396720283112
 32
0.0
 13
-0.9920722013217764
 23
0.1256691981535836
 33
0.0
 40
0.0
 40
0.0
 40
0.0
 40
0.0
 40
0.4906400544712951
 40
0.9477408079428806
 40
1.343254181143055
 40
1.652987317098932
 40
1.858236985967079
 40
1.858236985967079
 40
1.858236985967079
 40
1.858236985967079
 10
848.1836524590987
 20
-135.9182391066597
 30
0.0
 10
848.0202210521024
 20
-135.9243785955693
 30
0.0
 10
847.7044482773742
 20
-135.9342933937031
 30
0.0
 10
847.2567707808939
 20
-135.9422817859635
 30
0.0
 10
846.8692514657732
 20
-135.9431287709293
 30
0.0
 10
846.5659050671939
 20
-135.9363130559642
 30
0.0
 10
846.3942627341036
 20
-135.9268369600291
 30
0.0
 10
846.3263885704987
 20
-135.9182391062598
 30
0.0
 11
848.1836524590987
 21
-135.9182391066597
 31
0.0
 11
847.6932497246988
 21
-135.9334975844597
 31
0.0
 11
847.2362167544989
 21
-135.9413692408597
 31
0.0
 11
846.8407033812987
 21
-135.9413692404598
 31
0.0
 11
846.531070287899
 21
-135.9334975836597
 31
0.0
 11
846.3263885704987
 21
-135.9182391062598
 31
0.0
  0
SPLINE
  5
2ECF
330
1F
100
AcDbEntity
  8
0
  6
Continuous
100
AcDbSpline
210
0.0
220
0.0
230
1.0
 70
     8
 71
     3
 72
    14
 73
    10
 74
     8
 42
0.0000000001
 43
0.0000000001
 44
0.0000000001
 12
-0.0389622817985391
 22
0.9992406820166256
 32
0.0
 13
-0.8959534012024641
 23
0.444148064133726
 33
0.0
 40
0.0
 40
0.0
 40
0.0
 40
0.0
 40
0.438434562919434
 40
0.9146254408189956
 40
1.420470041560071
 40
1.94641437046859
 40
2.481947827660599
 40
3.022144824783148
 40
3.569716638504002
 40
3.569716638504002
 40
3.569716638504002
 40
3.569716638504002
 10
848.1836524584988
 20
-135.9182391078598
 30
0.0
 10
848.1779583215019
 20
-135.7722052239694
 30
0.0
 10
848.1452378094748
 20
-135.4679799056659
 30
0.0
 10
848.0277976004524
 20
-135.0075568041627
 30
0.0
 10
847.8302907702514
 20
-134.5430722537682
 30
0.0
 10
847.5514417401553
 20
-134.0986367102158
 30
0.0
 10
847.1977601805766
 20
-133.6956346097009
 30
0.0
 10
846.7795928354246
 20
-133.3488996434109
 30
0.0
 10
846.4664626654674
 20
-133.1627196877392
 30
0.0
 10
846.3029297224988
 20
-133.0816520340598
 30
0.0
 11
848.1836524584988
 21
-135.9182391078598
 31
0.0
 11
848.1367311900989
 21
-135.4823225326598
 31
0.0
 11
848.0190971174988
 21
-135.0208900054597
 31
0.0
 11
847.8212824672986
 21
-134.5553278460598
 31
0.0
 11
847.5419667434987
 21
-134.1096820634598
 31
0.0
 11
847.1889834046987
 21
-133.7069428844598
 31
0.0
 11
846.7733743716989
 21
-133.3618603908598
 31
0.0
 11
846.3029297224988
 21
-133.0816520340598
 31
0.0
  0
SPLINE
  5
2ED0
330
1F
100
AcDbEntity
  8
0
  6
Continuous
100
AcDbSpline
210
0.0
220
0.0
230
1.0
 70
     8
 71
     3
 72
    11
 73
     7
 74
     5
 42
0.0000000001
 43
0.0000000001
 44
0.0000000001
 12
-0.9157359139227754
 22
0.4017807062963816
 32
0.0
 13
-0.9999999993723943
 23
-3.542896832660000E-5
 33
0.0
 40
0.0
 40
0.0
 40
0.0
 40
0.0
 40
0.1945269284443619
 40
0.3786585809672534
 40
0.5482992414276345
 40
0.7020469738415378
 40
0.7020469738415378
 40
0.7020469738415378
 40
0.7020469738415378
 10
845.4751923886986
 20
-134.7502326664598
 30
0.0
 10
845.4158139571647
 20
-134.7241802775585
 30
0.0
 10
845.2979870105198
 20
-134.6783725331034
 30
0.0
 10
845.1219478069136
 20
-134.6281977934318
 30
0.0
 10
844.9550990958958
 20
-134.598486636325
 30
0.0
 10
844.8472324686044
 20
-134.591507630752
 30
0.0
 10
844.7959832244986
 20
-134.5915094464598
 30
0.0
 11
845.4751923886986
 21
-134.7502326664598
 31
0.0
 11
845.2937635012986
 21
-134.6800594186598
 31
0.0
 11
845.1165583938987
 21
-134.6300312728597
 31
0.0
 11
844.9494472468987
 21
-134.6008453476598
 31
0.0
 11
844.7959832244986
 21
-134.5915094464598
 31
0.0
  0
SPLINE
  5
2ED1
330
1F
100
AcDbEntity
  8
0
  6
Continuous
100
AcDbSpline
210
0.0
220
0.0
230
1.0
 70
     8
 71
     3
 72
    11
 73
     7
 74
     5
 42
0.0000000001
 43
0.0000000001
 44
0.0000000001
 12
-0.7783988169563672
 22
0.6277700867044624
 32
0.0
 13
-0.9901910640342403
 23
-0.1397199223687844
 33
0.0
 40
0.0
 40
0.0
 40
0.0
 40
0.0
 40
0.2400376784157047
 40
0.4625456290797564
 40
0.6703007500080438
 40
0.8687648643442456
 40
0.8687648643442456
 40
0.8687648643442456
 40
0.8687648643442456
 10
846.3029296382988
 20
-133.0816522156597
 30
0.0
 10
846.2406479566643
 20
-133.0314227242626
 30
0.0
 10
846.1124311944908
 20
-132.9440617548155
 30
0.0
 10
845.9056554199647
 20
-132.8554081102718
 30
0.0
 10
845.6981956250986
 20
-132.815598039912
 30
0.0
 10
845.5616134626143
 20
-132.8202198830438
 30
0.0
 10
845.4961076650986
 20
-132.8294630132598
 30
0.0
 11
846.3029296382988
 21
-133.0816522156597
 31
0.0
 11
846.1036750218987
 21
-132.9478027296598
 31
0.0
 11
845.8986320918988
 21
-132.8613898546597
 31
0.0
 11
845.6944647658987
 21
-132.8229464772598
 31
0.0
 11
845.4961076650986
 21
-132.8294630132598
 31
0.0
  0
SPLINE
  5
2ED2
330
1F
100
AcDbEntity
  8
0
  6
Continuous
100
AcDbSpline
210
0.0
220
0.0
230
1.0
 70
     8
 71
     3
 72
    13
 73
     9
 74
     7
 42
0.0000000001
 43
0.0000000001
 44
0.0000000001
 12
-0.04221009105934781
 22
-0.9991087569492931
 32
0.0
 13
-0.9999999999902154
 23
4.423737047400000E-6
 33
0.0
 40
0.0
 40
0.0
 40
0.0
 40
0.0
 40
0.4705517643456067
 40
0.9054140521221732
 40
1.284153275272813
 40
1.592238252459771
 40
1.826043038904415
 40
2.004730368360185
 40
2.004730368360185
 40
2.004730368360185
 40
2.004730368360185
 10
845.4961112984987
 20
-132.8294642486598
 30
0.0
 10
845.4894906208916
 20
-132.9861750447784
 30
0.0
 10
845.4641849657143
 20
-133.2874011827863
 30
0.0
 10
845.3885782934922
 20
-133.7093602300706
 30
0.0
 10
845.2812487896055
 20
-134.0688277456951
 30
0.0
 10
845.1468791410719
 20
-134.3463096595338
 30
0.0
 10
844.9922004115418
 20
-134.5356672757347
 30
0.0
 10
844.85554566745
 20
-134.5915074711484
 30
0.0
 10
844.7959832242987
 20
-134.5915072076598
 30
0.0
 11
845.4961112984987
 21
-132.8294642486598
 31
0.0
 11
845.4556241744988
 21
-133.2982709846598
 31
0.0
 11
845.3767184100989
 21
-133.7259146326598
 31
0.0
 11
845.2639896226987
 21
-134.0874884420598
 31
0.0
 11
845.1240033442987
 21
-134.3619336916598
 31
0.0
 11
844.964912633099
 21
-134.5332661864598
 31
0.0
 11
844.7959832242987
 21
-134.5915072076598
 31
0.0
  0
SPLINE
  5
2ED3
330
1F
100
AcDbEntity
  8
0
  6
Continuous
100
AcDbSpline
210
0.0
220
0.0
230
1.0
 70
     8
 71
     3
 72
    13
 73
     9
 74
     7
 42
0.0000000001
 43
0.0000000001
 44
0.0000000001
 12
-0.990126467515883
 22
-0.1401769536140629
 32
0.0
 13
-0.9999155784213815
 23
0.012993691940101
 33
0.0
 40
0.0
 40
0.0
 40
0.0
 40
0.0
 40
0.3241433549320058
 40
0.6176023346806265
 40
0.8731769022787059
 40
1.086986044975894
 40
1.255487741563474
 40
1.374163808189167
 40
1.374163808189167
 40
1.374163808189167
 40
1.374163808189167
 10
845.4961112984987
 20
-132.8294642486598
 30
0.0
 10
845.3891303268362
 20
-132.8446100580027
 30
0.0
 10
845.1851915698776
 20
-132.8727413606408
 30
0.0
 10
844.8964906665835
 20
-132.9097710241158
 30
0.0
 10
844.6439136214417
 20
-132.9391744073704
 30
0.0
 10
844.4323400021717
 20
-132.960586093549
 30
0.0
 10
844.2658598198992
 20
-132.9735161323412
 30
0.0
 10
844.1701274065672
 20
-132.9775986556765
 30
0.0
 10
844.1305720572989
 20
-132.9770846422597
 30
0.0
 11
845.4961112984987
 21
-132.8294642486598
 31
0.0
 11
845.1749874234987
 21
-132.8736046094598
 31
0.0
 11
844.8838915870986
 21
-132.9107716220598
 31
0.0
 11
844.6300044024988
 21
-132.9400915316598
 31
0.0
 11
844.4172377348989
 21
-132.9611793162598
 31
0.0
 11
844.2491985824988
 21
-132.9736558948597
 31
0.0
 11
844.1305720572989
 21
-132.9770846422597
 31
0.0
  0
SPLINE
  5
2ED4
330
1F
100
AcDbEntity
  8
0
  6
Continuous
100
AcDbSpline
210
0.0
220
0.0
230
1.0
 70
     8
 71
     3
 72
     9
 73
     5
 74
     3
 42
0.0000000001
 43
0.0000000001
 44
0.0000000001
 12
-0.9999039926784574
 22
0.0138566022415051
 32
0.0
 13
0.1810676454216988
 23
0.9834706440872763
 33
0.0
 40
0.0
 40
0.0
 40
0.0
 40
0.0
 40
0.0575461403929364
 40
0.0837781153891183
 40
0.0837781153891183
 40
0.0837781153891183
 40
0.0837781153891183
 10
844.1305555458987
 20
-132.9770812710598
 30
0.0
 10
844.1113753407179
 20
-132.9768154730672
 30
0.0
 10
844.0941673151036
 20
-132.9662724086958
 30
0.0
 10
844.0460966517163
 20
-132.9962075553748
 30
0.0
 10
844.0476799056987
 20
-132.9876080962597
 30
0.0
 11
844.1305555458987
 21
-132.9770812710598
 31
0.0
 11
844.0731739470987
 21
-132.9814298792598
 31
0.0
 11
844.0476799056987
 21
-132.9876080962597
 31
0.0
  0
SPLINE
  5
2ED5
330
1F
100
AcDbEntity
  8
0
  6
Continuous
100
AcDbSpline
210
0.0
220
0.0
230
1.0
 70
     8
 71
     3
 72
    13
 73
     9
 74
     7
 42
0.0000000001
 43
0.0000000001
 44
0.0000000001
 12
-0.2001604382818773
 22
-0.9797631341027314
 32
0.0
 13
-0.9999999997356828
 23
-2.299205002369999E-5
 33
0.0
 40
0.0
 40
0.0
 40
0.0
 40
0.0
 40
0.4264304258954562
 40
0.8798912503968968
 40
1.329582516243978
 40
1.775408099369014
 40
2.218079257232553
 40
2.658980760569468
 40
2.658980760569468
 40
2.658980760569468
 40
2.658980760569468
 10
844.1247451548989
 20
-133.0066230456597
 30
0.0
 10
844.0962936545842
 20
-133.1458899825104
 30
0.0
 10
844.007660203587
 20
-133.428047124668
 30
0.0
 10
843.7853635620031
 20
-133.815675953268
 30
0.0
 10
843.4770251131888
 20
-134.1483880865804
 30
0.0
 10
843.1035233094854
 20
-134.3996659096645
 30
0.0
 10
842.6846892978808
 20
-134.55610320222
 30
0.0
 10
842.3889735212389
 20
-134.5915375115833
 30
0.0
 10
842.2420063534987
 20
-134.5915408906598
 30
0.0
 11
844.1247451548989
 21
-133.0066230456597
 31
0.0
 11
843.9966479570988
 21
-133.4133588518597
 31
0.0
 11
843.7707587188986
 21
-133.8065518978598
 31
0.0
 11
843.4647291882988
 21
-134.1360487278597
 31
0.0
 11
843.0946017796987
 21
-134.3845766980598
 31
0.0
 11
842.6797790016989
 21
-134.5391076556598
 31
0.0
 11
842.2420063534987
 21
-134.5915408906598
 31
0.0
  0
SPLINE
  5
2ED6
330
1F
100
AcDbEntity
  8
0
  6
Continuous
100
AcDbSpline
210
0.0
220
0.0
230
1.0
 70
     8
 71
     3
 72
     8
 73
     4
 74
     2
 42
0.0000000001
 43
0.0000000001
 44
0.0000000001
 12
-0.1857977579540499
 22
-0.9825880078340302
 32
0.0
 13
-0.2001604370742198
 23
-0.9797631343494495
 33
0.0
 40
0.0
 40
0.0
 40
0.0
 40
0.0
 40
0.0301077579716897
 40
0.0301077579716897
 40
0.0301077579716897
 40
0.0301077579716897
 10
844.1305555458987
 20
-132.9770812710598
 30
0.0
 10
844.1286908945893
 20
-132.9869424450351
 30
0.0
 10
844.1267539488972
 20
-132.9967902218868
 30
0.0
 10
844.1247451548989
 20
-133.0066230456597
 30
0.0
 11
844.1305555458987
 21
-132.9770812710598
 31
0.0
 11
844.1247451548989
 21
-133.0066230456597
 31
0.0
  0
SPLINE
  5
2ED7
330
1F
100
AcDbEntity
  8
0
  6
Continuous
100
AcDbSpline
210
0.0
220
0.0
230
1.0
 70
     8
 71
     3
 72
     9
 73
     5
 74
     3
 42
0.0000000001
 43
0.0000000001
 44
0.0000000001
 12
0.2039740292227881
 22
-0.9789762997144627
 32
0.0
 13
-0.9999074689719247
 23
-0.0136034368510085
 33
0.0
 40
0.0
 40
0.0
 40
0.0
 40
0.0
 40
0.0262532762733265
 40
0.0837931366032508
 40
0.0837931366032508
 40
0.0837931366032508
 40
0.0837931366032508
 10
798.0240842820989
 20
-132.9876124496598
 30
0.0
 10
798.0258692776129
 20
-132.9961795614136
 30
0.0
 10
797.9773689888713
 20
-132.9663065937397
 30
0.0
 10
797.9603730424014
 20
-132.9768205899742
 30
0.0
 10
797.9411948636989
 20
-132.9770815032597
 30
0.0
 11
798.0240842820989
 21
-132.9876124496598
 31
0.0
 11
797.9985705474987
 21
-132.9814250542598
 31
0.0
 11
797.9411948636989
 21
-132.9770815032597
 31
0.0
  0
SPLINE
  5
2ED8
330
1F
100
AcDbEntity
  8
0
  6
Continuous
100
AcDbSpline
210
0.0
220
0.0
230
1.0
 70
     8
 71
     3
 72
    10
 73
     6
 74
     4
 42
0.0000000001
 43
0.0000000001
 44
0.0000000001
 12
-0.1846915707938761
 22
0.9827965321864393
 32
0.0
 13
-0.183325511345725
 23
0.983052265594169
 33
0.0
 40
0.0
 40
0.0
 40
0.0
 40
0.0
 40
1.737630267237258
 40
3.464277871052381
 40
5.179933875152136
 40
5.179933875152136
 40
5.179933875152136
 40
5.179933875152136
 10
795.7688217810988
 20
-133.0816520398597
 30
0.0
 10
795.6618465599272
 20
-132.5124063729054
 30
0.0
 10
795.448851894452
 20
-131.3774603757805
 30
0.0
 10
795.131176082037
 20
-129.6802909880661
 30
0.0
 10
794.9205766283136
 20
-128.5523486191966
 30
0.0
 10
794.8157354568987
 20
-127.9901554452597
 30
0.0
 11
795.7688217810988
 21
-133.0816520398597
 31
0.0
 11
795.4483117178987
 21
-131.3738369898597
 31
0.0
 11
795.1306304770988
 21
-129.6766656440598
 31
0.0
 11
794.8157354568987
 21
-127.9901554452597
 31
0.0
  0
SPLINE
  5
2ED9
330
1F
100
AcDbEntity
  8
0
  6
Continuous
100
AcDbSpline
210
0.0
220
0.0
230
1.0
 70
     8
 71
     3
 72
    13
 73
     9
 74
     7
 42
0.0000000001
 43
0.0000000001
 44
0.0000000001
 12
0.9828906244142297
 22
0.1841901746527368
 32
0.0
 13
0.3269334703745124
 23
-0.9450473564583299
 33
0.0
 40
0.0
 40
0.0
 40
0.0
 40
0.0
 40
0.6264767987680878
 40
1.204312077164659
 40
1.686093895721721
 40
2.032509080753393
 40
2.2162726704395
 40
2.237883226940387
 40
2.237883226940387
 40
2.237883226940387
 40
2.237883226940387
 10
794.8157354616989
 20
-127.9901554550598
 30
0.0
 10
795.0209881856729
 20
-127.9516918313995
 30
0.0
 10
795.4173754203039
 20
-127.8787762148421
 30
0.0
 10
795.9672980812815
 20
-127.7970953391767
 30
0.0
 10
796.4449923373545
 20
-127.7090964887058
 30
0.0
 10
796.7498700140477
 20
-127.7242222682541
 30
0.0
 10
796.9796492570022
 20
-127.6389496769115
 30
0.0
 10
797.0171173160876
 20
-127.7005312488288
 30
0.0
 10
797.0194723874988
 20
-127.7073389152597
 30
0.0
 11
794.8157354616989
 21
-127.9901554550598
 31
0.0
 11
795.4324114954989
 21
-127.8797749824597
 31
0.0
 11
796.0029098076988
 21
-127.7879856326597
 31
0.0
 11
796.4802003266989
 21
-127.7223542288598
 31
0.0
 11
796.8249367354988
 21
-127.6882912156598
 31
0.0
 11
797.0087000578988
 21
-127.6886046400598
 31
0.0
 11
797.0194723874988
 21
-127.7073389152597
 31
0.0
  0
SPLINE
  5
2EDA
330
1F
100
AcDbEntity
  8
0
  6
Continuous
100
AcDbSpline
210
0.0
220
0.0
230
1.0
 70
     8
 71
     3
 72
    13
 73
     9
 74
     7
 42
0.0000000001
 43
0.0000000001
 44
0.0000000001
 12
-0.1833901968718425
 22
0.9830402004451837
 32
0.0
 13
-0.9999999973755368
 23
7.244947530940000E-5
 33
0.0
 40
0.0
 40
0.0
 40
0.0
 40
0.0
 40
0.6507201280643468
 40
1.304634921790763
 40
1.96128204960465
 40
2.619754799227239
 40
3.278903772556833
 40
3.937232102572549
 40
3.937232102572549
 40
3.937232102572549
 40
3.937232102572549
 10
794.8157354568987
 20
-127.9901554452597
 30
0.0
 10
794.7759568927672
 20
-127.7769274302177
 30
0.0
 10
794.6453983639971
 20
-127.3571950264966
 30
0.0
 10
794.3092473584643
 20
-126.7899192220326
 30
0.0
 10
793.8501031805121
 20
-126.3126807883685
 30
0.0
 10
793.2926826712262
 20
-125.9519582472979
 30
0.0
 10
792.6676280123263
 20
-125.7273083128696
 30
0.0
 10
792.2268165539949
 20
-125.6763862413738
 30
0.0
 10
792.0073737778989
 20
-125.6763703428598
 30
0.0
 11
794.8157354568987
 21
-127.9901554452597
 31
0.0
 11
794.6225699906987
 21
-127.3687668488598
 31
0.0
 11
794.2895554542986
 21
-126.8060005776597
 31
0.0
 11
793.8344107770987
 21
-126.3326837986598
 31
0.0
 11
793.2816891078987
 21
-125.9747939854598
 31
0.0
 11
792.6613478546987
 21
-125.7519619890598
 31
0.0
 11
792.0073737778989
 21
-125.6763703428598
 31
0.0
  0
SPLINE
  5
2EDB
330
1F
100
AcDbEntity
  8
0
  6
Continuous
100
AcDbSpline
210
0.0
220
0.0
230
1.0
 70
     8
 71
     3
 72
    12
 73
     8
 74
     6
 42
0.0000000001
 43
0.0000000001
 44
0.0000000001
 12
0.0013481903856519
 22
0.9999990911909291
 32
0.0
 13
1.0
 23
0.0
 33
0.0
 40
0.0
 40
0.0
 40
0.0
 40
0.0
 40
0.6517286486114547
 40
1.233325271646236
 40
1.691626317204245
 40
1.98483019150518
 40
2.086914155617662
 40
2.086914155617662
 40
2.086914155617662
 40
2.086914155617662
 10
792.0073737778989
 20
-125.6763703428598
 30
0.0
 10
792.007666662665
 20
-125.4591276574216
 30
0.0
 10
792.0070603878145
 20
-125.0441229562001
 30
0.0
 10
792.0249914166657
 20
-124.4951741960304
 30
0.0
 10
792.0099175106773
 20
-124.0131861757042
 30
0.0
 10
792.0721615403236
 20
-123.8007298613073
 30
0.0
 10
792.0298632904614
 20
-123.5915094464598
 30
0.0
 10
792.0638912784989
 20
-123.5915094464598
 30
0.0
 11
792.0073737778989
 21
-125.6763703428598
 31
0.0
 11
792.0108457460988
 21
-125.0246509424598
 31
0.0
 11
792.0191724064989
 21
-124.4431139284598
 31
0.0
 11
792.0315917086989
 21
-123.9849811864598
 31
0.0
 11
792.0469670462986
 21
-123.6921807238598
 31
0.0
 11
792.0638912784989
 21
-123.5915094464598
 31
0.0
  0
SPLINE
  5
2EDC
330
1F
100
AcDbEntity
  8
0
  6
Continuous
100
AcDbSpline
210
0.0
220
0.0
230
1.0
 70
     8
 71
     3
 72
    12
 73
     8
 74
     6
 42
0.0000000001
 43
0.0000000001
 44
0.0000000001
 12
0.0013481843475235
 22
0.9999990911990696
 32
0.0
 13
1.0
 23
0.0
 33
0.0
 40
0.0
 40
0.0
 40
0.0
 40
0.0
 40
0.6517286333924902
 40
1.233325252796236
 40
1.691626304146618
 40
1.984830187340335
 40
2.086914156257809
 40
2.086914156257809
 40
2.086914156257809
 40
2.086914156257809
 10
760.9381743438988
 20
-125.6763703428598
 30
0.0
 10
760.9384672273463
 20
-125.4591276624928
 30
0.0
 10
760.9378609506067
 20
-125.044122967764
 30
0.0
 10
760.9557919758801
 20
-124.4951742113395
 30
0.0
 10
760.9407180721058
 20
-124.0131861878304
 30
0.0
 10
761.0029620989044
 20
-123.8007298674892
 30
0.0
 10
760.9606638548597
 20
-123.5915094464598
 30
0.0
 10
760.9946918444989
 20
-123.5915094464598
 30
0.0
 11
760.9381743438988
 21
-125.6763703428598
 31
0.0
 11
760.9416463084986
 21
-125.0246509576598
 31
0.0
 11
760.9499729666987
 21
-124.4431139472597
 31
0.0
 11
760.9623922686989
 21
-123.9849811994598
 31
0.0
 11
760.9777676082988
 21
-123.6921807280598
 31
0.0
 11
760.9946918444989
 21
-123.5915094464598
 31
0.0
  0
SPLINE
  5
2EDD
330
1F
100
AcDbEntity
  8
0
  6
Continuous
100
AcDbSpline
210
0.0
220
0.0
230
1.0
 70
     8
 71
     3
 72
    13
 73
     9
 74
     7
 42
0.0000000001
 43
0.0000000001
 44
0.0000000001
 12
-0.999991469379464
 22
-0.004130516711068701
 32
0.0
 13
-0.0559754701925431
 23
-0.9984321442825866
 33
0.0
 40
0.0
 40
0.0
 40
0.0
 40
0.0
 40
0.050512985172438
 40
0.1009564782975315
 40
0.1514393116662591
 40
0.2019213899313983
 40
0.2523657641461751
 40
0.3028807501464209
 40
0.3028807501464209
 40
0.3028807501464209
 40
0.3028807501464209
 10
760.9381743438988
 20
-125.6763703428598
 30
0.0
 10
760.9213368258104
 20
-125.6764398911029
 30
0.0
 10
760.8875280530292
 20
-125.6806269375989
 30
0.0
 10
760.8401719597902
 20
-125.6995861223609
 30
0.0
 10
760.7990186696602
 20
-125.7297313626001
 30
0.0
 10
760.7667743444293
 20
-125.7692566198781
 30
0.0
 10
760.7453306191269
 20
-125.8155415951534
 30
0.0
 10
760.7393909702632
 20
-125.8490912228629
 30
0.0
 10
760.7384484368988
 20
-125.8659031514598
 30
0.0
 11
760.9381743438988
 21
-125.6763703428598
 31
0.0
 11
760.8880653024988
 21
-125.6827457362598
 31
0.0
 11
760.8412155180988
 21
-125.7014444982598
 31
0.0
 11
760.8005037274988
 21
-125.7312952364597
 31
0.0
 11
760.7685682860988
 21
-125.7703921392597
 31
0.0
 11
760.7474266818988
 21
-125.8161924390597
 31
0.0
 11
760.7384484368988
 21
-125.8659031514598
 31
0.0
  0
SPLINE
  5
2EDE
330
1F
100
AcDbEntity
  8
0
  6
Continuous
100
AcDbSpline
210
0.0
220
0.0
230
1.0
 70
     8
 71
     3
 72
    12
 73
     8
 74
     6
 42
0.0000000001
 43
0.0000000001
 44
0.0000000001
 12
-0.9987042174083363
 22
0.0508909238548746
 32
0.0
 13
-0.05233595628911731
 23
-0.9986295347521541
 33
0.0
 40
0.0
 40
0.0
 40
0.0
 40
0.0
 40
0.6647546472239401
 40
1.26104871143778
 40
1.732842061437764
 40
2.036152094983806
 40
2.145432397886903
 40
2.145432397886903
 40
2.145432397886903
 40
2.145432397886903
 10
760.7384484368988
 20
-125.8659031514598
 30
0.0
 10
760.517150680324
 20
-125.8546264920818
 30
0.0
 10
760.0937063786478
 20
-125.8346386596609
 30
0.0
 10
759.5295860263507
 20
-125.825993712961
 30
0.0
 10
759.0384178830502
 20
-125.8068268628956
 30
0.0
 10
758.8089271517425
 20
-125.8496182674088
 30
0.0
 10
758.5998873908175
 20
-125.8295263054446
 30
0.0
 10
758.5979809610988
 20
-125.8659031514598
 30
0.0
 11
760.7384484368988
 21
-125.8659031514598
 31
0.0
 11
760.0743068816988
 21
-125.8373595766598
 31
0.0
 11
759.4782009806987
 21
-125.8223807312598
 31
0.0
 11
759.0064076306987
 21
-125.8223807312598
 31
0.0
 11
758.7034676850986
 21
-125.8373595766598
 31
0.0
 11
758.5979809610988
 21
-125.8659031514598
 31
0.0
  0
SPLINE
  5
2EDF
330
1F
100
AcDbEntity
  8
0
  6
Continuous
100
AcDbSpline
210
0.0
220
0.0
230
1.0
 70
     8
 71
     3
 72
    13
 73
     9
 74
     7
 42
0.0000000001
 43
0.0000000001
 44
0.0000000001
 12
-1.0
 22
0.0
 32
0.0
 13
-0.9971905051893836
 23
-0.0749072517193249
 33
0.0
 40
0.0
 40
0.0
 40
0.0
 40
0.0
 40
0.5601082853352422
 40
1.079661033166828
 40
1.516803412693465
 40
1.852384577947548
 40
2.067238235433142
 40
2.140623722935597
 40
2.140623722935597
 40
2.140623722935597
 40
2.140623722935597
 10
760.1763432294988
 20
-136.5915094464598
 30
0.0
 10
759.9896404677204
 20
-136.5915094464598
 30
0.0
 10
759.629771149155
 20
-136.5865083395476
 30
0.0
 10
759.1241789645379
 20
-136.5849508541095
 30
0.0
 10
758.6934032024894
 20
-136.5832303538921
 30
0.0
 10
758.3642548957496
 20
-136.5852006973034
 30
0.0
 10
758.1562346542901
 20
-136.5844290548175
 30
0.0
 10
758.0602688574843
 20
-136.5896770780649
 30
0.0
 10
758.0358757536989
 20
-136.5915094464598
 30
0.0
 11
760.1763432294988
 21
-136.5915094464598
 31
0.0
 11
759.6162502546988
 21
-136.5873680842598
 31
0.0
 11
759.0967039514987
 21
-136.5847803032598
 31
0.0
 11
758.6595624228987
 21
-136.5839177770597
 31
0.0
 11
758.3239823660988
 21
-136.5847803032598
 31
0.0
 11
758.1091442932988
 21
-136.5873680842598
 31
0.0
 11
758.0358757536989
 21
-136.5915094464598
 31
0.0
  0
SPLINE
  5
2EE0
330
1F
100
AcDbEntity
  8
0
  6
Continuous
100
AcDbSpline
210
0.0
220
0.0
230
1.0
 70
     8
 71
     3
 72
    12
 73
     8
 74
     6
 42
0.0000000001
 43
0.0000000001
 44
0.0000000001
 12
-0.9994223465550728
 22
-0.0339848967388794
 32
0.0
 13
-0.0348994967219737
 23
0.9993908270184158
 33
0.0
 40
0.0
 40
0.0
 40
0.0
 40
0.0
 40
0.6655353384254084
 40
1.262605581456762
 40
1.734848807456808
 40
2.037846153023796
 40
2.144345765018512
 40
2.144345765018512
 40
2.144345765018512
 40
2.144345765018512
 10
760.6104720102987
 20
-148.9766037462597
 30
0.0
 10
760.3887550470839
 20
-148.9841431295105
 30
0.0
 10
759.9642758795548
 20
-148.9988201830335
 30
0.0
 10
759.4005748383916
 20
-148.9995490784169
 30
0.0
 10
758.9061372439035
 20
-149.0252285287311
 30
0.0
 10
758.6829231605061
 20
-148.9721636543977
 30
0.0
 10
758.4696117045187
 20
-149.0120819911624
 30
0.0
 10
758.4683727768988
 20
-148.9766037460596
 30
0.0
 11
760.6104720102987
 21
-148.9766037462597
 31
0.0
 11
759.9452102760988
 21
-148.9956854574598
 31
0.0
 11
759.3482240238988
 21
-149.0056999368598
 31
0.0
 11
758.8759807978987
 21
-149.0056999372597
 31
0.0
 11
758.5731489936987
 21
-148.9956854584598
 31
0.0
 11
758.4683727768988
 21
-148.9766037460596
 31
0.0
  0
SPLINE
  5
2EE1
330
1F
100
AcDbEntity
  8
0
  6
Continuous
100
AcDbSpline
210
0.0
220
0.0
230
1.0
 70
     8
 71
     3
 72
    12
 73
     8
 74
     6
 42
0.0000000001
 43
0.0000000001
 44
0.0000000001
 12
0.03936148125953841
 22
-0.9992250366124015
 32
0.0
 13
0.9839497300436718
 23
-0.1784458706358474
 33
0.0
 40
0.0
 40
0.0
 40
0.0
 40
0.0
 40
0.0543004320719437
 40
0.1085709900829451
 40
0.1628655825706335
 40
0.2171357041781697
 40
0.27143454091887
 40
0.27143454091887
 40
0.27143454091887
 40
0.27143454091887
 10
760.6104720102987
 20
-148.9766037462597
 30
0.0
 10
760.6111844587786
 20
-148.9946898633348
 30
0.0
 10
760.6172794237581
 20
-149.0308876918285
 30
0.0
 10
760.6409423122441
 20
-149.0804874139428
 30
0.0
 10
760.6769742223924
 20
-149.1219694733313
 30
0.0
 10
760.7228227906367
 20
-149.1522720046864
 30
0.0
 10
760.7578114315144
 20
-149.1633555963941
 30
0.0
 10
760.7756205400987
 20
-149.1665853974597
 30
0.0
 11
760.6104720102987
 21
-148.9766037462597
 31
0.0
 11
760.6197022858987
 21
-149.0301139222597
 31
0.0
 11
760.6430003024987
 21
-149.0791291840598
 31
0.0
 11
760.6786152756987
 21
-149.1201106000598
 31
0.0
 11
760.7239203284986
 21
-149.1499886570598
 31
0.0
 11
760.7756205400987
 21
-149.1665853974597
 31
0.0
  0
SPLINE
  5
2EE2
330
1F
100
AcDbEntity
  8
0
  6
Continuous
100
AcDbSpline
210
0.0
220
0.0
230
1.0
 70
     8
 71
     3
 72
    12
 73
     8
 74
     6
 42
0.0000000001
 43
0.0000000001
 44
0.0000000001
 12
-0.1729104987523653
 22
-0.9849375408731298
 32
0.0
 13
0.9848077530103441
 23
-0.1736481776775017
 33
0.0
 40
0.0
 40
0.0
 40
0.0
 40
0.0
 40
0.659087715768517
 40
1.248856609884808
 40
1.714409964296355
 40
2.012464720187069
 40
2.115717209826375
 40
2.115717209826375
 40
2.115717209826375
 40
2.115717209826375
 10
760.7756205400987
 20
-149.1665853974597
 30
0.0
 10
760.737632811547
 20
-149.3829721421226
 30
0.0
 10
760.6630941825104
 20
-149.796603544724
 30
0.0
 10
760.5836748876029
 20
-150.3472872031811
 30
0.0
 10
760.4773276641625
 20
-150.8261427297413
 30
0.0
 10
760.5053600059102
 20
-151.0489808071672
 30
0.0
 10
760.4162605178607
 20
-151.2504070257043
 30
0.0
 10
760.4501551352988
 20
-151.2563835612598
 30
0.0
 11
760.7756205400987
 21
-149.1665853974597
 31
0.0
 11
760.6636042606986
 21
-149.8160844122598
 31
0.0
 11
760.5672897530988
 21
-150.3979356510597
 31
0.0
 11
760.4956480492987
 21
-150.8579436858596
 31
0.0
 11
760.4553520794987
 21
-151.1532619418597
 31
0.0
 11
760.4501551352988
 21
-151.2563835612598
 31
0.0
  0
SPLINE
  5
2EE3
330
1F
100
AcDbEntity
  8
0
  6
Continuous
100
AcDbSpline
210
0.0
220
0.0
230
1.0
 70
     8
 71
     3
 72
    12
 73
     8
 74
     6
 42
0.0000000001
 43
0.0000000001
 44
0.0000000001
 12
-0.1729104987523653
 22
-0.9849375408731298
 32
0.0
 13
0.9848077530103441
 23
-0.1736481776775017
 33
0.0
 40
0.0
 40
0.0
 40
0.0
 40
0.0
 40
0.6590877155712078
 40
1.248856609687844
 40
1.714409964130214
 40
2.012464720218998
 40
2.11571720984816
 40
2.11571720984816
 40
2.11571720984816
 40
2.11571720984816
 10
783.6381508756987
 20
-153.1978663428597
 30
0.0
 10
783.6001631471584
 20
-153.4142530874578
 30
0.0
 10
783.5256245180735
 20
-153.8278844899806
 30
0.0
 10
783.4462052232418
 20
-154.378568148405
 30
0.0
 10
783.3398579996488
 20
-154.8574236750001
 30
0.0
 10
783.3678903410805
 20
-155.0802617524577
 30
0.0
 10
783.2787908534639
 20
-155.2816879711049
 30
0.0
 10
783.3126854708987
 20
-155.2876645066598
 30
0.0
 11
783.6381508756987
 21
-153.1978663428597
 31
0.0
 11
783.5261345962987
 21
-153.8473653574596
 31
0.0
 11
783.4298200886987
 21
-154.4292165962598
 31
0.0
 11
783.3581783846988
 21
-154.8892246310598
 31
0.0
 11
783.3178824148987
 21
-155.1845428872598
 31
0.0
 11
783.3126854708987
 21
-155.2876645066598
 31
0.0
  0
SPLINE
  5
2EE4
330
1F
100
AcDbEntity
  8
0
  6
Continuous
100
AcDbSpline
210
0.0
220
0.0
230
1.0
 70
     8
 71
     3
 72
    10
 73
     6
 74
     4
 42
0.0000000001
 43
0.0000000001
 44
0.0000000001
 12
0.984807836441617
 22
-0.1736477045145759
 32
0.0
 13
0.9999999999998877
 23
-4.742055426000000E-7
 33
0.0
 40
0.0
 40
0.0
 40
0.0
 40
0.0
 40
1.035958324036273
 40
2.070525995478516
 40
3.106247961553279
 40
3.106247961553279
 40
3.106247961553279
 40
3.106247961553279
 10
783.6381508756987
 20
-153.1978663428597
 30
0.0
 10
783.9782241676113
 20
-153.2578302711736
 30
0.0
 10
784.6615765954412
 20
-153.3579173867844
 30
0.0
 10
785.693575967944
 20
-153.4481987203414
 30
0.0
 10
786.3838477827405
 20
-153.4682881755448
 30
0.0
 10
786.7290884380988
 20
-153.4682883392598
 30
0.0
 11
783.6381508756987
 21
-153.1978663428597
 31
0.0
 11
784.6631734650989
 21
-153.3479940896598
 31
0.0
 11
785.6938048930987
 21
-153.4381557578597
 31
0.0
 11
786.7290884380988
 21
-153.4682883392598
 31
0.0
  0
SPLINE
  5
2EE5
330
1F
100
AcDbEntity
  8
0
  6
Continuous
100
AcDbSpline
210
0.0
220
0.0
230
1.0
 70
     8
 71
     3
 72
    12
 73
     8
 74
     6
 42
0.0000000001
 43
0.0000000001
 44
0.0000000001
 12
0.0008983374259139
 22
-0.9999995964948532
 32
0.0
 13
1.0
 23
0.0
 33
0.0
 40
0.0
 40
0.0
 40
0.0
 40
0.0
 40
0.6612225221403451
 40
1.253404398942908
 40
1.721171006931156
 40
2.02087333058333
 40
2.125266013567451
 40
2.125266013567451
 40
2.125266013567451
 40
2.125266013567451
 10
786.7290884380988
 20
-153.4682883392598
 30
0.0
 10
786.7292864384116
 20
-153.6886957577044
 30
0.0
 10
786.7284961166029
 20
-154.1104472910015
 30
0.0
 10
786.746558846608
 20
-154.668992180696
 30
0.0
 10
786.7308473053846
 20
-155.1606056469931
 30
0.0
 10
786.794535278839
 20
-155.3775453651899
 30
0.0
 10
786.750851463104
 20
-155.5915094464598
 30
0.0
 10
786.7856490240987
 20
-155.5915094464598
 30
0.0
 11
786.7290884380988
 21
-153.4682883392598
 31
0.0
 11
786.7323332240989
 21
-154.1295028998598
 31
0.0
 11
786.7405693638987
 21
-154.7216274992598
 31
0.0
 11
786.7530258014986
 21
-155.1892282228597
 31
0.0
 11
786.7685363814987
 21
-155.4885289156597
 31
0.0
 11
786.7856490240987
 21
-155.5915094464598
 31
0.0
  0
SPLINE
  5
2EE6
330
1F
100
AcDbEntity
  8
0
  6
Continuous
100
AcDbSpline
210
0.0
220
0.0
230
1.0
 70
     8
 71
     3
 72
    10
 73
     6
 74
     4
 42
0.0000000001
 43
0.0000000001
 44
0.0000000001
 12
0.1846915707826177
 22
0.982796532188555
 32
0.0
 13
0.1833255113331189
 23
0.9830522655965198
 33
0.0
 40
0.0
 40
0.0
 40
0.0
 40
0.0
 40
1.737617700627688
 40
3.464271625145505
 40
5.179933870152531
 40
5.179933870152531
 40
5.179933870152531
 40
5.179933870152531
 10
846.3029297224988
 20
-133.0816520340598
 30
0.0
 10
846.409904170015
 20
-132.512410483911
 30
0.0
 10
846.6228984602263
 20
-131.3774665346766
 30
0.0
 10
846.940574273729
 20
-129.6802971488592
 30
0.0
 10
847.1511744977186
 20
-128.5523506642439
 30
0.0
 10
847.2560160504988
 20
-127.9901554452597
 30
0.0
 11
846.3029297224988
 21
-133.0816520340598
 31
0.0
 11
846.6234374752987
 21
-131.3738493364598
 31
0.0
 11
846.9411198832988
 21
-129.6766717786598
 31
0.0
 11
847.2560160504988
 21
-127.9901554452597
 31
0.0
  0
SPLINE
  5
2EE7
330
1F
100
AcDbEntity
  8
0
  6
Continuous
100
AcDbSpline
210
0.0
220
0.0
230
1.0
 70
     8
 71
     3
 72
    13
 73
     9
 74
     7
 42
0.0000000001
 43
0.0000000001
 44
0.0000000001
 12
0.1834168619948981
 22
0.9830352255824532
 32
0.0
 13
0.9999999958790422
 23
9.078499642940000E-5
 33
0.0
 40
0.0
 40
0.0
 40
0.0
 40
0.0
 40
0.6507200936784687
 40
1.304634860405237
 40
1.961281997062279
 40
2.619754731428297
 40
3.278903715698139
 40
3.937232076267462
 40
3.937232076267462
 40
3.937232076267462
 40
3.937232076267462
 10
847.2560160504988
 20
-127.9901554452597
 30
0.0
 10
847.295800396372
 20
-127.7769285205663
 30
0.0
 10
847.4263510513299
 20
-127.3571947782019
 30
0.0
 10
847.7625045895034
 20
-126.7899192032941
 30
0.0
 10
848.2216481883029
 20
-126.3126806303645
 30
0.0
 10
848.779068975748
 20
-125.9519589913868
 30
0.0
 10
849.4041233784192
 20
-125.7273060042433
 30
0.0
 10
849.8449349433469
 20
-125.6763902649724
 30
0.0
 10
850.0643777292989
 20
-125.6763703428598
 30
0.0
 11
847.2560160504988
 21
-127.9901554452597
 31
0.0
 11
847.4491818196989
 21
-127.3687669790598
 31
0.0
 11
847.7821959650986
 21
-126.8060005078597
 31
0.0
 11
848.2373407394987
 21
-126.3326838100598
 31
0.0
 11
848.7900624408989
 21
-125.9747940746597
 31
0.0
 11
849.4104035970988
 21
-125.7519617758598
 31
0.0
 11
850.0643777292989
 21
-125.6763703428598
 31
0.0
  0
SPLINE
  5
2EE8
330
1F
100
AcDbEntity
  8
0
  6
Continuous
100
AcDbSpline
210
0.0
220
0.0
230
1.0
 70
     8
 71
     3
 72
    13
 73
     9
 74
     7
 42
0.0000000001
 43
0.0000000001
 44
0.0000000001
 12
0.9999999928284604
 22
-0.0001197625955978
 32
0.0
 13
0.052455254852217
 23
-0.998623275433929
 33
0.0
 40
0.0
 40
0.0
 40
0.0
 40
0.0
 40
0.0505125467414643
 40
0.1009555785569748
 40
0.1514383950605941
 40
0.2019212333958029
 40
0.2523644687775113
 40
0.3028775370497938
 40
0.3028775370497938
 40
0.3028775370497938
 40
0.3028775370497938
 10
881.1335771634986
 20
-125.6763703428598
 30
0.0
 10
881.1504146789583
 20
-125.6763723593644
 30
0.0
 10
881.1842213715097
 20
-125.6806645751021
 30
0.0
 10
881.2315817053004
 20
-125.6995757961493
 30
0.0
 10
881.2727269068762
 20
-125.7297365663718
 30
0.0
 10
881.3049999072787
 20
-125.7692468210166
 30
0.0
 10
881.326364109618
 20
-125.815552676689
 30
0.0
 10
881.332419845209
 20
-125.8490886428964
 30
0.0
 10
881.3333030704988
 20
-125.8659031514598
 30
0.0
 11
881.1335771634986
 21
-125.6763703428598
 31
0.0
 11
881.1836853340988
 21
-125.6827491058598
 31
0.0
 11
881.2305359074986
 21
-125.7014446462597
 31
0.0
 11
881.2712478054988
 21
-125.7312952094598
 31
0.0
 11
881.3031883144986
 21
-125.7703889538598
 31
0.0
 11
881.3243104320989
 21
-125.8161969896598
 31
0.0
 11
881.3333030704988
 21
-125.8659031514598
 31
0.0
  0
SPLINE
  5
2EE9
330
1F
100
AcDbEntity
  8
0
  6
Continuous
100
AcDbSpline
210
0.0
220
0.0
230
1.0
 70
     8
 71
     3
 72
    12
 73
     8
 74
     6
 42
0.0000000001
 43
0.0000000001
 44
0.0000000001
 12
-0.05233595628911731
 22
0.9986295347521541
 32
0.0
 13
-0.9987042174035984
 23
-0.0508909239478545
 33
0.0
 40
0.0
 40
0.0
 40
0.0
 40
0.0
 40
0.1092803029029865
 40
0.4125903366489864
 40
0.8843836866489708
 40
1.480677750662671
 40
2.145432397886498
 40
2.145432397886498
 40
2.145432397886498
 40
2.145432397886498
 10
883.4737705462986
 20
-125.8659031514598
 30
0.0
 10
883.4718641165799
 20
-125.8295263054446
 30
0.0
 10
883.2628243555599
 20
-125.8496182674148
 30
0.0
 10
883.0333336242169
 20
-125.8068268629022
 30
0.0
 10
882.5421654809177
 20
-125.8259937129516
 30
0.0
 10
881.9780451286829
 20
-125.8346386596759
 30
0.0
 10
881.5546008270725
 20
-125.8546264920612
 30
0.0
 10
881.3333030704988
 20
-125.8659031514598
 30
0.0
 11
883.4737705462986
 21
-125.8659031514598
 31
0.0
 11
883.3682838222989
 21
-125.8373595766598
 31
0.0
 11
883.0653438764986
 21
-125.8223807312598
 31
0.0
 11
882.5935505264986
 21
-125.8223807312598
 31
0.0
 11
881.9974446256987
 21
-125.8373595766598
 31
0.0
 11
881.3333030704988
 21
-125.8659031514598
 31
0.0
  0
SPLINE
  5
2EEA
330
1F
100
AcDbEntity
  8
0
  6
Continuous
100
AcDbSpline
210
0.0
220
0.0
230
1.0
 70
     8
 71
     3
 72
    13
 73
     9
 74
     7
 42
0.0000000001
 43
0.0000000001
 44
0.0000000001
 12
-0.9971905051893836
 22
0.0749072517193249
 32
0.0
 13
-1.0
 23
0.0
 33
0.0
 40
0.0
 40
0.0
 40
0.0
 40
0.0
 40
0.0733854877023385
 40
0.2882391449878582
 40
0.6238203102419409
 40
1.060962689968439
 40
1.580515437600166
 40
2.140623722935522
 40
2.140623722935522
 40
2.140623722935522
 40
2.140623722935522
 10
884.0358757536988
 20
-136.5915094464598
 30
0.0
 10
884.0114826498469
 20
-136.5896770780599
 30
0.0
 10
883.91551685304
 20
-136.5844290548379
 30
0.0
 10
883.7074966115814
 20
-136.585200697291
 30
0.0
 10
883.3783483048414
 20
-136.5832303538971
 30
0.0
 10
882.9475725427926
 20
-136.5849508541067
 30
0.0
 10
882.4419803581761
 20
-136.5865083395494
 30
0.0
 10
882.082111039677
 20
-136.5915094464598
 30
0.0
 10
881.8954082778986
 20
-136.5915094464598
 30
0.0
 11
884.0358757536988
 21
-136.5915094464598
 31
0.0
 11
883.9626072138987
 21
-136.5873680842598
 31
0.0
 11
883.7477691412987
 21
-136.5847803032598
 31
0.0
 11
883.4121890844988
 21
-136.5839177770597
 31
0.0
 11
882.9750475556989
 21
-136.5847803032598
 31
0.0
 11
882.4555012526987
 21
-136.5873680842598
 31
0.0
 11
881.8954082778986
 21
-136.5915094464598
 31
0.0
  0
SPLINE
  5
2EEB
330
1F
100
AcDbEntity
  8
0
  6
Continuous
100
AcDbSpline
210
0.0
220
0.0
230
1.0
 70
     8
 71
     3
 72
    12
 73
     8
 74
     6
 42
0.0000000001
 43
0.0000000001
 44
0.0000000001
 12
-0.0348994966861903
 22
-0.9993908270196653
 32
0.0
 13
-0.9994223459631079
 23
0.0339849141472808
 33
0.0
 40
0.0
 40
0.0
 40
0.0
 40
0.0
 40
0.1064996044485046
 40
0.4094969319975205
 40
0.8817401475976083
 40
1.478810399104801
 40
2.144345767204932
 40
2.144345767204932
 40
2.144345767204932
 40
2.144345767204932
 10
883.6033787304987
 20
-148.9766037462597
 30
0.0
 10
883.6021398029678
 20
-149.0120819888487
 30
0.0
 10
883.3888283646177
 20
-148.9721636769912
 30
0.0
 10
883.1656142865761
 20
-149.0252285378782
 30
0.0
 10
882.6711767006912
 20
-148.9995490956073
 30
0.0
 10
882.1074756502627
 20
-148.9988201925666
 30
0.0
 10
881.682996470068
 20
-148.9841431337087
 30
0.0
 10
881.4612794970986
 20
-148.9766037462597
 30
0.0
 11
883.6033787304987
 21
-148.9766037462597
 31
0.0
 11
883.4986025228989
 21
-148.9956854670598
 31
0.0
 11
883.1957707368987
 21
-149.0056999510597
 31
0.0
 11
882.7235275212986
 21
-149.0056999514598
 31
0.0
 11
882.1265412606987
 21
-148.9956854674598
 31
0.0
 11
881.4612794970986
 21
-148.9766037462597
 31
0.0
  0
SPLINE
  5
2EEC
330
1F
100
AcDbEntity
  8
0
  6
Continuous
100
AcDbSpline
210
0.0
220
0.0
230
1.0
 70
     8
 71
     3
 72
    12
 73
     8
 74
     6
 42
0.0000000001
 43
0.0000000001
 44
0.0000000001
 12
-0.0350283108890005
 22
-0.9993863204168164
 32
0.0
 13
-0.9847853991270213
 23
-0.1737749051682478
 33
0.0
 40
0.0
 40
0.0
 40
0.0
 40
0.0
 40
0.0542985014712202
 40
0.1085680324900392
 40
0.1628633841203136
 40
0.2171328540834029
 40
0.271431158266077
 40
0.271431158266077
 40
0.271431158266077
 40
0.271431158266077
 10
881.4612794970986
 20
-148.9766037462597
 30
0.0
 10
881.4606455021685
 20
-148.9946921394562
 30
0.0
 10
881.4544080624935
 20
-149.0308781922418
 30
0.0
 10
881.4308339658946
 20
-149.0804939524874
 30
0.0
 10
881.3947727370421
 20
-149.1219775968149
 30
0.0
 10
881.3489207525245
 20
-149.1522273477005
 30
0.0
 10
881.3139550261509
 20
-149.1634401699063
 30
0.0
 10
881.2961309670988
 20
-149.1665853974597
 30
0.0
 11
881.4612794970986
 21
-148.9766037462597
 31
0.0
 11
881.4520357506989
 21
-149.0301096376598
 31
0.0
 11
881.4287566386989
 21
-149.0791327438598
 31
0.0
 11
881.3931356562987
 21
-149.1201099426598
 31
0.0
 11
881.3478294824987
 21
-149.1499851160598
 31
0.0
 11
881.2961309670988
 21
-149.1665853974597
 31
0.0
  0
SPLINE
  5
2EED
330
1F
100
AcDbEntity
  8
0
  6
Continuous
100
AcDbSpline
210
0.0
220
0.0
230
1.0
 70
     8
 71
     3
 72
    12
 73
     8
 74
     6
 42
0.0000000001
 43
0.0000000001
 44
0.0000000001
 12
0.9848077530103441
 22
0.1736481776775017
 32
0.0
 13
-0.1729104987523653
 23
0.9849375408731298
 33
0.0
 40
0.0
 40
0.0
 40
0.0
 40
0.0
 40
0.1032524896393008
 40
0.4013072455300457
 40
0.8668605999415574
 40
1.456629494057886
 40
2.11571720986039
 40
2.11571720986039
 40
2.11571720986039
 40
2.11571720986039
 10
881.6215963720987
 20
-151.2563835612598
 30
0.0
 10
881.6554909895368
 20
-151.2504070257043
 30
0.0
 10
881.566391501487
 20
-151.0489808071673
 30
0.0
 10
881.5944238432376
 20
-150.8261427297409
 30
0.0
 10
881.4880766197788
 20
-150.3472872031838
 30
0.0
 10
881.4086573249665
 20
-149.7966035446991
 30
0.0
 10
881.3341186956524
 20
-149.3829721421338
 30
0.0
 10
881.2961309670988
 20
-149.1665853974597
 30
0.0
 11
881.6215963720987
 21
-151.2563835612598
 31
0.0
 11
881.616399427899
 21
-151.1532619418597
 31
0.0
 11
881.5761034580987
 21
-150.8579436858596
 31
0.0
 11
881.5044617542989
 21
-150.3979356510597
 31
0.0
 11
881.4081472466988
 21
-149.8160844122598
 31
0.0
 11
881.2961309670988
 21
-149.1665853974597
 31
0.0
  0
SPLINE
  5
2EEE
330
1F
100
AcDbEntity
  8
0
  6
Continuous
100
AcDbSpline
210
0.0
220
0.0
230
1.0
 70
     8
 71
     3
 72
    12
 73
     8
 74
     6
 42
0.0000000001
 43
0.0000000001
 44
0.0000000001
 12
1.0
 22
0.0
 32
0.0
 13
0.0013481903856519
 23
-0.9999990911909291
 33
0.0
 40
0.0
 40
0.0
 40
0.0
 40
0.0
 40
0.102083964112463
 40
0.3952878384134104
 40
0.8535888839714247
 40
1.4351855070062
 40
2.086914155617657
 40
2.086914155617657
 40
2.086914155617657
 40
2.086914155617657
 10
850.0078602286986
 20
-123.5915094464598
 30
0.0
 10
850.0418882167361
 20
-123.5915094464598
 30
0.0
 10
849.9995899668736
 20
-123.8007298613074
 30
0.0
 10
850.0618339965201
 20
-124.0131861757041
 30
0.0
 10
850.0467600905326
 20
-124.4951741960305
 30
0.0
 10
850.0646911193824
 20
-125.0441229562001
 30
0.0
 10
850.0640848445329
 20
-125.4591276574216
 30
0.0
 10
850.0643777292989
 20
-125.6763703428598
 30
0.0
 11
850.0078602286986
 21
-123.5915094464598
 31
0.0
 11
850.0247844608988
 21
-123.6921807238598
 31
0.0
 11
850.0401597984987
 21
-123.9849811864598
 31
0.0
 11
850.052579100699
 21
-124.4431139284598
 31
0.0
 11
850.0609057610986
 21
-125.0246509424598
 31
0.0
 11
850.0643777292989
 21
-125.6763703428598
 31
0.0
  0
SPLINE
  5
2EEF
330
1F
100
AcDbEntity
  8
0
  6
Continuous
100
AcDbSpline
210
0.0
220
0.0
230
1.0
 70
     8
 71
     3
 72
    12
 73
     8
 74
     6
 42
0.0000000001
 43
0.0000000001
 44
0.0000000001
 12
0.9848077530103441
 22
0.1736481776775017
 32
0.0
 13
-0.1729104987523653
 23
0.9849375408731298
 33
0.0
 40
0.0
 40
0.0
 40
0.0
 40
0.0
 40
0.1032524896392443
 40
0.4013072457279823
 40
0.8668605999421218
 40
1.456629494255928
 40
2.115717209827174
 40
2.115717209827174
 40
2.115717209827174
 40
2.115717209827174
 10
858.7590660364989
 20
-155.2876645066598
 30
0.0
 10
858.792960653937
 20
-155.2816879711043
 30
0.0
 10
858.7038611658442
 20
-155.0802617524744
 30
0.0
 10
858.7318935076728
 20
-154.8574236750595
 30
0.0
 10
858.625546284137
 20
-154.3785681484551
 30
0.0
 10
858.5461269893453
 20
-153.8278844900468
 30
0.0
 10
858.4715883602389
 20
-153.4142530874578
 30
0.0
 10
858.4336006316986
 20
-153.1978663428597
 30
0.0
 11
858.7590660364989
 21
-155.2876645066598
 31
0.0
 11
858.7538690922986
 21
-155.1845428872598
 31
0.0
 11
858.7135731224988
 21
-154.8892246310598
 31
0.0
 11
858.6419314186986
 21
-154.4292165964597
 31
0.0
 11
858.5456169110988
 21
-153.8473653574596
 31
0.0
 11
858.4336006316986
 21
-153.1978663428597
 31
0.0
  0
SPLINE
  5
2EF0
330
1F
100
AcDbEntity
  8
0
  6
Continuous
100
AcDbSpline
210
0.0
220
0.0
230
1.0
 70
     8
 71
     3
 72
    10
 73
     6
 74
     4
 42
0.0000000001
 43
0.0000000001
 44
0.0000000001
 12
-0.9848078351585798
 22
-0.1736477117910616
 32
0.0
 13
-0.9999999999998908
 23
-4.674449748000000E-7
 33
0.0
 40
0.0
 40
0.0
 40
0.0
 40
0.0
 40
1.035958324036048
 40
2.070525995495841
 40
3.106247961764674
 40
3.106247961764674
 40
3.106247961764674
 40
3.106247961764674
 10
858.4336006316986
 20
-153.1978663428597
 30
0.0
 10
858.0935273402291
 20
-153.2578302736863
 30
0.0
 10
857.4101749117363
 20
-153.3579173858186
 30
0.0
 10
856.3781755394639
 20
-153.4481987199683
 30
0.0
 10
855.6879037245216
 20
-153.4682881778788
 30
0.0
 10
855.3426630690987
 20
-153.4682883392598
 30
0.0
 11
858.4336006316986
 21
-153.1978663428597
 31
0.0
 11
857.4085780422986
 21
-153.3479940896598
 31
0.0
 11
856.3779466142987
 21
-153.4381557580598
 31
0.0
 11
855.3426630690987
 21
-153.4682883392598
 31
0.0
  0
SPLINE
  5
2EF1
330
1F
100
AcDbEntity
  8
0
  6
Continuous
100
AcDbSpline
210
0.0
220
0.0
230
1.0
 70
     8
 71
     3
 72
    12
 73
     8
 74
     6
 42
0.0000000001
 43
0.0000000001
 44
0.0000000001
 12
1.0
 22
0.0
 32
0.0
 13
0.0013481760093526
 23
-0.9999990912103109
 33
0.0
 40
0.0
 40
0.0
 40
0.0
 40
0.0
 40
0.1020839630056348
 40
0.3952878337215537
 40
0.8535888776800702
 40
1.435185502860317
 40
2.086914157030139
 40
2.086914157030139
 40
2.086914157030139
 40
2.086914157030139
 10
881.0770596628987
 20
-123.5915094464598
 30
0.0
 10
881.1110876505672
 20
-123.5915094464598
 30
0.0
 10
881.0687894191699
 20
-123.8007298557536
 30
0.0
 10
881.1310334385968
 20
-124.0131861711821
 30
0.0
 10
881.1159595385054
 20
-124.4951741891631
 30
0.0
 10
881.1338905611219
 20
-125.0441229518241
 30
0.0
 10
881.1332842818532
 20
-125.4591276555646
 30
0.0
 10
881.1335771634986
 20
-125.6763703428598
 30
0.0
 11
881.0770596628987
 21
-123.5915094464598
 31
0.0
 11
881.0939839026987
 21
-123.6921807214598
 31
0.0
 11
881.1093592442986
 21
-123.9849811802598
 31
0.0
 11
881.1217785464988
 21
-124.4431139206597
 31
0.0
 11
881.1301052030989
 21
-125.0246509368598
 31
0.0
 11
881.1335771634986
 21
-125.6763703428598
 31
0.0
  0
SPLINE
  5
2EF2
330
1F
100
AcDbEntity
  8
0
  6
Continuous
100
AcDbSpline
210
0.0
220
0.0
230
1.0
 70
     8
 71
     3
 72
    12
 73
     8
 74
     6
 42
0.0000000001
 43
0.0000000001
 44
0.0000000001
 12
1.0
 22
0.0
 32
0.0
 13
0.0008983374259139
 23
0.9999995964948532
 33
0.0
 40
0.0
 40
0.0
 40
0.0
 40
0.0
 40
0.1043926830169398
 40
0.4040950066690899
 40
0.8718616146520184
 40
1.464043491457364
 40
2.125266013596728
 40
2.125266013596728
 40
2.125266013596728
 40
2.125266013596728
 10
855.2861024830987
 20
-155.5915094464598
 30
0.0
 10
855.3209000441044
 20
-155.5915094464598
 30
0.0
 10
855.2772162288215
 20
-155.3775453652456
 30
0.0
 10
855.3409042019094
 20
-155.1606056469677
 30
0.0
 10
855.3251926604797
 20
-154.6689921807013
 30
0.0
 10
855.3432553909815
 20
-154.1104472910013
 30
0.0
 10
855.3424650687858
 20
-153.688695757704
 30
0.0
 10
855.3426630690987
 20
-153.4682883392598
 30
0.0
 11
855.2861024830987
 21
-155.5915094464598
 31
0.0
 11
855.3032151258989
 21
-155.4885289156597
 31
0.0
 11
855.3187257058986
 21
-155.1892282228597
 31
0.0
 11
855.3311821432988
 21
-154.7216274992598
 31
0.0
 11
855.3394182832986
 21
-154.1295028998598
 31
0.0
 11
855.3426630690987
 21
-153.4682883392598
 31
0.0
  0
SPLINE
  5
2EF3
330
1F
100
AcDbEntity
  8
0
  6
Continuous
100
AcDbSpline
210
0.0
220
0.0
230
1.0
 70
     8
 71
     3
 72
    13
 73
     9
 74
     7
 42
0.0000000001
 43
0.0000000001
 44
0.0000000001
 12
0.326938992567944
 22
0.9450454460705358
 32
0.0
 13
0.982890623034687
 23
-0.1841901820143657
 33
0.0
 40
0.0
 40
0.0
 40
0.0
 40
0.0
 40
0.0216103582223126
 40
0.2053739765094864
 40
0.5517892162871327
 40
1.033571111285186
 40
1.611406481627469
 40
2.237883380541869
 40
2.237883380541869
 40
2.237883380541869
 40
2.237883380541869
 10
845.0522788438988
 20
-127.7073386558598
 30
0.0
 10
845.0546339334809
 20
-127.7005310656512
 30
0.0
 10
845.0921019492674
 20
-127.638949614062
 30
0.0
 10
845.3218812320098
 20
-127.7242222191597
 30
0.0
 10
845.6267588982342
 20
-127.7090964169828
 30
0.0
 10
846.1044532556768
 20
-127.7970952932753
 30
0.0
 10
846.6543759942849
 20
-127.8787761821023
 30
0.0
 10
847.0507632940019
 20
-127.9516918139134
 30
0.0
 10
847.2560160504988
 20
-127.9901554452597
 30
0.0
 11
845.0522788438988
 21
-127.7073386558598
 31
0.0
 11
845.0630511078987
 21
-127.6886045716598
 31
0.0
 11
845.2468144588987
 21
-127.6882911466597
 31
0.0
 11
845.5915509220986
 21
-127.7223541660598
 31
0.0
 11
846.0688415164989
 21
-127.7879855826598
 31
0.0
 11
846.6393399188987
 21
-127.8797749506598
 31
0.0
 11
847.2560160504988
 21
-127.9901554452597
 31
0.0
  0
SPLINE
  5
2EF4
330
1F
100
AcDbEntity
  8
0
  6
Continuous
100
AcDbSpline
210
0.0
220
0.0
230
1.0
 70
     8
 71
     3
 72
    15
 73
    11
 74
     9
 42
0.0000000001
 43
0.0000000001
 44
0.0000000001
 12
-0.1833935436633271
 22
0.983039576081557
 32
0.0
 13
-0.9980950587516219
 23
0.0616948433468851
 33
0.0
 40
0.0
 40
0.0
 40
0.0
 40
0.0
 40
0.761774331142154
 40
1.665722461190814
 40
2.57438229723791
 40
3.48657520732198
 40
4.400317875563531
 40
5.31374974795733
 40
6.225547021374266
 40
6.675995504184328
 40
6.675995504184328
 40
6.675995504184328
 40
6.675995504184328
 10
797.0349696000988
 20
-127.7019819856597
 30
0.0
 10
796.9884014354121
 20
-127.4523638804744
 30
0.0
 10
796.8444399222292
 20
-126.9135678215379
 30
0.0
 10
796.4865933673544
 20
-126.128502190229
 30
0.0
 10
795.9643525781712
 20
-125.3793137517267
 30
0.0
 10
795.313754903407
 20
-124.7337968102879
 30
0.0
 10
794.5563592769418
 20
-124.2148608026605
 30
0.0
 10
793.7185226488007
 20
-123.8400659838381
 30
0.0
 10
792.9774414877066
 20
-123.6585255920263
 30
0.0
 10
792.5253576124037
 20
-123.6104157633874
 30
0.0
 10
792.3754941440988
 20
-123.6011523138598
 30
0.0
 11
797.0349696000988
 21
-127.7019819856597
 31
0.0
 11
796.8384107720987
 21
-126.9660032096598
 31
0.0
 11
796.4635096184987
 21
-126.1434636380598
 31
0.0
 11
795.9440569834987
 21
-125.3979224536597
 31
0.0
 11
795.2965460348987
 21
-124.7554074914598
 31
0.0
 11
794.5428349372987
 21
-124.2388368330598
 31
0.0
 11
793.7089905834988
 21
-123.8659274886598
 31
0.0
 11
792.8234097204988
 21
-123.6488542224597
 31
0.0
 11
792.3754941440988
 21
-123.6011523138598
 31
0.0
  0
SPLINE
  5
2EF5
330
1F
100
AcDbEntity
  8
0
  6
Continuous
100
AcDbSpline
210
0.0
220
0.0
230
1.0
 70
     8
 71
     3
 72
     8
 73
     4
 74
     2
 42
0.0000000001
 43
0.0000000001
 44
0.0000000001
 12
-0.2438534368049581
 22
-0.9698120959022992
 32
0.0
 13
-0.1833468271885979
 23
-0.9830482902481824
 33
0.0
 40
0.0
 40
0.0
 40
0.0
 40
0.0
 40
0.3077909390736524
 40
0.3077909390736524
 40
0.3077909390736524
 40
0.3077909390736524
 10
845.1025723622986
 20
-127.4013003878597
 30
0.0
 10
845.0775537361951
 20
-127.5008001797673
 30
0.0
 10
845.0555932890044
 20
-127.6011200885896
 30
0.0
 10
845.0367824582988
 20
-127.7019778740597
 30
0.0
 11
845.1025723622986
 21
-127.4013003878597
 31
0.0
 11
845.0367824582988
 21
-127.7019778740597
 31
0.0
  0
SPLINE
  5
2EF6
330
1F
100
AcDbEntity
  8
0
  6
Continuous
100
AcDbSpline
210
0.0
220
0.0
230
1.0
 70
     8
 71
     3
 72
    15
 73
    11
 74
     9
 42
0.0000000001
 43
0.0000000001
 44
0.0000000001
 12
-0.9999999995664536
 22
-2.944644373780000E-5
 32
0.0
 13
-0.1833458701145716
 23
-0.9830484687501073
 33
0.0
 40
0.0
 40
0.0
 40
0.0
 40
0.0
 40
0.7768854938319849
 40
1.687972450266685
 40
2.600708705197588
 40
3.513693549371967
 40
4.425008917678612
 40
5.332603102910983
 40
6.235233630550273
 40
6.987233056289971
 40
6.987233056289971
 40
6.987233056289971
 40
6.987233056289971
 10
850.0078601110988
 20
-123.5915088156598
 30
0.0
 10
849.7488982799338
 20
-123.5915164411648
 30
0.0
 10
849.1853976037438
 20
-123.6349427466734
 30
0.0
 10
848.3395179372767
 20
-123.8448607704318
 30
0.0
 10
847.5032777207721
 20
-124.2217029768458
 30
0.0
 10
846.7479484092205
 20
-124.7422017190462
 30
0.0
 10
846.0995978068677
 20
-125.3886915433251
 30
0.0
 10
845.5797314547899
 20
-126.138182501732
 30
0.0
 10
845.2252144743878
 20
-126.9202814606786
 30
0.0
 10
845.0827409185113
 20
-127.4555605668017
 30
0.0
 10
845.0367822554987
 20
-127.7019778614598
 30
0.0
 11
850.0078601110988
 21
-123.5915088156598
 31
0.0
 11
849.2332674644988
 21
-123.6511519406597
 31
0.0
 11
848.3490188990987
 21
-123.8706602930597
 31
0.0
 11
847.5168544030989
 21
-124.2456132536597
 31
0.0
 11
846.7651425778987
 21
-124.7637547956598
 31
0.0
 11
846.1198580704987
 21
-125.4072636184598
 31
0.0
 11
845.6027440496988
 21
-126.1531324370598
 31
0.0
 11
845.2301041138989
 21
-126.9752524694598
 31
0.0
 11
845.0367822554987
 21
-127.7019778614598
 31
0.0
  0
SPLINE
  5
2EF7
330
1F
100
AcDbEntity
  8
0
  6
Continuous
100
AcDbSpline
210
0.0
220
0.0
230
1.0
 70
     8
 71
     3
 72
    10
 73
     6
 74
     4
 42
0.0000000001
 43
0.0000000001
 44
0.0000000001
 12
-0.1833255132033396
 22
-0.9830522652477498
 32
0.0
 13
-0.1847476535411275
 23
-0.9827859912061464
 33
0.0
 40
0.0
 40
0.0
 40
0.0
 40
0.0
 40
1.797667665032958
 40
3.675105497102002
 40
5.377381859238522
 40
5.377381859238522
 40
5.377381859238522
 40
5.377381859238522
 10
845.0367835656987
 20
-127.7019784220597
 30
0.0
 10
844.9269307832783
 20
-128.2910455121508
 30
0.0
 10
844.7020758811257
 20
-129.4952678990728
 30
0.0
 10
844.3722164499307
 20
-131.2571158167994
 30
0.0
 10
844.1520530784932
 20
-132.42986698217
 30
0.0
 10
844.0472225572987
 20
-132.9875247694597
 30
0.0
 11
845.0367835656987
 21
-127.7019784220597
 31
0.0
 11
844.7068168754988
 21
-129.4691034932597
 31
0.0
 11
844.3613131194989
 21
-131.3144760756598
 31
0.0
 11
844.0472225572987
 21
-132.9875247694597
 31
0.0
  0
SPLINE
  5
2EF8
330
1F
100
AcDbEntity
  8
0
  6
Continuous
100
AcDbSpline
210
0.0
220
0.0
230
1.0
 70
     8
 71
     3
 72
    15
 73
    11
 74
     9
 42
0.0000000001
 43
0.0000000001
 44
0.0000000001
 12
-0.1833922809337281
 22
0.9830398116525722
 32
0.0
 13
-0.9999999977013097
 23
6.780398760760000E-5
 33
0.0
 40
0.0
 40
0.0
 40
0.0
 40
0.0
 40
0.749300519925085
 40
1.65313136221055
 40
2.561720699554131
 40
3.473899257396897
 40
4.387681225355975
 40
5.301208979373605
 40
6.213151087090943
 40
6.987228069704623
 40
6.987228069704623
 40
6.987228069704623
 40
6.987228069704623
 10
797.0349698824989
 20
-127.7019822510597
 30
0.0
 10
796.9891645720143
 20
-127.4564515037336
 30
0.0
 10
796.8469812417949
 20
-126.9216369160831
 30
0.0
 10
796.4928593128229
 20
-126.1395228081768
 30
0.0
 10
795.9725470823798
 20
-125.3890828009753
 30
0.0
 10
795.3235745333366
 20
-124.7419421963182
 30
0.0
 10
794.5674777509086
 20
-124.2210932670721
 30
0.0
 10
793.7303710800742
 20
-123.844162643753
 30
0.0
 10
792.8847536966765
 20
-123.6347451404925
 30
0.0
 10
792.3219158395768
 20
-123.5915258538285
 30
0.0
 10
792.0638901792987
 20
-123.5915083586598
 30
0.0
 11
797.0349698824989
 21
-127.7019822510597
 31
0.0
 11
796.8425341988988
 21
-126.9778139164597
 31
0.0
 11
796.4697490788986
 21
-126.1544419192598
 31
0.0
 11
795.9522152082988
 21
-125.4076532766598
 31
0.0
 11
795.3063308768988
 21
-124.7635235134598
 31
0.0
 11
794.5538828520988
 21
-124.2450454956598
 31
0.0
 11
793.7208816710988
 21
-123.8700228432598
 31
0.0
 11
792.8356983470989
 21
-123.6507310496598
 31
0.0
 11
792.0638901792987
 21
-123.5915083586598
 31
0.0
  0
SPLINE
  5
2EF9
330
1F
100
AcDbEntity
  8
0
  6
Continuous
100
AcDbSpline
210
0.0
220
0.0
230
1.0
 70
     8
 71
     3
 72
    10
 73
     6
 74
     4
 42
0.0000000001
 43
0.0000000001
 44
0.0000000001
 12
-0.184747654503613
 22
0.9827859910252149
 32
0.0
 13
-0.1833255117480135
 23
0.9830522655191478
 33
0.0
 40
0.0
 40
0.0
 40
0.0
 40
0.0
 40
1.702307982141081
 40
3.579743913228679
 40
5.377377897193112
 40
5.377377897193112
 40
5.377377897193112
 40
5.377377897193112
 10
798.0245282200987
 20
-132.9875208704598
 30
0.0
 10
797.9196957511175
 20
-132.4298527247069
 30
0.0
 10
797.6995305603577
 20
-131.2570918214828
 30
0.0
 10
797.3696713863267
 20
-129.4952451992398
 30
0.0
 10
797.1448186640473
 20
-128.2910344709633
 30
0.0
 10
797.0349679406987
 20
-127.7019784174598
 30
0.0
 11
798.0245282200987
 21
-132.9875208704598
 31
0.0
 11
797.7104318326988
 21
-131.3144410978597
 31
0.0
 11
797.3649284420987
 21
-129.4690703810598
 31
0.0
 11
797.0349679406987
 21
-127.7019784174598
 31
0.0
  0
SPLINE
  5
2EFA
330
1F
100
AcDbEntity
  8
0
  6
Continuous
100
AcDbSpline
210
0.0
220
0.0
230
1.0
 70
     8
 71
     3
 72
     8
 73
     4
 74
     2
 42
0.0000000001
 43
0.0000000001
 44
0.0000000001
 12
-0.1848631366647077
 22
-0.9827642752473687
 32
0.0
 13
-0.2192050575291009
 23
-0.9756788112661173
 33
0.0
 40
0.0
 40
0.0
 40
0.0
 40
0.0
 40
0.0702186940761337
 40
0.0702186940761337
 40
0.0702186940761337
 40
0.0702186940761337
 10
844.0472090110986
 20
-132.9875205496598
 30
0.0
 10
844.0428820617522
 20
-133.0105233576573
 30
0.0
 10
844.0381507257902
 20
-133.0334537526715
 30
0.0
 10
844.0330199614987
 20
-133.0562907166598
 30
0.0
 11
844.0472090110986
 21
-132.9875205496598
 31
0.0
 11
844.0330199614987
 21
-133.0562907166598
 31
0.0
  0
SPLINE
  5
2EFB
330
1F
100
AcDbEntity
  8
0
  6
Continuous
100
AcDbSpline
210
0.0
220
0.0
230
1.0
 70
     8
 71
     3
 72
    17
 73
    13
 74
    11
 42
0.0000000001
 43
0.0000000001
 44
0.0000000001
 12
-0.1848622741242061
 22
-0.9827644374953883
 32
0.0
 13
-0.9999999968501514
 23
7.937063357100001E-5
 33
0.0
 40
0.0
 40
0.0
 40
0.0
 40
0.0
 40
0.2645811079488918
 40
0.6402045424097143
 40
0.9985628828526834
 40
1.339685157581167
 40
1.662615273115953
 40
1.9587174432349
 40
2.206762042520899
 40
2.39023178437756
 40
2.518169552084643
 40
2.601790788816736
 40
2.601790788816736
 40
2.601790788816736
 40
2.601790788816736
 10
844.0472089478989
 20
-132.9875221586598
 30
0.0
 10
844.0309052594636
 20
-133.0741957932349
 30
0.0
 10
843.9775684171159
 20
-133.281517472836
 30
0.0
 10
843.8432580735324
 20
-133.5883106197998
 30
0.0
 10
843.6407689971347
 20
-133.8863109278375
 30
0.0
 10
843.4017301048339
 20
-134.1315779503832
 30
0.0
 10
843.1421574921299
 20
-134.3212298803888
 30
0.0
 10
842.8840121728995
 20
-134.453668131184
 30
0.0
 10
842.6541696374225
 20
-134.5332737596402
 30
0.0
 10
842.4716565200997
 20
-134.5732308148087
 30
0.0
 10
842.3407391956675
 20
-134.5888326291462
 30
0.0
 10
842.2702055597883
 20
-134.5915431200165
 30
0.0
 10
842.2423318142987
 20
-134.5915409076597
 30
0.0
 11
844.0472089478989
 21
-132.9875221586598
 31
0.0
 11
843.981222067499
 21
-133.2437425604598
 31
0.0
 11
843.8305862064989
 21
-133.5878381894598
 31
0.0
 11
843.6291773046988
 21
-133.8842418912598
 31
0.0
 11
843.3910728144988
 21
-134.1285176740597
 31
0.0
 11
843.1302931270986
 21
-134.3189850312598
 31
0.0
 11
842.8667776374988
 21
-134.4540260690598
 31
0.0
 11
842.6322955552988
 21
-134.5349227708598
 31
0.0
 11
842.4529804546988
 21
-134.5737459710598
 31
0.0
 11
842.3258984108986
 21
-134.5885184640597
 31
0.0
 11
842.2423318142987
 21
-134.5915409076597
 31
0.0
  0
SPLINE
  5
2EFC
330
1F
100
AcDbEntity
  8
0
  6
Continuous
100
AcDbSpline
210
0.0
220
0.0
230
1.0
 70
     8
 71
     3
 72
     8
 73
     4
 74
     2
 42
0.0000000001
 43
0.0000000001
 44
0.0000000001
 12
-0.9999999978402795
 22
-6.572245472600000E-5
 32
0.0
 13
-0.9995665047723022
 23
0.0294415104450007
 33
0.0
 40
0.0
 40
0.0
 40
0.0
 40
0.0
 40
0.0332148188362734
 40
0.0332148188362734
 40
0.0332148188362734
 40
0.0332148188362734
 10
799.8294422488989
 20
-134.5915406130597
 30
0.0
 10
799.818370642644
 20
-134.5915413407128
 30
0.0
 10
799.8072979100891
 20
-134.5913726160717
 30
0.0
 10
799.7962311032989
 20
-134.5910466512598
 30
0.0
 11
799.8294422488989
 21
-134.5915406130597
 31
0.0
 11
799.7962311032989
 21
-134.5910466512598
 31
0.0
  0
SPLINE
  5
2EFD
330
1F
100
AcDbEntity
  8
0
  6
Continuous
100
AcDbSpline
210
0.0
220
0.0
230
1.0
 70
     8
 71
     3
 72
    17
 73
    13
 74
    11
 42
0.0000000001
 43
0.0000000001
 44
0.0000000001
 12
-0.9999980597233582
 22
0.0019699110434592
 32
0.0
 13
-0.1848631234694857
 23
0.9827642777294594
 33
0.0
 40
0.0
 40
0.0
 40
0.0
 40
0.0
 40
0.0814050844301399
 40
0.2098396516290982
 40
0.3935904127657821
 40
0.6407653231396071
 40
0.9364943234912089
 40
1.259024737677151
 40
1.600007913016495
 40
1.958443565543754
 40
2.33440701589971
 40
2.599653854346332
 40
2.599653854346332
 40
2.599653854346332
 40
2.599653854346332
 10
799.8272755448987
 20
-134.5915401522598
 30
0.0
 10
799.8001405694048
 20
-134.5914866986682
 30
0.0
 10
799.730186660835
 20
-134.5887370460561
 30
0.0
 10
799.5997456509468
 20
-134.5731773417395
 30
0.0
 10
799.4172725334865
 20
-134.5331783883763
 30
0.0
 10
799.1877491509331
 20
-134.4536493626259
 30
0.0
 10
798.9300721734901
 20
-134.3215069841396
 30
0.0
 10
798.6706801966943
 20
-134.1321320009943
 30
0.0
 10
798.4316269723828
 20
-133.8870967118986
 30
0.0
 10
798.2289294528538
 20
-133.5891244691784
 30
0.0
 10
798.0943430502782
 20
-133.2820519818683
 30
0.0
 10
798.0408870926473
 20
-133.0744098595285
 30
0.0
 10
798.0245423062987
 20
-132.9875181536598
 30
0.0
 11
799.8272755448987
 21
-134.5915401522598
 31
0.0
 11
799.7459265536987
 21
-134.5885186622598
 31
0.0
 11
799.6183526862989
 21
-134.5736745924598
 31
0.0
 11
799.4387739060987
 21
-134.5347412658598
 31
0.0
 11
799.2051247344988
 21
-134.4540969794598
 31
0.0
 11
798.9419180086987
 21
-134.3192716808598
 31
0.0
 11
798.6813916790989
 21
-134.1291351518598
 31
0.0
 11
798.4432616116987
 21
-133.8850786074597
 31
0.0
 11
798.241654618299
 21
-133.5887160976597
 31
0.0
 11
798.0907380830987
 21
-133.2443722064598
 31
0.0
 11
798.0245423062987
 21
-132.9875181536598
 31
0.0
  0
SPLINE
  5
2EFE
330
1F
100
AcDbEntity
  8
0
  6
Continuous
100
AcDbSpline
210
0.0
220
0.0
230
1.0
 70
     8
 71
     3
 72
    10
 73
     6
 74
     4
 42
0.0000000001
 43
0.0000000001
 44
0.0000000001
 12
-0.0301297258995986
 22
-0.9995459967491317
 32
0.0
 13
-0.1895770898002853
 23
-0.9818658396251775
 33
0.0
 40
0.0
 40
0.0
 40
0.0
 40
0.0
 40
0.0875399992355504
 40
0.3410920313979163
 40
0.7534441992022857
 40
0.7534441992022857
 40
0.7534441992022857
 40
0.7534441992022857
 10
790.9280787290988
 20
-176.0681381518598
 30
0.0
 10
790.9271995437048
 20
-176.0973049037903
 30
0.0
 10
790.8968619806067
 20
-176.2081429204174
 30
0.0
 10
790.8597596442903
 20
-176.455894880375
 30
0.0
 10
790.8142780560804
 20
-176.6735255461056
 30
0.0
 10
790.7882205480987
 20
-176.8084837152598
 30
0.0
 11
790.9280787290988
 21
-176.0681381518598
 31
0.0
 11
790.9125194044989
 21
-176.1542843002598
 31
0.0
 11
790.8657397282987
 21
-176.4034836078597
 31
0.0
 11
790.7882205480987
 21
-176.8084837152598
 31
0.0
  0
SPLINE
  5
2EFF
330
1F
100
AcDbEntity
  8
0
  6
Continuous
100
AcDbSpline
210
0.0
220
0.0
230
1.0
 70
     8
 71
     3
 72
    12
 73
     8
 74
     6
 42
0.0000000001
 43
0.0000000001
 44
0.0000000001
 12
0.9999893245979056
 22
0.004620680710101301
 32
0.0
 13
0.258821382706207
 23
0.9659251999270166
 33
0.0
 40
0.0
 40
0.0
 40
0.0
 40
0.0
 40
0.7695559614008599
 40
1.552708583956039
 40
2.33586224073907
 40
3.119017364845756
 40
3.902174683056684
 40
3.902174683056684
 40
3.902174683056684
 40
3.902174683056684
 10
788.0440122106987
 20
-178.2916278088598
 30
0.0
 10
788.3005281260593
 20
-178.2904425180644
 30
0.0
 10
788.8202179657545
 20
-178.2209738053818
 30
0.0
 10
789.5474368577832
 20
-177.9196143109498
 30
0.0
 10
790.1760320609371
 20
-177.4372771400815
 30
0.0
 10
790.6581274838133
 20
-176.8092440831264
 30
0.0
 10
790.8605127757736
 20
-176.3202952815822
 30
0.0
 10
790.9280787290988
 20
-176.0681381518598
 30
0.0
 11
788.0440122106987
 21
-178.2916278088598
 31
0.0
 11
788.8067532504988
 21
-178.1894393362598
 31
0.0
 11
789.5302936584989
 21
-177.8897439772598
 31
0.0
 11
790.1516149050987
 21
-177.4129950300598
 31
0.0
 11
790.6283741150986
 21
-176.7916798088598
 31
0.0
 11
790.9280787290988
 21
-176.0681381518598
 31
0.0
  0
SPLINE
  5
2F00
330
1F
100
AcDbEntity
  8
0
  6
Continuous
100
AcDbSpline
210
0.0
220
0.0
230
1.0
 70
     8
 71
     3
 72
     8
 73
     4
 74
     2
 42
0.0000000001
 43
0.0000000001
 44
0.0000000001
 12
1.0
 22
0.0
 32
0.0
 13
0.9999893245888735
 23
0.0046206826648237
 33
0.0
 40
0.0
 40
0.0
 40
0.0
 40
0.0
 40
0.0137109970061335
 40
0.0137109970061335
 40
0.0137109970061335
 40
0.0137109970061335
 10
788.0303012502988
 20
-178.2916594918598
 30
0.0
 10
788.0348715826341
 20
-178.2916594918598
 30
0.0
 10
788.0394419271536
 20
-178.2916489269152
 30
0.0
 10
788.0440122106987
 20
-178.2916278088598
 30
0.0
 11
788.0303012502988
 21
-178.2916594918598
 31
0.0
 11
788.0440122106987
 21
-178.2916278088598
 31
0.0
  0
SPLINE
  5
2F01
330
1F
100
AcDbEntity
  8
0
  6
Continuous
100
AcDbSpline
210
0.0
220
0.0
230
1.0
 70
     8
 71
     3
 72
    10
 73
     6
 74
     4
 42
0.0000000001
 43
0.0000000001
 44
0.0000000001
 12
-0.016483817662788
 22
-0.9998641326476613
 32
0.0
 13
-0.3802965373213018
 23
-0.9248646083083878
 33
0.0
 40
0.0
 40
0.0
 40
0.0
 40
0.0
 40
0.0434925377142561
 40
0.1695933046723467
 40
0.3753467507136109
 40
0.3753467507136109
 40
0.3753467507136109
 40
0.3753467507136109
 10
788.0303012502988
 20
-178.2916594918598
 30
0.0
 10
788.0300622759449
 20
-178.3061550346926
 30
0.0
 10
787.9981152839289
 20
-178.3566959170225
 30
0.0
 10
787.9625769750899
 20
-178.4748862021513
 30
0.0
 10
787.9165255103226
 20
-178.5765369129662
 30
0.0
 10
787.8904430692987
 20
-178.6399682730599
 30
0.0
 11
788.0303012502988
 21
-178.2916594918598
 31
0.0
 11
788.0147215640988
 21
-178.3322658240598
 31
0.0
 11
787.9680059920986
 21
-178.4493942098598
 31
0.0
 11
787.8904430692987
 21
-178.6399682730599
 31
0.0
  0
SPLINE
  5
2F02
330
1F
100
AcDbEntity
  8
0
  6
Continuous
100
AcDbSpline
210
0.0
220
0.0
230
1.0
 70
     8
 71
     3
 72
    16
 73
    12
 74
    10
 42
0.0000000001
 43
0.0000000001
 44
0.0000000001
 12
-0.1897644769257
 22
-0.9818296406694572
 32
0.0
 13
0.1994468215389293
 23
-0.9799086515476934
 33
0.0
 40
0.0
 40
0.0
 40
0.0
 40
0.0
 40
0.4839389075377152
 40
0.992457579393059
 40
1.53839197764035
 40
2.133553333266669
 40
2.789632775491643
 40
3.518658057401094
 40
4.332971483185161
 40
5.225088514248411
 40
6.166219110781658
 40
6.166219110781658
 40
6.166219110781658
 40
6.166219110781658
 10
790.7882205480987
 20
-176.8084837152598
 30
0.0
 10
790.7576090768811
 20
-176.9668655698244
 30
0.0
 10
790.69866459862
 20
-177.2924303831348
 30
0.0
 10
790.6205806037918
 20
-177.7993129983808
 30
0.0
 10
790.5532925973314
 20
-178.3451494353188
 30
0.0
 10
790.50095372131
 20
-178.9420608775442
 30
0.0
 10
790.4704412419926
 20
-179.6016613887655
 30
0.0
 10
790.4717376246517
 20
-180.3351202444279
 30
0.0
 10
790.5175772186707
 20
-181.1460991266163
 30
0.0
 10
790.6195036848304
 20
-182.0232312489252
 30
0.0
 10
790.7256520460549
 20
-182.6254130039333
 30
0.0
 10
790.7882205480987
 20
-182.9328203418597
 30
0.0
 11
790.7882205480987
 21
-176.8084837152598
 31
0.0
 11
790.7021622392987
 21
-177.2847093274598
 31
0.0
 11
790.6249239286987
 21
-177.7873279532599
 31
0.0
 11
790.5583479660988
 21
-178.3291877214597
 31
0.0
 11
790.5066103276988
 21
-178.9220960246599
 31
0.0
 11
790.476536713299
 21
-179.5774858416598
 31
0.0
 11
790.4779660090989
 21
-180.3065097224598
 31
0.0
 11
790.5237589514987
 21
-181.1195345448598
 31
0.0
 11
790.6260404702988
 21
-182.0057688750598
 31
0.0
 11
790.7882205480987
 21
-182.9328203418597
 31
0.0
  0
SPLINE
  5
2F03
330
1F
100
AcDbEntity
  8
0
  6
Continuous
100
AcDbSpline
210
0.0
220
0.0
230
1.0
 70
     8
 71
     3
 72
    12
 73
     8
 74
     6
 42
0.0000000001
 43
0.0000000001
 44
0.0000000001
 12
0.9988643200846772
 22
-0.04764525224800191
 32
0.0
 13
0.2789580349137814
 23
0.9603032931095477
 33
0.0
 40
0.0
 40
0.0
 40
0.0
 40
0.0
 40
0.7848783595044792
 40
1.549074243133178
 40
2.285490685484466
 40
2.994320119377815
 40
3.683776080812137
 40
3.683776080812137
 40
3.683776080812137
 40
3.683776080812137
 10
787.8904430692987
 20
-178.6399682684598
 30
0.0
 10
788.151772065604
 20
-178.652433510934
 30
0.0
 10
788.6725206693486
 20
-178.6181102199974
 30
0.0
 10
789.4064567230554
 20
-178.3879815671698
 30
0.0
 10
790.0386004273048
 20
-177.993139005286
 30
0.0
 10
790.5228433951934
 20
-177.4590277955677
 30
0.0
 10
790.7241108166452
 20
-177.029179332933
 30
0.0
 10
790.7882205766989
 20
-176.8084837228599
 30
0.0
 11
787.8904430692987
 21
-178.6399682684598
 31
0.0
 11
788.6734926830987
 21
-178.5864207050597
 31
0.0
 11
789.4017493750989
 21
-178.3548229090598
 31
0.0
 11
790.0242542872987
 21
-177.9613806504596
 31
0.0
 11
790.4974484112987
 21
-177.4336245634597
 31
0.0
 11
790.7882205766989
 21
-176.8084837228599
 31
0.0
  0
SPLINE
  5
2F04
330
1F
100
AcDbEntity
  8
0
  6
Continuous
100
AcDbSpline
210
0.0
220
0.0
230
1.0
 70
     8
 71
     3
 72
    16
 73
    12
 74
    10
 42
0.0000000001
 43
0.0000000001
 44
0.0000000001
 12
-0.1874161757753268
 22
-0.982280599959987
 32
0.0
 13
0.1874107626028909
 23
-0.9822816327615024
 33
0.0
 40
0.0
 40
0.0
 40
0.0
 40
0.0
 40
0.4911657834134777
 40
1.009865511354749
 40
1.570021738571169
 40
2.184796902627413
 40
2.867516633563356
 40
3.631937516137581
 40
4.491810354512627
 40
5.43883255034594
 40
6.440954032976077
 40
6.440954032976077
 40
6.440954032976077
 40
6.440954032976077
 10
787.8904430692987
 20
-178.6399682730599
 30
0.0
 10
787.8597589316991
 20
-178.8007891465303
 30
0.0
 10
787.8006751380158
 20
-179.132226795621
 30
0.0
 10
787.7225884656025
 20
-179.6497767282059
 30
0.0
 10
787.6553147547543
 20
-180.2103976140236
 30
0.0
 10
787.6030226608106
 20
-180.8275468237577
 30
0.0
 10
787.5726059404203
 20
-181.5143913818587
 30
0.0
 10
787.5740374306704
 20
-182.2837002874908
 30
0.0
 10
787.619974370074
 20
-183.1399982619398
 30
0.0
 10
787.721844680859
 20
-184.0712554588609
 30
0.0
 10
787.8278402855386
 20
-184.7126276333987
 30
0.0
 10
787.8904430692987
 20
-185.0407494754598
 30
0.0
 11
787.8904430692987
 21
-178.6399682730599
 31
0.0
 11
787.8043812266988
 21
-179.1235354204598
 31
0.0
 11
787.7271477942987
 21
-179.6364529622597
 31
0.0
 11
787.6605747040989
 21
-180.1926391024597
 31
0.0
 11
787.6088379578987
 21
-180.8052334310598
 31
0.0
 11
787.5787623582988
 21
-181.4872903856596
 31
0.0
 11
787.5801819630988
 21
-182.2517099500598
 31
0.0
 11
787.6259468450987
 21
-183.1103640560598
 31
0.0
 11
787.7281817148987
 21
-184.0518517462597
 31
0.0
 11
787.8904430692987
 21
-185.0407494754598
 31
0.0
  0
SPLINE
  5
2F05
330
1F
100
AcDbEntity
  8
0
  6
Continuous
100
AcDbSpline
210
0.0
220
0.0
230
1.0
 70
     8
 71
     3
 72
    10
 73
     6
 74
     4
 42
0.0000000001
 43
0.0000000001
 44
0.0000000001
 12
0.1991335703010669
 22
-0.9799723573546094
 32
0.0
 13
0.0001644539389349
 23
-0.999999986477451
 33
0.0
 40
0.0
 40
0.0
 40
0.0
 40
0.0
 40
0.5304634200165931
 40
1.182417328807946
 40
1.937005596111805
 40
1.937005596111805
 40
1.937005596111805
 40
1.937005596111805
 10
790.7882205480987
 20
-182.9328203418597
 30
0.0
 10
790.8234315730127
 20
-183.106100171261
 30
0.0
 10
790.8766989837592
 20
-183.4973527876308
 30
0.0
 10
790.9197122153252
 20
-184.1417858580102
 30
0.0
 10
790.9280373640946
 20
-184.6107575706265
 30
0.0
 10
790.9280787290988
 20
-184.8622869896598
 30
0.0
 11
790.7882205480987
 21
-182.9328203418597
 31
0.0
 11
790.8657895860987
 21
-183.4575817012598
 31
0.0
 11
790.9125112822987
 21
-184.1078593206598
 31
0.0
 11
790.9280787290988
 21
-184.8622869896598
 31
0.0
  0
SPLINE
  5
2F06
330
1F
100
AcDbEntity
  8
0
  6
Continuous
100
AcDbSpline
210
0.0
220
0.0
230
1.0
 70
     8
 71
     3
 72
    12
 73
     8
 74
     6
 42
0.0000000001
 43
0.0000000001
 44
0.0000000001
 12
0.9988642108357551
 22
0.0476475425543059
 32
0.0
 13
0.2719773564005552
 23
0.9623036514559037
 33
0.0
 40
0.0
 40
0.0
 40
0.0
 40
0.0
 40
0.7934790928603598
 40
1.581513082587281
 40
2.351293654635052
 40
3.094343210545767
 40
3.809046071791046
 40
3.809046071791046
 40
3.809046071791046
 40
3.809046071791046
 10
787.8904430688987
 20
-185.0407703216596
 30
0.0
 10
788.1546356915335
 20
-185.0281678787119
 30
0.0
 10
788.6802247553088
 20
-184.9420508179304
 30
0.0
 10
789.4111645298316
 20
-184.6413398546448
 30
0.0
 10
790.0392763896007
 20
-184.1879723252224
 30
0.0
 10
790.5203385265577
 20
-183.6119929659497
 30
0.0
 10
790.7233830616943
 20
-183.1620667640206
 30
0.0
 10
790.7881773932988
 20
-182.9328130396598
 30
0.0
 11
787.8904430688987
 21
-185.0407703216596
 31
0.0
 11
788.6734886196989
 21
-184.9125176952598
 31
0.0
 11
789.4017396548989
 21
-184.6114396344597
 31
0.0
 11
790.0242364324988
 21
-184.1586042438597
 31
0.0
 11
790.497419419699
 21
-183.5856989260598
 31
0.0
 11
790.7881773932988
 21
-182.9328130396598
 31
0.0
  0
SPLINE
  5
2F07
330
1F
100
AcDbEntity
  8
0
  6
Continuous
100
AcDbSpline
210
0.0
220
0.0
230
1.0
 70
     8
 71
     3
 72
    10
 73
     6
 74
     4
 42
0.0000000001
 43
0.0000000001
 44
0.0000000001
 12
0.3802893442842882
 22
-0.9248675659919241
 32
0.0
 13
8.817764531129999E-5
 23
-0.9999999961123515
 33
0.0
 40
0.0
 40
0.0
 40
0.0
 40
0.0
 40
0.2697969175951235
 40
0.5901893663481173
 40
0.9569228086015416
 40
0.9569228086015416
 40
0.9569228086015416
 40
0.9569228086015416
 10
787.8904430692987
 20
-185.0407494754598
 30
0.0
 10
787.9246433669262
 20
-185.1239249482892
 30
0.0
 10
787.9782473793807
 20
-185.3145180595797
 30
0.0
 10
788.021756692504
 20
-185.6310085478646
 30
0.0
 10
788.0302904710683
 20
-185.8602761461839
 30
0.0
 10
788.0303012502988
 20
-185.9825206264598
 30
0.0
 11
787.8904430692987
 21
-185.0407494754598
 31
0.0
 11
787.9680579574988
 21
-185.2991412436598
 31
0.0
 11
788.0147124834987
 21
-185.6161186504598
 31
0.0
 11
788.0303012502988
 21
-185.9825206264598
 31
0.0
  0
SPLINE
  5
2F08
330
1F
100
AcDbEntity
  8
0
  6
Continuous
100
AcDbSpline
210
0.0
220
0.0
230
1.0
 70
     8
 71
     3
 72
    12
 73
     8
 74
     6
 42
0.0000000001
 43
0.0000000001
 44
0.0000000001
 12
1.0
 22
-2.356100700000000E-9
 32
0.0
 13
0.4695684676865441
 23
0.8828960607877414
 33
0.0
 40
0.0
 40
0.0
 40
0.0
 40
0.0
 40
0.7781631982345096
 40
1.517292838057306
 40
2.183424452947651
 40
2.753758259123741
 40
3.225668586018073
 40
3.225668586018073
 40
3.225668586018073
 40
3.225668586018073
 10
788.0303012502988
 20
-185.9825206264598
 30
0.0
 10
788.2896889830436
 20
-185.982520627071
 30
0.0
 10
788.796140379823
 20
-185.9497639988588
 30
0.0
 10
789.5117475283904
 20
-185.8046902371232
 30
0.0
 10
790.131945257929
 20
-185.5727512090537
 30
0.0
 10
790.6187588048654
 20
-185.2690375868568
 30
0.0
 10
790.8542139927371
 20
-185.0011695792132
 30
0.0
 10
790.9280787290988
 20
-184.8622869896598
 30
0.0
 11
788.0303012502988
 21
-185.9825206264598
 31
0.0
 11
788.8067583856987
 21
-185.9310203354598
 31
0.0
 11
789.5303012502989
 21
-185.7800291186598
 31
0.0
 11
790.1516215936987
 21
-185.5398367806597
 31
0.0
 11
790.6283774614986
 21
-185.2268120324598
 31
0.0
 11
790.9280787290988
 21
-184.8622869896598
 31
0.0
  0
SPLINE
  5
2F09
330
1F
100
AcDbEntity
  8
0
  6
Continuous
100
AcDbSpline
210
0.0
220
0.0
230
1.0
 70
     8
 71
     3
 72
    10
 73
     6
 74
     4
 42
0.0000000001
 43
0.0000000001
 44
0.0000000001
 12
-0.0001568423639636
 22
-0.9999999877002365
 32
0.0
 13
-0.09852004593878461
 23
-0.9951350664850576
 33
0.0
 40
0.0
 40
0.0
 40
0.0
 40
0.0
 40
0.8404173815871885
 40
1.741824315679439
 40
2.67439860887513
 40
2.67439860887513
 40
2.67439860887513
 40
2.67439860887513
 10
790.9280787290988
 20
-184.9973606088596
 30
0.0
 10
790.9280347914159
 20
-185.2774997326097
 30
0.0
 10
790.9165427355773
 20
-185.8581392471838
 30
0.0
 10
790.8697382111213
 20
-186.7485043233237
 30
0.0
 10
790.8188463021677
 20
-187.3578270261059
 30
0.0
 10
790.7882205480987
 20
-187.6671728198598
 30
0.0
 11
790.9280787290988
 21
-184.9973606088596
 31
0.0
 11
790.9125239154988
 21
-185.8376340304598
 31
0.0
 11
790.8657431488989
 21
-186.7378262436598
 31
0.0
 11
790.7882205480987
 21
-187.6671728198598
 31
0.0
  0
SPLINE
  5
2F0A
330
1F
100
AcDbEntity
  8
0
  6
Continuous
100
AcDbSpline
210
0.0
220
0.0
230
1.0
 70
     8
 71
     3
 72
    12
 73
     8
 74
     6
 42
0.0000000001
 43
0.0000000001
 44
0.0000000001
 12
0.9999999999999996
 22
-2.984126980000000E-8
 32
0.0
 13
0.4751619587535486
 23
0.8798983537622349
 33
0.0
 40
0.0
 40
0.0
 40
0.0
 40
0.0
 40
0.7781056320004748
 40
1.516768712748565
 40
2.181599375973829
 40
2.749351884182987
 40
3.217021279539789
 40
3.217021279539789
 40
3.217021279539789
 40
3.217021279539789
 10
788.0303012502988
 20
-186.1006483118597
 30
0.0
 10
788.2896697942989
 20
-186.1006483195996
 30
0.0
 10
788.7959270405452
 20
-186.068406053621
 30
0.0
 10
789.5112988839112
 20
-185.9256244921126
 30
0.0
 10
790.131237516594
 20
-185.6973804308744
 30
0.0
 10
790.6178051081772
 20
-185.3986923636302
 30
0.0
 10
790.8540058271166
 20
-185.1345277858861
 30
0.0
 10
790.9280787290988
 20
-184.9973606088596
 30
0.0
 11
788.0303012502988
 21
-186.1006483118597
 31
0.0
 11
788.8067520330988
 21
-186.0499279368598
 31
0.0
 11
789.5302918612986
 21
-185.9012226448597
 31
0.0
 11
790.1516133234987
 21
-185.6646651436597
 31
0.0
 11
790.6283733244987
 21
-185.3563750010598
 31
0.0
 11
790.9280787290988
 21
-184.9973606088596
 31
0.0
  0
SPLINE
  5
2F0B
330
1F
100
AcDbEntity
  8
0
  6
Continuous
100
AcDbSpline
210
0.0
220
0.0
230
1.0
 70
     8
 71
     3
 72
    10
 73
     6
 74
     4
 42
0.0000000001
 43
0.0000000001
 44
0.0000000001
 12
-8.398668659460000E-5
 22
-0.9999999964731182
 32
0.0
 13
-0.201347148534128
 23
-0.979519946594849
 33
0.0
 40
0.0
 40
0.0
 40
0.0
 40
0.0
 40
0.4071896344188994
 40
0.8441440711210948
 40
1.299536919929405
 40
1.299536919929405
 40
1.299536919929405
 40
1.299536919929405
 10
788.0303012502988
 20
-186.1006483118597
 30
0.0
 10
788.0302898507961
 20
-186.2363781895206
 30
0.0
 10
788.0187146323037
 20
-186.5178246424449
 30
0.0
 10
787.9717986721828
 20
-186.9487165180048
 30
0.0
 10
787.9210070864889
 20
-187.2420394512782
 30
0.0
 10
787.8904430692987
 20
-187.3907282442597
 30
0.0
 11
788.0303012502988
 21
-186.1006483118597
 31
0.0
 11
788.0147250856987
 21
-186.5075399208596
 31
0.0
 11
787.9680102678987
 21
-186.9419900394597
 31
0.0
 11
787.8904430692987
 21
-187.3907282442597
 31
0.0
  0
SPLINE
  5
2F0C
330
1F
100
AcDbEntity
  8
0
  6
Continuous
100
AcDbSpline
210
0.0
220
0.0
230
1.0
 70
     8
 71
     3
 72
    12
 73
     8
 74
     6
 42
0.0000000001
 43
0.0000000001
 44
0.0000000001
 12
-0.09865082037585292
 22
-0.9951221109186407
 32
0.0
 13
0.09865073567606288
 23
-0.9951221193152987
 33
0.0
 40
0.0
 40
0.0
 40
0.0
 40
0.0
 40
2.462597885573232
 40
4.912850124329942
 40
7.356998792770203
 40
9.807977238357161
 40
12.26919211403394
 40
12.26919211403394
 40
12.26919211403394
 40
12.26919211403394
 10
790.7882205480987
 20
-187.6671728198598
 30
0.0
 10
790.7072414475429
 20
-188.4840346886049
 30
0.0
 10
790.5730380200529
 20
-190.1165681760905
 30
0.0
 10
790.4682386513149
 20
-192.5673400406076
 30
0.0
 10
790.4682528848122
 20
-195.0165779191243
 30
0.0
 10
790.5730859009884
 20
-197.4671296351058
 30
0.0
 10
790.7072869953846
 20
-199.0994429522018
 30
0.0
 10
790.7882205480987
 20
-199.9158460732597
 30
0.0
 11
790.7882205480987
 21
-187.6671728198598
 31
0.0
 11
790.5888367180986
 21
-190.1216858946598
 31
0.0
 11
790.4856275888988
 21
-192.5697634892597
 31
0.0
 11
790.4856416220987
 21
-195.0139121576597
 31
0.0
 11
790.5889229292989
 21
-197.4627135608598
 31
0.0
 11
790.7882205480987
 21
-199.9158460732597
 31
0.0
  0
SPLINE
  5
2F0D
330
1F
100
AcDbEntity
  8
0
  6
Continuous
100
AcDbSpline
210
0.0
220
0.0
230
1.0
 70
     8
 71
     3
 72
    12
 73
     8
 74
     6
 42
0.0000000001
 43
0.0000000001
 44
0.0000000001
 12
-0.0949610290213503
 22
-0.9954809907613537
 32
0.0
 13
0.0949608450454162
 23
-0.9954810083111885
 33
0.0
 40
0.0
 40
0.0
 40
0.0
 40
0.0
 40
2.566999816494707
 40
5.130302696098534
 40
7.691396540116395
 40
10.25549002302214
 40
12.82123666247279
 40
12.82123666247279
 40
12.82123666247279
 40
12.82123666247279
 10
787.8904430692987
 20
-187.3907282442597
 30
0.0
 10
787.8091880879414
 20
-188.2425280844625
 30
0.0
 10
787.6748873241207
 20
-189.9477673921083
 30
0.0
 10
787.5704608507189
 20
-192.510088365338
 30
0.0
 10
787.5704704732252
 20
-195.0736567609933
 30
0.0
 10
787.6749255423405
 20
-197.635822701848
 30
0.0
 10
787.8092279129472
 20
-199.3409066316227
 30
0.0
 10
787.8904430692987
 20
-200.1922906488598
 30
0.0
 11
787.8904430692987
 21
-187.3907282442597
 31
0.0
 11
787.6909754438988
 21
-189.9499665536598
 31
0.0
 11
787.5878410098986
 21
-192.5111937870596
 31
0.0
 11
787.5878505448986
 21
-195.0722876310597
 31
0.0
 11
787.6910504308987
 21
-197.6343034726597
 31
0.0
 11
787.8904430692987
 21
-200.1922906488598
 31
0.0
  0
SPLINE
  5
2F0E
330
1F
100
AcDbEntity
  8
0
  6
Continuous
100
AcDbSpline
210
0.0
220
0.0
230
1.0
 70
     8
 71
     3
 72
    10
 73
     6
 74
     4
 42
0.0000000001
 43
0.0000000001
 44
0.0000000001
 12
0.0985242804990643
 22
-0.9951346472473671
 32
0.0
 13
0.0001628780384741
 23
-0.9999999867353722
 33
0.0
 40
0.0
 40
0.0
 40
0.0
 40
0.0
 40
0.9325640399759305
 40
1.833978402414649
 40
2.674398611839901
 40
2.674398611839901
 40
2.674398611839901
 40
2.674398611839901
 10
790.7882205480987
 20
-199.9158460732597
 30
0.0
 10
790.8188472817847
 20
-200.2251883355787
 30
0.0
 10
790.8697382549867
 20
-200.8345101925969
 30
0.0
 10
790.9165426220694
 20
-201.724875303267
 30
0.0
 10
790.9280331004338
 20
-202.3055182181674
 30
0.0
 10
790.9280787290988
 20
-202.5856582842599
 30
0.0
 11
790.7882205480987
 21
-199.9158460732597
 31
0.0
 11
790.8657429806987
 21
-200.8451823746598
 31
0.0
 11
790.9125234118988
 21
-201.7453820436597
 31
0.0
 11
790.9280787290988
 21
-202.5856582842599
 31
0.0
  0
SPLINE
  5
2F0F
330
1F
100
AcDbEntity
  8
0
  6
Continuous
100
AcDbSpline
210
0.0
220
0.0
230
1.0
 70
     8
 71
     3
 72
    10
 73
     6
 74
     4
 42
0.0000000001
 43
0.0000000001
 44
0.0000000001
 12
0.2014094931022661
 22
-0.979507129166648
 32
0.0
 13
8.733374712750000E-5
 23
-0.9999999961864085
 33
0.0
 40
0.0
 40
0.0
 40
0.0
 40
0.0
 40
0.4554215261411975
 40
0.8923734870205942
 40
1.299536590652667
 40
1.299536590652667
 40
1.299536590652667
 40
1.299536590652667
 10
787.8904430692987
 20
-200.1922906488598
 30
0.0
 10
787.9210184755414
 20
-200.3409868594036
 30
0.0
 10
787.9717932903723
 20
-200.6343220600605
 30
0.0
 10
788.0187143453148
 20
-201.0652125912171
 30
0.0
 10
788.0302893972722
 20
-201.3466495470334
 30
0.0
 10
788.0303012502988
 20
-201.4823705810598
 30
0.0
 11
787.8904430692987
 21
-200.1922906488598
 31
0.0
 11
787.9680114838988
 21
-200.6410577460597
 31
0.0
 11
788.0147248406987
 21
-201.0755055316598
 31
0.0
 11
788.0303012502988
 21
-201.4823705810598
 31
0.0
  0
SPLINE
  5
2F10
330
1F
100
AcDbEntity
  8
0
  6
Continuous
100
AcDbSpline
210
0.0
220
0.0
230
1.0
 70
     8
 71
     3
 72
    12
 73
     8
 74
     6
 42
0.0000000001
 43
0.0000000001
 44
0.0000000001
 12
1.0
 22
-2.362433800000000E-9
 32
0.0
 13
0.4751619800581344
 23
-0.8798983422573503
 33
0.0
 40
0.0
 40
0.0
 40
0.0
 40
0.0
 40
0.7781120275137053
 40
1.516778456462497
 40
2.181608576947885
 40
2.749357309212514
 40
3.2170213095828
 40
3.2170213095828
 40
3.2170213095828
 40
3.2170213095828
 10
788.0303012502988
 20
-201.4823705810598
 30
0.0
 10
788.2896719261366
 20
-201.4823705816725
 30
0.0
 10
788.7959324358104
 20
-201.5146133263222
 30
0.0
 10
789.5113071122107
 20
-201.6573965915233
 30
0.0
 10
790.1312449078585
 20
-201.8856420541821
 30
0.0
 10
790.6178088214729
 20
-202.1843299822482
 30
0.0
 10
790.8540066782929
 20
-202.4484926913735
 30
0.0
 10
790.9280787290988
 20
-202.5856582842599
 30
0.0
 11
788.0303012502988
 21
-201.4823705810598
 31
0.0
 11
788.8067583856987
 21
-201.5330918216599
 31
0.0
 11
789.5303012502989
 21
-201.6817989712598
 31
0.0
 11
790.1516215936987
 21
-201.9183578856599
 31
0.0
 11
790.6283774614986
 21
-202.2266474662597
 31
0.0
 11
790.9280787290988
 21
-202.5856582842599
 31
0.0
  0
SPLINE
  5
2F11
330
1F
100
AcDbEntity
  8
0
  6
Continuous
100
AcDbSpline
210
0.0
220
0.0
230
1.0
 70
     8
 71
     3
 72
    10
 73
     6
 74
     4
 42
0.0000000001
 43
0.0000000001
 44
0.0000000001
 12
-0.0001586712021437
 22
-0.9999999874117248
 32
0.0
 13
-0.1991240321377583
 23
-0.9799742954920813
 33
0.0
 40
0.0
 40
0.0
 40
0.0
 40
0.0
 40
0.7546916243989893
 40
1.406472756335811
 40
1.937005555116629
 40
1.937005555116629
 40
1.937005555116629
 40
1.937005555116629
 10
790.9280787290988
 20
-202.7207319034598
 30
0.0
 10
790.9280388131564
 20
-202.9722957750927
 30
0.0
 10
790.9197122472118
 20
-203.441244475848
 30
0.0
 10
790.8766956004128
 20
-204.085677099605
 30
0.0
 10
790.8234344914569
 20
-204.4768957158196
 30
0.0
 10
790.7882205480987
 20
-204.6501985510598
 30
0.0
 11
790.9280787290988
 21
-202.7207319034598
 31
0.0
 11
790.9125072262987
 21
-203.4752628678599
 31
0.0
 11
790.8657961334989
 21
-204.1253680268598
 31
0.0
 11
790.7882205480987
 21
-204.6501985510598
 31
0.0
  0
SPLINE
  5
2F12
330
1F
100
AcDbEntity
  8
0
  6
Continuous
100
AcDbSpline
210
0.0
220
0.0
230
1.0
 70
     8
 71
     3
 72
    12
 73
     8
 74
     6
 42
0.0000000001
 43
0.0000000001
 44
0.0000000001
 12
0.9999999999999996
 22
-3.056730700000000E-8
 32
0.0
 13
0.4695684890629496
 23
-0.8828960494186949
 33
0.0
 40
0.0
 40
0.0
 40
0.0
 40
0.0
 40
0.7781567810595382
 40
1.517283056269972
 40
2.1834151986938
 40
2.753752771245097
 40
3.22566851873577
 40
3.22566851873577
 40
3.22566851873577
 40
3.22566851873577
 10
788.0303012502988
 20
-201.6004982666598
 30
0.0
 10
788.2896868439852
 20
-201.6004982745885
 30
0.0
 10
788.7961349618483
 20
-201.6332544415112
 30
0.0
 10
789.5117392620887
 20
-201.7783264927173
 30
0.0
 10
790.1319378301191
 20
-202.0102640901073
 30
0.0
 10
790.6187550856844
 20
-202.3139778297874
 30
0.0
 10
790.8542131409274
 20
-202.5818477204205
 30
0.0
 10
790.9280787290988
 20
-202.7207319034598
 30
0.0
 11
788.0303012502988
 21
-201.6004982666598
 31
0.0
 11
788.8067520100987
 21
-201.6519977182598
 31
0.0
 11
789.5302918272989
 21
-201.8029870676598
 31
0.0
 11
790.1516132934987
 21
-202.0431779642598
 31
0.0
 11
790.6283733094988
 21
-202.3562032568598
 31
0.0
 11
790.9280787290988
 21
-202.7207319034598
 31
0.0
  0
SPLINE
  5
2F13
330
1F
100
AcDbEntity
  8
0
  6
Continuous
100
AcDbSpline
210
0.0
220
0.0
230
1.0
 70
     8
 71
     3
 72
    10
 73
     6
 74
     4
 42
0.0000000001
 43
0.0000000001
 44
0.0000000001
 12
-8.498652529880001E-5
 22
-0.9999999963886453
 32
0.0
 13
-0.3801804508711955
 23
-0.9249123335621461
 33
0.0
 40
0.0
 40
0.0
 40
0.0
 40
0.0
 40
0.3668056999646557
 40
0.6871147938578901
 40
0.956923461890228
 40
0.956923461890228
 40
0.956923461890228
 40
0.956923461890228
 10
788.0303012502988
 20
-201.6004982666598
 30
0.0
 10
788.0302908591182
 20
-201.7227668328731
 30
0.0
 10
788.0217554462404
 20
-201.9520301064283
 30
0.0
 10
787.9782513060837
 20
-202.2685235136584
 30
0.0
 10
787.9246350629859
 20
-202.4590862960715
 30
0.0
 10
787.8904430692987
 20
-202.5422694176598
 30
0.0
 11
788.0303012502988
 21
-201.6004982666598
 31
0.0
 11
788.0147081004988
 21
-201.9669723792597
 31
0.0
 11
787.9680631658989
 21
-202.2838669448598
 31
0.0
 11
787.8904430692987
 21
-202.5422694176598
 31
0.0
  0
SPLINE
  5
2F14
330
1F
100
AcDbEntity
  8
0
  6
Continuous
100
AcDbSpline
210
0.0
220
0.0
230
1.0
 70
     8
 71
     3
 72
    16
 73
    12
 74
    10
 42
0.0000000001
 43
0.0000000001
 44
0.0000000001
 12
-0.1994465020116148
 22
-0.9799087165829943
 32
0.0
 13
0.1897644878474301
 23
-0.9818296385585448
 33
0.0
 40
0.0
 40
0.0
 40
0.0
 40
0.0
 40
0.9736530815622035
 40
1.868747612996905
 40
2.676363216431684
 40
3.399991470773764
 40
4.051804355266883
 40
4.643156128220437
 40
5.185074318577706
 40
5.688701143183602
 40
6.16621097185102
 40
6.16621097185102
 40
6.16621097185102
 40
6.16621097185102
 10
790.7882205480987
 20
-204.6501985510598
 30
0.0
 10
790.7234899810019
 20
-204.9682289315767
 30
0.0
 10
790.615842990434
 20
-205.5822027781599
 30
0.0
 10
790.5148399477416
 20
-206.4691154807743
 30
0.0
 10
790.471013070846
 20
-207.2771534598806
 30
0.0
 10
790.4710646060211
 20
-208.0051519844564
 30
0.0
 10
790.5023122793808
 20
-208.6602169685428
 30
0.0
 10
790.5549493622175
 20
-209.2530523234038
 30
0.0
 10
790.6221454041852
 20
-209.7946260986138
 30
0.0
 10
790.6996933562444
 20
-210.2964165033672
 30
0.0
 10
790.7580157454056
 20
-210.6182574103635
 30
0.0
 10
790.7882205480987
 20
-210.7745351778597
 30
0.0
 11
790.7882205480987
 21
-204.6501985510598
 31
0.0
 11
790.6213950188987
 21
-205.6094532440599
 31
0.0
 11
790.5207969184987
 21
-206.4988767890598
 31
0.0
 11
790.4772001010988
 21
-207.3053148092597
 31
0.0
 11
790.4771058194987
 21
-208.0289430574598
 31
0.0
 11
790.5079206076988
 21
-208.6800271420598
 31
0.0
 11
790.5599752632988
 21
-209.2690833636598
 31
0.0
 11
790.6264882568988
 21
-209.8069042880598
 31
0.0
 11
790.7032276650989
 21
-210.3046502490597
 31
0.0
 11
790.7882205480987
 21
-210.7745351778597
 31
0.0
  0
SPLINE
  5
2F15
330
1F
100
AcDbEntity
  8
0
  6
Continuous
100
AcDbSpline
210
0.0
220
0.0
230
1.0
 70
     8
 71
     3
 72
    12
 73
     8
 74
     6
 42
0.0000000001
 43
0.0000000001
 44
0.0000000001
 12
0.9988643257451766
 22
-0.0476451335776667
 32
0.0
 13
0.2719995614013289
 23
-0.962297375345836
 33
0.0
 40
0.0
 40
0.0
 40
0.0
 40
0.0
 40
0.7934826433037416
 40
1.58151981945748
 40
2.351302948105857
 40
3.094354183844226
 40
3.809057630262116
 40
3.809057630262116
 40
3.809057630262116
 40
3.809057630262116
 10
787.8904430692987
 20
-202.5422694860597
 30
0.0
 10
788.1546369044635
 20
-202.554871348237
 30
0.0
 10
788.6802284008697
 20
-202.6409862481245
 30
0.0
 10
789.4111736055191
 20
-202.9416915520524
 30
0.0
 10
790.0392934219427
 20
-203.395051866385
 30
0.0
 10
790.5203666500718
 20
-203.9710237458102
 30
0.0
 10
790.7234211388461
 20
-204.4209460893804
 30
0.0
 10
790.7882208134987
 20
-204.6501985062599
 30
0.0
 11
787.8904430692987
 21
-202.5422694860597
 31
0.0
 11
788.6734927282989
 21
-202.6705189958598
 31
0.0
 11
789.4017494762985
 21
-202.9715915784598
 31
0.0
 11
790.0242544448986
 21
-203.4244200550598
 31
0.0
 11
790.4974486166987
 21
-203.9973183136597
 31
0.0
 11
790.7882208134987
 21
-204.6501985062599
 31
0.0
  0
SPLINE
  5
2F16
330
1F
100
AcDbEntity
  8
0
  6
Continuous
100
AcDbSpline
210
0.0
220
0.0
230
1.0
 70
     8
 71
     3
 72
    16
 73
    12
 74
    10
 42
0.0000000001
 43
0.0000000001
 44
0.0000000001
 12
-0.187410272787989
 22
-0.9822817262137842
 32
0.0
 13
0.1874161974102595
 23
-0.9822805958321068
 33
0.0
 40
0.0
 40
0.0
 40
0.0
 40
0.0
 40
1.036707077993405
 40
1.986703980510566
 40
2.83929337065026
 40
3.597868248540358
 40
4.275990928572637
 40
4.886710770540123
 40
5.442663061899358
 40
5.956325009927323
 40
6.44094658442564
 40
6.44094658442564
 40
6.44094658442564
 40
6.44094658442564
 10
787.8904430692987
 20
-202.5422694176598
 30
0.0
 10
787.8256798838694
 20
-202.881715557043
 30
0.0
 10
787.7181975555113
 20
-203.535569451391
 30
0.0
 10
787.6172376704119
 20
-204.4770860418416
 30
0.0
 10
787.5733076491337
 20
-205.3300922667353
 30
0.0
 10
787.5732251523967
 20
-206.0934866283789
 30
0.0
 10
787.6043797792584
 20
-206.7754556203389
 30
0.0
 10
787.6569726190156
 20
-207.3882749520992
 30
0.0
 10
787.7241565031367
 20
-207.9444397593566
 30
0.0
 10
787.801708867553
 20
-208.4567466087635
 30
0.0
 10
787.8601677584069
 20
-208.7843724968761
 30
0.0
 10
787.8904430692987
 20
-208.9430506198598
 30
0.0
 11
787.8904430692987
 21
-202.5422694176598
 31
0.0
 11
787.7235376544987
 21
-203.5654527580598
 31
0.0
 11
787.6229891658987
 21
-204.5101136052597
 31
0.0
 11
787.5794174556987
 21
-205.3615888980598
 31
0.0
 11
787.5793313218989
 21
-206.1201637710598
 31
0.0
 11
787.6101479948986
 21
-206.7975858712598
 31
0.0
 11
787.6622020482989
 21
-207.4060832836597
 31
0.0
 11
787.7287124710988
 21
-207.9580428056598
 31
0.0
 11
787.8054472888988
 21
-208.4659407920597
 31
0.0
 11
787.8904430692987
 21
-208.9430506198598
 31
0.0
  0
SPLINE
  5
2F17
330
1F
100
AcDbEntity
  8
0
  6
Continuous
100
AcDbSpline
210
0.0
220
0.0
230
1.0
 70
     8
 71
     3
 72
    10
 73
     6
 74
     4
 42
0.0000000001
 43
0.0000000001
 44
0.0000000001
 12
0.1895909623994518
 22
-0.981863161024208
 32
0.0
 13
0.0293888753639536
 23
-0.9995680537136239
 33
0.0
 40
0.0
 40
0.0
 40
0.0
 40
0.0
 40
0.4123356308577054
 40
0.6658752150724276
 40
0.7534441969729386
 40
0.7534441969729386
 40
0.7534441969729386
 40
0.7534441969729386
 10
790.7882205480987
 20
-210.7745351778597
 30
0.0
 10
790.814278917794
 20
-210.9094875664987
 30
0.0
 10
790.8597764761962
 20
-211.1271084910177
 30
0.0
 10
790.8968284916675
 20
-211.3748621043916
 30
0.0
 10
790.9272208778006
 20
-211.4857036889918
 30
0.0
 10
790.9280787290988
 20
-211.5148807412598
 30
0.0
 11
790.7882205480987
 21
-210.7745351778597
 31
0.0
 11
790.8657368038988
 21
-211.1795190078598
 31
0.0
 11
790.9125137548986
 21
-211.4287061616598
 31
0.0
 11
790.9280787290988
 21
-211.5148807412598
 31
0.0
  0
SPLINE
  5
2F18
330
1F
100
AcDbEntity
  8
0
  6
Continuous
100
AcDbSpline
210
0.0
220
0.0
230
1.0
 70
     8
 71
     3
 72
    12
 73
     8
 74
     6
 42
0.0000000001
 43
0.0000000001
 44
0.0000000001
 12
0.9988644045133837
 22
0.0476434821998089
 32
0.0
 13
0.2789361700423457
 23
-0.9603096443554589
 33
0.0
 40
0.0
 40
0.0
 40
0.0
 40
0.0
 40
0.7848747617689104
 40
1.549067241378059
 40
2.285481069188703
 40
2.99430931011522
 40
3.683765952802854
 40
3.683765952802854
 40
3.683765952802854
 40
3.683765952802854
 10
787.8904430688987
 20
-208.9430312006598
 30
0.0
 10
788.1517708894093
 20
-208.9305664784127
 30
0.0
 10
788.6725172230285
 20
-208.9648917032043
 30
0.0
 10
789.4064484450025
 20
-209.1950259449361
 30
0.0
 10
790.0385849259092
 20
-209.5898760932352
 30
0.0
 10
790.5228175274713
 20
-210.1239956649155
 30
0.0
 10
790.7240754626582
 20
-210.5538485436806
 30
0.0
 10
790.7881802610988
 20
-210.7745458314599
 30
0.0
 11
787.8904430688987
 21
-208.9430312006598
 31
0.0
 11
788.6734888756988
 21
-208.9965817012598
 31
0.0
 11
789.4017402770987
 21
-209.2281849012598
 31
0.0
 11
790.0242375928987
 21
-209.6216342850598
 31
0.0
 11
790.4974213268988
 21
-210.1493980854598
 31
0.0
 11
790.7881802610988
 21
-210.7745458314599
 31
0.0
  0
SPLINE
  5
2F19
330
1F
100
AcDbEntity
  8
0
  6
Continuous
100
AcDbSpline
210
0.0
220
0.0
230
1.0
 70
     8
 71
     3
 72
    10
 73
     6
 74
     4
 42
0.0000000001
 43
0.0000000001
 44
0.0000000001
 12
0.3804026692356378
 22
-0.9248209606396267
 32
0.0
 13
0.0162188277325963
 23
-0.999868466162915
 33
0.0
 40
0.0
 40
0.0
 40
0.0
 40
0.0
 40
0.205757825664605
 40
0.3318543841216969
 40
0.3753466711066493
 40
0.3753466711066493
 40
0.3753466711066493
 40
0.3753466711066493
 10
787.8904430692987
 20
-208.9430506198598
 30
0.0
 10
787.916533344665
 20
-209.0064803365232
 30
0.0
 10
787.9625785717217
 20
-209.1081351629101
 30
0.0
 10
787.998101671127
 20
-209.2263279611064
 30
0.0
 10
788.0300661189954
 20
-209.2768638789673
 30
0.0
 10
788.0303012502988
 20
-209.2913594010598
 30
0.0
 11
787.8904430692987
 21
-208.9430506198598
 31
0.0
 11
787.9680042810987
 21
-209.1336301078598
 31
0.0
 11
788.0147177878989
 21
-209.2507547864598
 31
0.0
 11
788.0303012502988
 21
-209.2913594010598
 31
0.0
  0
SPLINE
  5
2F1A
330
1F
100
AcDbEntity
  8
0
  6
Continuous
100
AcDbSpline
210
0.0
220
0.0
230
1.0
 70
     8
 71
     3
 72
    12
 73
     8
 74
     6
 42
0.0000000001
 43
0.0000000001
 44
0.0000000001
 12
0.9999893255373594
 22
-0.0046204773927917
 32
0.0
 13
0.2588213827271133
 23
-0.9659251999214148
 33
0.0
 40
0.0
 40
0.0
 40
0.0
 40
0.0
 40
0.7695618352447952
 40
1.552717878276203
 40
2.335872222085258
 40
3.119024603625189
 40
3.902175286045449
 40
3.902175286045449
 40
3.902175286045449
 40
3.902175286045449
 10
788.0440116042986
 20
-209.2913910812598
 30
0.0
 10
788.3005294778271
 20
-209.2925763289472
 30
0.0
 10
788.8202224808257
 20
-209.3620458780704
 30
0.0
 10
789.5474438376723
 20
-209.6634084021659
 30
0.0
 10
790.1760379538364
 20
-210.1457477730629
 30
0.0
 10
790.6581298603478
 20
-210.7737797666653
 30
0.0
 10
790.860513348263
 20
-211.262725748098
 30
0.0
 10
790.9280787290988
 20
-211.5148807412598
 30
0.0
 11
788.0440116042986
 21
-209.2913910812598
 31
0.0
 11
788.8067583856987
 21
-209.3935809326597
 31
0.0
 11
789.5303012502989
 21
-209.6932792990596
 31
0.0
 11
790.1516215938989
 21
-210.1700305516597
 31
0.0
 11
790.6283774614986
 21
-210.7913448806598
 31
0.0
 11
790.9280787290988
 21
-211.5148807412598
 31
0.0
  0
SPLINE
  5
2F1B
330
1F
100
AcDbEntity
  8
0
  6
Continuous
100
AcDbSpline
210
0.0
220
0.0
230
1.0
 70
     8
 71
     3
 72
     8
 73
     4
 74
     2
 42
0.0000000001
 43
0.0000000001
 44
0.0000000001
 12
1.0
 22
0.0
 32
0.0
 13
0.9999893255314296
 23
-0.0046204786761487
 33
0.0
 40
0.0
 40
0.0
 40
0.0
 40
0.0
 40
0.013710390601147
 40
0.013710390601147
 40
0.013710390601147
 40
0.013710390601147
 10
788.0303012502988
 20
-209.2913594010598
 30
0.0
 10
788.0348713804991
 20
-209.2913594010598
 30
0.0
 10
788.0394415228819
 20
-209.2913699650707
 30
0.0
 10
788.0440116042986
 20
-209.2913910812598
 30
0.0
 11
788.0303012502988
 21
-209.2913594010598
 31
0.0
 11
788.0440116042986
 21
-209.2913910812598
 31
0.0
  0
SPLINE
  5
2F1C
330
1F
100
AcDbEntity
  8
0
  6
Continuous
100
AcDbSpline
210
0.0
220
0.0
230
1.0
 70
     8
 71
     3
 72
    10
 73
     6
 74
     4
 42
0.0000000001
 43
0.0000000001
 44
0.0000000001
 12
0.2948360420613914
 22
-0.955547857672013
 32
0.0
 13
0.4370101218866693
 23
-0.8994565878176659
 33
0.0
 40
0.0
 40
0.0
 40
0.0
 40
0.0
 40
0.2691192402032275
 40
0.8185326324487977
 40
1.387327364780435
 40
1.387327364780435
 40
1.387327364780435
 40
1.387327364780435
 10
775.7033160242987
 20
-207.6559868522598
 30
0.0
 10
775.7297647081734
 20
-207.7417056234046
 30
0.0
 10
775.8147918191562
 20
-208.0010210187237
 30
0.0
 10
775.9808553256071
 20
-208.4329649749953
 30
0.0
 10
776.1351288473306
 20
-208.7725152301559
 30
0.0
 10
776.2179851990989
 20
-208.9430506198598
 30
0.0
 11
775.7033160242987
 21
-207.6559868522598
 31
0.0
 11
775.7870755976988
 21
-207.9117396612598
 31
0.0
 11
775.9834658280987
 21
-208.4248536378598
 31
0.0
 11
776.2179851990989
 21
-208.9430506198598
 31
0.0
  0
SPLINE
  5
2F1D
330
1F
100
AcDbEntity
  8
0
  6
Continuous
100
AcDbSpline
210
0.0
220
0.0
230
1.0
 70
     8
 71
     3
 72
     8
 73
     4
 74
     2
 42
0.0000000001
 43
0.0000000001
 44
0.0000000001
 12
0.2604741429917636
 22
-0.9654808236483552
 32
0.0
 13
0.2948360418866372
 23
-0.9555478577259337
 33
0.0
 40
0.0
 40
0.0
 40
0.0
 40
0.0
 40
0.2657713477141989
 40
0.2657713477141989
 40
0.2657713477141989
 40
0.2657713477141989
 10
775.6294655920987
 20
-207.4006820874596
 30
0.0
 10
775.6525411134412
 20
-207.4862144673573
 30
0.0
 10
775.6771963668964
 20
-207.5713344382754
 30
0.0
 10
775.7033160242987
 20
-207.6559868522598
 30
0.0
 11
775.6294655920987
 21
-207.4006820874596
 31
0.0
 11
775.7033160242987
 21
-207.6559868522598
 31
0.0
  0
SPLINE
  5
2F1E
330
1F
100
AcDbEntity
  8
0
  6
Continuous
100
AcDbSpline
210
0.0
220
0.0
230
1.0
 70
     8
 71
     3
 72
    10
 73
     6
 74
     4
 42
0.0000000001
 43
0.0000000001
 44
0.0000000001
 12
-0.4370101219267419
 22
-0.8994565877981962
 32
0.0
 13
-0.2604741432473246
 23
-0.9654808235794082
 33
0.0
 40
0.0
 40
0.0
 40
0.0
 40
0.0
 40
0.5703023403479879
 40
1.119594667510595
 40
1.653017386784566
 40
1.653017386784566
 40
1.653017386784566
 40
1.653017386784566
 10
776.2179851990989
 20
-202.5422694176598
 30
0.0
 10
776.134909234002
 20
-202.7132568166807
 30
0.0
 10
775.9804625805257
 20
-203.0532533511739
 30
0.0
 10
775.7827003561272
 20
-203.5678948401377
 30
0.0
 10
775.6757798673625
 20
-203.9129681479528
 30
0.0
 10
775.6294655920987
 20
-204.0846379500597
 30
0.0
 11
776.2179851990989
 21
-202.5422694176598
 31
0.0
 11
775.9828838400986
 21
-203.0618578224598
 31
0.0
 11
775.7866217970988
 21
-203.5748912240598
 31
0.0
 11
775.6294655920987
 21
-204.0846379500597
 31
0.0
  0
SPLINE
  5
2F1F
330
1F
100
AcDbEntity
  8
0
  6
Continuous
100
AcDbSpline
210
0.0
220
0.0
230
1.0
 70
     8
 71
     3
 72
    10
 73
     6
 74
     4
 42
0.0000000001
 43
0.0000000001
 44
0.0000000001
 12
-0.1336827046177914
 22
-0.9910241846120973
 32
0.0
 13
0.0
 23
-1.0
 33
0.0
 40
0.0
 40
0.0
 40
0.0
 40
0.0
 40
0.3217663641911308
 40
0.6563554658663784
 40
1.00315696468117
 40
1.00315696468117
 40
1.00315696468117
 40
1.00315696468117
 10
775.6294655920987
 20
-190.4754653090597
 30
0.0
 10
775.6151273928253
 20
-190.5817580586291
 30
0.0
 10
775.5941102257427
 20
-190.7997041246045
 30
0.0
 10
775.5785389123288
 20
-191.1337983996707
 30
0.0
 10
775.5758757536987
 20
-191.3609530958549
 30
0.0
 10
775.5758757536987
 20
-191.4765535954598
 30
0.0
 11
775.6294655920987
 21
-190.4754653090597
 31
0.0
 11
775.5971233302988
 21
-190.7956021098597
 31
0.0
 11
775.5806365950989
 21
-191.1297847762598
 31
0.0
 11
775.5758757536987
 21
-191.4765535954598
 31
0.0
  0
SPLINE
  5
2F20
330
1F
100
AcDbEntity
  8
0
  6
Continuous
100
AcDbSpline
210
0.0
220
0.0
230
1.0
 70
     8
 71
     3
 72
    10
 73
     6
 74
     4
 42
0.0000000001
 43
0.0000000001
 44
0.0000000001
 12
0.0
 22
-1.0
 32
0.0
 13
0.2604741432810684
 23
-0.9654808235703045
 33
0.0
 40
0.0
 40
0.0
 40
0.0
 40
0.0
 40
0.1734485611071585
 40
0.3413519319316642
 40
0.5046556243810605
 40
0.5046556243810605
 40
0.5046556243810605
 40
0.5046556243810605
 10
775.5758757536987
 20
-182.9978367998597
 30
0.0
 10
775.5758757536987
 20
-183.0556529868954
 30
0.0
 10
775.5785501918895
 20
-183.1694842905347
 30
0.0
 10
775.5942017866877
 20
-183.3371232139892
 30
0.0
 10
775.6152867956369
 20
-183.4458254152338
 30
0.0
 10
775.6294655920987
 20
-183.4983809430598
 30
0.0
 11
775.5758757536987
 21
-182.9978367998597
 31
0.0
 11
775.5806365244989
 21
-183.1712200124598
 31
0.0
 11
775.5971232510987
 21
-183.3383119924596
 31
0.0
 11
775.6294655920987
 21
-183.4983809430598
 31
0.0
  0
SPLINE
  5
2F21
330
1F
100
AcDbEntity
  8
0
  6
Continuous
100
AcDbSpline
210
0.0
220
0.0
230
1.0
 70
     8
 71
     3
 72
    10
 73
     6
 74
     4
 42
0.0000000001
 43
0.0000000001
 44
0.0000000001
 12
-0.2604741433514946
 22
-0.9654808235513044
 32
0.0
 13
0.0
 23
-1.0
 33
0.0
 40
0.0
 40
0.0
 40
0.0
 40
0.0
 40
0.1633031374622366
 40
0.3312058654569866
 40
0.5046556250508525
 40
0.5046556250508525
 40
0.5046556250508525
 40
0.5046556250508525
 10
775.6294655920987
 20
-204.0846379500597
 30
0.0
 10
775.6152868438196
 20
-204.1371932992749
 30
0.0
 10
775.5942018854489
 20
-204.2458951005984
 30
0.0
 10
775.5785502141202
 20
-204.4135340166003
 30
0.0
 10
775.5758757536987
 20
-204.5273655067285
 30
0.0
 10
775.5758757536987
 20
-204.5851820932598
 30
0.0
 11
775.6294655920987
 21
-204.0846379500597
 31
0.0
 11
775.5971233302988
 21
-204.2447063504599
 31
0.0
 11
775.5806365950989
 21
-204.4117976836598
 31
0.0
 11
775.5758757536987
 21
-204.5851820932598
 31
0.0
  0
SPLINE
  5
2F22
330
1F
100
AcDbEntity
  8
0
  6
Continuous
100
AcDbSpline
210
0.0
220
0.0
230
1.0
 70
     8
 71
     3
 72
    10
 73
     6
 74
     4
 42
0.0000000001
 43
0.0000000001
 44
0.0000000001
 12
0.0
 22
-1.0
 32
0.0
 13
0.1336827046706177
 23
-0.9910241846049714
 33
0.0
 40
0.0
 40
0.0
 40
0.0
 40
0.0
 40
0.3467991042712896
 40
0.681389497351534
 40
1.003156964330662
 40
1.003156964330662
 40
1.003156964330662
 40
1.003156964330662
 10
775.5758757536987
 20
-196.1064652976597
 30
0.0
 10
775.5758757536987
 20
-196.2220649990835
 30
0.0
 10
775.57853889032
 20
-196.4492193269189
 30
0.0
 10
775.594110127216
 20
-196.7833136056526
 30
0.0
 10
775.6151273436784
 20
-197.0012604701948
 30
0.0
 10
775.6294655920987
 20
-197.1075535840599
 30
0.0
 11
775.5758757536987
 21
-196.1064652976597
 31
0.0
 11
775.5806365244989
 21
-196.4532317230598
 31
0.0
 11
775.5971232510987
 21
-196.7874156828598
 31
0.0
 11
775.6294655920987
 21
-197.1075535840599
 31
0.0
  0
SPLINE
  5
2F23
330
1F
100
AcDbEntity
  8
0
  6
Continuous
100
AcDbSpline
210
0.0
220
0.0
230
1.0
 70
     8
 71
     3
 72
    10
 73
     6
 74
     4
 42
0.0000000001
 43
0.0000000001
 44
0.0000000001
 12
0.0
 22
-1.0
 32
0.0
 13
0.2604741432810684
 23
-0.9654808235703045
 33
0.0
 40
0.0
 40
0.0
 40
0.0
 40
0.0
 40
0.1734485613069731
 40
0.3413519319327529
 40
0.5046556243816477
 40
0.5046556243816477
 40
0.5046556243816477
 40
0.5046556243816477
 10
775.5758757536987
 20
-206.9001379442598
 30
0.0
 10
775.5758757536987
 20
-206.9579541313621
 30
0.0
 10
775.5785501918704
 20
-207.071785435003
 30
0.0
 10
775.5942017867064
 20
-207.2394243584541
 30
0.0
 10
775.6152867956369
 20
-207.3481265596337
 30
0.0
 10
775.6294655920987
 20
-207.4006820874596
 30
0.0
 11
775.5758757536987
 21
-206.9001379442598
 31
0.0
 11
775.5806365244989
 21
-207.0735211570598
 31
0.0
 11
775.5971232510987
 21
-207.2406131368599
 31
0.0
 11
775.6294655920987
 21
-207.4006820874596
 31
0.0
  0
SPLINE
  5
2F24
330
1F
100
AcDbEntity
  8
0
  6
Continuous
100
AcDbSpline
210
0.0
220
0.0
230
1.0
 70
     8
 71
     3
 72
    10
 73
     6
 74
     4
 42
0.0000000001
 43
0.0000000001
 44
0.0000000001
 12
-0.2604741433514946
 22
-0.9654808235513044
 32
0.0
 13
0.0
 23
-1.0
 33
0.0
 40
0.0
 40
0.0
 40
0.0
 40
0.0
 40
0.1633031374619302
 40
0.3312058654567651
 40
0.5046556250506309
 40
0.5046556250506309
 40
0.5046556250506309
 40
0.5046556250506309
 10
775.6294655920987
 20
-180.1823368054598
 30
0.0
 10
775.6152868438196
 20
-180.2348921546749
 30
0.0
 10
775.594201885449
 20
-180.3435939559983
 30
0.0
 10
775.5785502141202
 20
-180.5112328720001
 30
0.0
 10
775.5758757536987
 20
-180.6250643621284
 30
0.0
 10
775.5758757536987
 20
-180.6828809486597
 30
0.0
 11
775.6294655920987
 21
-180.1823368054598
 31
0.0
 11
775.5971233302988
 21
-180.3424052058597
 31
0.0
 11
775.5806365950989
 21
-180.5094965390597
 31
0.0
 11
775.5758757536987
 21
-180.6828809486597
 31
0.0
  0
SPLINE
  5
2F25
330
1F
100
AcDbEntity
  8
0
  6
Continuous
100
AcDbSpline
210
0.0
220
0.0
230
1.0
 70
     8
 71
     3
 72
    10
 73
     6
 74
     4
 42
0.0000000001
 43
0.0000000001
 44
0.0000000001
 12
0.2604741432922199
 22
-0.965480823567296
 32
0.0
 13
0.4370101219017509
 23
-0.8994565878103383
 33
0.0
 40
0.0
 40
0.0
 40
0.0
 40
0.0
 40
0.5348090851917503
 40
1.084222477250531
 40
1.653017209764355
 40
1.653017209764355
 40
1.653017209764355
 40
1.653017209764355
 10
775.6294655920987
 20
-183.4983809430598
 30
0.0
 10
775.6759002381954
 20
-183.6704969150672
 30
0.0
 10
775.7830033589357
 20
-184.0160421024451
 30
0.0
 10
775.9808509182357
 20
-184.5306504291115
 30
0.0
 10
776.1351288473012
 20
-184.8702140857027
 30
0.0
 10
776.2179851990989
 20
-185.0407494754598
 30
0.0
 11
775.6294655920987
 21
-183.4983809430598
 31
0.0
 11
775.7870755976988
 21
-184.0094385168598
 31
0.0
 11
775.9834658280987
 21
-184.5225524932598
 31
0.0
 11
776.2179851990989
 21
-185.0407494754598
 31
0.0
  0
SPLINE
  5
2F26
330
1F
100
AcDbEntity
  8
0
  6
Continuous
100
AcDbSpline
210
0.0
220
0.0
230
1.0
 70
     8
 71
     3
 72
     8
 73
     4
 74
     2
 42
0.0000000001
 43
0.0000000001
 44
0.0000000001
 12
-0.2947296365546608
 22
-0.955580682797825
 32
0.0
 13
-0.2604741431038475
 23
-0.9654808236181164
 33
0.0
 40
0.0
 40
0.0
 40
0.0
 40
0.0
 40
0.2649193347966071
 40
0.2649193347966071
 40
0.2649193347966071
 40
0.2649193347966071
 10
775.7030648070987
 20
-179.9278463154598
 30
0.0
 10
775.6770382806784
 20
-180.0122302484035
 30
0.0
 10
775.6524671376729
 20
-180.0970786262759
 30
0.0
 10
775.6294655920987
 20
-180.1823368054598
 30
0.0
 11
775.7030648070987
 21
-179.9278463154598
 31
0.0
 11
775.6294655920987
 21
-180.1823368054598
 31
0.0
  0
SPLINE
  5
2F27
330
1F
100
AcDbEntity
  8
0
  6
Continuous
100
AcDbSpline
210
0.0
220
0.0
230
1.0
 70
     8
 71
     3
 72
    10
 73
     6
 74
     4
 42
0.0000000001
 43
0.0000000001
 44
0.0000000001
 12
-0.4370101218791021
 22
-0.8994565878213425
 32
0.0
 13
-0.2947296365195797
 23
-0.9555806828086452
 33
0.0
 40
0.0
 40
0.0
 40
0.0
 40
0.0
 40
0.5703023405301027
 40
1.119594667692737
 40
1.388178949609305
 40
1.388178949609305
 40
1.388178949609305
 40
1.388178949609305
 10
776.2179851990989
 20
-178.6399682730599
 30
0.0
 10
776.1349092339846
 20
-178.8109556721398
 30
0.0
 10
775.9804669790221
 20
-179.1509388261024
 30
0.0
 10
775.814373301073
 20
-179.5831754983179
 30
0.0
 10
775.7294513896934
 20
-179.8422949982913
 30
0.0
 10
775.7030648070987
 20
-179.9278463154598
 30
0.0
 11
776.2179851990989
 21
-178.6399682730599
 31
0.0
 11
775.9828838400986
 21
-179.1595566780598
 31
0.0
 11
775.7866217970988
 21
-179.6725900796598
 31
0.0
 11
775.7030648070987
 21
-179.9278463154598
 31
0.0
  0
SPLINE
  5
2F28
330
1F
100
AcDbEntity
  8
0
  6
Continuous
100
AcDbSpline
210
0.0
220
0.0
230
1.0
 70
     8
 71
     3
 72
    10
 73
     6
 74
     4
 42
0.0000000001
 43
0.0000000001
 44
0.0000000001
 12
0.1336827045853722
 22
-0.9910241846164705
 32
0.0
 13
0.2360642560510614
 23
-0.971737447572676
 33
0.0
 40
0.0
 40
0.0
 40
0.0
 40
0.0
 40
1.034195479016631
 40
2.079046154527307
 40
3.141642872197971
 40
3.141642872197971
 40
3.141642872197971
 40
3.141642872197971
 10
775.6294655920987
 20
-197.1075535840599
 30
0.0
 10
775.6755502750003
 20
-197.4491911611687
 30
0.0
 10
775.7815126479893
 20
-198.1342548158928
 30
0.0
 10
775.9789205566719
 20
-199.1628877804793
 30
0.0
 10
776.1343714978858
 20
-199.848102308117
 30
0.0
 10
776.2179851990989
 20
-200.1922906488598
 30
0.0
 11
775.6294655920987
 21
-197.1075535840599
 31
0.0
 11
775.7870755976988
 21
-198.1296687316598
 31
0.0
 11
775.9834658280987
 21
-199.1558966846598
 31
0.0
 11
776.2179851990989
 21
-200.1922906488598
 31
0.0
  0
SPLINE
  5
2F29
330
1F
100
AcDbEntity
  8
0
  6
Continuous
100
AcDbSpline
210
0.0
220
0.0
230
1.0
 70
     8
 71
     3
 72
    10
 73
     6
 74
     4
 42
0.0000000001
 43
0.0000000001
 44
0.0000000001
 12
0.0
 22
-1.0
 32
0.0
 13
-0.2360642560018822
 23
-0.971737447584623
 33
0.0
 40
0.0
 40
0.0
 40
0.0
 40
0.0
 40
0.4054714353718537
 40
0.8421471438661063
 40
1.303377020561604
 40
1.303377020561604
 40
1.303377020561604
 40
1.303377020561604
 10
776.3841661304987
 20
-186.1006483118597
 30
0.0
 10
776.3841661304987
 20
-186.2358054569836
 30
0.0
 10
776.3704101487349
 20
-186.5166125421252
 30
0.0
 10
776.31455415242
 20
-186.9478296246393
 30
0.0
 10
776.2542784949949
 20
-187.2413301298831
 30
0.0
 10
776.2179851990989
 20
-187.3907282442597
 30
0.0
 11
776.3841661304987
 21
-186.1006483118597
 31
0.0
 11
776.3657424394986
 21
-186.5057009658597
 31
0.0
 11
776.3104513430988
 21
-186.9388621010598
 31
0.0
 11
776.2179851990989
 21
-187.3907282442597
 31
0.0
  0
SPLINE
  5
2F2A
330
1F
100
AcDbEntity
  8
0
  6
Continuous
100
AcDbSpline
210
0.0
220
0.0
230
1.0
 70
     8
 71
     3
 72
    10
 73
     6
 74
     4
 42
0.0000000001
 43
0.0000000001
 44
0.0000000001
 12
0.4370101218892901
 22
-0.8994565878163925
 32
0.0
 13
0.0
 23
-1.0
 33
0.0
 40
0.0
 40
0.0
 40
0.0
 40
0.0
 40
0.2765252185775603
 40
0.5986034977420134
 40
0.9629655647989931
 40
0.9629655647989931
 40
0.9629655647989931
 40
0.9629655647989931
 10
776.2179851990989
 20
-185.0407494754598
 30
0.0
 10
776.2582666389242
 20
-185.1236569519755
 30
0.0
 10
776.3221676096684
 20
-185.3144316045166
 30
0.0
 10
776.3740179931506
 20
-185.6319512327573
 30
0.0
 10
776.3841661304987
 20
-185.8610666041075
 30
0.0
 10
776.3841661304987
 20
-185.9825206264598
 30
0.0
 11
776.2179851990989
 21
-185.0407494754598
 31
0.0
 11
776.3105466042989
 21
-185.3013230404597
 31
0.0
 11
776.3658384062986
 21
-185.6186198014598
 31
0.0
 11
776.3841661304987
 21
-185.9825206264598
 31
0.0
  0
SPLINE
  5
2F2B
330
1F
100
AcDbEntity
  8
0
  6
Continuous
100
AcDbSpline
210
0.0
220
0.0
230
1.0
 70
     8
 71
     3
 72
    10
 73
     6
 74
     4
 42
0.0000000001
 43
0.0000000001
 44
0.0000000001
 12
0.0
 22
-1.0
 32
0.0
 13
-0.4370101219323953
 23
-0.8994565877954496
 33
0.0
 40
0.0
 40
0.0
 40
0.0
 40
0.0
 40
0.3652585766234488
 40
0.6868260728028404
 40
0.9629665673870518
 40
0.9629665673870518
 40
0.9629665673870518
 40
0.9629665673870518
 10
776.3841661304987
 20
-201.6004982666598
 30
0.0
 10
776.3841661304987
 20
-201.7222511255343
 30
0.0
 10
776.373989256598
 20
-201.9514979640033
 30
0.0
 10
776.3220470232382
 20
-202.2690020396439
 30
0.0
 10
776.2582105961684
 20
-202.4594772886562
 30
0.0
 10
776.2179851990989
 20
-202.5422694176598
 30
0.0
 11
776.3841661304987
 21
-201.6004982666598
 31
0.0
 11
776.3657424394986
 21
-201.9652919006598
 31
0.0
 11
776.3104513430988
 21
-202.2820702920598
 31
0.0
 11
776.2179851990989
 21
-202.5422694176598
 31
0.0
  0
SPLINE
  5
2F2C
330
1F
100
AcDbEntity
  8
0
  6
Continuous
100
AcDbSpline
210
0.0
220
0.0
230
1.0
 70
     8
 71
     3
 72
    10
 73
     6
 74
     4
 42
0.0000000001
 43
0.0000000001
 44
0.0000000001
 12
0.2360642559713782
 22
-0.9717374475920333
 32
0.0
 13
0.0
 23
-1.0
 33
0.0
 40
0.0
 40
0.0
 40
0.0
 40
0.0
 40
0.4618108023251462
 40
0.8990060972402298
 40
1.303377130712058
 40
1.303377130712058
 40
1.303377130712058
 40
1.303377130712058
 10
776.2179851990989
 20
-200.1922906488598
 30
0.0
 10
776.2543242069156
 20
-200.3418769323004
 30
0.0
 10
776.3146607502889
 20
-200.6357404786063
 30
0.0
 10
776.3704558309123
 20
-201.0669673536549
 30
0.0
 10
776.3841661304987
 20
-201.3475802365692
 30
0.0
 10
776.3841661304987
 20
-201.4823705810598
 30
0.0
 11
776.2179851990989
 21
-200.1922906488598
 31
0.0
 11
776.3105466042989
 21
-200.6447302618598
 31
0.0
 11
776.3658384062986
 21
-201.0784151042598
 31
0.0
 11
776.3841661304987
 21
-201.4823705810598
 31
0.0
  0
SPLINE
  5
2F2D
330
1F
100
AcDbEntity
  8
0
  6
Continuous
100
AcDbSpline
210
0.0
220
0.0
230
1.0
 70
     8
 71
     3
 72
    10
 73
     6
 74
     4
 42
0.0000000001
 43
0.0000000001
 44
0.0000000001
 12
0.4370101221047408
 22
-0.8994565877117137
 32
0.0
 13
0.0
 23
-1.0
 33
0.0
 40
0.0
 40
0.0
 40
0.0
 40
0.0
 40
0.2130262756274618
 40
0.341880335945311
 40
0.3859289523272546
 40
0.3859289523272546
 40
0.3859289523272546
 40
0.3859289523272546
 10
776.2179851990989
 20
-208.9430506198598
 30
0.0
 10
776.24901674534
 20
-209.0069199155161
 30
0.0
 10
776.3040511947867
 20
-209.1084103248298
 30
0.0
 10
776.3456663091656
 20
-209.2273935016225
 30
0.0
 10
776.3841661304987
 20
-209.2766765289325
 30
0.0
 10
776.3841661304987
 20
-209.2913594010598
 30
0.0
 11
776.2179851990989
 21
-208.9430506198598
 31
0.0
 11
776.3105466042989
 21
-209.1349166678597
 31
0.0
 11
776.3658384062986
 21
-209.2513047492599
 31
0.0
 11
776.3841661304987
 21
-209.2913594010598
 31
0.0
  0
SPLINE
  5
2F2E
330
1F
100
AcDbEntity
  8
0
  6
Continuous
100
AcDbSpline
210
0.0
220
0.0
230
1.0
 70
     8
 71
     3
 72
    10
 73
     6
 74
     4
 42
0.0000000001
 43
0.0000000001
 44
0.0000000001
 12
-0.2360642560091168
 22
-0.9717374475828655
 32
0.0
 13
-0.1336827046078304
 23
-0.991024184613441
 33
0.0
 40
0.0
 40
0.0
 40
0.0
 40
0.0
 40
1.065439388717202
 40
2.110107696914393
 40
3.141642946449222
 40
3.141642946449222
 40
3.141642946449222
 40
3.141642946449222
 10
776.2179851990989
 20
-187.3907282442597
 30
0.0
 10
776.1341478135587
 20
-187.7358373616418
 30
0.0
 10
775.9785283909503
 20
-188.4219240490928
 30
0.0
 10
775.7812149067557
 20
-189.4505752415266
 30
0.0
 10
775.675431732784
 20
-190.1347065158696
 30
0.0
 10
775.6294655920987
 20
-190.4754653090597
 30
0.0
 11
776.2179851990989
 21
-187.3907282442597
 31
0.0
 11
775.9828838400986
 21
-188.4299050540598
 31
0.0
 11
775.7866217970988
 21
-189.4559718572598
 31
0.0
 11
775.6294655920987
 21
-190.4754653090597
 31
0.0
  0
SPLINE
  5
2F2F
330
1F
100
AcDbEntity
  8
0
  6
Continuous
100
AcDbSpline
210
0.0
220
0.0
230
1.0
 70
     8
 71
     3
 72
    10
 73
     6
 74
     4
 42
0.0000000001
 43
0.0000000001
 44
0.0000000001
 12
0.0
 22
-1.0
 32
0.0
 13
-0.4370101218794668
 23
-0.8994565878211653
 33
0.0
 40
0.0
 40
0.0
 40
0.0
 40
0.0
 40
0.0442743838502926
 40
0.1731233201885179
 40
0.3859289437560449
 40
0.3859289437560449
 40
0.3859289437560449
 40
0.3859289437560449
 10
776.3841661304987
 20
-178.2916594918598
 30
0.0
 10
776.3841661304987
 20
-178.3064176198099
 30
0.0
 10
776.3456022072115
 20
-178.3557593096157
 30
0.0
 10
776.3039758252153
 20
-178.4747407230981
 30
0.0
 10
776.2489846029295
 20
-178.5761651330455
 30
0.0
 10
776.2179851990989
 20
-178.6399682730599
 30
0.0
 11
776.3841661304987
 21
-178.2916594918598
 31
0.0
 11
776.3657424394986
 21
-178.3319185116598
 31
0.0
 11
776.3104513430988
 21
-178.4483012554597
 31
0.0
 11
776.2179851990989
 21
-178.6399682730599
 31
0.0
  0
SPLINE
  5
2F30
330
1F
100
AcDbEntity
  8
0
  6
Continuous
100
AcDbSpline
210
0.0
220
0.0
230
1.0
 70
     8
 71
     3
 72
    10
 73
     6
 74
     4
 42
0.0000000001
 43
0.0000000001
 44
0.0000000001
 12
-0.953207189944659
 22
0.3023178013908656
 32
0.0
 13
-0.9999998846581724
 23
0.0004802953695422
 33
0.0
 40
0.0
 40
0.0
 40
0.0
 40
0.0
 40
0.6562393879472495
 40
1.303810736623454
 40
1.938442696599619
 40
1.938442696599619
 40
1.938442696599619
 40
1.938442696599619
 10
812.1197272146989
 20
-134.5912613024598
 30
0.0
 10
811.9112165137268
 20
-134.5251303528097
 30
0.0
 10
811.491001892085
 20
-134.4113800478856
 30
0.0
 10
810.8526285270234
 20
-134.3047321625252
 30
0.0
 10
810.4248772547577
 20
-134.280286186857
 30
0.0
 10
810.2133332924989
 20
-134.2801845832597
 30
0.0
 11
812.1197272146989
 21
-134.5912613024598
 31
0.0
 11
811.4858876634986
 21
-134.4212684860597
 31
0.0
 11
810.8469663136988
 21
-134.3157783898597
 31
0.0
 11
810.2133332924989
 21
-134.2801845832597
 31
0.0
  0
SPLINE
  5
2F31
330
1F
100
AcDbEntity
  8
0
  6
Continuous
100
AcDbSpline
210
0.0
220
0.0
230
1.0
 70
     8
 71
     3
 72
    11
 73
     7
 74
     5
 42
0.0000000001
 43
0.0000000001
 44
0.0000000001
 12
-0.999999884658218
 22
0.0004802952745996
 32
0.0
 13
-0.9499294443444221
 23
-0.3124644792092335
 33
0.0
 40
0.0
 40
0.0
 40
0.0
 40
0.0
 40
0.5261373041051783
 40
1.054766923206797
 40
1.591695606681467
 40
1.906671722767608
 40
1.906671722767608
 40
1.906671722767608
 40
1.906671722767608
 10
810.2133332924989
 20
-134.2801845832597
 30
0.0
 10
810.037954211359
 20
-134.2801003495061
 30
0.0
 10
809.6861308197198
 20
-134.2964197022234
 30
0.0
 10
809.1600481443188
 20
-134.3704717158403
 30
0.0
 10
808.7113551585933
 20
-134.4753888030815
 30
0.0
 10
808.4395825086773
 20
-134.5580460877677
 30
0.0
 10
808.3398474796989
 20
-134.5908523704598
 30
0.0
 11
810.2133332924989
 21
-134.2801845832597
 31
0.0
 11
809.6877595752989
 21
-134.3045306416598
 31
0.0
 11
809.1642343644988
 21
-134.3778152092598
 31
0.0
 11
808.6412466912989
 21
-134.4993730342598
 31
0.0
 11
808.3398474796989
 21
-134.5908523704598
 31
0.0
  0
SPLINE
  5
2F32
330
1F
100
AcDbEntity
  8
0
  6
Continuous
100
AcDbSpline
210
0.0
220
0.0
230
1.0
 70
     8
 71
     3
 72
    11
 73
     7
 74
     5
 42
0.0000000001
 43
0.0000000001
 44
0.0000000001
 12
-0.9872212415304745
 22
0.1593556408509864
 32
0.0
 13
-0.9999999999999994
 23
3.509986010000000E-8
 33
0.0
 40
0.0
 40
0.0
 40
0.0
 40
0.0
 40
0.6183185345982358
 40
1.683851477009998
 40
2.74101090637182
 40
3.794917042792434
 40
3.794917042792434
 40
3.794917042792434
 40
3.794917042792434
 10
824.8142467416988
 20
-134.5908171784597
 30
0.0
 10
824.6107743445697
 20
-134.5579729963494
 30
0.0
 10
824.0555964819765
 20
-134.4750568006744
 30
0.0
 10
823.1476138645721
 20
-134.3704858296721
 30
0.0
 10
822.090977449619
 20
-134.2966719226257
 30
0.0
 10
821.3871785855721
 20
-134.2801845933905
 30
0.0
 10
821.0358765400986
 20
-134.2801845810598
 30
0.0
 11
824.8142467416988
 21
-134.5908171784597
 31
0.0
 11
824.2026940778989
 21
-134.4995968428598
 31
0.0
 11
823.1441056412986
 21
-134.3781432580597
 31
0.0
 11
822.089496033099
 21
-134.3047631968598
 31
0.0
 11
821.0358765400986
 21
-134.2801845810598
 31
0.0
  0
SPLINE
  5
2F33
330
1F
100
AcDbEntity
  8
0
  6
Continuous
100
AcDbSpline
210
0.0
220
0.0
230
1.0
 70
     8
 71
     3
 72
    10
 73
     6
 74
     4
 42
0.0000000001
 43
0.0000000001
 44
0.0000000001
 12
-0.9999999999999994
 22
3.513100300000000E-8
 32
0.0
 13
-0.9872076665414635
 23
-0.1594397162621619
 33
0.0
 40
0.0
 40
0.0
 40
0.0
 40
0.0
 40
1.26459003342075
 40
2.535852006045897
 40
3.797221201606814
 40
3.797221201606814
 40
3.797221201606814
 40
3.797221201606814
 10
821.0358765400986
 20
-134.2801845810598
 30
0.0
 10
820.6143465289583
 20
-134.2801845662511
 30
0.0
 10
819.7688695584873
 20
-134.3039687659871
 30
0.0
 10
818.5069751405713
 20
-134.4096185781067
 30
0.0
 10
817.6701461791644
 20
-134.524172154379
 30
0.0
 10
817.2550683990987
 20
-134.5912096032597
 30
0.0
 11
821.0358765400986
 21
-134.2801845810598
 31
0.0
 11
819.7717807640987
 21
-134.3155373988598
 31
0.0
 11
818.5049010614987
 21
-134.4210021900598
 31
0.0
 11
817.2550683990987
 21
-134.5912096032597
 31
0.0
  0
SPLINE
  5
2F34
330
1F
100
AcDbEntity
  8
0
  6
Continuous
100
AcDbSpline
210
0.0
220
0.0
230
1.0
 70
     8
 71
     3
 72
    11
 73
     7
 74
     5
 42
0.0000000001
 43
0.0000000001
 44
0.0000000001
 12
-0.9499288717856694
 22
0.312466219851051
 32
0.0
 13
-0.9999999339137125
 23
-0.0003635554580204
 33
0.0
 40
0.0
 40
0.0
 40
0.0
 40
0.0
 40
0.3146355742030236
 40
0.8514548583692065
 40
1.379986775640889
 40
1.906026903073943
 40
1.906026903073943
 40
1.906026903073943
 40
1.906026903073943
 10
833.7319158904987
 20
-134.5908562648598
 30
0.0
 10
833.6322887518232
 20
-134.5580852686925
 30
0.0
 10
833.3606620579994
 20
-134.4754645938315
 30
0.0
 10
832.9121542235217
 20
-134.3705597770917
 30
0.0
 10
832.3861790567246
 20
-134.2964750495572
 30
0.0
 10
832.0344226544551
 20
-134.2801208328067
 30
0.0
 10
831.8590759568987
 20
-134.2801845810598
 30
0.0
 11
833.7319158904987
 21
-134.5908562648598
 31
0.0
 11
833.4308450472986
 21
-134.4994675788597
 31
0.0
 11
832.9079719416988
 21
-134.3779000696598
 31
0.0
 11
832.3845499782987
 21
-134.3045827060597
 31
0.0
 11
831.8590759568987
 21
-134.2801845810598
 31
0.0
  0
SPLINE
  5
2F35
330
1F
100
AcDbEntity
  8
0
  6
Continuous
100
AcDbSpline
210
0.0
220
0.0
230
1.0
 70
     8
 71
     3
 72
    10
 73
     6
 74
     4
 42
0.0000000001
 43
0.0000000001
 44
0.0000000001
 12
-0.9999999339137154
 22
-0.0003635554495277
 32
0.0
 13
-0.9532066374239261
 23
-0.3023195434816809
 33
0.0
 40
0.0
 40
0.0
 40
0.0
 40
0.0
 40
0.6347457100522139
 40
1.282454265040249
 40
1.9391138648985
 40
1.9391138648985
 40
1.9391138648985
 40
1.9391138648985
 10
831.8590759568987
 20
-134.2801845810598
 30
0.0
 10
831.6474940675306
 20
-134.2802615028138
 30
0.0
 10
831.2196559966875
 20
-134.304666954724
 30
0.0
 10
830.5810529312118
 20
-134.4113034679091
 30
0.0
 10
830.1606547098699
 20
-134.5250919620425
 30
0.0
 10
829.9520106134988
 20
-134.5912656388598
 30
0.0
 11
831.8590759568987
 21
-134.2801845810598
 31
0.0
 11
831.2253256346988
 21
-134.3157183050597
 31
0.0
 11
830.5862608566988
 21
-134.4211819562598
 31
0.0
 11
829.9520106134988
 21
-134.5912656388598
 31
0.0
  0
ARC
  5
2F36
330
1F
100
AcDbEntity
  8
0
  6
Continuous
100
AcDbCircle
 10
832.6332350664989
 20
-213.2915094464598
 30
0.0
 40
3.0
100
AcDbArc
 50
270.0
 51
315.0000000000012
  0
ARC
  5
2F37
330
1F
100
AcDbEntity
  8
0
  6
Continuous
100
AcDbCircle
 10
813.1438249460988
 20
-214.7915094464598
 30
0.0
 40
3.0
100
AcDbArc
 50
270.0
 51
311.4096221093022
  0
ARC
  5
2F38
330
1F
100
AcDbEntity
  8
0
  6
Continuous
100
AcDbCircle
 10
817.1124519126987
 20
-219.2915094464598
 30
0.0
 40
3.0
100
AcDbArc
 50
90.0
 51
131.4096221093022
  0
ARC
  5
2F39
330
1F
100
AcDbEntity
  8
0
  6
Continuous
100
AcDbCircle
 10
801.5341881488987
 20
-220.7915094464598
 30
0.0
 40
3.0
100
AcDbArc
 50
90.0
 51
123.5573097618967
  0
ARC
  5
2F3A
330
1F
100
AcDbEntity
  8
0
  6
Continuous
100
AcDbCircle
 10
801.5341881488987
 20
-166.7915094464597
 30
0.0
 40
3.0
100
AcDbArc
 50
236.4426902381033
 51
270.0
  0
ARC
  5
2F3B
330
1F
100
AcDbEntity
  8
0
  6
Continuous
100
AcDbCircle
 10
839.5327300030988
 20
-216.2915094464598
 30
0.0
 40
4.0
100
AcDbArc
 50
90.0
 51
135.0
  0
ARC
  5
2F3C
330
1F
100
AcDbEntity
  8
0
  6
Continuous
100
AcDbCircle
 10
839.5327300030988
 20
-171.2915094464596
 30
0.0
 40
4.0
100
AcDbArc
 50
225.0
 51
270.0
  0
ARC
  5
2F3D
330
1F
100
AcDbEntity
  8
0
  6
Continuous
100
AcDbCircle
 10
840.5438249460987
 20
-209.2915094464598
 30
0.0
 40
3.0
100
AcDbArc
 50
270.0
 51
329.9999999999995
  0
ARC
  5
2F3E
330
1F
100
AcDbEntity
  8
0
  6
Continuous
100
AcDbCircle
 10
840.5438249460987
 20
-178.2915094464597
 30
0.0
 40
3.0
100
AcDbArc
 50
30.00000000000057
 51
90.0
  0
ARC
  5
2F3F
330
1F
100
AcDbEntity
  8
0
  6
Continuous
100
AcDbCircle
 10
846.3531485536986
 20
-211.2294658004599
 30
0.0
 40
3.0
100
AcDbArc
 50
127.6748333491989
 51
149.9999999999994
  0
ARC
  5
2F40
330
1F
100
AcDbEntity
  8
0
  6
Continuous
100
AcDbCircle
 10
846.3531485536986
 20
-176.3535530926597
 30
0.0
 40
3.0
100
AcDbArc
 50
210.0000000000005
 51
232.3251666508011
  0
ARC
  5
2F41
330
1F
100
AcDbEntity
  8
0
  6
Continuous
100
AcDbCircle
 10
838.0358727304988
 20
-171.2088704370598
 30
0.0
 40
2.9999994686
100
AcDbArc
 50
179.9999670549006
 51
225.000010426802
  0
ARC
  5
2F42
330
1F
100
AcDbEntity
  8
0
  6
Continuous
100
AcDbCircle
 10
804.0358837084989
 20
-166.7915157682598
 30
0.0
 40
2.9999986006
100
AcDbArc
 50
269.9998458037974
 51
0.0001223483993074
  0
ARC
  5
2F43
330
1F
100
AcDbEntity
  8
0
  6
Continuous
100
AcDbCircle
 10
804.0358757536989
 20
-165.8721918154597
 30
0.0
 40
3.0
100
AcDbArc
 50
0.0
 51
60.00000000000028
  0
ARC
  5
2F44
330
1F
100
AcDbEntity
  8
0
  6
Continuous
100
AcDbCircle
 10
838.0358757536988
 20
-165.8721918154597
 30
0.0
 40
3.0
100
AcDbArc
 50
119.9999999999997
 51
180.0
  0
ARC
  5
2F45
330
1F
100
AcDbEntity
  8
0
  6
Continuous
100
AcDbCircle
 10
803.2358757536986
 20
-159.6368089080598
 30
0.0
 40
2.0
100
AcDbArc
 50
180.0
 51
240.0000000000002
  0
ARC
  5
2F46
330
1F
100
AcDbEntity
  8
0
  6
Continuous
100
AcDbCircle
 10
838.8358757536988
 20
-159.6368089080598
 30
0.0
 40
2.0
100
AcDbArc
 50
299.9999999999019
 51
0.0
  0
ARC
  5
2F47
330
1F
100
AcDbEntity
  8
0
  6
Continuous
100
AcDbCircle
 10
797.2758757536988
 20
-217.8915094464598
 30
0.0
 40
0.4
100
AcDbArc
 50
180.0
 51
270.0
  0
ARC
  5
2F48
330
1F
100
AcDbEntity
  8
0
  6
Continuous
100
AcDbCircle
 10
797.2758757536988
 20
-169.6915094464597
 30
0.0
 40
0.4
100
AcDbArc
 50
90.0
 51
180.0
  0
ARC
  5
2F49
330
1F
100
AcDbEntity
  8
0
  6
Continuous
100
AcDbCircle
 10
849.4758757536986
 20
-182.1315094464598
 30
0.0
 40
0.3
100
AcDbArc
 50
0.0
 51
90.0
  0
ARC
  5
2F4A
330
1F
100
AcDbEntity
  8
0
  6
Continuous
100
AcDbCircle
 10
849.4758757536986
 20
-205.4515094464599
 30
0.0
 40
0.3
100
AcDbArc
 50
270.0
 51
0.0
  0
ARC
  5
2F4B
330
1F
100
AcDbEntity
  8
0
  6
Continuous
100
AcDbCircle
 10
850.0758757536987
 20
-182.4915094464598
 30
0.0
 40
0.3
100
AcDbArc
 50
180.0
 51
270.0
  0
ARC
  5
2F4C
330
1F
100
AcDbEntity
  8
0
  6
Continuous
100
AcDbCircle
 10
850.0758757536987
 20
-205.0915094464597
 30
0.0
 40
0.3
100
AcDbArc
 50
90.0
 51
180.0
  0
ARC
  5
2F4D
330
1F
100
AcDbEntity
  8
0
  6
Continuous
100
AcDbCircle
 10
855.7758757536989
 20
-182.4915094464598
 30
0.0
 40
0.3
100
AcDbArc
 50
270.0
 51
0.0
  0
ARC
  5
2F4E
330
1F
100
AcDbEntity
  8
0
  6
Continuous
100
AcDbCircle
 10
855.7758757536989
 20
-205.0915094464597
 30
0.0
 40
0.3
100
AcDbArc
 50
0.0
 51
90.0
  0
ARC
  5
2F4F
330
1F
100
AcDbEntity
  8
0
  6
Continuous
100
AcDbCircle
 10
856.3758757536989
 20
-182.1315094464598
 30
0.0
 40
0.3
100
AcDbArc
 50
90.0
 51
180.0
  0
ARC
  5
2F50
330
1F
100
AcDbEntity
  8
0
  6
Continuous
100
AcDbCircle
 10
856.3758757536989
 20
-205.4515094464599
 30
0.0
 40
0.3
100
AcDbArc
 50
180.0
 51
270.0
  0
ARC
  5
2F51
330
1F
100
AcDbEntity
  8
0
  6
Continuous
100
AcDbCircle
 10
857.3758757536989
 20
-182.1315094464598
 30
0.0
 40
0.3
100
AcDbArc
 50
0.0
 51
90.0
  0
ARC
  5
2F52
330
1F
100
AcDbEntity
  8
0
  6
Continuous
100
AcDbCircle
 10
857.3758757536989
 20
-205.4515094464599
 30
0.0
 40
0.3
100
AcDbArc
 50
270.0
 51
0.0
  0
ARC
  5
2F53
330
1F
100
AcDbEntity
  8
0
  6
Continuous
100
AcDbCircle
 10
857.9758757536987
 20
-182.4915094464598
 30
0.0
 40
0.3
100
AcDbArc
 50
180.0
 51
270.0
  0
ARC
  5
2F54
330
1F
100
AcDbEntity
  8
0
  6
Continuous
100
AcDbCircle
 10
857.9758757536987
 20
-205.0915094464597
 30
0.0
 40
0.3
100
AcDbArc
 50
90.0
 51
180.0
  0
ARC
  5
2F55
330
1F
100
AcDbEntity
  8
0
  6
Continuous
100
AcDbCircle
 10
863.6758757536989
 20
-182.4915094464598
 30
0.0
 40
0.3
100
AcDbArc
 50
270.0
 51
0.0
  0
ARC
  5
2F56
330
1F
100
AcDbEntity
  8
0
  6
Continuous
100
AcDbCircle
 10
863.6758757536989
 20
-205.0915094464597
 30
0.0
 40
0.3
100
AcDbArc
 50
0.0
 51
90.0
  0
ARC
  5
2F57
330
1F
100
AcDbEntity
  8
0
  6
Continuous
100
AcDbCircle
 10
864.2758757536988
 20
-182.1315094464598
 30
0.0
 40
0.3
100
AcDbArc
 50
90.0
 51
180.0
  0
ARC
  5
2F58
330
1F
100
AcDbEntity
  8
0
  6
Continuous
100
AcDbCircle
 10
864.2758757536988
 20
-205.4515094464599
 30
0.0
 40
0.3
100
AcDbArc
 50
180.0
 51
270.0
  0
ARC
  5
2F59
330
1F
100
AcDbEntity
  8
0
  6
Continuous
100
AcDbCircle
 10
865.2758757536988
 20
-182.1315094464598
 30
0.0
 40
0.3
100
AcDbArc
 50
0.0
 51
90.0
  0
ARC
  5
2F5A
330
1F
100
AcDbEntity
  8
0
  6
Continuous
100
AcDbCircle
 10
865.2758757536988
 20
-205.4515094464599
 30
0.0
 40
0.3
100
AcDbArc
 50
270.0
 51
0.0
  0
ARC
  5
2F5B
330
1F
100
AcDbEntity
  8
0
  6
Continuous
100
AcDbCircle
 10
865.8758757536988
 20
-182.4915094464598
 30
0.0
 40
0.3
100
AcDbArc
 50
180.0
 51
270.0
  0
ARC
  5
2F5C
330
1F
100
AcDbEntity
  8
0
  6
Continuous
100
AcDbCircle
 10
865.8758757536988
 20
-205.0915094464597
 30
0.0
 40
0.3
100
AcDbArc
 50
90.0
 51
180.0
  0
ARC
  5
2F5D
330
1F
100
AcDbEntity
  8
0
  6
Continuous
100
AcDbCircle
 10
871.5758757536987
 20
-182.4915094464598
 30
0.0
 40
0.3
100
AcDbArc
 50
270.0
 51
0.0
  0
ARC
  5
2F5E
330
1F
100
AcDbEntity
  8
0
  6
Continuous
100
AcDbCircle
 10
871.5758757536987
 20
-205.0915094464597
 30
0.0
 40
0.3
100
AcDbArc
 50
0.0
 51
90.0
  0
ARC
  5
2F5F
330
1F
100
AcDbEntity
  8
0
  6
Continuous
100
AcDbCircle
 10
872.1758757536989
 20
-182.1315094464598
 30
0.0
 40
0.3
100
AcDbArc
 50
90.0
 51
180.0
  0
ARC
  5
2F60
330
1F
100
AcDbEntity
  8
0
  6
Continuous
100
AcDbCircle
 10
872.1758757536989
 20
-205.4515094464599
 30
0.0
 40
0.3
100
AcDbArc
 50
180.0
 51
270.0
  0
ARC
  5
2F61
330
1F
100
AcDbEntity
  8
0
  6
Continuous
100
AcDbCircle
 10
876.4758757536986
 20
-183.0494674960597
 30
0.0
 40
0.4
100
AcDbArc
 50
0.0
 51
74.99999999999882
  0
ARC
  5
2F62
330
1F
100
AcDbEntity
  8
0
  6
Continuous
100
AcDbCircle
 10
876.4758757536986
 20
-204.5335513970597
 30
0.0
 40
0.4
100
AcDbArc
 50
285.0000000000012
 51
0.0
  0
ARC
  5
2F63
330
1F
100
AcDbEntity
  8
0
  6
Continuous
100
AcDbCircle
 10
846.0758757536988
 20
-180.8315094464597
 30
0.0
 40
1.0
100
AcDbArc
 50
180.0
 51
270.0
  0
ARC
  5
2F64
330
1F
100
AcDbEntity
  8
0
  6
Continuous
100
AcDbCircle
 10
846.0758757536988
 20
-206.7515094464598
 30
0.0
 40
1.0
100
AcDbArc
 50
90.0
 51
180.0
  0
ARC
  5
2F65
330
1F
100
AcDbEntity
  8
0
  6
Continuous
100
AcDbCircle
 10
760.9946918444989
 20
-125.9915094464598
 30
0.0
 40
2.399999999999999
100
AcDbArc
 50
90.0
 51
177.0000000000011
  0
ARC
  5
2F66
330
1F
100
AcDbEntity
  8
0
  6
Continuous
100
AcDbCircle
 10
760.8669107616987
 20
-148.8928449540597
 30
0.0
 40
2.399999999999999
100
AcDbArc
 50
182.0000000000004
 51
260.0000000000014
  0
ARC
  5
2F67
330
1F
100
AcDbEntity
  8
0
  6
Continuous
100
AcDbCircle
 10
786.7856490240987
 20
-135.5915094464598
 30
0.0
 40
20.0
100
AcDbArc
 50
260.0000000000014
 51
270.0
  0
ARC
  5
2F68
330
1F
100
AcDbEntity
  8
0
  6
Continuous
100
AcDbCircle
 10
881.0770596628987
 20
-125.9915094464598
 30
0.0
 40
2.399999999999999
100
AcDbArc
 50
3.000000000000544
 51
90.0
  0
ARC
  5
2F69
330
1F
100
AcDbEntity
  8
0
  6
Continuous
100
AcDbCircle
 10
881.2048407456986
 20
-148.8928449540597
 30
0.0
 40
2.399999999999999
100
AcDbArc
 50
279.9999999999986
 51
358.0000000000012
  0
ARC
  5
2F6A
330
1F
100
AcDbEntity
  8
0
  6
Continuous
100
AcDbCircle
 10
855.2861024830987
 20
-135.5915094464598
 30
0.0
 40
20.0
100
AcDbArc
 50
270.0
 51
279.9999999999986
  0
ARC
  5
2F6B
330
1F
100
AcDbEntity
  8
0
  6
Continuous
100
AcDbCircle
 10
744.1758757536987
 20
-183.0494674960597
 30
0.0
 40
0.4
100
AcDbArc
 50
105.0000000000011
 51
180.0
  0
ARC
  5
2F6C
330
1F
100
AcDbEntity
  8
0
  6
Continuous
100
AcDbCircle
 10
744.1758757536987
 20
-204.5335513970597
 30
0.0
 40
0.4
100
AcDbArc
 50
180.0
 51
254.9999999999988
  0
ARC
  5
2F6D
330
1F
100
AcDbEntity
  8
0
  6
Continuous
100
AcDbCircle
 10
748.4758757536987
 20
-182.1315094464598
 30
0.0
 40
0.3
100
AcDbArc
 50
0.0
 51
90.0
  0
ARC
  5
2F6E
330
1F
100
AcDbEntity
  8
0
  6
Continuous
100
AcDbCircle
 10
748.4758757536987
 20
-205.4515094464599
 30
0.0
 40
0.3
100
AcDbArc
 50
270.0
 51
0.0
  0
ARC
  5
2F6F
330
1F
100
AcDbEntity
  8
0
  6
Continuous
100
AcDbCircle
 10
749.0758757536987
 20
-182.4915094464598
 30
0.0
 40
0.3
100
AcDbArc
 50
180.0
 51
270.0
  0
ARC
  5
2F70
330
1F
100
AcDbEntity
  8
0
  6
Continuous
100
AcDbCircle
 10
749.0758757536987
 20
-205.0915094464597
 30
0.0
 40
0.3
100
AcDbArc
 50
90.0
 51
180.0
  0
ARC
  5
2F71
330
1F
100
AcDbEntity
  8
0
  6
Continuous
100
AcDbCircle
 10
754.7758757536988
 20
-182.4915094464598
 30
0.0
 40
0.3
100
AcDbArc
 50
270.0
 51
0.0
  0
ARC
  5
2F72
330
1F
100
AcDbEntity
  8
0
  6
Continuous
100
AcDbCircle
 10
754.7758757536988
 20
-205.0915094464597
 30
0.0
 40
0.3
100
AcDbArc
 50
0.0
 51
90.0
  0
ARC
  5
2F73
330
1F
100
AcDbEntity
  8
0
  6
Continuous
100
AcDbCircle
 10
755.3758757536987
 20
-182.1315094464598
 30
0.0
 40
0.3
100
AcDbArc
 50
90.0
 51
180.0
  0
ARC
  5
2F74
330
1F
100
AcDbEntity
  8
0
  6
Continuous
100
AcDbCircle
 10
755.3758757536987
 20
-205.4515094464599
 30
0.0
 40
0.3
100
AcDbArc
 50
180.0
 51
270.0
  0
ARC
  5
2F75
330
1F
100
AcDbEntity
  8
0
  6
Continuous
100
AcDbCircle
 10
756.3758757536987
 20
-182.1315094464598
 30
0.0
 40
0.3
100
AcDbArc
 50
0.0
 51
90.0
  0
ARC
  5
2F76
330
1F
100
AcDbEntity
  8
0
  6
Continuous
100
AcDbCircle
 10
756.3758757536987
 20
-205.4515094464599
 30
0.0
 40
0.3
100
AcDbArc
 50
270.0
 51
0.0
  0
ARC
  5
2F77
330
1F
100
AcDbEntity
  8
0
  6
Continuous
100
AcDbCircle
 10
756.9758757536987
 20
-182.4915094464598
 30
0.0
 40
0.3
100
AcDbArc
 50
180.0
 51
270.0
  0
ARC
  5
2F78
330
1F
100
AcDbEntity
  8
0
  6
Continuous
100
AcDbCircle
 10
756.9758757536987
 20
-205.0915094464597
 30
0.0
 40
0.3
100
AcDbArc
 50
90.0
 51
180.0
  0
ARC
  5
2F79
330
1F
100
AcDbEntity
  8
0
  6
Continuous
100
AcDbCircle
 10
762.6758757536987
 20
-182.4915094464598
 30
0.0
 40
0.3
100
AcDbArc
 50
270.0
 51
0.0
  0
ARC
  5
2F7A
330
1F
100
AcDbEntity
  8
0
  6
Continuous
100
AcDbCircle
 10
762.6758757536987
 20
-205.0915094464597
 30
0.0
 40
0.3
100
AcDbArc
 50
0.0
 51
90.0
  0
ARC
  5
2F7B
330
1F
100
AcDbEntity
  8
0
  6
Continuous
100
AcDbCircle
 10
763.2758757536988
 20
-182.1315094464598
 30
0.0
 40
0.3
100
AcDbArc
 50
90.0
 51
180.0
  0
ARC
  5
2F7C
330
1F
100
AcDbEntity
  8
0
  6
Continuous
100
AcDbCircle
 10
763.2758757536988
 20
-205.4515094464599
 30
0.0
 40
0.3
100
AcDbArc
 50
180.0
 51
270.0
  0
ARC
  5
2F7D
330
1F
100
AcDbEntity
  8
0
  6
Continuous
100
AcDbCircle
 10
764.2758757536988
 20
-182.1315094464598
 30
0.0
 40
0.3
100
AcDbArc
 50
0.0
 51
90.0
  0
ARC
  5
2F7E
330
1F
100
AcDbEntity
  8
0
  6
Continuous
100
AcDbCircle
 10
764.2758757536988
 20
-205.4515094464599
 30
0.0
 40
0.3
100
AcDbArc
 50
270.0
 51
0.0
  0
ARC
  5
2F7F
330
1F
100
AcDbEntity
  8
0
  6
Continuous
100
AcDbCircle
 10
764.8758757536987
 20
-182.4915094464598
 30
0.0
 40
0.3
100
AcDbArc
 50
180.0
 51
270.0
  0
ARC
  5
2F80
330
1F
100
AcDbEntity
  8
0
  6
Continuous
100
AcDbCircle
 10
764.8758757536987
 20
-205.0915094464597
 30
0.0
 40
0.3
100
AcDbArc
 50
90.0
 51
180.0
  0
ARC
  5
2F81
330
1F
100
AcDbEntity
  8
0
  6
Continuous
100
AcDbCircle
 10
770.5758757536987
 20
-182.4915094464598
 30
0.0
 40
0.3
100
AcDbArc
 50
270.0
 51
0.0
  0
ARC
  5
2F82
330
1F
100
AcDbEntity
  8
0
  6
Continuous
100
AcDbCircle
 10
770.5758757536987
 20
-205.0915094464597
 30
0.0
 40
0.3
100
AcDbArc
 50
0.0
 51
90.0
  0
ARC
  5
2F83
330
1F
100
AcDbEntity
  8
0
  6
Continuous
100
AcDbCircle
 10
771.1758757536987
 20
-182.1315094464598
 30
0.0
 40
0.3
100
AcDbArc
 50
90.0
 51
180.0
  0
ARC
  5
2F84
330
1F
100
AcDbEntity
  8
0
  6
Continuous
100
AcDbCircle
 10
771.1758757536987
 20
-205.4515094464599
 30
0.0
 40
0.3
100
AcDbArc
 50
180.0
 51
270.0
  0
ARC
  5
2F85
330
1F
100
AcDbEntity
  8
0
  6
Continuous
100
AcDbCircle
 10
795.1656021700987
 20
-171.8444237170598
 30
0.0
 40
3.0
100
AcDbArc
 50
135.0
 51
165.0000000000008
  0
ARC
  5
2F86
330
1F
100
AcDbEntity
  8
0
  6
Continuous
100
AcDbCircle
 10
795.1656021700987
 20
-215.7385951758598
 30
0.0
 40
3.0
100
AcDbArc
 50
195.0000000000007
 51
225.0
  0
ARC
  5
2F87
330
1F
100
AcDbEntity
  8
0
  6
Continuous
100
AcDbCircle
 10
788.0303012502988
 20
-212.2915094464598
 30
0.0
 40
3.0
100
AcDbArc
 50
14.99999999999917
 51
90.0
  0
ARC
  5
2F88
330
1F
100
AcDbEntity
  8
0
  6
Continuous
100
AcDbCircle
 10
788.0303012502988
 20
-175.2915094464596
 30
0.0
 40
3.0
100
AcDbArc
 50
270.0
 51
345.0000000000009
  0
ARC
  5
2F89
330
1F
100
AcDbEntity
  8
0
  6
Continuous
100
AcDbCircle
 10
774.5758757536987
 20
-180.8315094464597
 30
0.0
 40
1.0
100
AcDbArc
 50
270.0
 51
0.0
  0
ARC
  5
2F8A
330
1F
100
AcDbEntity
  8
0
  6
Continuous
100
AcDbCircle
 10
774.5758757536987
 20
-206.7515094464598
 30
0.0
 40
1.0
100
AcDbArc
 50
0.0
 51
90.0
  0
ARC
  5
2F8B
330
1F
100
AcDbEntity
  8
0
  6
Continuous
100
AcDbCircle
 10
775.9758757536986
 20
-179.7986891234598
 30
0.0
 40
0.4
100
AcDbArc
 50
149.9999999999994
 51
180.0
  0
ARC
  5
2F8C
330
1F
100
AcDbEntity
  8
0
  6
Continuous
100
AcDbCircle
 10
775.9758757536986
 20
-207.7843297694598
 30
0.0
 40
0.4
100
AcDbArc
 50
180.0
 51
210.0000000000005
  0
ARC
  5
2F8D
330
1F
100
AcDbEntity
  8
0
  6
Continuous
100
AcDbCircle
 10
796.8758757536988
 20
-170.0915094464598
 30
0.0
 40
0.4
100
AcDbArc
 50
180.0000000001009
 51
270.0
  0
ARC
  5
2F8E
330
1F
100
AcDbEntity
  8
0
  6
Continuous
100
AcDbCircle
 10
796.8758757536988
 20
-217.4915094464598
 30
0.0
 40
0.4
100
AcDbArc
 50
90.0
 51
179.9999999997997
  0
ARC
  5
2F8F
330
1F
100
AcDbEntity
  8
0
  6
Continuous
100
AcDbCircle
 10
796.0758757536987
 20
-169.6915094464597
 30
0.0
 40
0.4
100
AcDbArc
 50
0.0
 51
90.0
  0
ARC
  5
2F90
330
1F
100
AcDbEntity
  8
0
  6
Continuous
100
AcDbCircle
 10
796.0758757536987
 20
-217.8915094464598
 30
0.0
 40
0.4
100
AcDbArc
 50
270.0
 51
0.0
  0
ARC
  5
2F91
330
1F
100
AcDbEntity
  8
0
  6
Continuous
100
AcDbCircle
 10
811.0358757536989
 20
-131.9915094464598
 30
0.0
 40
2.0
100
AcDbArc
 50
90.0
 51
180.0
  0
ARC
  5
2F92
330
1F
100
AcDbEntity
  8
0
  6
Continuous
100
AcDbCircle
 10
831.0358757536986
 20
-131.9915094464598
 30
0.0
 40
2.0
100
AcDbArc
 50
0.0
 51
90.0
  0
ARC
  5
2F93
330
1F
100
AcDbEntity
  8
0
  6
Continuous
100
AcDbCircle
 10
808.0358757536988
 20
-133.4141591772598
 30
0.0
 40
1.0
100
AcDbArc
 50
299.9999999999019
 51
0.0
  0
ARC
  5
2F94
330
1F
100
AcDbEntity
  8
0
  6
Continuous
100
AcDbCircle
 10
834.0358757536988
 20
-133.4141591772598
 30
0.0
 40
1.0
100
AcDbArc
 50
180.0
 51
240.0000000001044
  0
LINE
  5
2F95
330
1F
100
AcDbEntity
  8
0
  6
Continuous
100
AcDbLine
 10
884.0358757536988
 20
-136.5915094464598
 30
0.0
 11
883.6033787304987
 21
-148.9766037462597
 31
0.0
  0
LINE
  5
2F96
330
1F
100
AcDbEntity
  8
0
  6
Continuous
100
AcDbLine
 10
883.4737705462986
 20
-125.8659031514598
 30
0.0
 11
884.0358757536988
 21
-136.5915094464598
 31
0.0
  0
LINE
  5
2F97
330
1F
100
AcDbEntity
  8
0
  6
Continuous
100
AcDbLine
 10
881.3333030704988
 20
-125.8659031514598
 30
0.0
 11
881.8954082778986
 21
-136.5915094464598
 31
0.0
  0
LINE
  5
2F98
330
1F
100
AcDbEntity
  8
0
  6
Continuous
100
AcDbLine
 10
881.8937765202987
 20
-136.5915094464598
 30
0.0
 11
881.4612794970986
 21
-148.9766037462597
 31
0.0
  0
LINE
  5
2F99
330
1F
100
AcDbEntity
  8
0
  6
Continuous
100
AcDbLine
 10
876.8758757536989
 20
-204.5335513970597
 30
0.0
 11
876.8758757536989
 21
-183.0494674960597
 31
0.0
  0
LINE
  5
2F9A
330
1F
100
AcDbEntity
  8
0
  6
Continuous
100
AcDbLine
 10
876.5794033716987
 20
-182.6630971654596
 30
0.0
 11
876.5794033716987
 21
-204.9199217276599
 31
0.0
  0
LINE
  5
2F9B
330
1F
100
AcDbEntity
  8
0
  6
Continuous
100
AcDbLine
 10
873.5267423726988
 20
-181.8451391160598
 30
0.0
 11
873.5267423726988
 21
-205.7378797770598
 31
0.0
  0
LINE
  5
2F9C
330
1F
100
AcDbEntity
  8
0
  6
Continuous
100
AcDbLine
 10
873.4232147546989
 20
-181.8315094464597
 30
0.0
 11
873.4232147546989
 21
-205.7515094464598
 31
0.0
  0
LINE
  5
2F9D
330
1F
100
AcDbEntity
  8
0
  6
Continuous
100
AcDbLine
 10
872.1758757536989
 20
-181.8315094464597
 30
0.0
 11
872.1758757536989
 21
-205.7515094464598
 31
0.0
  0
LINE
  5
2F9E
330
1F
100
AcDbEntity
  8
0
  6
Continuous
100
AcDbLine
 10
871.8758757536987
 20
-182.1315094464598
 30
0.0
 11
871.8758757536987
 21
-205.4515094464599
 31
0.0
  0
LINE
  5
2F9F
330
1F
100
AcDbEntity
  8
0
  6
Continuous
100
AcDbLine
 10
871.5758757536987
 20
-182.7915094464597
 30
0.0
 11
871.5758757536987
 21
-204.7915094464598
 31
0.0
  0
LINE
  5
2FA0
330
1F
100
AcDbEntity
  8
0
  6
Continuous
100
AcDbLine
 10
865.8758757536988
 20
-182.7915094464597
 30
0.0
 11
865.8758757536988
 21
-204.7915094464598
 31
0.0
  0
LINE
  5
2FA1
330
1F
100
AcDbEntity
  8
0
  6
Continuous
100
AcDbLine
 10
865.5758757536986
 20
-205.4515094464599
 30
0.0
 11
865.5758757536986
 21
-182.1315094464598
 31
0.0
  0
LINE
  5
2FA2
330
1F
100
AcDbEntity
  8
0
  6
Continuous
100
AcDbLine
 10
850.0078602286986
 20
-123.5915094464598
 30
0.0
 11
881.0770596628987
 21
-123.5915094464598
 31
0.0
  0
LINE
  5
2FA3
330
1F
100
AcDbEntity
  8
0
  6
Continuous
100
AcDbLine
 10
792.0637700666989
 20
-123.5915094464598
 30
0.0
 11
760.9946918444989
 21
-123.5915094464598
 31
0.0
  0
LINE
  5
2FA4
330
1F
100
AcDbEntity
  8
0
  6
Continuous
100
AcDbLine
 10
834.7545554100989
 20
-215.4128297900598
 30
0.0
 11
836.7043028784989
 21
-213.4630823216598
 31
0.0
  0
LINE
  5
2FA5
330
1F
100
AcDbEntity
  8
0
  6
Continuous
100
AcDbLine
 10
865.2758757536988
 20
-181.8315094464597
 30
0.0
 11
865.2758757536988
 21
-205.7515094464598
 31
0.0
  0
LINE
  5
2FA6
330
1F
100
AcDbEntity
  8
0
  6
Continuous
100
AcDbLine
 10
864.2758757536988
 20
-181.8315094464597
 30
0.0
 11
864.2758757536988
 21
-205.7515094464598
 31
0.0
  0
LINE
  5
2FA7
330
1F
100
AcDbEntity
  8
0
  6
Continuous
100
AcDbLine
 10
863.9758757536986
 20
-182.1315094464598
 30
0.0
 11
863.9758757536986
 21
-205.4515094464599
 31
0.0
  0
LINE
  5
2FA8
330
1F
100
AcDbEntity
  8
0
  6
Continuous
100
AcDbLine
 10
863.6758757536989
 20
-182.7915094464597
 30
0.0
 11
863.6758757536989
 21
-204.7915094464598
 31
0.0
  0
LINE
  5
2FA9
330
1F
100
AcDbEntity
  8
0
  6
Continuous
100
AcDbLine
 10
833.5358757536988
 20
-134.2801845810598
 30
0.0
 11
834.0751062382988
 21
-134.5915094464598
 31
0.0
  0
LINE
  5
2FAA
330
1F
100
AcDbEntity
  8
0
  6
Continuous
100
AcDbLine
 10
850.0643777292989
 20
-125.6763703428598
 30
0.0
 11
881.1335771634986
 21
-125.6763703428598
 31
0.0
  0
LINE
  5
2FAB
330
1F
100
AcDbEntity
  8
0
  6
Continuous
100
AcDbLine
 10
792.0073737778989
 20
-125.6763703428598
 30
0.0
 11
760.9381743438988
 21
-125.6763703428598
 31
0.0
  0
LINE
  5
2FAC
330
1F
100
AcDbEntity
  8
0
  6
Continuous
100
AcDbLine
 10
831.0358757536986
 20
-129.9915094464598
 30
0.0
 11
811.0358757536989
 21
-129.9915094464598
 31
0.0
  0
LINE
  5
2FAD
330
1F
100
AcDbEntity
  8
0
  6
Continuous
100
AcDbLine
 10
845.0758757536986
 20
-207.8915094464598
 30
0.0
 11
844.5196102232989
 21
-208.8549896074598
 31
0.0
  0
LINE
  5
2FAE
330
1F
100
AcDbEntity
  8
0
  6
Continuous
100
AcDbLine
 10
843.1419011574988
 20
-210.7915094464598
 30
0.0
 11
843.7550723424987
 21
-209.7294658004599
 31
0.0
  0
LINE
  5
2FAF
330
1F
100
AcDbEntity
  8
0
  6
Continuous
100
AcDbLine
 10
857.9758757536987
 20
-182.7915094464597
 30
0.0
 11
857.9758757536987
 21
-204.7915094464598
 31
0.0
  0
LINE
  5
2FB0
330
1F
100
AcDbEntity
  8
0
  6
Continuous
100
AcDbLine
 10
857.6758757536989
 20
-205.4515094464599
 30
0.0
 11
857.6758757536989
 21
-182.1315094464598
 31
0.0
  0
LINE
  5
2FB1
330
1F
100
AcDbEntity
  8
0
  6
Continuous
100
AcDbLine
 10
857.3758757536989
 20
-181.8315094464597
 30
0.0
 11
857.3758757536989
 21
-205.7515094464598
 31
0.0
  0
LINE
  5
2FB2
330
1F
100
AcDbEntity
  8
0
  6
Continuous
100
AcDbLine
 10
856.3758757536989
 20
-181.8315094464597
 30
0.0
 11
856.3758757536989
 21
-205.7515094464598
 31
0.0
  0
LINE
  5
2FB3
330
1F
100
AcDbEntity
  8
0
  6
Continuous
100
AcDbLine
 10
856.0758757536987
 20
-182.1315094464598
 30
0.0
 11
856.0758757536987
 21
-205.4515094464599
 31
0.0
  0
LINE
  5
2FB4
330
1F
100
AcDbEntity
  8
0
  6
Continuous
100
AcDbLine
 10
855.7758757536989
 20
-182.7915094464597
 30
0.0
 11
855.7758757536989
 21
-204.7915094464598
 31
0.0
  0
LINE
  5
2FB5
330
1F
100
AcDbEntity
  8
0
  6
Continuous
100
AcDbLine
 10
809.0358757536988
 20
-131.9915094464598
 30
0.0
 11
833.0358757536988
 21
-131.9915094464598
 31
0.0
  0
LINE
  5
2FB6
330
1F
100
AcDbEntity
  8
0
  6
Continuous
100
AcDbLine
 10
833.0358757536988
 20
-133.4141591772598
 30
0.0
 11
809.0358757536988
 21
-133.4141591772598
 31
0.0
  0
LINE
  5
2FB7
330
1F
100
AcDbEntity
  8
0
  6
Continuous
100
AcDbLine
 10
833.5358757536988
 20
-134.2801845810598
 30
0.0
 11
808.5358757536988
 21
-134.2801845810598
 31
0.0
  0
LINE
  5
2FB8
330
1F
100
AcDbEntity
  8
0
  6
Continuous
100
AcDbLine
 10
797.2757687238988
 20
-134.5915094464598
 30
0.0
 11
844.7959830994987
 21
-134.5915094464598
 31
0.0
  0
LINE
  5
2FB9
330
1F
100
AcDbEntity
  8
0
  6
Continuous
100
AcDbLine
 10
846.3263885416989
 20
-135.9182391078598
 30
0.0
 11
795.7453629656988
 21
-135.9182391078598
 31
0.0
  0
LINE
  5
2FBA
330
1F
100
AcDbEntity
  8
0
  6
Continuous
100
AcDbLine
 10
850.0758757536987
 20
-182.7915094464597
 30
0.0
 11
850.0758757536987
 21
-204.7915094464598
 31
0.0
  0
LINE
  5
2FBB
330
1F
100
AcDbEntity
  8
0
  6
Continuous
100
AcDbLine
 10
849.7758757536988
 20
-205.4515094464599
 30
0.0
 11
849.7758757536988
 21
-182.1315094464598
 31
0.0
  0
LINE
  5
2FBC
330
1F
100
AcDbEntity
  8
0
  6
Continuous
100
AcDbLine
 10
849.4758757536986
 20
-181.8315094464597
 30
0.0
 11
849.4758757536986
 21
-205.7515094464598
 31
0.0
  0
LINE
  5
2FBD
330
1F
100
AcDbEntity
  8
0
  6
Continuous
100
AcDbLine
 10
760.1763432294988
 20
-136.5915094464598
 30
0.0
 11
793.8618596778987
 21
-136.5915094464598
 31
0.0
  0
LINE
  5
2FBE
330
1F
100
AcDbEntity
  8
0
  6
Continuous
100
AcDbLine
 10
846.3528518854987
 20
-136.5915094464598
 30
0.0
 11
795.7188996216987
 21
-136.5915094464598
 31
0.0
  0
LINE
  5
2FBF
330
1F
100
AcDbEntity
  8
0
  6
Continuous
100
AcDbLine
 10
881.8954082778986
 20
-136.5915094464598
 30
0.0
 11
848.2098918294989
 21
-136.5915094464598
 31
0.0
  0
LINE
  5
2FC0
330
1F
100
AcDbEntity
  8
0
  6
Continuous
100
AcDbLine
 10
846.0758757536988
 20
-181.8315094464597
 30
0.0
 11
846.0758757536988
 21
-205.7515094464598
 31
0.0
  0
LINE
  5
2FC1
330
1F
100
AcDbEntity
  8
0
  6
Continuous
100
AcDbLine
 10
845.0758757536986
 20
-179.6915094464598
 30
0.0
 11
845.0758757536986
 21
-207.8915094464598
 31
0.0
  0
LINE
  5
2FC2
330
1F
100
AcDbEntity
  8
0
  6
Continuous
100
AcDbLine
 10
844.5196102232989
 20
-208.8549896074598
 30
0.0
 11
844.5196102232989
 21
-178.7280292856597
 31
0.0
  0
LINE
  5
2FC3
330
1F
100
AcDbEntity
  8
0
  6
Continuous
100
AcDbLine
 10
843.7550723424987
 20
-209.7294658004599
 30
0.0
 11
843.7550723424987
 21
-177.8535530926597
 31
0.0
  0
LINE
  5
2FC4
330
1F
100
AcDbEntity
  8
0
  6
Continuous
100
AcDbLine
 10
843.1419011574988
 20
-210.7915094464598
 30
0.0
 11
843.1419011574988
 21
-176.7915094464598
 31
0.0
  0
LINE
  5
2FC5
330
1F
100
AcDbEntity
  8
0
  6
Continuous
100
AcDbLine
 10
840.8358757536987
 20
-155.5915094464598
 30
0.0
 11
840.8358757536987
 21
-159.6368089080598
 31
0.0
  0
LINE
  5
2FC6
330
1F
100
AcDbEntity
  8
0
  6
Continuous
100
AcDbLine
 10
840.5438249460987
 20
-212.2915094464598
 30
0.0
 11
840.5438249460987
 21
-175.2915094464596
 31
0.0
  0
LINE
  5
2FC7
330
1F
100
AcDbEntity
  8
0
  6
Continuous
100
AcDbLine
 10
839.5327300030988
 20
-175.2915094464596
 30
0.0
 11
839.5327300030988
 21
-212.2915094464598
 31
0.0
  0
LINE
  5
2FC8
330
1F
100
AcDbEntity
  8
0
  6
Continuous
100
AcDbLine
 10
845.0758757536986
 20
-179.6915094464598
 30
0.0
 11
844.5196102232989
 21
-178.7280292856597
 31
0.0
  0
LINE
  5
2FC9
330
1F
100
AcDbEntity
  8
0
  6
Continuous
100
AcDbLine
 10
843.1419011574988
 20
-176.7915094464598
 30
0.0
 11
843.7550723424987
 21
-177.8535530926597
 31
0.0
  0
LINE
  5
2FCA
330
1F
100
AcDbEntity
  8
0
  6
Continuous
100
AcDbLine
 10
836.7043028784989
 20
-174.1199365712597
 30
0.0
 11
836.7043028784989
 21
-213.4630823216598
 31
0.0
  0
LINE
  5
2FCB
330
1F
100
AcDbEntity
  8
0
  6
Continuous
100
AcDbLine
 10
835.0358757536989
 20
-165.8721918154597
 30
0.0
 11
835.0358757536989
 21
-171.2088687594598
 31
0.0
  0
LINE
  5
2FCC
330
1F
100
AcDbEntity
  8
0
  6
Continuous
100
AcDbLine
 10
834.7545554100989
 20
-215.4128297900598
 30
0.0
 11
834.7545554100989
 21
-172.9135260246598
 31
0.0
  0
LINE
  5
2FCD
330
1F
100
AcDbEntity
  8
0
  6
Continuous
100
AcDbLine
 10
833.0358757536988
 20
-131.9915094464598
 30
0.0
 11
833.0358757536988
 21
-133.4141591772598
 31
0.0
  0
LINE
  5
2FCE
330
1F
100
AcDbEntity
  8
0
  6
Continuous
100
AcDbLine
 10
832.6332350664989
 20
-216.2915094464598
 30
0.0
 11
832.6332350664989
 21
-174.1455542836598
 31
0.0
  0
LINE
  5
2FCF
330
1F
100
AcDbEntity
  8
0
  6
Continuous
100
AcDbLine
 10
835.9145554100987
 20
-173.3301891028598
 30
0.0
 11
836.7043028784989
 21
-174.1199365712597
 31
0.0
  0
LINE
  5
2FD0
330
1F
100
AcDbEntity
  8
0
  6
Continuous
100
AcDbLine
 10
760.7756205400987
 20
-149.1665853974597
 30
0.0
 11
783.6381508756987
 21
-153.1978663428597
 31
0.0
  0
LINE
  5
2FD1
330
1F
100
AcDbEntity
  8
0
  6
Continuous
100
AcDbLine
 10
786.7290884380988
 20
-153.4682883392598
 30
0.0
 11
794.3021869966988
 21
-153.4682883392598
 31
0.0
  0
LINE
  5
2FD2
330
1F
100
AcDbEntity
  8
0
  6
Continuous
100
AcDbLine
 10
855.3426630690987
 20
-153.4682883392598
 30
0.0
 11
847.7695645106987
 21
-153.4682883392598
 31
0.0
  0
LINE
  5
2FD3
330
1F
100
AcDbEntity
  8
0
  6
Continuous
100
AcDbLine
 10
845.9015886582987
 20
-154.2403687418597
 30
0.0
 11
796.1701628488988
 21
-154.2403687418597
 31
0.0
  0
LINE
  5
2FD4
330
1F
100
AcDbEntity
  8
0
  6
Continuous
100
AcDbLine
 10
786.7856490240987
 20
-155.5915094464598
 30
0.0
 11
855.2861024830987
 21
-155.5915094464598
 31
0.0
  0
LINE
  5
2FD5
330
1F
100
AcDbEntity
  8
0
  6
Continuous
100
AcDbLine
 10
846.3029296382988
 20
-133.0816522156597
 30
0.0
 11
845.4751913862986
 21
-134.7502346884598
 31
0.0
  0
LINE
  5
2FD6
330
1F
100
AcDbEntity
  8
0
  6
Continuous
100
AcDbLine
 10
760.4501551352988
 20
-151.2563835612598
 30
0.0
 11
783.3126854708987
 21
-155.2876645066598
 31
0.0
  0
LINE
  5
2FD7
330
1F
100
AcDbEntity
  8
0
  6
Continuous
100
AcDbLine
 10
801.2358757536986
 20
-159.6368089080598
 30
0.0
 11
840.8358757536987
 21
-159.6368089080598
 31
0.0
  0
LINE
  5
2FD8
330
1F
100
AcDbEntity
  8
0
  6
Continuous
100
AcDbLine
 10
802.2358757536986
 20
-161.3688597156597
 30
0.0
 11
839.8358757536987
 21
-161.3688597156597
 31
0.0
  0
LINE
  5
2FD9
330
1F
100
AcDbEntity
  8
0
  6
Continuous
100
AcDbLine
 10
836.5358757536988
 20
-163.2741156040597
 30
0.0
 11
805.5358757536989
 21
-163.2741156040597
 31
0.0
  0
LINE
  5
2FDA
330
1F
100
AcDbEntity
  8
0
  6
Continuous
100
AcDbLine
 10
881.2961309670988
 20
-149.1665853974597
 30
0.0
 11
858.4336006316986
 21
-153.1978663428597
 31
0.0
  0
LINE
  5
2FDB
330
1F
100
AcDbEntity
  8
0
  6
Continuous
100
AcDbLine
 10
881.6215963720987
 20
-151.2563835612598
 30
0.0
 11
858.7590660364989
 21
-155.2876645066598
 31
0.0
  0
LINE
  5
2FDC
330
1F
100
AcDbEntity
  8
0
  6
Continuous
100
AcDbLine
 10
747.1250091346988
 20
-181.8451391160598
 30
0.0
 11
744.0723481356987
 21
-182.6630971654596
 31
0.0
  0
LINE
  5
2FDD
330
1F
100
AcDbEntity
  8
0
  6
CENTER
 48
25.0
100
AcDbLine
 10
821.0358757536988
 20
-218.2915094464598
 30
0.0
 11
821.0358757536988
 21
-113.4595506942598
 31
0.0
  0
LINE
  5
2FDE
330
1F
100
AcDbEntity
  8
0
  6
Continuous
100
AcDbLine
 10
802.2358757536986
 20
-161.3688597156597
 30
0.0
 11
805.5358757536989
 21
-163.2741156040597
 31
0.0
  0
LINE
  5
2FDF
330
1F
100
AcDbEntity
  8
0
  6
Continuous
100
AcDbLine
 10
876.5794033716987
 20
-182.6630971654596
 30
0.0
 11
873.5267423726988
 21
-181.8451391160598
 31
0.0
  0
LINE
  5
2FE0
330
1F
100
AcDbEntity
  8
0
  6
Continuous
100
AcDbLine
 10
835.0358757536989
 20
-165.8721918154597
 30
0.0
 11
807.0358757536988
 21
-165.8721918154597
 31
0.0
  0
LINE
  5
2FE1
330
1F
100
AcDbEntity
  8
0
  6
Continuous
100
AcDbLine
 10
797.2758757536988
 20
-169.2915094464597
 30
0.0
 11
799.8758757536989
 21
-169.2915094464597
 31
0.0
  0
LINE
  5
2FE2
330
1F
100
AcDbEntity
  8
0
  6
Continuous
100
AcDbLine
 10
796.0758757536987
 20
-169.2915094464597
 30
0.0
 11
793.4758757536987
 21
-169.2915094464597
 31
0.0
  0
LINE
  5
2FE3
330
1F
100
AcDbEntity
  8
0
  6
Continuous
100
AcDbLine
 10
801.5341881488987
 20
-169.7915094464597
 30
0.0
 11
804.0358757536989
 21
-169.7915094464597
 31
0.0
  0
LINE
  5
2FE4
330
1F
100
AcDbEntity
  8
0
  6
Continuous
100
AcDbLine
 10
839.8358757536987
 20
-161.3688597156597
 30
0.0
 11
836.5358757536988
 21
-163.2741156040597
 31
0.0
  0
LINE
  5
2FE5
330
1F
100
AcDbEntity
  8
0
  6
Continuous
100
AcDbLine
 10
817.1124519126987
 20
-176.6673890186597
 30
0.0
 11
817.1124519126987
 21
-216.2915094464598
 31
0.0
  0
LINE
  5
2FE6
330
1F
100
AcDbEntity
  8
0
  6
Continuous
100
AcDbLine
 10
815.1281384292987
 20
-217.0415094464598
 30
0.0
 11
815.1281384292987
 21
-176.0966191780596
 31
0.0
  0
LINE
  5
2FE7
330
1F
100
AcDbEntity
  8
0
  6
Continuous
100
AcDbLine
 10
795.7688215550987
 20
-133.0816515792598
 30
0.0
 11
796.5965610656986
 21
-134.7502365942597
 31
0.0
  0
LINE
  5
2FE8
330
1F
100
AcDbEntity
  8
0
  6
Continuous
100
AcDbLine
 10
873.5267423726988
 20
-181.8451391160598
 30
0.0
 11
873.4232147546989
 21
-181.8315094464597
 31
0.0
  0
LINE
  5
2FE9
330
1F
100
AcDbEntity
  8
0
  6
Continuous
100
AcDbLine
 10
839.5327300030988
 20
-175.2915094464596
 30
0.0
 11
840.5438249460987
 21
-175.2915094464596
 31
0.0
  0
LINE
  5
2FEA
330
1F
100
AcDbEntity
  8
0
  6
Continuous
100
AcDbLine
 10
747.2285367526987
 20
-181.8315094464597
 30
0.0
 11
747.1250091346988
 21
-181.8451391160598
 31
0.0
  0
LINE
  5
2FEB
330
1F
100
AcDbEntity
  8
0
  6
Continuous
100
AcDbLine
 10
813.1438249460988
 20
-192.5396419314598
 30
0.0
 11
813.1438249460988
 21
-173.8699949828598
 31
0.0
  0
LINE
  5
2FEC
330
1F
100
AcDbEntity
  8
0
  6
Continuous
100
AcDbLine
 10
813.1438249460988
 20
-195.0433769614597
 30
0.0
 11
813.1438249460988
 21
-217.7915094464598
 31
0.0
  0
LINE
  5
2FED
330
1F
100
AcDbEntity
  8
0
  6
Continuous
100
AcDbLine
 10
809.0358757536988
 20
-131.9915094464598
 30
0.0
 11
809.0358757536988
 21
-133.4141591772598
 31
0.0
  0
LINE
  5
2FEE
330
1F
100
AcDbEntity
  8
0
  6
Continuous
100
AcDbLine
 10
788.0303012502988
 20
-178.2915094464597
 30
0.0
 11
776.3841661304987
 21
-178.2915094464597
 31
0.0
  0
LINE
  5
2FEF
330
1F
100
AcDbEntity
  8
0
  6
Continuous
100
AcDbLine
 10
776.2179851990989
 20
-178.6399682730599
 30
0.0
 11
787.8904430692987
 21
-178.6399682730599
 31
0.0
  0
LINE
  5
2FF0
330
1F
100
AcDbEntity
  8
0
  6
Continuous
100
AcDbLine
 10
807.0358757536988
 20
-165.8721918154597
 30
0.0
 11
807.0358757536988
 21
-166.7915094464597
 31
0.0
  0
LINE
  5
2FF1
330
1F
100
AcDbEntity
  8
0
  6
Continuous
100
AcDbLine
 10
748.4758757536987
 20
-181.8315094464597
 30
0.0
 11
747.2285367526987
 21
-181.8315094464597
 31
0.0
  0
LINE
  5
2FF2
330
1F
100
AcDbEntity
  8
0
  6
Continuous
100
AcDbLine
 10
756.3758757536987
 20
-181.8315094464597
 30
0.0
 11
755.3758757536987
 21
-181.8315094464597
 31
0.0
  0
LINE
  5
2FF3
330
1F
100
AcDbEntity
  8
0
  6
Continuous
100
AcDbLine
 10
764.2758757536988
 20
-181.8315094464597
 30
0.0
 11
763.2758757536988
 21
-181.8315094464597
 31
0.0
  0
LINE
  5
2FF4
330
1F
100
AcDbEntity
  8
0
  6
Continuous
100
AcDbLine
 10
774.5758757536987
 20
-181.8315094464597
 30
0.0
 11
771.1758757536987
 21
-181.8315094464597
 31
0.0
  0
LINE
  5
2FF5
330
1F
100
AcDbEntity
  8
0
  6
Continuous
100
AcDbLine
 10
849.4758757536986
 20
-181.8315094464597
 30
0.0
 11
846.0758757536988
 21
-181.8315094464597
 31
0.0
  0
LINE
  5
2FF6
330
1F
100
AcDbEntity
  8
0
  6
Continuous
100
AcDbLine
 10
857.3758757536989
 20
-181.8315094464597
 30
0.0
 11
856.3758757536989
 21
-181.8315094464597
 31
0.0
  0
LINE
  5
2FF7
330
1F
100
AcDbEntity
  8
0
  6
Continuous
100
AcDbLine
 10
865.2758757536988
 20
-181.8315094464597
 30
0.0
 11
864.2758757536988
 21
-181.8315094464597
 31
0.0
  0
LINE
  5
2FF8
330
1F
100
AcDbEntity
  8
0
  6
Continuous
100
AcDbLine
 10
873.4232147546989
 20
-181.8315094464597
 30
0.0
 11
872.1758757536989
 21
-181.8315094464597
 31
0.0
  0
LINE
  5
2FF9
330
1F
100
AcDbEntity
  8
0
  6
Continuous
100
AcDbLine
 10
754.7758757536988
 20
-182.7915094464597
 30
0.0
 11
749.0758757536987
 21
-182.7915094464597
 31
0.0
  0
LINE
  5
2FFA
330
1F
100
AcDbEntity
  8
0
  6
Continuous
100
AcDbLine
 10
762.6758757536987
 20
-182.7915094464597
 30
0.0
 11
756.9758757536987
 21
-182.7915094464597
 31
0.0
  0
LINE
  5
2FFB
330
1F
100
AcDbEntity
  8
0
  6
Continuous
100
AcDbLine
 10
770.5758757536987
 20
-182.7915094464597
 30
0.0
 11
764.8758757536987
 21
-182.7915094464597
 31
0.0
  0
LINE
  5
2FFC
330
1F
100
AcDbEntity
  8
0
  6
Continuous
100
AcDbLine
 10
855.7758757536989
 20
-182.7915094464597
 30
0.0
 11
850.0758757536987
 21
-182.7915094464597
 31
0.0
  0
LINE
  5
2FFD
330
1F
100
AcDbEntity
  8
0
  6
Continuous
100
AcDbLine
 10
863.6758757536989
 20
-182.7915094464597
 30
0.0
 11
857.9758757536987
 21
-182.7915094464597
 31
0.0
  0
LINE
  5
2FFE
330
1F
100
AcDbEntity
  8
0
  6
Continuous
100
AcDbLine
 10
871.5758757536987
 20
-182.7915094464597
 30
0.0
 11
865.8758757536988
 21
-182.7915094464597
 31
0.0
  0
LINE
  5
2FFF
330
1F
100
AcDbEntity
  8
0
  6
Continuous
100
AcDbLine
 10
776.2179851990989
 20
-185.0407494754598
 30
0.0
 11
787.8904430692987
 21
-185.0407494754598
 31
0.0
  0
LINE
  5
3000
330
1F
100
AcDbEntity
  8
0
  6
Continuous
100
AcDbLine
 10
776.3841661304987
 20
-185.9825206264598
 30
0.0
 11
788.0303012502988
 21
-185.9825206264598
 31
0.0
  0
LINE
  5
3001
330
1F
100
AcDbEntity
  8
0
  6
Continuous
100
AcDbLine
 10
776.3841661304987
 20
-186.1006483118597
 30
0.0
 11
788.0303012502988
 21
-186.1006483118597
 31
0.0
  0
LINE
  5
3002
330
1F
100
AcDbEntity
  8
0
  6
Continuous
100
AcDbLine
 10
793.4758757536987
 20
-169.2915094464597
 30
0.0
 11
793.0442818266988
 21
-169.7231033736597
 31
0.0
  0
LINE
  5
3003
330
1F
100
AcDbEntity
  8
0
  6
Continuous
100
AcDbLine
 10
801.5341881488987
 20
-195.5330672114598
 30
0.0
 11
801.5341881488987
 21
-217.7915094464598
 31
0.0
  0
LINE
  5
3004
330
1F
100
AcDbEntity
  8
0
  6
Continuous
100
AcDbLine
 10
801.5341881488987
 20
-169.7915094464597
 30
0.0
 11
801.5341881488987
 21
-192.0499516816598
 31
0.0
  0
LINE
  5
3005
330
1F
100
AcDbEntity
  8
0
  6
Continuous
100
AcDbLine
 10
801.2358757536986
 20
-155.5915094464598
 30
0.0
 11
801.2358757536986
 21
-159.6368089080598
 31
0.0
  0
LINE
  5
3006
330
1F
100
AcDbEntity
  8
0
  6
Continuous
100
AcDbLine
 10
799.8758757536989
 20
-169.2915094464597
 30
0.0
 11
799.8758757536989
 21
-218.2915094464598
 31
0.0
  0
LINE
  5
3007
330
1F
100
AcDbEntity
  8
0
  6
Continuous
100
AcDbLine
 10
787.8904430692987
 20
-187.3907282442597
 30
0.0
 11
790.7882211198987
 21
-187.6671728742597
 31
0.0
  0
LINE
  5
3008
330
1F
100
AcDbEntity
  8
0
  6
Continuous
100
AcDbLine
 10
776.2179851990989
 20
-187.3907282442597
 30
0.0
 11
787.8904430692987
 21
-187.3907282442597
 31
0.0
  0
LINE
  5
3009
330
1F
100
AcDbEntity
  8
0
  6
Continuous
100
AcDbLine
 10
792.2678246912986
 20
-171.0679665818598
 30
0.0
 11
790.9280787290988
 21
-176.0679665818598
 31
0.0
  0
LINE
  5
300A
330
1F
100
AcDbEntity
  8
0
  6
Continuous
100
AcDbLine
 10
797.2758757536988
 20
-218.2915094464598
 30
0.0
 11
797.2758757536988
 21
-169.2915094464597
 31
0.0
  0
LINE
  5
300B
330
1F
100
AcDbEntity
  8
0
  6
Continuous
100
AcDbLine
 10
796.8758757536988
 20
-169.6915094464597
 30
0.0
 11
796.8758757536988
 21
-217.8915094464598
 31
0.0
  0
LINE
  5
300C
330
1F
100
AcDbEntity
  8
0
  6
Continuous
100
AcDbLine
 10
796.4758757536986
 20
-217.8915094464598
 30
0.0
 11
796.4758757536986
 21
-169.6915094464597
 31
0.0
  0
LINE
  5
300D
330
1F
100
AcDbEntity
  8
0
  6
Continuous
100
AcDbLine
 10
796.0758757536987
 20
-169.2915094464597
 30
0.0
 11
796.0758757536987
 21
-218.2915094464598
 31
0.0
  0
LINE
  5
300E
330
1F
100
AcDbEntity
  8
0
  6
Continuous
100
AcDbLine
 10
793.4758757536987
 20
-218.2915094464598
 30
0.0
 11
793.4758757536987
 21
-169.2915094464597
 31
0.0
  0
LINE
  5
300F
330
1F
100
AcDbEntity
  8
0
  6
Continuous
100
AcDbLine
 10
793.0442818266988
 20
-169.7231033736597
 30
0.0
 11
793.0442818266988
 21
-217.8599155194598
 31
0.0
  0
LINE
  5
3010
330
1F
100
AcDbEntity
  8
0
  6
Continuous
100
AcDbLine
 10
792.2678246912986
 20
-171.0679665818598
 30
0.0
 11
792.2678246912986
 21
-216.5150523112598
 31
0.0
  0
LINE
  5
3011
330
1F
100
AcDbEntity
  8
0
  6
CENTER
 48
25.0
100
AcDbLine
 10
739.5355036248989
 20
-193.7915094464598
 30
0.0
 11
886.8758757536989
 21
-193.7915094464598
 31
0.0
  0
LINE
  5
3012
330
1F
100
AcDbEntity
  8
0
  6
Continuous
100
AcDbLine
 10
787.8904430688987
 20
-200.1922906446599
 30
0.0
 11
790.7881775852987
 21
-199.9158501642598
 31
0.0
  0
LINE
  5
3013
330
1F
100
AcDbEntity
  8
0
  6
Continuous
100
AcDbLine
 10
790.9280787290988
 20
-202.5856582842599
 30
0.0
 11
790.9280787290988
 21
-202.7207319034598
 31
0.0
  0
LINE
  5
3014
330
1F
100
AcDbEntity
  8
0
  6
Continuous
100
AcDbLine
 10
790.9280787290988
 20
-184.8622869896598
 30
0.0
 11
790.9280787290988
 21
-184.9973606088596
 31
0.0
  0
LINE
  5
3015
330
1F
100
AcDbEntity
  8
0
  6
Continuous
100
AcDbLine
 10
788.0303012502988
 20
-178.2916594918598
 30
0.0
 11
788.0303012502988
 21
-178.2915094464597
 31
0.0
  0
LINE
  5
3016
330
1F
100
AcDbEntity
  8
0
  6
Continuous
100
AcDbLine
 10
788.0303012502988
 20
-209.2915094464598
 30
0.0
 11
788.0303012502988
 21
-209.2913594010598
 31
0.0
  0
LINE
  5
3017
330
1F
100
AcDbEntity
  8
0
  6
Continuous
100
AcDbLine
 10
788.0303012502988
 20
-201.4823705810598
 30
0.0
 11
788.0303012502988
 21
-201.6004982666598
 31
0.0
  0
LINE
  5
3018
330
1F
100
AcDbEntity
  8
0
  6
Continuous
100
AcDbLine
 10
788.0303012502988
 20
-185.9825206264598
 30
0.0
 11
788.0303012502988
 21
-186.1006483118597
 31
0.0
  0
LINE
  5
3019
330
1F
100
AcDbEntity
  8
0
  6
Continuous
100
AcDbLine
 10
792.2678246912986
 20
-216.5150523112598
 30
0.0
 11
790.9280787290988
 21
-211.5150523112598
 31
0.0
  0
LINE
  5
301A
330
1F
100
AcDbEntity
  8
0
  6
Continuous
100
AcDbLine
 10
776.2179851990989
 20
-200.1922906488598
 30
0.0
 11
787.8904430692987
 21
-200.1922906488598
 31
0.0
  0
LINE
  5
301B
330
1F
100
AcDbEntity
  8
0
  6
Continuous
100
AcDbLine
 10
776.3841661304987
 20
-201.4823705810598
 30
0.0
 11
788.0303012502988
 21
-201.4823705810598
 31
0.0
  0
LINE
  5
301C
330
1F
100
AcDbEntity
  8
0
  6
Continuous
100
AcDbLine
 10
776.3841661304987
 20
-201.6004982666598
 30
0.0
 11
788.0303012502988
 21
-201.6004982666598
 31
0.0
  0
LINE
  5
301D
330
1F
100
AcDbEntity
  8
0
  6
Continuous
100
AcDbLine
 10
776.2179851990989
 20
-202.5422694176598
 30
0.0
 11
787.8904430692987
 21
-202.5422694176598
 31
0.0
  0
LINE
  5
301E
330
1F
100
AcDbEntity
  8
0
  6
Continuous
100
AcDbLine
 10
775.6294655920987
 20
-179.5986891234598
 30
0.0
 11
776.3841661304987
 21
-178.2915094464597
 31
0.0
  0
LINE
  5
301F
330
1F
100
AcDbEntity
  8
0
  6
Continuous
100
AcDbLine
 10
754.7758757536988
 20
-204.7915094464598
 30
0.0
 11
749.0758757536987
 21
-204.7915094464598
 31
0.0
  0
LINE
  5
3020
330
1F
100
AcDbEntity
  8
0
  6
Continuous
100
AcDbLine
 10
762.6758757536987
 20
-204.7915094464598
 30
0.0
 11
756.9758757536987
 21
-204.7915094464598
 31
0.0
  0
LINE
  5
3021
330
1F
100
AcDbEntity
  8
0
  6
Continuous
100
AcDbLine
 10
770.5758757536987
 20
-204.7915094464598
 30
0.0
 11
764.8758757536987
 21
-204.7915094464598
 31
0.0
  0
LINE
  5
3022
330
1F
100
AcDbEntity
  8
0
  6
Continuous
100
AcDbLine
 10
855.7758757536989
 20
-204.7915094464598
 30
0.0
 11
850.0758757536987
 21
-204.7915094464598
 31
0.0
  0
LINE
  5
3023
330
1F
100
AcDbEntity
  8
0
  6
Continuous
100
AcDbLine
 10
863.6758757536989
 20
-204.7915094464598
 30
0.0
 11
857.9758757536987
 21
-204.7915094464598
 31
0.0
  0
LINE
  5
3024
330
1F
100
AcDbEntity
  8
0
  6
Continuous
100
AcDbLine
 10
871.5758757536987
 20
-204.7915094464598
 30
0.0
 11
865.8758757536988
 21
-204.7915094464598
 31
0.0
  0
LINE
  5
3025
330
1F
100
AcDbEntity
  8
0
  6
Continuous
100
AcDbLine
 10
748.4758757536987
 20
-205.7515094464598
 30
0.0
 11
747.2285367526987
 21
-205.7515094464598
 31
0.0
  0
LINE
  5
3026
330
1F
100
AcDbEntity
  8
0
  6
Continuous
100
AcDbLine
 10
756.3758757536987
 20
-205.7515094464598
 30
0.0
 11
755.3758757536987
 21
-205.7515094464598
 31
0.0
  0
LINE
  5
3027
330
1F
100
AcDbEntity
  8
0
  6
Continuous
100
AcDbLine
 10
764.2758757536988
 20
-205.7515094464598
 30
0.0
 11
763.2758757536988
 21
-205.7515094464598
 31
0.0
  0
LINE
  5
3028
330
1F
100
AcDbEntity
  8
0
  6
Continuous
100
AcDbLine
 10
774.5758757536987
 20
-205.7515094464598
 30
0.0
 11
771.1758757536987
 21
-205.7515094464598
 31
0.0
  0
LINE
  5
3029
330
1F
100
AcDbEntity
  8
0
  6
Continuous
100
AcDbLine
 10
849.4758757536986
 20
-205.7515094464598
 30
0.0
 11
846.0758757536988
 21
-205.7515094464598
 31
0.0
  0
LINE
  5
302A
330
1F
100
AcDbEntity
  8
0
  6
Continuous
100
AcDbLine
 10
857.3758757536989
 20
-205.7515094464598
 30
0.0
 11
856.3758757536989
 21
-205.7515094464598
 31
0.0
  0
LINE
  5
302B
330
1F
100
AcDbEntity
  8
0
  6
Continuous
100
AcDbLine
 10
865.2758757536988
 20
-205.7515094464598
 30
0.0
 11
864.2758757536988
 21
-205.7515094464598
 31
0.0
  0
LINE
  5
302C
330
1F
100
AcDbEntity
  8
0
  6
Continuous
100
AcDbLine
 10
873.4232147546989
 20
-205.7515094464598
 30
0.0
 11
872.1758757536989
 21
-205.7515094464598
 31
0.0
  0
LINE
  5
302D
330
1F
100
AcDbEntity
  8
0
  6
Continuous
100
AcDbLine
 10
776.2179851990989
 20
-208.9430506198598
 30
0.0
 11
787.8904430692987
 21
-208.9430506198598
 31
0.0
  0
LINE
  5
302E
330
1F
100
AcDbEntity
  8
0
  6
Continuous
100
AcDbLine
 10
788.0303012502988
 20
-209.2915094464598
 30
0.0
 11
776.3841661304987
 21
-209.2915094464598
 31
0.0
  0
LINE
  5
302F
330
1F
100
AcDbEntity
  8
0
  6
Continuous
100
AcDbLine
 10
808.5358757536988
 20
-134.2801845810598
 30
0.0
 11
807.9966452690989
 21
-134.5915094464598
 31
0.0
  0
LINE
  5
3030
330
1F
100
AcDbEntity
  8
0
  6
Continuous
100
AcDbLine
 10
776.3841661304987
 20
-186.1006483118597
 30
0.0
 11
776.3841661304987
 21
-185.9825206264598
 31
0.0
  0
LINE
  5
3031
330
1F
100
AcDbEntity
  8
0
  6
Continuous
100
AcDbLine
 10
776.3841661304987
 20
-201.6004982666598
 30
0.0
 11
776.3841661304987
 21
-201.4823705810598
 31
0.0
  0
LINE
  5
3032
330
1F
100
AcDbEntity
  8
0
  6
Continuous
100
AcDbLine
 10
776.3841661304987
 20
-209.2913594010598
 30
0.0
 11
776.3841661304987
 21
-209.2915094464598
 31
0.0
  0
LINE
  5
3033
330
1F
100
AcDbEntity
  8
0
  6
Continuous
100
AcDbLine
 10
776.3841661304987
 20
-178.2915094464597
 30
0.0
 11
776.3841661304987
 21
-178.2916594918598
 31
0.0
  0
LINE
  5
3034
330
1F
100
AcDbEntity
  8
0
  6
Continuous
100
AcDbLine
 10
775.6294655920987
 20
-190.4754653090597
 30
0.0
 11
775.6294655920987
 21
-183.4983809430598
 31
0.0
  0
LINE
  5
3035
330
1F
100
AcDbEntity
  8
0
  6
Continuous
100
AcDbLine
 10
775.6294655920987
 20
-204.0846379500597
 30
0.0
 11
775.6294655920987
 21
-197.1075535840599
 31
0.0
  0
LINE
  5
3036
330
1F
100
AcDbEntity
  8
0
  6
Continuous
100
AcDbLine
 10
775.6294655920987
 20
-207.4006820874596
 30
0.0
 11
775.6294655920987
 21
-207.9843297694597
 31
0.0
  0
LINE
  5
3037
330
1F
100
AcDbEntity
  8
0
  6
Continuous
100
AcDbLine
 10
775.6294655920987
 20
-179.5986891234598
 30
0.0
 11
775.6294655920987
 21
-180.1823368054598
 31
0.0
  0
LINE
  5
3038
330
1F
100
AcDbEntity
  8
0
  6
Continuous
100
AcDbLine
 10
775.5758757536987
 20
-182.9978367998597
 30
0.0
 11
775.5758757536987
 21
-180.6828809486597
 31
0.0
  0
LINE
  5
3039
330
1F
100
AcDbEntity
  8
0
  6
Continuous
100
AcDbLine
 10
775.5758757536987
 20
-190.4754653090597
 30
0.0
 11
775.5758757536987
 21
-183.4983809430598
 31
0.0
  0
LINE
  5
303A
330
1F
100
AcDbEntity
  8
0
  6
Continuous
100
AcDbLine
 10
775.5758757536987
 20
-196.1064652976597
 30
0.0
 11
775.5758757536987
 21
-191.4765535954598
 31
0.0
  0
LINE
  5
303B
330
1F
100
AcDbEntity
  8
0
  6
Continuous
100
AcDbLine
 10
775.5758757536987
 20
-206.9001379442598
 30
0.0
 11
775.5758757536987
 21
-197.0874356488598
 31
0.0
  0
LINE
  5
303C
330
1F
100
AcDbEntity
  8
0
  6
Continuous
100
AcDbLine
 10
775.5758757536987
 20
-207.2162705956599
 30
0.0
 11
775.5758757536987
 21
-207.7843297694598
 31
0.0
  0
LINE
  5
303D
330
1F
100
AcDbEntity
  8
0
  6
Continuous
100
AcDbLine
 10
775.5758757536987
 20
-179.7986891234598
 30
0.0
 11
775.5758757536987
 21
-180.3667482974598
 31
0.0
  0
LINE
  5
303E
330
1F
100
AcDbEntity
  8
0
  6
Continuous
100
AcDbLine
 10
775.5758757536987
 20
-180.3667482974598
 30
0.0
 11
775.5758757536987
 21
-180.3689684730598
 31
0.0
  0
LINE
  5
303F
330
1F
100
AcDbEntity
  8
0
  6
Continuous
100
AcDbLine
 10
747.2285367526987
 20
-205.7515094464598
 30
0.0
 11
747.1250091346988
 21
-205.7378797770598
 31
0.0
  0
LINE
  5
3040
330
1F
100
AcDbEntity
  8
0
  6
Continuous
100
AcDbLine
 10
839.5327300030988
 20
-212.2915094464598
 30
0.0
 11
840.5438249460987
 21
-212.2915094464598
 31
0.0
  0
LINE
  5
3041
330
1F
100
AcDbEntity
  8
0
  6
Continuous
100
AcDbLine
 10
873.5267423726988
 20
-205.7378797770598
 30
0.0
 11
873.4232147546989
 21
-205.7515094464598
 31
0.0
  0
LINE
  5
3042
330
1F
100
AcDbEntity
  8
0
  6
Continuous
100
AcDbLine
 10
774.5758757536987
 20
-205.7515094464598
 30
0.0
 11
774.5758757536987
 21
-181.8315094464597
 31
0.0
  0
LINE
  5
3043
330
1F
100
AcDbEntity
  8
0
  6
Continuous
100
AcDbLine
 10
771.1758757536987
 20
-205.7515094464598
 30
0.0
 11
771.1758757536987
 21
-181.8315094464597
 31
0.0
  0
LINE
  5
3044
330
1F
100
AcDbEntity
  8
0
  6
Continuous
100
AcDbLine
 10
770.8758757536989
 20
-205.4515094464599
 30
0.0
 11
770.8758757536989
 21
-182.1315094464598
 31
0.0
  0
LINE
  5
3045
330
1F
100
AcDbEntity
  8
0
  6
Continuous
100
AcDbLine
 10
770.5758757536987
 20
-204.7915094464598
 30
0.0
 11
770.5758757536987
 21
-182.7915094464597
 31
0.0
  0
LINE
  5
3046
330
1F
100
AcDbEntity
  8
0
  6
Continuous
100
AcDbLine
 10
793.4758757536987
 20
-218.2915094464598
 30
0.0
 11
793.0442818266988
 21
-217.8599155194598
 31
0.0
  0
LINE
  5
3047
330
1F
100
AcDbEntity
  8
0
  6
Continuous
100
AcDbLine
 10
817.1124519126987
 20
-216.2915094464598
 30
0.0
 11
832.6332350664989
 21
-216.2915094464598
 31
0.0
  0
LINE
  5
3048
330
1F
100
AcDbEntity
  8
0
  6
Continuous
100
AcDbLine
 10
801.5341881488987
 20
-217.7915094464598
 30
0.0
 11
813.1438249460988
 21
-217.7915094464598
 31
0.0
  0
LINE
  5
3049
330
1F
100
AcDbEntity
  8
0
  6
Continuous
100
AcDbLine
 10
797.2758757536988
 20
-218.2915094464598
 30
0.0
 11
799.8758757536989
 21
-218.2915094464598
 31
0.0
  0
LINE
  5
304A
330
1F
100
AcDbEntity
  8
0
  6
Continuous
100
AcDbLine
 10
796.0758757536987
 20
-218.2915094464598
 30
0.0
 11
793.4758757536987
 21
-218.2915094464598
 31
0.0
  0
LINE
  5
304B
330
1F
100
AcDbEntity
  8
0
  6
Continuous
100
AcDbLine
 10
876.5794033716987
 20
-204.9199217276599
 30
0.0
 11
873.5267423726988
 21
-205.7378797770598
 31
0.0
  0
LINE
  5
304C
330
1F
100
AcDbEntity
  8
0
  6
Continuous
100
AcDbLine
 10
764.8758757536987
 20
-204.7915094464598
 30
0.0
 11
764.8758757536987
 21
-182.7915094464597
 31
0.0
  0
LINE
  5
304D
330
1F
100
AcDbEntity
  8
0
  6
Continuous
100
AcDbLine
 10
764.5758757536987
 20
-205.4515094464599
 30
0.0
 11
764.5758757536987
 21
-182.1315094464598
 31
0.0
  0
LINE
  5
304E
330
1F
100
AcDbEntity
  8
0
  6
Continuous
100
AcDbLine
 10
764.2758757536988
 20
-205.7515094464598
 30
0.0
 11
764.2758757536988
 21
-181.8315094464597
 31
0.0
  0
LINE
  5
304F
330
1F
100
AcDbEntity
  8
0
  6
Continuous
100
AcDbLine
 10
775.6294655920987
 20
-207.9843297694597
 30
0.0
 11
776.3841661304987
 21
-209.2915094464598
 31
0.0
  0
LINE
  5
3050
330
1F
100
AcDbEntity
  8
0
  6
Continuous
100
AcDbLine
 10
747.1250091346988
 20
-205.7378797770598
 30
0.0
 11
744.0723481356987
 21
-204.9199217276599
 31
0.0
  0
LINE
  5
3051
330
1F
100
AcDbEntity
  8
0
  6
Continuous
100
AcDbLine
 10
760.7384484368988
 20
-125.8659031514598
 30
0.0
 11
760.1763432294988
 21
-136.5915094464598
 31
0.0
  0
LINE
  5
3052
330
1F
100
AcDbEntity
  8
0
  6
Continuous
100
AcDbLine
 10
763.2758757536988
 20
-205.7515094464598
 30
0.0
 11
763.2758757536988
 21
-181.8315094464597
 31
0.0
  0
LINE
  5
3053
330
1F
100
AcDbEntity
  8
0
  6
Continuous
100
AcDbLine
 10
762.9758757536986
 20
-205.4515094464599
 30
0.0
 11
762.9758757536986
 21
-182.1315094464598
 31
0.0
  0
LINE
  5
3054
330
1F
100
AcDbEntity
  8
0
  6
Continuous
100
AcDbLine
 10
762.6758757536987
 20
-204.7915094464598
 30
0.0
 11
762.6758757536987
 21
-182.7915094464597
 31
0.0
  0
LINE
  5
3055
330
1F
100
AcDbEntity
  8
0
  6
Continuous
100
AcDbLine
 10
760.1779749870987
 20
-136.5915094464598
 30
0.0
 11
760.6104720102987
 21
-148.9766037462597
 31
0.0
  0
LINE
  5
3056
330
1F
100
AcDbEntity
  8
0
  6
Continuous
100
AcDbLine
 10
758.0358757536989
 20
-136.5915094464598
 30
0.0
 11
758.4683727768988
 21
-148.9766037462597
 31
0.0
  0
LINE
  5
3057
330
1F
100
AcDbEntity
  8
0
  6
Continuous
100
AcDbLine
 10
758.5979809610988
 20
-125.8659031514598
 30
0.0
 11
758.0358757536989
 21
-136.5915094464598
 31
0.0
  0
LINE
  5
3058
330
1F
100
AcDbEntity
  8
0
  6
Continuous
100
AcDbLine
 10
756.9758757536987
 20
-204.7915094464598
 30
0.0
 11
756.9758757536987
 21
-182.7915094464597
 31
0.0
  0
LINE
  5
3059
330
1F
100
AcDbEntity
  8
0
  6
Continuous
100
AcDbLine
 10
756.6758757536987
 20
-205.4515094464599
 30
0.0
 11
756.6758757536987
 21
-182.1315094464598
 31
0.0
  0
LINE
  5
305A
330
1F
100
AcDbEntity
  8
0
  6
Continuous
100
AcDbLine
 10
756.3758757536987
 20
-205.7515094464598
 30
0.0
 11
756.3758757536987
 21
-181.8315094464597
 31
0.0
  0
LINE
  5
305B
330
1F
100
AcDbEntity
  8
0
  6
Continuous
100
AcDbLine
 10
755.3758757536987
 20
-205.7515094464598
 30
0.0
 11
755.3758757536987
 21
-181.8315094464597
 31
0.0
  0
LINE
  5
305C
330
1F
100
AcDbEntity
  8
0
  6
Continuous
100
AcDbLine
 10
755.0758757536986
 20
-205.4515094464599
 30
0.0
 11
755.0758757536986
 21
-182.1315094464598
 31
0.0
  0
LINE
  5
305D
330
1F
100
AcDbEntity
  8
0
  6
Continuous
100
AcDbLine
 10
754.7758757536988
 20
-204.7915094464598
 30
0.0
 11
754.7758757536988
 21
-182.7915094464597
 31
0.0
  0
LINE
  5
305E
330
1F
100
AcDbEntity
  8
0
  6
Continuous
100
AcDbLine
 10
749.0758757536987
 20
-204.7915094464598
 30
0.0
 11
749.0758757536987
 21
-182.7915094464597
 31
0.0
  0
LINE
  5
305F
330
1F
100
AcDbEntity
  8
0
  6
Continuous
100
AcDbLine
 10
748.7758757536988
 20
-205.4515094464599
 30
0.0
 11
748.7758757536988
 21
-182.1315094464598
 31
0.0
  0
LINE
  5
3060
330
1F
100
AcDbEntity
  8
0
  6
Continuous
100
AcDbLine
 10
748.4758757536987
 20
-205.7515094464598
 30
0.0
 11
748.4758757536987
 21
-181.8315094464597
 31
0.0
  0
LINE
  5
3061
330
1F
100
AcDbEntity
  8
0
  6
Continuous
100
AcDbLine
 10
747.2285367526987
 20
-205.7515094464598
 30
0.0
 11
747.2285367526987
 21
-181.8315094464597
 31
0.0
  0
LINE
  5
3062
330
1F
100
AcDbEntity
  8
0
  6
Continuous
100
AcDbLine
 10
747.1250091346988
 20
-205.7378797770598
 30
0.0
 11
747.1250091346988
 21
-181.8451391160598
 31
0.0
  0
LINE
  5
3063
330
1F
100
AcDbEntity
  8
0
  6
Continuous
100
AcDbLine
 10
744.0723481356987
 20
-204.9199217276599
 30
0.0
 11
744.0723481356987
 21
-182.6630971654596
 31
0.0
  0
LINE
  5
3064
330
1F
100
AcDbEntity
  8
0
  6
Continuous
100
AcDbLine
 10
743.7758757536988
 20
-204.5335513970597
 30
0.0
 11
743.7758757536988
 21
-183.0494674960597
 31
0.0
  0
VIEWPORT
  5
86E
330
50
100
AcDbEntity
 67
     1
  8
0
100
AcDbViewport
 10
133.3499908447265
 20
101.5999970436096
 30
0.0
 40
467.3964992866515
 41
228.4221935424805
 68
     1
 69
     1
 12
133.3499908447265
 22
101.5999970436096
 13
0.0
 23
0.0
 14
10.0
 24
10.0
 15
10.0
 25
10.0
 16
0.0
 26
0.0
 36
1.0
 17
0.0
 27
0.0
 37
0.0
 42
50.0
 43
0.0
 44
0.0
 45
228.4221935424805
 50
0.0
 51
0.0
 72
  1000
 90
    32800
  1

281
     0
 71
     1
 74
     0
110
0.0
120
0.0
130
0.0
111
1.0
121
0.0
131
0.0
112
0.0
122
1.0
132
0.0
 79
     0
146
0.0
  0
VIEWPORT
  5
870
330
50
100
AcDbEntity
 67
     1
  8
0
100
AcDbViewport
 10
133.3499939441681
 20
101.5999939441681
 30
0.0
 40
213.3599903106689
 41
162.5599903106689
 68
     2
 69
     2
 12
232.2178593412737
 22
236.3528153148605
 13
0.0
 23
0.0
 14
10.0
 24
10.0
 15
10.0
 25
10.0
 16
0.0
 26
0.0
 36
1.0
 17
0.0
 27
0.0
 37
0.0
 42
50.0
 43
0.0
 44
0.0
 45
372.3835153371155
 50
0.0
 51
0.0
 72
  1000
 90
    32864
  1

281
     0
 71
     1
 74
     0
110
0.0
120
0.0
130
0.0
111
1.0
121
0.0
131
0.0
112
0.0
122
1.0
132
0.0
 79
     0
146
0.0
  0
ENDSEC
  0
SECTION
  2
OBJECTS
  0
DICTIONARY
  5
C
330
0
100
AcDbDictionary
281
     1
  3
ACAD_COLOR
350
6B
  3
ACAD_GROUP
350
D
  3
ACAD_LAYOUT
350
1A
  3
ACAD_MATERIAL
350
6A
  3
ACAD_MLINESTYLE
350
17
  3
ACAD_PLOTSETTINGS
350
19
  3
ACAD_PLOTSTYLENAME
350
E
  3
ACDBHEADERROUNDTRIPXREC
350
47A5
  3
AcDbVariableDictionary
350
5E
  3
DWGPROPS
350
47A8
  0
DICTIONARY
  5
6B
102
{ACAD_REACTORS
330
C
102
}
330
C
100
AcDbDictionary
281
     1
  0
DICTIONARY
  5
D
102
{ACAD_REACTORS
330
C
102
}
330
C
100
AcDbDictionary
281
     1
  0
DICTIONARY
  5
1A
102
{ACAD_REACTORS
330
C
102
}
330
C
100
AcDbDictionary
281
     1
  3
Layout1
350
51
  3
Layout2
350
56
  3
Model
350
22
  0
DICTIONARY
  5
6A
102
{ACAD_REACTORS
330
C
102
}
330
C
100
AcDbDictionary
281
     1
  0
DICTIONARY
  5
17
102
{ACAD_REACTORS
330
C
102
}
330
C
100
AcDbDictionary
281
     1
  3
Standard
350
18
  0
DICTIONARY
  5
19
102
{ACAD_REACTORS
330
C
102
}
330
C
100
AcDbDictionary
281
     1
  0
ACDBDICTIONARYWDFLT
  5
E
102
{ACAD_REACTORS
330
C
102
}
330
C
100
AcDbDictionary
281
     1
  3
Normal
350
F
100
AcDbDictionaryWithDefault
340
F
  0
DICTIONARY
  5
47A5
102
{ACAD_REACTORS
330
C
102
}
330
C
100
AcDbDictionary
281
     1
  3
COLORDICT
350
47A6
  3
MATERIALDICT
350
47A7
  0
DICTIONARY
  5
5E
102
{ACAD_REACTORS
330
C
102
}
330
C
100
AcDbDictionary
281
     1
  3
DIMASSOC
350
5F
  3
HIDETEXT
350
63
  0
XRECORD
  5
47A8
102
{ACAD_REACTORS
330
C
102
}
330
C
100
AcDbXrecord
280
     1
  1
DWGPROPS COOKIE
  2

  3

  4

  6

  7

  8

  9

300
=
301
=
302
=
303
=
304
=
305
=
306
=
307
=
308
=
309
=
 40
0.0
 41
2453308.654962373
 42
2453691.64717706
  1

 90
        0
  0
LAYOUT
  5
51
102
{ACAD_REACTORS
330
1A
102
}
330
1A
100
AcDbPlotSettings
  1

  2
none_device
  4
Letter_(8.50_x_11.00_Inches)
  6

 40
6.349999904632567
 41
6.349999904632567
 42
6.350006103515625
 43
6.350006103515625
 44
215.8999938964844
 45
279.3999938964844
 46
0.0
 47
0.0
 48
0.0
 49
0.0
140
0.0
141
0.0
142
1.0
143
1.0
 70
   688
 72
     1
 73
     1
 74
     5
  7

 75
    16
147
1.0
148
0.0
149
0.0
100
AcDbLayout
  1
Layout1
 70
     1
 71
     1
 10
-6.350006103515625
 20
-6.349999904632567
 11
273.0499877929688
 21
209.5499939918518
 12
0.0
 22
0.0
 32
0.0
 14
26.66999878883363
 24
20.31999878883363
 34
0.0
 15
240.0299890995026
 25
182.8799890995025
 35
0.0
146
0.0
 13
0.0
 23
0.0
 33
0.0
 16
1.0
 26
0.0
 36
0.0
 17
0.0
 27
1.0
 37
0.0
 76
     0
330
50
331
86E
  0
LAYOUT
  5
56
102
{ACAD_REACTORS
330
1A
102
}
330
1A
100
AcDbPlotSettings
  1

  2
None
  4

  6

 40
0.0
 41
0.0
 42
0.0
 43
0.0
 44
0.0
 45
0.0
 46
0.0
 47
0.0
 48
0.0
 49
0.0
140
0.0
141
0.0
142
1.0
143
1.0
 70
   688
 72
     0
 73
     0
 74
     5
  7

 75
    16
147
1.0
148
0.0
149
0.0
100
AcDbLayout
  1
Layout2
 70
     1
 71
     2
 10
0.0
 20
0.0
 11
12.0
 21
9.0
 12
0.0
 22
0.0
 32
0.0
 14
0.0
 24
0.0
 34
0.0
 15
0.0
 25
0.0
 35
0.0
146
0.0
 13
0.0
 23
0.0
 33
0.0
 16
1.0
 26
0.0
 36
0.0
 17
0.0
 27
1.0
 37
0.0
 76
     0
330
55
  0
LAYOUT
  5
22
102
{ACAD_REACTORS
330
1A
102
}
330
1A
100
AcDbPlotSettings
  1

  2
\\alderaan\HP LaserJet 5Si/5Si MX PS Tecnico
  4
A3
  6

 40
5.746749877929687
 41
5.704421997070312
 42
5.746734619140625
 43
5.74676513671875
 44
297.0530090332031
 45
420.1583251953125
 46
10.34
 47
0.0
 48
-69.22767503670229
 49
-366.6080453569757
140
1188.996887231578
141
448.8355352667507
142
1.0
143
3.078548048453406
 70
 11956
 72
     1
 73
     1
 74
     4
  7

 75
     0
147
0.3248284529787921
148
69.22767503670229
149
366.6080453569757
100
AcDbLayout
  1
Model
 70
     1
 71
     0
 10
0.0
 20
0.0
 11
12.0
 21
9.0
 12
0.0
 22
0.0
 32
0.0
 14
0.0
 24
0.0
 34
0.0
 15
0.0
 25
0.0
 35
0.0
146
0.0
 13
0.0
 23
0.0
 33
0.0
 16
1.0
 26
0.0
 36
0.0
 17
0.0
 27
1.0
 37
0.0
 76
     0
330
1F
  0
MLINESTYLE
  5
18
102
{ACAD_REACTORS
330
17
102
}
330
17
100
AcDbMlineStyle
  2
STANDARD
 70
     0
  3

 62
   256
 51
90.0
 52
90.0
 71
     2
 49
0.5
 62
   256
  6
BYLAYER
 49
-0.5
 62
   256
  6
BYLAYER
  0
ACDBPLACEHOLDER
  5
F
102
{ACAD_REACTORS
330
E
102
}
330
E
  0
XRECORD
  5
47A6
102
{ACAD_REACTORS
330
47A5
102
}
330
47A5
100
AcDbXrecord
280
     1
340
6B
  0
XRECORD
  5
47A7
102
{ACAD_REACTORS
330
47A5
102
}
330
47A5
100
AcDbXrecord
280
     1
340
6A
  0
DICTIONARYVAR
  5
5F
102
{ACAD_REACTORS
330
5E
102
}
330
5E
100
DictionaryVariables
280
     0
  1
2
  0
DICTIONARYVAR
  5
63
102
{ACAD_REACTORS
330
5E
102
}
330
5E
100
DictionaryVariables
280
     0
  1
1
  0
ENDSEC
  0
EOF
