  0
SECTION
  2
HEADER
  9
$ACADVER
  1
AC1015
  9
$ACADMAINTVER
 70
     6
  9
$DWGCODEPAGE
  3
ANSI_1252
  9
$INSBASE
 10
0.0
 20
0.0
 30
0.0
  9
$EXTMIN
 10
47.61871503045002
 20
54.59267960329999
 30
0.0
  9
$EXTMAX
 10
251.8690029800991
 20
219.1379068758231
 30
0.0
  9
$LIMMIN
 10
0.0
 20
0.0
  9
$LIMMAX
 10
420.0
 20
297.0
  9
$ORTHOMODE
 70
     1
  9
$REGENMODE
 70
     1
  9
$FILLMODE
 70
     1
  9
$QTEXTMODE
 70
     0
  9
$MIRRTEXT
 70
     1
  9
$LTSCALE
 40
23.1
  9
$ATTMODE
 70
     1
  9
$TEXTSIZE
 40
0.2
  9
$TRACEWID
 40
0.05
  9
$TEXTSTYLE
  7
STANDARD
  9
$CLAYER
  8
0
  9
$CELTYPE
  6
BYLAYER
  9
$CECOLOR
 62
   256
  9
$CELTSCALE
 40
1.0
  9
$DISPSILH
 70
     0
  9
$DIMSCALE
 40
1.0
  9
$DIMASZ
 40
3.0
  9
$DIMEXO
 40
2.625
  9
$DIMDLI
 40
15.96
  9
$DIMRND
 40
0.0
  9
$DIMDLE
 40
0.0
  9
$DIMEXE
 40
7.559999999999999
  9
$DIMTP
 40
0.003
  9
$DIMTM
 40
0.003
  9
$DIMTXT
 40
1.5
  9
$DIMCEN
 40
3.779999999999999
  9
$DIMTSZ
 40
0.0
  9
$DIMTOL
 70
     1
  9
$DIMLIM
 70
     0
  9
$DIMTIH
 70
     1
  9
$DIMTOH
 70
     1
  9
$DIMSE1
 70
     0
  9
$DIMSE2
 70
     0
  9
$DIMTAD
 70
     0
  9
$DIMZIN
 70
     0
  9
$DIMBLK
  1

  9
$DIMASO
 70
     1
  9
$DIMSHO
 70
     1
  9
$DIMPOST
  1

  9
$DIMAPOST
  1

  9
$DIMALT
 70
     0
  9
$DIMALTD
 70
     2
  9
$DIMALTF
 40
25.4
  9
$DIMLFAC
 40
1.0
  9
$DIMTOFL
 70
     0
  9
$DIMTVP
 40
0.0
  9
$DIMTIX
 70
     0
  9
$DIMSOXD
 70
     0
  9
$DIMSAH
 70
     0
  9
$DIMBLK1
  1

  9
$DIMBLK2
  1

  9
$DIMSTYLE
  2
STANDARD
  9
$DIMCLRD
 70
     0
  9
$DIMCLRE
 70
     0
  9
$DIMCLRT
 70
     0
  9
$DIMTFAC
 40
1.0
  9
$DIMGAP
 40
0.09
  9
$DIMJUST
 70
     0
  9
$DIMSD1
 70
     0
  9
$DIMSD2
 70
     0
  9
$DIMTOLJ
 70
     1
  9
$DIMTZIN
 70
     0
  9
$DIMALTZ
 70
     0
  9
$DIMALTTZ
 70
     0
  9
$DIMUPT
 70
     0
  9
$DIMDEC
 70
     4
  9
$DIMTDEC
 70
     4
  9
$DIMALTU
 70
     2
  9
$DIMALTTD
 70
     2
  9
$DIMTXSTY
  7
STANDARD
  9
$DIMAUNIT
 70
     0
  9
$DIMADEC
 70
     0
  9
$DIMALTRND
 40
0.0
  9
$DIMAZIN
 70
     0
  9
$DIMDSEP
 70
    46
  9
$DIMATFIT
 70
     3
  9
$DIMFRAC
 70
     0
  9
$DIMLDRBLK
  1

  9
$DIMLUNIT
 70
     2
  9
$DIMLWD
 70
    -2
  9
$DIMLWE
 70
    -2
  9
$DIMTMOVE
 70
     0
  9
$LUNITS
 70
     2
  9
$LUPREC
 70
     4
  9
$SKETCHINC
 40
0.1
  9
$FILLETRAD
 40
0.0
  9
$AUNITS
 70
     0
  9
$AUPREC
 70
     0
  9
$MENU
  1
acad
  9
$ELEVATION
 40
0.0
  9
$PELEVATION
 40
0.0
  9
$THICKNESS
 40
0.0
  9
$LIMCHECK
 70
     0
  9
$CHAMFERA
 40
0.0
  9
$CHAMFERB
 40
0.0
  9
$CHAMFERC
 40
0.0
  9
$CHAMFERD
 40
0.0
  9
$SKPOLY
 70
     0
  9
$TDCREATE
 40
2444972.041666667
  9
$TDUCREATE
 40
2444972.0
  9
$TDUPDATE
 40
2453410.612019213
  9
$TDUUPDATE
 40
2453410.570352546
  9
$TDINDWG
 40
0.0462033681
  9
$TDUSRTIMER
 40
0.0462033681
  9
$USRTIMER
 70
     1
  9
$ANGBASE
 50
0.0
  9
$ANGDIR
 70
     0
  9
$PDMODE
 70
     0
  9
$PDSIZE
 40
0.0
  9
$PLINEWID
 40
0.0
  9
$SPLFRAME
 70
     0
  9
$SPLINETYPE
 70
     6
  9
$SPLINESEGS
 70
     8
  9
$HANDSEED
  5
286F
  9
$SURFTAB1
 70
     6
  9
$SURFTAB2
 70
     6
  9
$SURFTYPE
 70
     6
  9
$SURFU
 70
     6
  9
$SURFV
 70
     6
  9
$UCSBASE
  2

  9
$UCSNAME
  2

  9
$UCSORG
 10
0.0
 20
0.0
 30
0.0
  9
$UCSXDIR
 10
1.0
 20
0.0
 30
0.0
  9
$UCSYDIR
 10
0.0
 20
1.0
 30
0.0
  9
$UCSORTHOREF
  2

  9
$UCSORTHOVIEW
 70
     0
  9
$UCSORGTOP
 10
0.0
 20
0.0
 30
0.0
  9
$UCSORGBOTTOM
 10
0.0
 20
0.0
 30
0.0
  9
$UCSORGLEFT
 10
0.0
 20
0.0
 30
0.0
  9
$UCSORGRIGHT
 10
0.0
 20
0.0
 30
0.0
  9
$UCSORGFRONT
 10
0.0
 20
0.0
 30
0.0
  9
$UCSORGBACK
 10
0.0
 20
0.0
 30
0.0
  9
$PUCSBASE
  2

  9
$PUCSNAME
  2

  9
$PUCSORG
 10
0.0
 20
0.0
 30
0.0
  9
$PUCSXDIR
 10
1.0
 20
0.0
 30
0.0
  9
$PUCSYDIR
 10
0.0
 20
1.0
 30
0.0
  9
$PUCSORTHOREF
  2

  9
$PUCSORTHOVIEW
 70
     0
  9
$PUCSORGTOP
 10
0.0
 20
0.0
 30
0.0
  9
$PUCSORGBOTTOM
 10
0.0
 20
0.0
 30
0.0
  9
$PUCSORGLEFT
 10
0.0
 20
0.0
 30
0.0
  9
$PUCSORGRIGHT
 10
0.0
 20
0.0
 30
0.0
  9
$PUCSORGFRONT
 10
0.0
 20
0.0
 30
0.0
  9
$PUCSORGBACK
 10
0.0
 20
0.0
 30
0.0
  9
$USERI1
 70
     0
  9
$USERI2
 70
     0
  9
$USERI3
 70
     0
  9
$USERI4
 70
     0
  9
$USERI5
 70
     0
  9
$USERR1
 40
0.0
  9
$USERR2
 40
0.0
  9
$USERR3
 40
0.0
  9
$USERR4
 40
0.0
  9
$USERR5
 40
0.0
  9
$WORLDVIEW
 70
     1
  9
$SHADEDGE
 70
     3
  9
$SHADEDIF
 70
    70
  9
$TILEMODE
 70
     1
  9
$MAXACTVP
 70
    16
  9
$PINSBASE
 10
0.0
 20
0.0
 30
0.0
  9
$PLIMCHECK
 70
     0
  9
$PEXTMIN
 10
1.000000000000000E+20
 20
1.000000000000000E+20
 30
1.000000000000000E+20
  9
$PEXTMAX
 10
-1.000000000000000E+20
 20
-1.000000000000000E+20
 30
-1.000000000000000E+20
  9
$PLIMMIN
 10
0.0
 20
0.0
  9
$PLIMMAX
 10
12.0
 20
9.0
  9
$UNITMODE
 70
     0
  9
$VISRETAIN
 70
     0
  9
$PLINEGEN
 70
     1
  9
$PSLTSCALE
 70
     0
  9
$TREEDEPTH
 70
  3020
  9
$CMLSTYLE
  2
STANDARD
  9
$CMLJUST
 70
     0
  9
$CMLSCALE
 40
1.0
  9
$PROXYGRAPHICS
 70
     1
  9
$MEASUREMENT
 70
     0
  9
$CELWEIGHT
370
    -1
  9
$ENDCAPS
280
     0
  9
$JOINSTYLE
280
     0
  9
$LWDISPLAY
290
     0
  9
$INSUNITS
 70
     0
  9
$HYPERLINKBASE
  1

  9
$STYLESHEET
  1

  9
$XEDIT
290
     1
  9
$CEPSNTYPE
380
     0
  9
$PSTYLEMODE
290
     1
  9
$FINGERPRINTGUID
  2
{88A929DF-06EC-44C8-8C49-8E2C7086BD2E}
  9
$VERSIONGUID
  2
{186A164D-E9B4-405A-A6A9-DDFEFE3518EE}
  9
$EXTNAMES
290
     1
  9
$PSVPSCALE
 40
0.0
  9
$OLESTARTUP
290
     0
  0
ENDSEC
  0
SECTION
  2
CLASSES
  0
CLASS
  1
IMAGE
  2
AcDbRasterImage
  3
ISM
 90
      127
280
     0
281
     1
  0
CLASS
  1
DICTIONARYVAR
  2
AcDbDictionaryVar
  3
ObjectDBX Classes
 90
        0
280
     0
281
     0
  0
CLASS
  1
RASTERVARIABLES
  2
AcDbRasterVariables
  3
ISM
 90
        0
280
     0
281
     0
  0
CLASS
  1
IMAGEDEF
  2
AcDbRasterImageDef
  3
ISM
 90
        0
280
     0
281
     0
  0
CLASS
  1
IMAGEDEF_REACTOR
  2
AcDbRasterImageDefReactor
  3
ISM
 90
        1
280
     0
281
     0
  0
CLASS
  1
IDBUFFER
  2
AcDbIdBuffer
  3
ObjectDBX Classes
 90
        0
280
     0
281
     0
  0
CLASS
  1
SPATIAL_FILTER
  2
AcDbSpatialFilter
  3
ObjectDBX Classes
 90
        0
280
     0
281
     0
  0
CLASS
  1
SORTENTSTABLE
  2
AcDbSortentsTable
  3
ObjectDBX Classes
 90
        0
280
     0
281
     0
  0
CLASS
  1
LAYER_INDEX
  2
AcDbLayerIndex
  3
ObjectDBX Classes
 90
        0
280
     0
281
     0
  0
CLASS
  1
SPATIAL_INDEX
  2
AcDbSpatialIndex
  3
AutoCAD 2000
 90
        0
280
     0
281
     0
  0
CLASS
  1
OBJECT_PTR
  2
CAseDLPNTableRecord
  3
ASE-LPNTableRecord
 90
        1
280
     0
281
     0
  0
CLASS
  1
PLOTSETTINGS
  2
AcDbPlotSettings
  3
ObjectDBX Classes
 90
        0
280
     0
281
     0
  0
CLASS
  1
ACDBDICTIONARYWDFLT
  2
AcDbDictionaryWithDefault
  3
ObjectDBX Classes
 90
        0
280
     0
281
     0
  0
CLASS
  1
WIPEOUT
  2
AcDbWipeout
  3
WipeOut|AutoCAD Express Tool|expresstools@autodesk.com
 90
      127
280
     0
281
     1
  0
CLASS
  1
WIPEOUTVARIABLES
  2
AcDbWipeoutVariables
  3
WipeOut|AutoCAD Express Tool|expresstools@autodesk.com
 90
        0
280
     0
281
     0
  0
CLASS
  1
RTEXT
  2
RText
  3
RText|AutoCAD Express Tool|expresstools@autodesk.com
 90
        0
280
     0
281
     1
  0
CLASS
  1
ARCALIGNEDTEXT
  2
AcDbArcAlignedText
  3
ATEXT|AutoCAD Express Tool|expresstools@autodesk.com
 90
        0
280
     0
281
     1
  0
CLASS
  1
ACDBPLACEHOLDER
  2
AcDbPlaceHolder
  3
ObjectDBX Classes
 90
        0
280
     0
281
     0
  0
CLASS
  1
LAYOUT
  2
AcDbLayout
  3
ObjectDBX Classes
 90
        0
280
     0
281
     0
  0
ENDSEC
  0
SECTION
  2
TABLES
  0
TABLE
  2
VPORT
  5
8
330
0
100
AcDbSymbolTable
 70
     1
  0
VPORT
  5
2868
330
8
100
AcDbSymbolTableRecord
100
AcDbViewportTableRecord
  2
*Active
 70
     0
 10
0.0
 20
0.0
 11
1.0
 21
1.0
 12
177.8560469112308
 22
121.8541039043667
 13
0.0
 23
0.0
 14
1.0
 24
1.0
 15
0.0
 25
0.0
 16
0.0
 26
0.0
 36
1.0
 17
0.0
 27
0.0
 37
0.0
 40
286.5047205048647
 41
1.888667992047713
 42
50.0
 43
0.0
 44
0.0
 50
0.0
 51
0.0
 71
     0
 72
   100
 73
     1
 74
     1
 75
     0
 76
     0
 77
     0
 78
     0
281
     0
 65
     1
110
0.0
120
0.0
130
0.0
111
1.0
121
0.0
131
0.0
112
0.0
122
1.0
132
0.0
 79
     0
146
0.0
  0
ENDTAB
  0
TABLE
  2
LTYPE
  5
5
330
0
100
AcDbSymbolTable
 70
     2
  0
LTYPE
  5
14
330
5
100
AcDbSymbolTableRecord
100
AcDbLinetypeTableRecord
  2
BYBLOCK
 70
     0
  3

 72
    65
 73
     0
 40
0.0
  0
LTYPE
  5
15
330
5
100
AcDbSymbolTableRecord
100
AcDbLinetypeTableRecord
  2
BYLAYER
 70
     0
  3

 72
    65
 73
     0
 40
0.0
  0
LTYPE
  5
16
330
5
100
AcDbSymbolTableRecord
100
AcDbLinetypeTableRecord
  2
CONTINUOUS
 70
     0
  3
Solid line
 72
    65
 73
     0
 40
0.0
  0
LTYPE
  5
1F5
330
5
100
AcDbSymbolTableRecord
100
AcDbLinetypeTableRecord
  2
CENTER
 70
     0
  3
____ _ ____ _ ____ _ ____ _ ____ _ ____ _ ____
 72
    65
 73
     4
 40
0.6
 49
0.375
 74
     0
 49
-0.075
 74
     0
 49
0.075
 74
     0
 49
-0.075
 74
     0
  0
ENDTAB
  0
TABLE
  2
LAYER
  5
2
330
0
100
AcDbSymbolTable
 70
     3
  0
LAYER
  5
10
330
2
100
AcDbSymbolTableRecord
100
AcDbLayerTableRecord
  2
0
 70
     0
 62
     7
  6
CONTINUOUS
370
    -3
390
2680
  0
LAYER
  5
1FA
330
2
100
AcDbSymbolTableRecord
100
AcDbLayerTableRecord
  2
DEFAULT_1
 70
     0
 62
     7
  6
CENTER
370
    -3
390
2680
  0
LAYER
  5
26E6
330
2
100
AcDbSymbolTableRecord
100
AcDbLayerTableRecord
  2
Defpoints
 70
     0
 62
     7
  6
CONTINUOUS
290
     0
370
    -3
390
2680
  0
ENDTAB
  0
TABLE
  2
STYLE
  5
3
330
0
100
AcDbSymbolTable
 70
     1
  0
STYLE
  5
11
330
3
100
AcDbSymbolTableRecord
100
AcDbTextStyleTableRecord
  2
STANDARD
 70
     0
 40
0.0
 41
1.0
 50
0.0
 71
     0
 42
0.2
  3
txt
  4

  0
ENDTAB
  0
TABLE
  2
VIEW
  5
6
330
0
100
AcDbSymbolTable
 70
     0
  0
ENDTAB
  0
TABLE
  2
UCS
  5
7
330
0
100
AcDbSymbolTable
 70
     0
  0
ENDTAB
  0
TABLE
  2
APPID
  5
9
330
0
100
AcDbSymbolTable
 70
     1
  0
APPID
  5
21D
330
9
100
AcDbSymbolTableRecord
100
AcDbRegAppTableRecord
  2
ACAD
 70
     0
  0
ENDTAB
  0
TABLE
  2
DIMSTYLE
  5
A
330
0
100
AcDbSymbolTable
 70
     1
100
AcDbDimStyleTable
  0
DIMSTYLE
105
21E
330
A
100
AcDbSymbolTableRecord
100
AcDbDimStyleTableRecord
  2
STANDARD
 70
     0
 41
3.0
 47
0.003
 48
0.003
 71
     1
 73
     0
 74
     0
 77
     1
 78
     8
140
1.5
271
     3
272
     3
284
     8
340
11
  0
ENDTAB
  0
TABLE
  2
BLOCK_RECORD
  5
1
330
0
100
AcDbSymbolTable
 70
     0
  0
BLOCK_RECORD
  5
1B
330
1
100
AcDbSymbolTableRecord
100
AcDbBlockTableRecord
  2
*MODEL_SPACE
340
2685
  0
BLOCK_RECORD
  5
1C
330
1
100
AcDbSymbolTableRecord
100
AcDbBlockTableRecord
  2
*PAPER_SPACE
340
2686
  0
ENDTAB
  0
ENDSEC
  0
SECTION
  2
BLOCKS
  0
BLOCK
  5
1E
330
1B
100
AcDbEntity
  8
0
100
AcDbBlockBegin
  2
*MODEL_SPACE
 70
     0
 71
     0
 10
0.0
 20
0.0
 30
0.0
  3
*MODEL_SPACE
  1

  0
ENDBLK
  5
1F
330
1B
100
AcDbEntity
  8
0
100
AcDbBlockEnd
  0
BLOCK
  5
20
330
1C
100
AcDbEntity
 67
     1
  8
0
100
AcDbBlockBegin
  2
*PAPER_SPACE
 70
     0
 71
     0
 10
0.0
 20
0.0
 30
0.0
  3
*PAPER_SPACE
  1

  0
ENDBLK
  5
21
330
1C
100
AcDbEntity
 67
     1
  8
0
100
AcDbBlockEnd
  0
ENDSEC
  0
SECTION
  2
ENTITIES
  0
TEXT
  5
2FF
330
1B
100
AcDbEntity
  8
0
  6
Continuous
 62
     1
100
AcDbText
 10
328.0620514055
 20
31.790927071
 30
0.0
 40
1.5
  1
 
 41
1.285714285699999
 72
     5
 11
329.990622834
 21
31.790927071
 31
0.0
100
AcDbText
  0
TEXT
  5
300
330
1B
100
AcDbEntity
  8
0
  6
Continuous
 62
     1
100
AcDbText
 10
329.990622834
 20
31.790927071
 30
0.0
 40
1.5
  1
 
 41
1.285714285699999
 72
     5
 11
331.9191942626
 21
31.790927071
 31
0.0
100
AcDbText
  0
TEXT
  5
302
330
1B
100
AcDbEntity
  8
0
  6
Continuous
 62
     1
100
AcDbText
 10
352.7763371197
 20
31.790927071
 30
0.0
 40
1.5
  1
 
 41
1.285714285699999
 72
     5
 11
354.7049085483
 21
31.790927071
 31
0.0
100
AcDbText
  0
TEXT
  5
30C
330
1B
100
AcDbEntity
  8
0
  6
Continuous
 62
     1
100
AcDbText
 10
401.7191942625999
 20
20.9052127852
 30
0.0
 40
1.5
  1
 
 41
1.0285714286
 72
     5
 11
403.2620514054999
 21
20.9052127852
 31
0.0
100
AcDbText
  0
LINE
  5
3F5
330
1B
100
AcDbEntity
  8
0
  6
Continuous
100
AcDbLine
 10
71.1187150304
 20
192.3048175575
 30
0.0
 11
71.1187150304
 21
184.859815707
 31
0.0
  0
LINE
  5
3F6
330
1B
100
AcDbEntity
  8
0
  6
Continuous
100
AcDbLine
 10
71.1454975101
 20
192.3048175575
 30
0.0
 11
71.1454975101
 21
184.859815707
 31
0.0
  0
LINE
  5
3F7
330
1B
100
AcDbEntity
  8
0
  6
Continuous
100
AcDbLine
 10
71.41184296119999
 20
192.3048176722
 30
0.0
 11
71.41184296119999
 21
184.7349527148
 31
0.0
  0
LWPOLYLINE
  5
3F8
330
1B
100
AcDbEntity
  8
0
  6
Continuous
100
AcDbPolyline
 90
        5
 70
     0
 43
0.0
 10
71.1454975101
 20
192.3048175575
 10
71.2135912114
 20
192.8224556477
 10
71.413231842
 20
193.3048175575
 10
71.73081422280001
 20
193.7190311199
 10
72.1446956395
 20
194.0368683651
  0
LINE
  5
3FF
330
1B
100
AcDbEntity
  8
0
  6
Continuous
100
AcDbLine
 10
75.5297063604
 20
120.222529752
 30
0.0
 11
79.12589470739999
 21
118.1462694418
 31
0.0
  0
LINE
  5
400
330
1B
100
AcDbEntity
  8
0
  6
Continuous
100
AcDbLine
 10
75.5187150304
 20
137.337979065
 30
0.0
 11
75.5187150304
 21
120.2288755993
 31
0.0
  0
LINE
  5
401
330
1B
100
AcDbEntity
  8
0
  6
Continuous
100
AcDbLine
 10
75.53337013709999
 20
137.3379785976
 30
0.0
 11
75.53337013709999
 21
120.2288755993
 31
0.0
  0
LINE
  5
402
330
1B
100
AcDbEntity
  8
0
  6
Continuous
100
AcDbLine
 10
75.80030863250001
 20
137.3379791156
 30
0.0
 11
75.80030863250001
 21
120.1009718284
 31
0.0
  0
LINE
  5
403
330
1B
100
AcDbEntity
  8
0
  6
Continuous
100
AcDbLine
 10
80.0187150304
 20
181.2500389162
 30
0.0
 11
80.0187150304
 21
176.2247304109
 31
0.0
  0
LINE
  5
404
330
1B
100
AcDbEntity
  8
0
  6
Continuous
100
AcDbLine
 10
84.51871503040002
 20
170.1625525844
 30
0.0
 11
84.51871503040002
 21
145.4208828336
 31
0.0
  0
LWPOLYLINE
  5
405
330
1B
100
AcDbEntity
  8
0
  6
Continuous
100
AcDbPolyline
 90
        5
 70
     0
 43
0.0
 10
86.67397663200001
 20
192.3048175575
 10
86.71040119049999
 20
192.8225582868
 10
86.8171994298
 20
193.3050270084
 10
86.98707138219999
 20
193.7192641428
 10
87.20825023679998
 20
194.0368683651
  0
LINE
  5
40C
330
1B
100
AcDbEntity
  8
0
  6
Continuous
100
AcDbLine
 10
84.90307325619999
 20
212.7364182901
 30
0.0
 11
83.2566125076
 21
199.3270715731
 31
0.0
  0
LWPOLYLINE
  5
40D
330
1B
100
AcDbEntity
  8
0
  6
Continuous
100
AcDbPolyline
 90
        5
 70
     0
 43
0.0
 10
75.5333701302
 20
137.337979065
 10
75.6015127499
 20
137.8557243436
 10
75.8013073228
 20
138.3381928961
 10
76.11909606960001
 20
138.7524282273
 10
76.5328647819
 20
139.0700298725
  0
LINE
  5
414
330
1B
100
AcDbEntity
  8
0
  6
Continuous
100
AcDbLine
 10
76.2546134152
 20
196.4247304109
 30
0.0
 11
72.1187150304
 21
194.0368683651
 31
0.0
  0
LINE
  5
415
330
1B
100
AcDbEntity
  8
0
  6
Continuous
100
AcDbLine
 10
86.01047303399999
 20
184.7349527148
 30
0.0
 11
86.01047303399999
 21
192.3048176711
 31
0.0
  0
LINE
  5
416
330
1B
100
AcDbEntity
  8
0
  6
Continuous
100
AcDbLine
 10
86.67397663200001
 20
184.859815707
 30
0.0
 11
86.67397663200001
 21
192.3048175575
 31
0.0
  0
LINE
  5
417
330
1B
100
AcDbEntity
  8
0
  6
Continuous
100
AcDbLine
 10
88.55021059290002
 20
120.1009718284
 30
0.0
 11
88.55021059290002
 21
137.3379791154
 31
0.0
  0
LINE
  5
418
330
1B
100
AcDbEntity
  8
0
  6
Continuous
100
AcDbLine
 10
88.9902359084
 20
192.3048175575
 30
0.0
 11
88.9902359084
 21
184.859815707
 31
0.0
  0
LINE
  5
419
330
1B
100
AcDbEntity
  8
0
  6
Continuous
100
AcDbLine
 10
89.2277092798
 20
120.2288755993
 30
0.0
 11
89.2277092798
 21
137.3379785824
 31
0.0
  0
LINE
  5
41A
330
1B
100
AcDbEntity
  8
0
  6
Continuous
100
AcDbLine
 10
89.92008495769998
 20
192.3048176705
 30
0.0
 11
89.92008495769998
 21
184.7349527148
 31
0.0
  0
LINE
  5
41B
330
1B
100
AcDbEntity
  8
0
  6
Continuous
100
AcDbLine
 10
90.8243758877
 20
137.3379787246
 30
0.0
 11
90.8243758877
 21
120.2288755993
 31
0.0
  0
LWPOLYLINE
  5
41C
330
1B
100
AcDbEntity
  8
0
  6
Continuous
100
AcDbPolyline
 90
        5
 70
     0
 43
0.0
 10
88.9902359084
 20
192.3048175575
 10
89.0219197465
 20
192.8224556477
 10
89.1148120594
 20
193.3048175575
 10
89.2625823895
 20
193.7190311199
 10
89.45516043310001
 20
194.0368683651
  0
LINE
  5
423
330
1B
100
AcDbEntity
  8
0
  6
Continuous
100
AcDbLine
 10
91.76881321650001
 20
137.3379787246
 30
0.0
 11
91.296594484
 21
139.0700300442
 31
0.0
  0
LINE
  5
424
330
1B
100
AcDbEntity
  8
0
  6
Continuous
100
AcDbLine
 10
91.76881306999999
 20
137.3379791008
 30
0.0
 11
91.76881306999999
 21
120.1009718284
 31
0.0
  0
LWPOLYLINE
  5
425
330
1B
100
AcDbEntity
  8
0
  6
Continuous
100
AcDbPolyline
 90
        5
 70
     0
 43
0.0
 10
90.8243757476
 20
137.337979065
 10
90.85655664380001
 20
137.8556169908
 10
90.9509063391
 20
138.337979065
 10
91.1009950536
 20
138.7521927477
 10
91.29659434360001
 20
139.0700298725
  0
LWPOLYLINE
  5
42C
330
1B
100
AcDbEntity
  8
0
  6
Continuous
100
AcDbPolyline
 90
        5
 70
     0
 43
0.0
 10
89.2277094712
 20
137.337979065
 10
89.2636575753
 20
137.8557243375
 10
89.3690578452
 20
138.3381928961
 10
89.5367046738
 20
138.7524282318
 10
89.754985525
 20
139.0700298725
  0
LINE
  5
433
330
1B
100
AcDbEntity
  8
0
  6
Continuous
100
AcDbLine
 10
129.7115353534
 20
118.0926796033
 30
0.0
 11
79.3258947074
 21
118.0926796033
 31
0.0
  0
LINE
  5
434
330
1B
100
AcDbEntity
  8
0
  6
Continuous
100
AcDbLine
 10
129.9115353534
 20
118.1462694418
 30
0.0
 11
79.12589470739999
 21
118.1462694418
 31
0.0
  0
LINE
  5
435
330
1B
100
AcDbEntity
  8
0
  6
Continuous
100
AcDbLine
 10
133.5187150304
 20
120.2288755993
 30
0.0
 11
133.5040599236
 21
120.2288755993
 31
0.0
  0
LINE
  5
436
330
1B
100
AcDbEntity
  8
0
  6
Continuous
100
AcDbLine
 10
119.809720781
 20
120.2288755993
 30
0.0
 11
118.213054173
 21
120.2288755993
 31
0.0
  0
LINE
  5
437
330
1B
100
AcDbEntity
  8
0
  6
Continuous
100
AcDbLine
 10
90.8243758877
 20
120.2288755993
 30
0.0
 11
89.2277092798
 21
120.2288755993
 31
0.0
  0
LINE
  5
438
330
1B
100
AcDbEntity
  8
0
  6
Continuous
100
AcDbLine
 10
75.53337013709999
 20
120.2288755993
 30
0.0
 11
75.5187150304
 21
120.2288755993
 31
0.0
  0
LINE
  5
439
330
1B
100
AcDbEntity
  8
0
  6
Continuous
100
AcDbLine
 10
145.1203774411
 20
127.3926796033
 30
0.0
 11
164.3468747492
 21
127.3926796033
 31
0.0
  0
LINE
  5
43A
330
1B
100
AcDbEntity
  8
0
  6
Continuous
100
AcDbLine
 10
145.1203774411
 20
127.4281642029
 30
0.0
 11
164.3468747492
 21
127.4281642029
 31
0.0
  0
LINE
  5
43B
330
1B
100
AcDbEntity
  8
0
  6
Continuous
100
AcDbLine
 10
89.92008495109999
 20
192.3048175578
 30
0.0
 11
89.4551604385
 21
194.0368683718
 31
0.0
  0
LINE
  5
43C
330
1B
100
AcDbEntity
  8
DEFAULT_1
  6
CENTER
100
AcDbLine
 10
104.5187150304
 20
113.0926796033
 30
0.0
 11
104.5187150304
 21
216.3286541873
 31
0.0
  0
LINE
  5
43D
330
1B
100
AcDbEntity
  8
0
  6
Continuous
100
AcDbLine
 10
144.998627017
 20
127.6939821881
 30
0.0
 11
164.3468747493
 21
127.6939821881
 31
0.0
  0
LINE
  5
43E
330
1B
100
AcDbEntity
  8
0
  6
Continuous
100
AcDbLine
 10
105.6916633006
 20
155.4043944864
 30
0.0
 11
105.3308149091
 21
153.7405631249
 31
0.0
  0
LINE
  5
43F
330
1B
100
AcDbEntity
  8
0
  6
Continuous
100
AcDbLine
 10
119.1173451114
 20
192.3048175579
 30
0.0
 11
119.5822696218
 21
194.0368683735
 31
0.0
  0
LINE
  5
440
330
1B
100
AcDbEntity
  8
0
  6
Continuous
100
AcDbLine
 10
133.5045514154
 20
135.0926796033
 30
0.0
 11
133.5187150304
 21
135.0926796033
 31
0.0
  0
LINE
  5
441
330
1B
100
AcDbEntity
  8
0
  6
Continuous
100
AcDbLine
 10
184.7409763643
 20
135.8926796033
 30
0.0
 11
188.9409763643
 21
135.8926796033
 31
0.0
  0
LINE
  5
442
330
1B
100
AcDbEntity
  8
0
  6
Continuous
100
AcDbLine
 10
142.8109763643
 20
136.5726796033
 30
0.0
 11
142.5387150304
 21
136.5726796033
 31
0.0
  0
LINE
  5
443
330
1B
100
AcDbEntity
  8
0
  6
Continuous
100
AcDbLine
 10
120.4872194678
 20
137.3379785825
 30
0.0
 11
117.2686169908
 21
137.3379787322
 31
0.0
  0
LINE
  5
444
330
1B
100
AcDbEntity
  8
0
  6
Continuous
100
AcDbLine
 10
91.76881306999999
 20
137.3379787246
 30
0.0
 11
88.55021059290002
 21
137.3379785824
 31
0.0
  0
LINE
  5
445
330
1B
100
AcDbEntity
  8
0
  6
Continuous
100
AcDbLine
 10
75.80030863250001
 20
137.3379785976
 30
0.0
 11
75.5187150304
 21
137.337979065
 31
0.0
  0
LINE
  5
446
330
1B
100
AcDbEntity
  8
0
  6
Continuous
100
AcDbLine
 10
191.4513454497
 20
137.6926796033
 30
0.0
 11
189.3409763642999
 21
137.6926796033
 31
0.0
  0
LINE
  5
447
330
1B
100
AcDbEntity
  8
0
  6
Continuous
100
AcDbLine
 10
136.5030862138
 20
138.0926796033
 30
0.0
 11
139.813096046
 21
138.0926796033
 31
0.0
  0
LINE
  5
448
330
1B
100
AcDbEntity
  8
0
  6
Continuous
100
AcDbLine
 10
133.5040599236
 20
135.0927091813
 30
0.0
 11
133.5045514154
 21
135.0926796033
 31
0.0
  0
LWPOLYLINE
  5
449
330
1B
100
AcDbEntity
  8
0
  6
Continuous
100
AcDbPolyline
 90
        5
 70
     0
 43
0.0
 10
121.272663284
 20
142.8228066223
 10
120.7884972893
 20
143.29956249
 10
120.416983655
 20
143.9208828336
 10
120.1834404211
 20
144.6444256983
 10
120.1037831733
 20
145.4208828318
  0
LWPOLYLINE
  5
450
330
1B
100
AcDbEntity
  8
0
  6
Continuous
100
AcDbPolyline
 90
        5
 70
     0
 43
0.0
 10
119.8097205896
 20
137.337979065
 10
119.7737876308
 20
137.8556169221
 10
119.6684373968
 20
138.337979065
 10
119.5008493384
 20
138.7521927979
 10
119.2824445358
 20
139.0700298725
  0
LWPOLYLINE
  5
457
330
1B
100
AcDbEntity
  8
0
  6
Continuous
100
AcDbPolyline
 90
        5
 70
     0
 43
0.0
 10
118.21305431
 20
137.337979065
 10
118.1808597886
 20
137.8557243975
 10
118.086465492
 20
138.338192896
 10
117.9363235908
 20
138.7524281877
 10
117.7408357141
 20
139.0700298725
  0
LINE
  5
45E
330
1B
100
AcDbEntity
  8
0
  6
Continuous
100
AcDbLine
 10
117.2686169908
 20
120.1009718284
 30
0.0
 11
117.2686169908
 21
137.3379791
 31
0.0
  0
LINE
  5
45F
330
1B
100
AcDbEntity
  8
0
  6
Continuous
100
AcDbLine
 10
118.213054173
 20
120.2288755993
 30
0.0
 11
118.213054173
 21
137.3379787322
 31
0.0
  0
LINE
  5
460
330
1B
100
AcDbEntity
  8
0
  6
Continuous
100
AcDbLine
 10
119.1173451031
 20
184.7349527148
 30
0.0
 11
119.1173451031
 21
192.3048176706
 31
0.0
  0
LWPOLYLINE
  5
461
330
1B
100
AcDbEntity
  8
0
  6
Continuous
100
AcDbPolyline
 90
        5
 70
     0
 43
0.0
 10
116.1096799714
 20
170.1625525851
 10
116.1689228543
 20
170.9390097197
 10
116.3426141985
 20
171.6625525844
 10
116.618917226
 20
172.283872928
 10
116.9790023417
 20
172.7606287954
  0
LINE
  5
468
330
1B
100
AcDbEntity
  8
0
  6
Continuous
100
AcDbLine
 10
169.8109763643
 20
139.1718733895
 30
0.0
 11
182.3409763643
 21
139.2083217849
 31
0.0
  0
LINE
  5
469
330
1B
100
AcDbEntity
  8
0
  6
Continuous
100
AcDbLine
 10
119.2824382034
 20
139.0700298725
 30
0.0
 11
117.7408396204
 21
139.0700298725
 31
0.0
  0
LINE
  5
46A
330
1B
100
AcDbEntity
  8
0
  6
Continuous
100
AcDbLine
 10
91.2965903269
 20
139.0700298725
 30
0.0
 11
89.75499185910002
 21
139.0700298725
 31
0.0
  0
LINE
  5
46B
330
1B
100
AcDbEntity
  8
0
  6
Continuous
100
AcDbLine
 10
76.5328645541
 20
139.0700298725
 30
0.0
 11
76.5187150304
 21
139.0700298725
 31
0.0
  0
LINE
  5
46C
330
1B
100
AcDbEntity
  8
0
  6
Continuous
100
AcDbLine
 10
208.4752909393
 20
139.9926796033
 30
0.0
 11
198.0108493454
 21
139.9926796033
 31
0.0
  0
LINE
  5
46D
330
1B
100
AcDbEntity
  8
0
  6
Continuous
100
AcDbLine
 10
133.8696228149
 20
140.0926796033
 30
0.0
 11
137.2745103261
 21
140.0926796033
 31
0.0
  0
LINE
  5
46E
330
1B
100
AcDbEntity
  8
0
  6
Continuous
100
AcDbLine
 10
137.011228964
 20
140.5680678058
 30
0.0
 11
133.6282568827
 21
140.5680678058
 31
0.0
  0
LINE
  5
46F
330
1B
100
AcDbEntity
  8
0
  6
Continuous
100
AcDbLine
 10
210.7109763643
 20
142.0626796033
 30
0.0
 11
197.456194517
 21
142.0626796033
 31
0.0
  0
LINE
  5
470
330
1B
100
AcDbEntity
  8
0
  6
Continuous
100
AcDbLine
 10
164.3468747575
 20
142.076262953
 30
0.0
 11
144.998627017
 21
142.076262953
 31
0.0
  0
LINE
  5
471
330
1B
100
AcDbEntity
  8
0
  6
Continuous
100
AcDbLine
 10
164.3468747492
 20
142.7294405438
 30
0.0
 11
145.1203774411
 21
142.7294405438
 31
0.0
  0
LINE
  5
472
330
1B
100
AcDbEntity
  8
0
  6
Continuous
100
AcDbLine
 10
83.01871503050001
 20
142.8228066223
 30
0.0
 11
121.272663284
 21
142.8228066223
 31
0.0
  0
LINE
  5
473
330
1B
100
AcDbEntity
  8
0
  6
Continuous
100
AcDbLine
 10
137.0112377423
 20
143.4430123483
 30
0.0
 11
133.6284089873
 21
143.4430178905
 31
0.0
  0
LWPOLYLINE
  5
474
330
1B
100
AcDbEntity
  8
0
  6
Continuous
100
AcDbPolyline
 90
        5
 70
     0
 43
0.0
 10
137.0112377423
 20
143.4430123483
 10
137.7876948776
 20
143.3450509886
 10
138.5112377423
 20
143.0578428141
 10
139.1325580858
 20
142.6009605874
 10
139.6093139536
 20
142.0055400771
  0
LINE
  5
47B
330
1B
100
AcDbEntity
  8
0
  6
Continuous
100
AcDbLine
 10
81.5187150304
 20
173.6266541995
 30
0.0
 11
83.0187150304
 21
172.7606287958
 31
0.0
  0
LWPOLYLINE
  5
47C
330
1B
100
AcDbEntity
  8
0
  6
Continuous
100
AcDbPolyline
 90
        5
 70
     0
 43
0.0
 10
122.3634534287
 20
192.3048175575
 10
122.3270288703
 20
192.8225582868
 10
122.2202306309
 20
193.3050270084
 10
122.0503586785
 20
193.7192641428
 10
121.829179824
 20
194.0368683651
  0
LWPOLYLINE
  5
483
330
1B
100
AcDbEntity
  8
0
  6
Continuous
100
AcDbPolyline
 90
        5
 70
     0
 43
0.0
 10
120.0471941523
 20
192.3048175575
 10
120.0154975265
 20
192.8225582868
 10
119.9225617718
 20
193.3050270084
 10
119.7747393153
 20
193.7192641428
 10
119.5822696277
 20
194.0368683651
  0
LINE
  5
48A
330
1B
100
AcDbEntity
  8
0
  6
Continuous
100
AcDbLine
 10
119.809720781
 20
137.3379785825
 30
0.0
 11
119.809720781
 21
120.2288755993
 31
0.0
  0
LINE
  5
48B
330
1B
100
AcDbEntity
  8
0
  6
Continuous
100
AcDbLine
 10
120.0471941523
 20
184.859815707
 30
0.0
 11
120.0471941523
 21
192.3048175575
 31
0.0
  0
LINE
  5
48C
330
1B
100
AcDbEntity
  8
0
  6
Continuous
100
AcDbLine
 10
120.4872194678
 20
137.3379791153
 30
0.0
 11
120.4872194678
 21
120.1009718284
 31
0.0
  0
LINE
  5
48D
330
1B
100
AcDbEntity
  8
0
  6
Continuous
100
AcDbLine
 10
122.3634534287
 20
192.3048175575
 30
0.0
 11
122.3634534287
 21
184.859815707
 31
0.0
  0
LINE
  5
48E
330
1B
100
AcDbEntity
  8
0
  6
Continuous
100
AcDbLine
 10
123.0269570268
 20
192.3048176711
 30
0.0
 11
123.0269570268
 21
184.7349527148
 31
0.0
  0
LINE
  5
48F
330
1B
100
AcDbEntity
  8
0
  6
Continuous
100
AcDbLine
 10
137.9187150304
 20
184.859815707
 30
0.0
 11
133.8187150304
 21
182.4926796033
 31
0.0
  0
LINE
  5
490
330
1B
100
AcDbEntity
  8
0
  6
Continuous
100
AcDbLine
 10
145.1203774411
 20
145.3914032624
 30
0.0
 11
164.3468747492
 21
145.3914032624
 31
0.0
  0
LINE
  5
491
330
1B
100
AcDbEntity
  8
0
  6
Continuous
100
AcDbLine
 10
84.51871503099999
 20
145.4208828336
 30
0.0
 11
120.1037801514
 21
145.4208828336
 31
0.0
  0
LINE
  5
492
330
1B
100
AcDbEntity
  8
0
  6
Continuous
100
AcDbLine
 10
144.998627017
 20
146.3103988384
 30
0.0
 11
164.3468747574
 21
146.3103988384
 31
0.0
  0
LINE
  5
493
330
1B
100
AcDbEntity
  8
0
  6
Continuous
100
AcDbLine
 10
71.1388018902
 20
184.8482185531
 30
0.0
 11
75.21871503040001
 21
182.4926796033
 31
0.0
  0
LINE
  5
494
330
1B
100
AcDbEntity
  8
0
  6
Continuous
100
AcDbLine
 10
142.1979921518
 20
136.9134024819
 30
0.0
 11
142.8109763643
 21
136.3004182694
 31
0.0
  0
LINE
  5
495
330
1B
100
AcDbEntity
  8
0
  6
Continuous
100
AcDbLine
 10
142.0576596023
 20
137.0637012144
 30
0.0
 11
142.1979921518
 21
136.9134024819
 31
0.0
  0
LWPOLYLINE
  5
496
330
1B
100
AcDbEntity
  8
0
  6
Continuous
100
AcDbPolyline
 90
        3
 70
     0
 43
0.0
 10
128.7189124726
 20
181.2500389162
 10
128.8198841131
 20
182.0264960515
 10
129.0106207347
 20
182.4926796033
  0
LINE
  5
49B
330
1B
100
AcDbEntity
  8
0
  6
Continuous
100
AcDbLine
 10
117.2686168481
 20
137.3379787323
 30
0.0
 11
117.7408355767
 21
139.0700300409
 31
0.0
  0
LINE
  5
49C
330
1B
100
AcDbEntity
  8
0
  6
Continuous
100
AcDbLine
 10
142.1979921518
 20
184.4719567247
 30
0.0
 11
142.8109763643
 21
185.0849409372
 31
0.0
  0
LINE
  5
49D
330
1B
100
AcDbEntity
  8
0
  6
Continuous
100
AcDbLine
 10
166.9449512756
 20
149.5993812225
 30
0.0
 11
165.2129001529
 21
149.9595533113
 31
0.0
  0
LINE
  5
49E
330
1B
100
AcDbEntity
  8
0
  6
Continuous
100
AcDbLine
 10
166.0789255571
 20
145.8509010507
 30
0.0
 11
164.3468747492
 21
146.3103988381
 31
0.0
  0
LINE
  5
49F
330
1B
100
AcDbEntity
  8
0
  6
Continuous
100
AcDbLine
 10
142.8645661914
 20
131.2998593
 30
0.0
 11
145.1203774411
 21
127.3926796033
 31
0.0
  0
LINE
  5
4A0
330
1B
100
AcDbEntity
  8
0
  6
Continuous
100
AcDbLine
 10
124.1343568045
 20
212.7364182901
 30
0.0
 11
125.7808175532
 21
199.3270715731
 31
0.0
  0
LINE
  5
4A1
330
1B
100
AcDbEntity
  8
0
  6
Continuous
100
AcDbLine
 10
133.2371214282
 20
120.1009718284
 30
0.0
 11
133.2371214282
 21
135.6837562625
 31
0.0
  0
LINE
  5
4A2
330
1B
100
AcDbEntity
  8
0
  6
Continuous
100
AcDbLine
 10
133.5040599236
 20
120.2288755993
 30
0.0
 11
133.5040599236
 21
135.0927091813
 31
0.0
  0
LINE
  5
4A3
330
1B
100
AcDbEntity
  8
0
  6
Continuous
100
AcDbLine
 10
133.5187150304
 20
135.0926796033
 30
0.0
 11
133.5187150304
 21
120.2288755993
 31
0.0
  0
LINE
  5
4A4
330
1B
100
AcDbEntity
  8
0
  6
Continuous
100
AcDbLine
 10
133.6284089873
 20
143.4430178905
 30
0.0
 11
133.6284089873
 21
140.5680678058
 31
0.0
  0
LINE
  5
4A5
330
1B
100
AcDbEntity
  8
0
  6
Continuous
100
AcDbLine
 10
142.8645661914
 20
190.0854999067
 30
0.0
 11
145.1203774411
 21
193.9926796033
 31
0.0
  0
LINE
  5
4A6
330
1B
100
AcDbEntity
  8
0
  6
Continuous
100
AcDbLine
 10
139.6093139536
 20
180.1926796033
 30
0.0
 11
141.721236284
 21
183.8506363812
 31
0.0
  0
LINE
  5
4A7
330
1B
100
AcDbEntity
  8
0
  6
Continuous
100
AcDbLine
 10
83.0187150304
 20
142.8228066223
 30
0.0
 11
76.5187150304
 21
139.0700298725
 31
0.0
  0
LINE
  5
4A8
330
1B
100
AcDbEntity
  8
DEFAULT_1
  6
CENTER
100
AcDbLine
 10
81.36976102810002
 20
160.6926796033
 30
0.0
 11
123.3509837044
 21
160.6926796033
 31
0.0
  0
LINE
  5
4A9
330
1B
100
AcDbEntity
  8
DEFAULT_1
  6
CENTER
100
AcDbLine
 10
128.3509837044
 20
160.6926796033
 30
0.0
 11
211.4673431274
 21
160.6926796033
 31
0.0
  0
LINE
  5
4AA
330
1B
100
AcDbEntity
  8
0
  6
Continuous
100
AcDbLine
 10
137.0112377423
 20
140.5680678058
 30
0.0
 11
137.0112377423
 21
178.6926796033
 31
0.0
  0
LINE
  5
4AB
330
1B
100
AcDbEntity
  8
0
  6
Continuous
100
AcDbLine
 10
137.6255870995
 20
184.7349527148
 30
0.0
 11
137.6255870995
 21
192.3048176722
 31
0.0
  0
LINE
  5
4AC
330
1B
100
AcDbEntity
  8
0
  6
Continuous
100
AcDbLine
 10
137.8919325506
 20
184.859815707
 30
0.0
 11
137.8919325506
 21
192.3048175575
 31
0.0
  0
LINE
  5
4AD
330
1B
100
AcDbEntity
  8
0
  6
Continuous
100
AcDbLine
 10
137.9187150304
 20
192.3048175575
 30
0.0
 11
137.9187150304
 21
184.859815707
 31
0.0
  0
LINE
  5
4AE
330
1B
100
AcDbEntity
  8
0
  6
Continuous
100
AcDbLine
 10
139.6093139536
 20
142.0055400771
 30
0.0
 11
139.6093139536
 21
180.1926796033
 31
0.0
  0
LINE
  5
4AF
330
1B
100
AcDbEntity
  8
0
  6
Continuous
100
AcDbLine
 10
141.721236284
 20
137.907273616
 30
0.0
 11
141.721236284
 21
183.8506363812
 31
0.0
  0
LINE
  5
4B0
330
1B
100
AcDbEntity
  8
0
  6
Continuous
100
AcDbLine
 10
166.9449577427
 20
171.785979329
 30
0.0
 11
165.2129001529
 21
171.4258058953
 31
0.0
  0
LWPOLYLINE
  5
4B1
330
1B
100
AcDbEntity
  8
0
  6
Continuous
100
AcDbPolyline
 90
        5
 70
     0
 43
0.0
 10
137.8919325506
 20
192.3048175575
 10
137.8238113665
 20
192.8225582868
 10
137.6240773724
 20
193.3050270084
 10
137.3063829635
 20
193.7192641428
 10
136.8927344213
 20
194.0368683651
  0
LINE
  5
4B8
330
1B
100
AcDbEntity
  8
0
  6
Continuous
100
AcDbLine
 10
142.1979921518
 20
136.9134024819
 30
0.0
 11
142.1979921518
 21
184.4719567247
 31
0.0
  0
LINE
  5
4B9
330
1B
100
AcDbEntity
  8
0
  6
Continuous
100
AcDbLine
 10
142.5387154881
 20
136.5726772382
 30
0.0
 11
142.5387154881
 21
184.8126789167
 31
0.0
  0
LINE
  5
4BA
330
1B
100
AcDbEntity
  8
0
  6
Continuous
100
AcDbLine
 10
142.8109763643
 20
189.8854999008
 30
0.0
 11
142.8109763643
 21
131.4998593059
 31
0.0
  0
LINE
  5
4BB
330
1B
100
AcDbEntity
  8
0
  6
Continuous
100
AcDbLine
 10
142.8645661914
 20
131.2998593
 30
0.0
 11
142.8645661914
 21
190.0854999067
 31
0.0
  0
LINE
  5
4BC
330
1B
100
AcDbEntity
  8
0
  6
Continuous
100
AcDbLine
 10
145.1203774411
 20
145.3914032624
 30
0.0
 11
145.1203774411
 21
142.7294405438
 31
0.0
  0
LINE
  5
4BD
330
1B
100
AcDbEntity
  8
0
  6
Continuous
100
AcDbLine
 10
145.1203774411
 20
127.4281642029
 30
0.0
 11
145.1203774411
 21
127.3926796033
 31
0.0
  0
LINE
  5
4BE
330
1B
100
AcDbEntity
  8
0
  6
Continuous
100
AcDbLine
 10
145.1203774411
 20
175.9939559442
 30
0.0
 11
145.1203774411
 21
178.6559186629
 31
0.0
  0
LINE
  5
4BF
330
1B
100
AcDbEntity
  8
0
  6
Continuous
100
AcDbLine
 10
145.1203774411
 20
193.9571950038
 30
0.0
 11
145.1203774411
 21
193.9926796033
 31
0.0
  0
LINE
  5
4C0
330
1B
100
AcDbEntity
  8
0
  6
Continuous
100
AcDbLine
 10
166.0789255571
 20
175.534458156
 30
0.0
 11
164.3468747492
 21
175.0749603686
 31
0.0
  0
LINE
  5
4C1
330
1B
100
AcDbEntity
  8
0
  6
Continuous
100
AcDbLine
 10
116.1096108905
 20
170.1625525844
 30
0.0
 11
84.51871503040002
 21
170.1625525844
 31
0.0
  0
LINE
  5
4C2
330
1B
100
AcDbEntity
  8
0
  6
Continuous
100
AcDbLine
 10
116.9790025849
 20
172.7606287958
 30
0.0
 11
83.0187150304
 21
172.7606287958
 31
0.0
  0
LINE
  5
4C3
330
1B
100
AcDbEntity
  8
0
  6
Continuous
100
AcDbLine
 10
119.8320053672
 20
173.6266541995
 30
0.0
 11
81.5187150304
 21
173.6266541995
 31
0.0
  0
LINE
  5
4C4
330
1B
100
AcDbEntity
  8
0
  6
Continuous
100
AcDbLine
 10
164.3468747574
 20
175.0749603682
 30
0.0
 11
144.998627017
 21
175.0749603682
 31
0.0
  0
LINE
  5
4C5
330
1B
100
AcDbEntity
  8
0
  6
Continuous
100
AcDbLine
 10
164.3468747492
 20
175.9939559442
 30
0.0
 11
145.1203774411
 21
175.9939559442
 31
0.0
  0
LINE
  5
4C6
330
1B
100
AcDbEntity
  8
0
  6
Continuous
100
AcDbLine
 10
125.5353832685
 20
176.2247304109
 30
0.0
 11
80.0187150304
 21
176.2247304109
 31
0.0
  0
LINE
  5
4C7
330
1B
100
AcDbEntity
  8
0
  6
Continuous
100
AcDbLine
 10
182.3409763643
 20
138.2926796033
 30
0.0
 11
184.7409763643
 21
135.8926796033
 31
0.0
  0
LINE
  5
4C8
330
1B
100
AcDbEntity
  8
0
  6
Continuous
100
AcDbLine
 10
182.3409763643
 20
183.0926796033
 30
0.0
 11
184.7409763643
 21
185.4926796033
 31
0.0
  0
LINE
  5
4C9
330
1B
100
AcDbEntity
  8
0
  6
Continuous
100
AcDbLine
 10
145.1203774411
 20
178.6559186629
 30
0.0
 11
164.3468747492
 21
178.6559186629
 31
0.0
  0
LINE
  5
4CA
330
1B
100
AcDbEntity
  8
0
  6
Continuous
100
AcDbLine
 10
132.4613557175
 20
178.6926796033
 30
0.0
 11
137.0112377423
 21
178.6926796033
 31
0.0
  0
LINE
  5
4CB
330
1B
100
AcDbEntity
  8
0
  6
Continuous
100
AcDbLine
 10
144.998627017
 20
179.3090962537
 30
0.0
 11
164.3468747575
 21
179.3090962537
 31
0.0
  0
LINE
  5
4CC
330
1B
100
AcDbEntity
  8
0
  6
Continuous
100
AcDbLine
 10
210.7109763643
 20
179.3226796033
 30
0.0
 11
197.456194517
 21
179.3226796033
 31
0.0
  0
LINE
  5
4CD
330
1B
100
AcDbEntity
  8
0
  6
Continuous
100
AcDbLine
 10
128.7189124726
 20
181.2500389162
 30
0.0
 11
80.0187150304
 21
181.2500389162
 31
0.0
  0
LINE
  5
4CE
330
1B
100
AcDbEntity
  8
0
  6
Continuous
100
AcDbLine
 10
208.4752909393
 20
181.3926796033
 30
0.0
 11
198.0108493454
 21
181.3926796033
 31
0.0
  0
LINE
  5
4CF
330
1B
100
AcDbEntity
  8
0
  6
Continuous
100
AcDbLine
 10
133.8187150304
 20
182.4926796033
 30
0.0
 11
75.21871503040001
 21
182.4926796033
 31
0.0
  0
LINE
  5
4D0
330
1B
100
AcDbEntity
  8
0
  6
Continuous
100
AcDbLine
 10
191.4513454497
 20
183.6926796033
 30
0.0
 11
189.3409763642999
 21
183.6926796033
 31
0.0
  0
LINE
  5
4D1
330
1B
100
AcDbEntity
  8
0
  6
Continuous
100
AcDbLine
 10
169.8109763643
 20
182.2134858171
 30
0.0
 11
182.3409763643
 21
182.1770374218
 31
0.0
  0
LINE
  5
4D2
330
1B
100
AcDbEntity
  8
0
  6
Continuous
100
AcDbLine
 10
164.3468747492
 20
127.3926796033
 30
0.0
 11
164.3468747492
 21
127.6939821881
 31
0.0
  0
LINE
  5
4D3
330
1B
100
AcDbEntity
  8
0
  6
Continuous
100
AcDbLine
 10
164.3468747492
 20
142.076262953
 30
0.0
 11
164.3468747492
 21
146.3103988384
 31
0.0
  0
LINE
  5
4D4
330
1B
100
AcDbEntity
  8
0
  6
Continuous
100
AcDbLine
 10
164.3468747492
 20
175.0749603682
 30
0.0
 11
164.3468747492
 21
179.3090962537
 31
0.0
  0
LINE
  5
4D5
330
1B
100
AcDbEntity
  8
0
  6
Continuous
100
AcDbLine
 10
164.3468747492
 20
193.6913770185
 30
0.0
 11
164.3468747492
 21
193.9926796033
 31
0.0
  0
LINE
  5
4D6
330
1B
100
AcDbEntity
  8
0
  6
Continuous
100
AcDbLine
 10
131.1969563354
 20
139.1818746756
 30
0.0
 11
133.628408988
 21
140.5679966241
 31
0.0
  0
LINE
  5
4D7
330
1B
100
AcDbEntity
  8
0
  6
Continuous
100
AcDbLine
 10
139.8725865367
 20
141.5328361024
 30
0.0
 11
137.2745103261
 21
140.0926796034
 31
0.0
  0
LINE
  5
4D8
330
1B
100
AcDbEntity
  8
0
  6
Continuous
100
AcDbLine
 10
139.6093139536
 20
142.0055400771
 30
0.0
 11
137.0112377423
 21
140.5680678058
 31
0.0
  0
LINE
  5
4D9
330
1B
100
AcDbEntity
  8
0
  6
Continuous
100
AcDbLine
 10
131.3537154562
 20
138.9671431636
 30
0.0
 11
133.8696228052
 21
140.092679615
 31
0.0
  0
LINE
  5
4DA
330
1B
100
AcDbEntity
  8
0
  6
Continuous
100
AcDbLine
 10
142.8109763643
 20
184.8126796033
 30
0.0
 11
142.5387150304
 21
184.8126796033
 31
0.0
  0
LINE
  5
4DB
330
1B
100
AcDbEntity
  8
0
  6
Continuous
100
AcDbLine
 10
137.9187150304
 20
184.859815707
 30
0.0
 11
137.8919325506
 21
184.859815707
 31
0.0
  0
LINE
  5
4DC
330
1B
100
AcDbEntity
  8
0
  6
Continuous
100
AcDbLine
 10
122.3634534287
 20
184.859815707
 30
0.0
 11
120.0471941523
 21
184.859815707
 31
0.0
  0
LINE
  5
4DD
330
1B
100
AcDbEntity
  8
0
  6
Continuous
100
AcDbLine
 10
88.9902359084
 20
184.859815707
 30
0.0
 11
86.67397663200001
 21
184.859815707
 31
0.0
  0
LINE
  5
4DE
330
1B
100
AcDbEntity
  8
0
  6
Continuous
100
AcDbLine
 10
71.1454975101
 20
184.859815707
 30
0.0
 11
71.1187150304
 21
184.859815707
 31
0.0
  0
LINE
  5
4DF
330
1B
100
AcDbEntity
  8
0
  6
Continuous
100
AcDbLine
 10
184.7409763643
 20
185.4926796033
 30
0.0
 11
188.9409763643
 21
185.4926796033
 31
0.0
  0
LINE
  5
4E0
330
1B
100
AcDbEntity
  8
0
  6
Continuous
100
AcDbLine
 10
132.7828166455
 20
196.4247304109
 30
0.0
 11
136.9187150304
 21
194.0368683651
 31
0.0
  0
LWPOLYLINE
  5
4E1
330
1B
100
AcDbEntity
  8
0
  6
Continuous
100
AcDbPolyline
 90
        5
 70
     0
 43
0.0
 10
166.0789255567
 20
175.5344581562
 10
165.7613198605
 20
175.7246817464
 10
165.3470814404
 20
175.8707791201
 10
164.8646121596
 20
175.9626296672
 10
164.3468747492
 20
175.9939559442
  0
LINE
  5
4E8
330
1B
100
AcDbEntity
  8
0
  6
Continuous
100
AcDbLine
 10
166.0789255567
 20
192.9926796033
 30
0.0
 11
166.0789255567
 21
192.9582930647
 31
0.0
  0
LINE
  5
4E9
330
1B
100
AcDbEntity
  8
0
  6
Continuous
100
AcDbLine
 10
166.0789255567
 20
178.116478577
 30
0.0
 11
166.0789255567
 21
175.5344617732
 31
0.0
  0
LINE
  5
4EA
330
1B
100
AcDbEntity
  8
0
  6
Continuous
100
AcDbLine
 10
166.0789255567
 20
145.8508974382
 30
0.0
 11
166.0789255567
 21
143.2688806339
 31
0.0
  0
LINE
  5
4EB
330
1B
100
AcDbEntity
  8
0
  6
Continuous
100
AcDbLine
 10
166.0789255567
 20
128.427066162
 30
0.0
 11
166.0789255567
 21
128.3926796033
 31
0.0
  0
LINE
  5
4EC
330
1B
100
AcDbEntity
  8
0
  6
Continuous
100
AcDbLine
 10
166.9449509605
 20
191.4926796025
 30
0.0
 11
166.9449509605
 21
191.1227378796
 31
0.0
  0
LINE
  5
4ED
330
1B
100
AcDbEntity
  8
0
  6
Continuous
100
AcDbLine
 10
166.9449509605
 20
180.0294395644
 30
0.0
 11
166.9449509605
 21
171.7859779186
 31
0.0
  0
LINE
  5
4EE
330
1B
100
AcDbEntity
  8
0
  6
Continuous
100
AcDbLine
 10
166.9449509605
 20
149.5993812881
 30
0.0
 11
166.9449509605
 21
141.3559196423
 31
0.0
  0
LINE
  5
4EF
330
1B
100
AcDbEntity
  8
0
  6
Continuous
100
AcDbLine
 10
166.9449509605
 20
130.262621327
 30
0.0
 11
166.9449509605
 21
129.8926796041
 31
0.0
  0
LINE
  5
4F0
330
1B
100
AcDbEntity
  8
0
  6
Continuous
100
AcDbLine
 10
169.2663181666
 20
131.3798910331
 30
0.0
 11
169.2663181666
 21
190.0054681735
 31
0.0
  0
LINE
  5
4F1
330
1B
100
AcDbEntity
  8
0
  6
Continuous
100
AcDbLine
 10
169.8109763643
 20
189.4080258877
 30
0.0
 11
169.8109763643
 21
131.977333319
 31
0.0
  0
LINE
  5
4F2
330
1B
100
AcDbEntity
  8
0
  6
Continuous
100
AcDbLine
 10
137.9187150304
 20
192.3048175575
 30
0.0
 11
137.6255870995
 21
192.3048175575
 31
0.0
  0
LINE
  5
4F3
330
1B
100
AcDbEntity
  8
0
  6
Continuous
100
AcDbLine
 10
123.0269570268
 20
192.3048175575
 30
0.0
 11
119.1173451031
 21
192.3048175575
 31
0.0
  0
LINE
  5
4F4
330
1B
100
AcDbEntity
  8
0
  6
Continuous
100
AcDbLine
 10
89.92008495769998
 20
192.3048175575
 30
0.0
 11
86.01047303399999
 21
192.3048175575
 31
0.0
  0
LINE
  5
4F5
330
1B
100
AcDbEntity
  8
0
  6
Continuous
100
AcDbLine
 10
71.41184296119999
 20
192.3048175575
 30
0.0
 11
71.1187150304
 21
192.3048175575
 31
0.0
  0
LINE
  5
4F6
330
1B
100
AcDbEntity
  8
0
  6
Continuous
100
AcDbLine
 10
164.3468747493
 20
193.6913770185
 30
0.0
 11
144.998627017
 21
193.6913770185
 31
0.0
  0
LINE
  5
4F7
330
1B
100
AcDbEntity
  8
0
  6
Continuous
100
AcDbLine
 10
164.3468747492
 20
193.9571950038
 30
0.0
 11
145.1203774411
 21
193.9571950038
 31
0.0
  0
LINE
  5
4F8
330
1B
100
AcDbEntity
  8
0
  6
Continuous
100
AcDbLine
 10
145.1203774411
 20
193.9926796033
 30
0.0
 11
164.3468747492
 21
193.9926796033
 31
0.0
  0
LINE
  5
4F9
330
1B
100
AcDbEntity
  8
0
  6
Continuous
100
AcDbLine
 10
136.9187150304
 20
194.0368683651
 30
0.0
 11
136.8927351848
 21
194.0368683651
 31
0.0
  0
LINE
  5
4FA
330
1B
100
AcDbEntity
  8
0
  6
Continuous
100
AcDbLine
 10
121.8291637132
 20
194.0368683651
 30
0.0
 11
119.5822863666
 21
194.0368683651
 31
0.0
  0
LINE
  5
4FB
330
1B
100
AcDbEntity
  8
0
  6
Continuous
100
AcDbLine
 10
89.4551436953
 20
194.0368683651
 30
0.0
 11
87.20826634700001
 21
194.0368683651
 31
0.0
  0
LINE
  5
4FC
330
1B
100
AcDbEntity
  8
0
  6
Continuous
100
AcDbLine
 10
72.1446948759
 20
194.0368683651
 30
0.0
 11
72.1187150304
 21
194.0368683651
 31
0.0
  0
LWPOLYLINE
  5
4FD
330
1B
100
AcDbEntity
  8
0
  6
Continuous
100
AcDbPolyline
 90
        5
 70
     0
 43
0.0
 10
166.0789255567
 20
178.1164820545
 10
165.7610883115
 20
178.3399240137
 10
165.3468747492
 20
178.5113770593
 10
164.8645128394
 20
178.6191569495
 10
164.3468747492
 20
178.6559186629
  0
LWPOLYLINE
  5
504
330
1B
100
AcDbEntity
  8
0
  6
Continuous
100
AcDbPolyline
 90
        5
 70
     0
 43
0.0
 10
166.0789255567
 20
143.2688771522
 10
165.7613198605
 20
143.0455599185
 10
165.3470814404
 20
142.8740466029
 10
164.8646121596
 20
142.7662165839
 10
164.3468747492
 20
142.7294405438
  0
LWPOLYLINE
  5
50B
330
1B
100
AcDbEntity
  8
0
  6
Continuous
100
AcDbPolyline
 90
        5
 70
     0
 43
0.0
 10
166.0789255567
 20
145.8509010504
 10
165.7610883115
 20
145.6605708348
 10
165.3468747492
 20
145.5145253236
 10
164.8645128394
 20
145.4227172773
 10
164.3468747492
 20
145.3914032624
  0
LINE
  5
512
330
1B
100
AcDbEntity
  8
0
  6
Continuous
100
AcDbLine
 10
76.2546134152
 20
196.4247304109
 30
0.0
 11
132.7828166455
 21
196.4247304109
 31
0.0
  0
LINE
  5
513
330
1B
100
AcDbEntity
  8
0
  6
Continuous
100
AcDbLine
 10
77.25461341519998
 20
196.6926796033
 30
0.0
 11
131.7828166455
 21
196.6926796033
 31
0.0
  0
LINE
  5
514
330
1B
100
AcDbEntity
  8
0
  6
Continuous
100
AcDbLine
 10
125.7808175532
 20
199.3270715731
 30
0.0
 11
83.2566125076
 21
199.3270715731
 31
0.0
  0
LINE
  5
515
330
1B
100
AcDbEntity
  8
0
  6
Continuous
100
AcDbLine
 10
166.0789255567
 20
192.9926796033
 30
0.0
 11
166.9449509605
 21
191.4926796033
 31
0.0
  0
LINE
  5
516
330
1B
100
AcDbEntity
  8
0
  6
Continuous
100
AcDbLine
 10
133.5077237003
 20
120.222529752
 30
0.0
 11
129.9115353534
 21
118.1462694418
 31
0.0
  0
LINE
  5
517
330
1B
100
AcDbEntity
  8
0
  6
Continuous
100
AcDbLine
 10
197.3409763643
 20
181.1926796033
 30
0.0
 11
191.4513454497
 21
183.6926796033
 31
0.0
  0
LWPOLYLINE
  5
518
330
1B
100
AcDbEntity
  8
0
  6
Continuous
100
AcDbPolyline
 90
        5
 70
     0
 43
0.0
 10
166.0789255567
 20
192.9582606074
 10
165.7613198605
 20
193.3718014312
 10
165.3470814404
 20
193.6894121205
 10
164.8646121596
 20
193.8890926867
 10
164.3468747492
 20
193.9571950038
  0
LINE
  5
51F
330
1B
100
AcDbEntity
  8
0
  6
Continuous
100
AcDbLine
 10
182.3409763643
 20
138.2926796033
 30
0.0
 11
182.3409763643
 21
183.0926796033
 31
0.0
  0
LINE
  5
520
330
1B
100
AcDbEntity
  8
0
  6
Continuous
100
AcDbLine
 10
184.7409763643
 20
135.8926796033
 30
0.0
 11
184.7409763643
 21
185.4926796033
 31
0.0
  0
LINE
  5
521
330
1B
100
AcDbEntity
  8
0
  6
Continuous
100
AcDbLine
 10
166.0789255567
 20
128.3926796033
 30
0.0
 11
166.9449509605
 21
129.8926796033
 31
0.0
  0
LWPOLYLINE
  5
522
330
1B
100
AcDbEntity
  8
0
  6
Continuous
100
AcDbPolyline
 90
        5
 70
     0
 43
0.0
 10
166.0789255567
 20
128.4270985993
 10
165.7613198605
 20
128.0135577755
 10
165.3470814404
 20
127.6959470861
 10
164.8646121596
 20
127.49626652
 10
164.3468747492
 20
127.4281642029
  0
LINE
  5
529
330
1B
100
AcDbEntity
  8
0
  6
Continuous
100
AcDbLine
 10
197.3409763643
 20
140.1926796033
 30
0.0
 11
191.4513454497
 21
137.6926796033
 31
0.0
  0
LINE
  5
52A
330
1B
100
AcDbEntity
  8
0
  6
Continuous
100
AcDbLine
 10
188.9409763643
 20
135.8926796033
 30
0.0
 11
188.9409763643
 21
185.4926796033
 31
0.0
  0
LINE
  5
52B
330
1B
100
AcDbEntity
  8
0
  6
Continuous
100
AcDbLine
 10
189.3409763642999
 20
136.2926796033
 30
0.0
 11
189.3409763642999
 21
185.0926796033
 31
0.0
  0
LINE
  5
52C
330
1B
100
AcDbEntity
  8
0
  6
Continuous
100
AcDbLine
 10
191.4513454497
 20
137.6926796033
 30
0.0
 11
191.4513454497
 21
183.6926796033
 31
0.0
  0
LINE
  5
52D
330
1B
100
AcDbEntity
  8
0
  6
Continuous
100
AcDbLine
 10
198.0108493454
 20
181.3926796033
 30
0.0
 11
197.4204159012
 21
179.1891519913
 31
0.0
  0
LINE
  5
52E
330
1B
100
AcDbEntity
  8
0
  6
Continuous
100
AcDbLine
 10
84.90307325619999
 20
212.7364182901
 30
0.0
 11
124.1343568045
 21
212.7364182901
 31
0.0
  0
LINE
  5
52F
330
1B
100
AcDbEntity
  8
0
  6
Continuous
100
AcDbLine
 10
122.1492645013
 20
214.4926796033
 30
0.0
 11
86.8881655595
 21
214.4926796033
 31
0.0
  0
LINE
  5
530
330
1B
100
AcDbEntity
  8
0
  6
Continuous
100
AcDbLine
 10
188.9409763643
 20
185.4926796033
 30
0.0
 11
189.3409763642999
 21
185.0926796033
 31
0.0
  0
LINE
  5
531
330
1B
100
AcDbEntity
  8
0
  6
Continuous
100
AcDbLine
 10
198.0108493454
 20
139.9926796033
 30
0.0
 11
197.4204159012
 21
142.1962072154
 31
0.0
  0
LINE
  5
532
330
1B
100
AcDbEntity
  8
0
  6
Continuous
100
AcDbLine
 10
197.3409763643
 20
140.1926796033
 30
0.0
 11
197.3409763643
 21
181.1926796033
 31
0.0
  0
LINE
  5
533
330
1B
100
AcDbEntity
  8
0
  6
Continuous
100
AcDbLine
 10
197.4204159038
 20
142.1962072059
 30
0.0
 11
197.4204159038
 21
179.1891520007
 31
0.0
  0
LINE
  5
534
330
1B
100
AcDbEntity
  8
0
  6
Continuous
100
AcDbLine
 10
197.4561954805
 20
142.0626804426
 30
0.0
 11
197.4561954805
 21
179.3226787641
 31
0.0
  0
LINE
  5
535
330
1B
100
AcDbEntity
  8
0
  6
Continuous
100
AcDbLine
 10
198.0108493454
 20
139.9926796033
 30
0.0
 11
198.0108493454
 21
181.3926796033
 31
0.0
  0
LINE
  5
536
330
1B
100
AcDbEntity
  8
0
  6
Continuous
100
AcDbLine
 10
188.9409763643
 20
135.8926796033
 30
0.0
 11
189.3409763642999
 21
136.2926796033
 31
0.0
  0
LINE
  5
537
330
1B
100
AcDbEntity
  8
0
  6
Continuous
100
AcDbLine
 10
211.2238191073
 20
178.8098368603
 30
0.0
 11
208.7581336526
 21
181.2755223151
 31
0.0
  0
LINE
  5
538
330
1B
100
AcDbEntity
  8
0
  6
Continuous
100
AcDbLine
 10
208.4752909393
 20
181.3926796033
 30
0.0
 11
208.4752909393
 21
139.9926796033
 31
0.0
  0
LINE
  5
539
330
1B
100
AcDbEntity
  8
0
  6
Continuous
100
AcDbLine
 10
208.7581336524
 20
181.2755223153
 30
0.0
 11
208.7581336524
 21
140.1098368914
 31
0.0
  0
LINE
  5
53A
330
1B
100
AcDbEntity
  8
0
  6
Continuous
100
AcDbLine
 10
211.2238191073
 20
142.5755223464
 30
0.0
 11
208.7581336526
 21
140.1098368916
 31
0.0
  0
LINE
  5
53B
330
1B
100
AcDbEntity
  8
0
  6
Continuous
100
AcDbLine
 10
210.7109752962
 20
142.0626804426
 30
0.0
 11
210.7109752962
 21
179.3226787641
 31
0.0
  0
LINE
  5
53C
330
1B
100
AcDbEntity
  8
0
  6
Continuous
100
AcDbLine
 10
211.2238191048
 20
178.8098368628
 30
0.0
 11
211.2238191048
 21
142.5755223438
 31
0.0
  0
LINE
  5
53D
330
1B
100
AcDbEntity
  8
0
  6
Continuous
100
AcDbLine
 10
211.3409763643
 20
178.5266988435
 30
0.0
 11
211.3409763643
 21
142.8586603631
 31
0.0
  0
ARC
  5
1559
330
1B
100
AcDbEntity
  8
0
  6
Continuous
100
AcDbCircle
 10
169.5430271719
 20
192.9926796033
 30
0.0
 40
3.0
100
AcDbArc
 50
210.0000000000005
 51
264.7077250825006
  0
ARC
  5
155A
330
1B
100
AcDbEntity
  8
0
  6
Continuous
100
AcDbCircle
 10
169.5430271719
 20
128.3926796033
 30
0.0
 40
3.0
100
AcDbArc
 50
95.29227491750019
 51
150.0000000000003
  0
ARC
  5
155B
330
1B
100
AcDbEntity
  8
0
  6
Continuous
100
AcDbCircle
 10
164.3468747492
 20
129.3926796033
 30
0.0
 40
2.0
100
AcDbArc
 50
270.0000000000006
 51
330.0000000000007
  0
ARC
  5
155C
330
1B
100
AcDbEntity
  8
0
  6
Continuous
100
AcDbCircle
 10
164.3468747492
 20
191.9926796033
 30
0.0
 40
2.0
100
AcDbArc
 50
30.00000000000008
 51
90.00000000000019
  0
ARC
  5
155D
330
1B
100
AcDbEntity
  8
0
  6
Continuous
100
AcDbCircle
 10
169.2109763643
 20
189.4080258877
 30
0.0
 40
0.6
100
AcDbArc
 50
0.0
 51
84.70772490220018
  0
ARC
  5
155E
330
1B
100
AcDbEntity
  8
0
  6
Continuous
100
AcDbCircle
 10
169.2109763643
 20
131.977333319
 30
0.0
 40
0.6
100
AcDbArc
 50
275.2922750978006
 51
360.0000000000008
  0
ARC
  5
155F
330
1B
100
AcDbEntity
  8
0
  6
Continuous
100
AcDbCircle
 10
143.2109763643
 20
131.4998592803
 30
0.0
 40
0.4
100
AcDbArc
 50
180.0000000000004
 51
209.9999967425005
  0
ARC
  5
1560
330
1B
100
AcDbEntity
  8
0
  6
Continuous
100
AcDbCircle
 10
143.2109763643
 20
189.8854999264
 30
0.0
 40
0.4
100
AcDbArc
 50
150.0000032575003
 51
180.0000000000004
  0
ARC
  5
1561
330
1B
100
AcDbEntity
  8
0
  6
Continuous
100
AcDbCircle
 10
135.9187150304
 20
192.3048175575
 30
0.0
 40
2.0
100
AcDbArc
 50
0.0
 51
60.00000000000015
  0
ARC
  5
1562
330
1B
100
AcDbEntity
  8
0
  6
Continuous
100
AcDbCircle
 10
73.1187150304
 20
192.3048175575
 30
0.0
 40
2.0
100
AcDbArc
 50
120.0000000000002
 51
180.0000000000004
  0
ARC
  5
1563
330
1B
100
AcDbEntity
  8
0
  6
Continuous
100
AcDbCircle
 10
131.7828166455
 20
194.6926796033
 30
0.0
 40
2.0
100
AcDbArc
 50
60.00000000000015
 51
90.00000000000019
  0
ARC
  5
1564
330
1B
100
AcDbEntity
  8
0
  6
Continuous
100
AcDbCircle
 10
77.25461341519998
 20
194.6926796033
 30
0.0
 40
2.0
100
AcDbArc
 50
90.00000000000019
 51
120.0000000000002
  0
ARC
  5
1565
330
1B
100
AcDbEntity
  8
0
  6
Continuous
100
AcDbCircle
 10
128.7584560081
 20
199.6926796033
 30
0.0
 40
3.0
100
AcDbArc
 50
187.0000000000004
 51
270.0000000000006
  0
ARC
  5
1566
330
1B
100
AcDbEntity
  8
0
  6
Continuous
100
AcDbCircle
 10
80.27897405260001
 20
199.6926796033
 30
0.0
 40
3.0
100
AcDbArc
 50
270.0000000000006
 51
353.0000000000008
  0
ARC
  5
1567
330
1B
100
AcDbEntity
  8
0
  6
Continuous
100
AcDbCircle
 10
122.1492645013
 20
212.4926796033
 30
0.0
 40
2.0
100
AcDbArc
 50
7.000000000100015
 51
90.00000000000019
  0
ARC
  5
1568
330
1B
100
AcDbEntity
  8
0
  6
Continuous
100
AcDbCircle
 10
86.8881655595
 20
212.4926796033
 30
0.0
 40
2.0
100
AcDbArc
 50
90.00000000000019
 51
172.9999999999004
  0
ARC
  5
1569
330
1B
100
AcDbEntity
  8
0
  6
Continuous
100
AcDbCircle
 10
208.4752909393
 20
180.9926796033
 30
0.0
 40
0.4
100
AcDbArc
 50
44.99999985120011
 51
90.00000000000019
  0
ARC
  5
156A
330
1B
100
AcDbEntity
  8
0
  6
Continuous
100
AcDbCircle
 10
208.4752909393
 20
140.3926796033
 30
0.0
 40
0.4
100
AcDbArc
 50
270.0000000000006
 51
315.0000001488007
  0
ARC
  5
156B
330
1B
100
AcDbEntity
  8
0
  6
Continuous
100
AcDbCircle
 10
210.9409763643
 20
142.8583650283
 30
0.0
 40
0.4
100
AcDbArc
 50
315.0000061902007
 51
360.0000000000008
  0
ARC
  5
156C
330
1B
100
AcDbEntity
  8
0
  6
Continuous
100
AcDbCircle
 10
210.9409763643
 20
178.5269941784
 30
0.0
 40
0.4
100
AcDbArc
 50
0.0
 51
44.9999938098001
  0
ARC
  5
156D
330
1B
100
AcDbEntity
  8
0
  6
Continuous
100
AcDbCircle
 10
197.0340455691
 20
142.0926796033
 30
0.0
 40
0.4
100
AcDbArc
 50
14.99999911340003
 51
39.1501734162001
  0
ARC
  5
156E
330
1B
100
AcDbEntity
  8
0
  6
Continuous
100
AcDbCircle
 10
197.0340455691
 20
179.2926796033
 30
0.0
 40
0.4
100
AcDbArc
 50
320.8498265838007
 51
345.0000008866008
  0
ARC
  5
156F
330
1B
100
AcDbEntity
  8
0
  6
Continuous
100
AcDbCircle
 10
129.7115353534
 20
118.4926796033
 30
0.0
 40
0.4
100
AcDbArc
 50
270.0000000000006
 51
299.9999999970007
  0
ARC
  5
1570
330
1B
100
AcDbEntity
  8
0
  6
Continuous
100
AcDbCircle
 10
79.3258947074
 20
118.4926796033
 30
0.0
 40
0.4
100
AcDbArc
 50
240.0000000016005
 51
270.0000000000006
  0
CIRCLE
  5
1571
330
1B
100
AcDbEntity
  8
0
  6
Continuous
100
AcDbCircle
 10
102.5187150304
 20
158.0926796033
 30
0.0
 40
8.99991
  0
CIRCLE
  5
1572
330
1B
100
AcDbEntity
  8
0
  6
Continuous
100
AcDbCircle
 10
102.5187150304
 20
158.0926796033
 30
0.0
 40
8.699913000000001
  0
CIRCLE
  5
1573
330
1B
100
AcDbEntity
  8
0
  6
Continuous
100
AcDbCircle
 10
104.8365103322
 20
163.0401290883
 30
0.0
 40
0.2687037129
  0
ARC
  5
1574
330
1B
100
AcDbEntity
  8
0
  6
Continuous
100
AcDbCircle
 10
139.7960065576
 20
135.0926796033
 30
0.0
 40
3.000000074899999
100
AcDbArc
 50
41.07202066480009
 51
89.98405497830019
  0
ARC
  5
1575
330
1B
100
AcDbEntity
  8
0
  6
Continuous
100
AcDbCircle
 10
136.5187150304
 20
135.0926796033
 30
0.0
 40
3.0
100
AcDbArc
 50
90.2972348218002
 51
180.0000000000004
  0
ARC
  5
1576
330
1B
100
AcDbEntity
  8
0
  6
Continuous
100
AcDbCircle
 10
137.0112377423
 20
181.6926796033
 30
0.0
 40
3.0
100
AcDbArc
 50
270.0000000000006
 51
330.0000000000007
  0
ARC
  5
1577
330
1B
100
AcDbEntity
  8
0
  6
Continuous
100
AcDbCircle
 10
77.0187150304
 20
181.2500389162
 30
0.0
 40
3.0
100
AcDbArc
 50
0.0
 51
24.55171222580006
  0
ARC
  5
1578
330
1B
100
AcDbEntity
  8
0
  6
Continuous
100
AcDbCircle
 10
144.3193124954
 20
182.3506363812
 30
0.0
 40
3.0
100
AcDbArc
 50
135.0000000000003
 51
150.0000000000003
  0
ARC
  5
1579
330
1B
100
AcDbEntity
  8
0
  6
Continuous
100
AcDbCircle
 10
83.0187150304
 20
176.2247304109
 30
0.0
 40
3.0
100
AcDbArc
 50
180.0000000000004
 51
240.0000000000005
  0
ARC
  5
157A
330
1B
100
AcDbEntity
  8
0
  6
Continuous
100
AcDbCircle
 10
81.5187150304
 20
170.1625525844
 30
0.0
 40
3.0
100
AcDbArc
 50
0.0
 51
60.00000000000015
  0
ARC
  5
157B
330
1B
100
AcDbEntity
  8
0
  6
Continuous
100
AcDbCircle
 10
81.5187150304
 20
145.4208828336
 30
0.0
 40
3.0
100
AcDbArc
 50
300.0000000000007
 51
360.0000000000008
  0
ARC
  5
157C
330
1B
100
AcDbEntity
  8
0
  6
Continuous
100
AcDbCircle
 10
77.5187150304
 20
137.337979065
 30
0.0
 40
2.0
100
AcDbArc
 50
120.0000000000002
 51
180.0000000000004
  0
SPLINE
  5
1582
330
1B
100
AcDbEntity
  8
0
  6
Continuous
100
AcDbSpline
210
0.0
220
0.0
230
1.0
 70
     8
 71
     3
 72
    15
 73
    11
 74
     9
 42
0.0000000001
 43
0.0000000001
 44
0.0000000001
 40
0.0
 40
0.0
 40
0.0
 40
0.0
 40
2.129814643354451
 40
3.965894225596761
 40
5.518081682709626
 40
6.839519702452952
 40
8.009373086016657
 40
9.128179826629975
 40
10.27085666529372
 40
11.43107256040239
 40
11.43107256040239
 40
11.43107256040239
 40
11.43107256040239
 10
166.9449509605
 20
141.3559196423
 30
0.0
 10
167.1008769671225
 20
140.6631822783816
 30
0.0
 10
167.3912243225668
 20
139.3732469687568
 30
0.0
 10
167.8712327441118
 20
137.5978104767384
 30
0.0
 10
168.2019486793262
 20
136.0605156849026
 30
0.0
 10
168.2698772464374
 20
134.7048371472994
 30
0.0
 10
168.0730501120353
 20
133.5110594713755
 30
0.0
 10
167.7416370904826
 20
132.4149611481191
 30
0.0
 10
167.3405143139038
 20
131.3470744501119
 30
0.0
 10
167.0774731939391
 20
130.6259364538897
 30
0.0
 10
166.9449509605
 20
130.262621327
 30
0.0
 11
166.9449509605
 21
141.3559196423
 31
0.0
 11
167.4284870759
 21
139.2817202208
 31
0.0
 11
167.8792443694
 21
137.5018308718
 31
0.0
 11
168.1733634179
 21
135.9777639811
 31
0.0
 11
168.2224335484
 21
134.657237358
 31
0.0
 11
168.045114473
 21
133.5009005193
 31
0.0
 11
167.7325156469
 21
132.4266517135
 31
0.0
 11
167.3442753669
 21
131.3519518286
 31
0.0
 11
166.9449509605
 21
130.262621327
 31
0.0
  0
SPLINE
  5
1583
330
1B
100
AcDbEntity
  8
0
  6
Continuous
100
AcDbSpline
210
0.0
220
0.0
230
1.0
 70
     8
 71
     3
 72
    15
 73
    11
 74
     9
 42
0.0000000001
 43
0.0000000001
 44
0.0000000001
 40
0.0
 40
0.0
 40
0.0
 40
0.0
 40
1.879271185022547
 40
3.54848483649077
 40
4.96967723156484
 40
6.197513810785077
 40
7.383735960234621
 40
8.649039012342819
 40
10.06697165925414
 40
11.63729927951646
 40
11.63729927951646
 40
11.63729927951646
 40
11.63729927951646
 10
165.2129001529
 20
140.2516857166
 30
0.0
 10
165.4758861210866
 20
139.6827870098301
 30
0.0
 10
165.9724625214259
 20
138.6085788537316
 30
0.0
 10
166.757603414981
 20
137.15147911136
 30
0.0
 10
167.3129934645982
 20
135.8122069433502
 30
0.0
 10
167.4176375788394
 20
134.5085609546105
 30
0.0
 10
167.0663731153078
 20
133.3168075954227
 30
0.0
 10
166.5127127073763
 20
132.1522679751482
 30
0.0
 10
165.8418104940774
 20
130.9022648453855
 30
0.0
 10
165.4295451543359
 20
129.995213795256
 30
0.0
 10
165.2129001529
 20
129.5185594246
 30
0.0
 11
165.2129001529
 21
140.2516857166
 31
0.0
 11
166.0198183868
 21
138.554469422
 31
0.0
 11
166.7703064042
 21
137.0634825173
 31
0.0
 11
167.2606014534
 21
135.7295415184
 31
0.0
 11
167.3421132012
 21
134.5044135658
 31
0.0
 11
167.0465923755
 21
133.355592244
 31
0.0
 11
166.5258151015
 21
132.2024301372
 31
0.0
 11
165.8791457104
 21
130.9405459548
 31
0.0
 11
165.2129001529
 21
129.5185594246
 31
0.0
  0
SPLINE
  5
1584
330
1B
100
AcDbEntity
  8
0
  6
Continuous
100
AcDbSpline
210
0.0
220
0.0
230
1.0
 70
     8
 71
     3
 72
    11
 73
     7
 74
     5
 42
0.0000000001
 43
0.0000000001
 44
0.0000000001
 40
0.0
 40
0.0
 40
0.0
 40
0.0
 40
0.5154784083754912
 40
1.048082400745052
 40
1.588831417300435
 40
2.126821351506213
 40
2.126821351506213
 40
2.126821351506213
 40
2.126821351506213
 10
166.9449475881
 20
141.3559208646
 30
0.0
 10
166.8489252935316
 20
141.2122452493834
 30
0.0
 10
166.6536905846067
 20
140.9201207272346
 30
0.0
 10
166.2313861699291
 20
140.5891477920785
 30
0.0
 10
165.7465352234028
 20
140.3444651230032
 30
0.0
 10
165.3904749455193
 20
140.2825594068091
 30
0.0
 10
165.2129001529
 20
140.2516857166
 30
0.0
 11
166.9449475881
 21
141.3559208646
 31
0.0
 11
166.6367207863
 21
140.942745081
 31
0.0
 11
166.2242740032
 21
140.605766352
 31
0.0
 11
165.7377974326
 21
140.3696518773
 31
0.0
 11
165.2129001529
 21
140.2516857166
 31
0.0
  0
SPLINE
  5
1585
330
1B
100
AcDbEntity
  8
0
  6
Continuous
100
AcDbSpline
210
0.0
220
0.0
230
1.0
 70
     8
 71
     3
 72
    10
 73
     6
 74
     4
 42
0.0000000001
 43
0.0000000001
 44
0.0000000001
 40
0.0
 40
0.0
 40
0.0
 40
0.0
 40
0.7194539136346452
 40
1.394922606029215
 40
2.030286669910687
 40
2.030286669910687
 40
2.030286669910687
 40
2.030286669910687
 10
166.9449509605
 20
130.262621327
 30
0.0
 10
166.8510815162161
 20
130.0419153784124
 30
0.0
 10
166.6690815196
 20
129.6139967707916
 30
0.0
 10
166.3777592633787
 20
129.0028915384119
 30
0.0
 10
166.1764841367643
 20
128.6150526736692
 30
0.0
 10
166.0789255567
 20
128.427066162
 30
0.0
 11
166.9449509605
 21
130.262621327
 31
0.0
 11
166.6585131324
 21
129.6026460968
 31
0.0
 11
166.3685034121
 21
128.9926032159
 31
0.0
 11
166.0789255567
 21
128.427066162
 31
0.0
  0
SPLINE
  5
1586
330
1B
100
AcDbEntity
  8
0
  6
Continuous
100
AcDbSpline
210
0.0
220
0.0
230
1.0
 70
     8
 71
     3
 72
    11
 73
     7
 74
     5
 42
0.0000000001
 43
0.0000000001
 44
0.0000000001
 40
0.0
 40
0.0
 40
0.0
 40
0.0
 40
0.4665471011154558
 40
0.9489080616326335
 40
1.454927737468615
 40
1.98482392900935
 40
1.98482392900935
 40
1.98482392900935
 40
1.98482392900935
 10
166.0789255567
 20
128.4270985993
 30
0.0
 10
165.9856726340271
 20
128.3007996557832
 30
0.0
 10
165.796005931815
 20
128.0439207996244
 30
0.0
 10
165.3663228105295
 20
127.7958627411932
 30
0.0
 10
164.8710985760908
 20
127.6606227645308
 30
0.0
 10
164.5242805928978
 20
127.6826928182164
 30
0.0
 10
164.3468747492
 20
127.6939821881
 30
0.0
 11
166.0789255567
 21
128.4270985993
 31
0.0
 11
165.7772717544
 21
128.0711896487
 31
0.0
 11
165.3660486309
 21
127.8190634126
 31
0.0
 11
164.8767562242
 21
127.6900329779
 31
0.0
 11
164.3468747492
 21
127.6939821881
 31
0.0
  0
SPLINE
  5
1587
330
1B
100
AcDbEntity
  8
0
  6
Continuous
100
AcDbSpline
210
0.0
220
0.0
230
1.0
 70
     8
 71
     3
 72
    15
 73
    11
 74
     9
 42
0.0000000001
 43
0.0000000001
 44
0.0000000001
 40
0.0
 40
0.0
 40
0.0
 40
0.0
 40
2.01183636785791
 40
3.901702669595893
 40
5.719340834623147
 40
7.503171099107653
 40
9.286957786452838
 40
11.10449205198941
 40
12.99381437170036
 40
15.00529075051838
 40
15.00529075051838
 40
15.00529075051838
 40
15.00529075051838
 10
144.998627017
 20
142.076262953
 30
0.0
 10
144.7116157356566
 20
141.4696171378908
 30
0.0
 10
144.1549935866027
 20
140.2931041599337
 30
0.0
 10
143.5561323935846
 20
138.4777528764999
 30
0.0
 10
143.1831120356692
 20
136.6812204943839
 30
0.0
 10
143.0582776906621
 20
134.8846086325655
 30
0.0
 10
143.1832531423829
 20
133.0880421810326
 30
0.0
 10
143.5563460654947
 20
131.2917619071124
 30
0.0
 10
144.1551665228583
 20
129.4767558249567
 30
0.0
 10
144.7116645806728
 20
128.3005180837414
 30
0.0
 10
144.998627017
 20
127.6939821881
 30
0.0
 11
144.998627017
 21
142.076262953
 31
0.0
 11
144.1769645211
 21
140.2398653071
 31
0.0
 11
143.5840004456
 21
138.4454327384
 31
0.0
 11
143.2218652245
 21
136.6642346639
 31
0.0
 11
143.0996515096
 21
134.8845958746
 31
0.0
 11
143.2220022063
 21
133.1050101776
 31
0.0
 11
143.5842351266
 21
131.3239379955
 31
0.0
 11
144.17709563
 21
129.5300441159
 31
0.0
 11
144.998627017
 21
127.6939821881
 31
0.0
  0
SPLINE
  5
1588
330
1B
100
AcDbEntity
  8
0
  6
Continuous
100
AcDbSpline
210
0.0
220
0.0
230
1.0
 70
     8
 71
     3
 72
    10
 73
     6
 74
     4
 42
0.0000000001
 43
0.0000000001
 44
0.0000000001
 40
0.0
 40
0.0
 40
0.0
 40
0.0
 40
0.71530109698342
 40
1.387672467266156
 40
2.020327527488731
 40
2.020327527488731
 40
2.020327527488731
 40
2.020327527488731
 10
165.2129001529
 20
129.5185594246
 30
0.0
 10
165.1188696589268
 20
129.2994285914977
 30
0.0
 10
164.9364520335096
 20
128.8743183475633
 30
0.0
 10
164.6451745710186
 20
128.2668845474747
 30
0.0
 10
164.4442699572208
 20
127.8810354155815
 30
0.0
 10
164.3468747493
 20
127.6939821881
 30
0.0
 11
165.2129001529
 21
129.5185594246
 31
0.0
 11
164.9261195141
 21
128.8632636711
 31
0.0
 11
164.636062868
 21
128.2566745172
 31
0.0
 11
164.3468747493
 21
127.6939821881
 31
0.0
  0
SPLINE
  5
1589
330
1B
100
AcDbEntity
  8
0
  6
Continuous
100
AcDbSpline
210
0.0
220
0.0
230
1.0
 70
     8
 71
     3
 72
    10
 73
     6
 74
     4
 42
0.0000000001
 43
0.0000000001
 44
0.0000000001
 40
0.0
 40
0.0
 40
0.0
 40
0.0
 40
0.0414480921152737
 40
0.1388340555135816
 40
0.29263543606969
 40
0.29263543606969
 40
0.29263543606969
 40
0.29263543606969
 10
145.1203774411
 20
127.4281642029
 30
0.0
 10
145.1160885190373
 20
127.4413090566823
 30
0.0
 10
145.101722394727
 20
127.4853389086392
 30
0.0
 10
145.0578974818424
 20
127.5728048026234
 30
0.0
 10
145.0211359876633
 20
127.647963007687
 30
0.0
 10
144.998627017
 20
127.6939821881
 30
0.0
 11
145.1203774411
 21
127.4281642029
 31
0.0
 11
145.1069379717
 21
127.4673729392
 31
0.0
 11
145.0664749166
 21
127.5559549184
 31
0.0
 11
144.998627017
 21
127.6939821881
 31
0.0
  0
SPLINE
  5
158A
330
1B
100
AcDbEntity
  8
0
  6
Continuous
100
AcDbSpline
210
0.0
220
0.0
230
1.0
 70
     8
 71
     3
 72
    11
 73
     7
 74
     5
 42
0.0000000001
 43
0.0000000001
 44
0.0000000001
 40
0.0
 40
0.0
 40
0.0
 40
0.0
 40
0.4656842116770548
 40
0.9486126608257579
 40
1.453461974585335
 40
1.978435159376817
 40
1.978435159376817
 40
1.978435159376817
 40
1.978435159376817
 10
166.944950856
 20
130.2626213863
 30
0.0
 10
166.8489800588114
 20
130.1389354126448
 30
0.0
 10
166.6534846758892
 20
129.8869833867142
 30
0.0
 10
166.2247928299349
 20
129.6406632027155
 30
0.0
 10
165.7338844523578
 20
129.4993023117499
 30
0.0
 10
165.3888093027921
 20
129.5120573047581
 30
0.0
 10
165.2129001529
 20
129.5185594246
 30
0.0
 11
166.944950856
 21
130.2626213863
 31
0.0
 11
166.6367242834
 21
129.9135394977
 31
0.0
 11
166.224277037
 21
129.6623281207
 31
0.0
 11
165.7377993091
 21
129.5273753517
 31
0.0
 11
165.2129001529
 21
129.5185594246
 31
0.0
  0
SPLINE
  5
158B
330
1B
100
AcDbEntity
  8
0
  6
Continuous
100
AcDbSpline
210
0.0
220
0.0
230
1.0
 70
     8
 71
     3
 72
    10
 73
     6
 74
     4
 42
0.0000000001
 43
0.0000000001
 44
0.0000000001
 40
0.0
 40
0.0
 40
0.0
 40
0.0
 40
0.1950996455565957
 40
0.4182573049493299
 40
0.6694139091473071
 40
0.6694139091473071
 40
0.6694139091473071
 40
0.6694139091473071
 10
144.998627017
 20
142.076262953
 30
0.0
 10
145.023449946416
 20
142.1365528237079
 30
0.0
 10
145.0766656840915
 20
142.2658030781924
 30
0.0
 10
145.1131351772638
 20
142.4877643012877
 30
0.0
 10
145.117870183438
 20
142.6457726984326
 30
0.0
 10
145.1203774411
 20
142.7294405438
 30
0.0
 11
144.998627017
 21
142.076262953
 31
0.0
 11
145.0664749166
 21
142.2591851611
 31
0.0
 11
145.1069379717
 21
142.4786437725
 31
0.0
 11
145.1203774411
 21
142.7294405438
 31
0.0
  0
SPLINE
  5
158C
330
1B
100
AcDbEntity
  8
0
  6
Continuous
100
AcDbSpline
210
0.0
220
0.0
230
1.0
 70
     8
 71
     3
 72
    10
 73
     6
 74
     4
 42
0.0000000001
 43
0.0000000001
 44
0.0000000001
 40
0.0
 40
0.0
 40
0.0
 40
0.0
 40
0.2511566040981045
 40
0.4743142635891969
 40
0.6694139091457926
 40
0.6694139091457926
 40
0.6694139091457926
 40
0.6694139091457926
 10
145.1203774411
 20
178.6559186629
 30
0.0
 10
145.1178701834334
 20
178.7395865082335
 30
0.0
 10
145.1131351772487
 20
178.8975949053767
 30
0.0
 10
145.0766656841073
 20
179.1195561284777
 30
0.0
 10
145.0234499464171
 20
179.2488063829923
 30
0.0
 10
144.998627017
 20
179.3090962537
 30
0.0
 11
145.1203774411
 21
178.6559186629
 31
0.0
 11
145.1069379717
 21
178.9067154341
 31
0.0
 11
145.0664749166
 21
179.1261740456
 31
0.0
 11
144.998627017
 21
179.3090962537
 31
0.0
  0
SPLINE
  5
158D
330
1B
100
AcDbEntity
  8
0
  6
Continuous
100
AcDbSpline
210
0.0
220
0.0
230
1.0
 70
     8
 71
     3
 72
    10
 73
     6
 74
     4
 42
0.0000000001
 43
0.0000000001
 44
0.0000000001
 40
0.0
 40
0.0
 40
0.0
 40
0.0
 40
0.6353480443403292
 40
1.31081619161233
 40
2.030286686778131
 40
2.030286686778131
 40
2.030286686778131
 40
2.030286686778131
 10
166.0789255567
 20
192.9582930647
 30
0.0
 10
166.1764817066355
 20
192.7703113090084
 30
0.0
 10
166.3777543509222
 20
192.3824773787977
 30
0.0
 10
166.6690771105025
 20
191.7713723808341
 30
0.0
 10
166.8510793005969
 20
191.3434488940792
 30
0.0
 10
166.9449509605
 20
191.1227378796
 30
0.0
 11
166.0789255567
 21
192.9582930647
 31
0.0
 11
166.3684963004
 21
192.3927703668
 31
0.0
 11
166.6585062538
 21
191.7827282003
 31
0.0
 11
166.9449509605
 21
191.1227378796
 31
0.0
  0
SPLINE
  5
158E
330
1B
100
AcDbEntity
  8
0
  6
Continuous
100
AcDbSpline
210
0.0
220
0.0
230
1.0
 70
     8
 71
     3
 72
    10
 73
     6
 74
     4
 42
0.0000000001
 43
0.0000000001
 44
0.0000000001
 40
0.0
 40
0.0
 40
0.0
 40
0.0
 40
0.2903167473227943
 40
0.6010035097489437
 40
0.9290460446678661
 40
0.9290460446678661
 40
0.9290460446678661
 40
0.9290460446678661
 10
145.1203774411
 20
145.3914032624
 30
0.0
 10
145.1175267103273
 20
145.4881779590186
 30
0.0
 10
145.1116252278411
 20
145.6885175290193
 30
0.0
 10
145.0701255390418
 20
145.9960968456279
 30
0.0
 10
145.0228877118515
 20
146.203750693514
 30
0.0
 10
144.998627017
 20
146.3103988384
 30
0.0
 11
145.1203774411
 21
145.3914032624
 31
0.0
 11
145.1069379717
 21
145.68140877
 31
0.0
 11
145.0664749166
 21
145.9894493607
 31
0.0
 11
144.998627017
 21
146.3103988384
 31
0.0
  0
SPLINE
  5
158F
330
1B
100
AcDbEntity
  8
0
  6
Continuous
100
AcDbSpline
210
0.0
220
0.0
230
1.0
 70
     8
 71
     3
 72
    10
 73
     6
 74
     4
 42
0.0000000001
 43
0.0000000001
 44
0.0000000001
 40
0.0
 40
0.0
 40
0.0
 40
0.0
 40
0.6326384297766533
 40
1.305009053389999
 40
2.020327526277812
 40
2.020327526277812
 40
2.020327526277812
 40
2.020327526277812
 10
164.3468747493
 20
193.6913770185
 30
0.0
 10
164.4442674310991
 20
193.5043287265856
 30
0.0
 10
164.64516944005
 20
193.118484770733
 30
0.0
 10
164.9364473998052
 20
192.5110512102728
 30
0.0
 10
165.1188673191395
 20
192.0859359157328
 30
0.0
 10
165.2129001529
 20
191.8667997821
 30
0.0
 11
164.3468747493
 21
193.6913770185
 31
0.0
 11
164.6360554663
 21
193.1286995836
 31
0.0
 11
164.926112261
 21
192.5221113284
 31
0.0
 11
165.2129001529
 21
191.8667997821
 31
0.0
  0
SPLINE
  5
1590
330
1B
100
AcDbEntity
  8
0
  6
Continuous
100
AcDbSpline
210
0.0
220
0.0
230
1.0
 70
     8
 71
     3
 72
    10
 73
     6
 74
     4
 42
0.0000000001
 43
0.0000000001
 44
0.0000000001
 40
0.0
 40
0.0
 40
0.0
 40
0.0
 40
0.328042535016748
 40
0.6387292973437333
 40
0.9290460446665276
 40
0.9290460446665276
 40
0.9290460446665276
 40
0.9290460446665276
 10
144.998627017
 20
175.0749603682
 30
0.0
 10
145.0228877118491
 20
175.1816085131198
 30
0.0
 10
145.0701255390207
 20
175.3892623610091
 30
0.0
 10
145.1116252278484
 20
175.6968416776128
 30
0.0
 10
145.1175267103293
 20
175.8971812475811
 30
0.0
 10
145.1203774411
 20
175.9939559442
 30
0.0
 11
144.998627017
 21
175.0749603682
 31
0.0
 11
145.0664749166
 21
175.395909846
 31
0.0
 11
145.1069379717
 21
175.7039504366
 31
0.0
 11
145.1203774411
 21
175.9939559442
 31
0.0
  0
SPLINE
  5
1591
330
1B
100
AcDbEntity
  8
0
  6
Continuous
100
AcDbSpline
210
0.0
220
0.0
230
1.0
 70
     8
 71
     3
 72
    11
 73
     7
 74
     5
 42
0.0000000001
 43
0.0000000001
 44
0.0000000001
 40
0.0
 40
0.0
 40
0.0
 40
0.0
 40
0.4665471029179391
 40
0.9489080640044866
 40
1.454927739397399
 40
1.984823930050828
 40
1.984823930050828
 40
1.984823930050828
 40
1.984823930050828
 10
166.0789255567
 20
192.9582606074
 30
0.0
 10
165.985672633764
 20
193.0845595514711
 30
0.0
 10
165.7960059312755
 20
193.341438408407
 30
0.0
 10
165.366322809747
 20
193.5894964677368
 30
0.0
 10
164.8710985752719
 20
193.7247364439549
 30
0.0
 10
164.5242805925748
 20
193.7026663890188
 30
0.0
 10
164.3468747492
 20
193.6913770185
 30
0.0
 11
166.0789255567
 21
192.9582606074
 31
0.0
 11
165.7772717535
 21
193.3141695596
 31
0.0
 11
165.3660486297
 21
193.5662957963
 31
0.0
 11
164.8767562233
 21
193.6953262304
 31
0.0
 11
164.3468747492
 21
193.6913770185
 31
0.0
  0
SPLINE
  5
1592
330
1B
100
AcDbEntity
  8
0
  6
Continuous
100
AcDbSpline
210
0.0
220
0.0
230
1.0
 70
     8
 71
     3
 72
    15
 73
    11
 74
     9
 42
0.0000000001
 43
0.0000000001
 44
0.0000000001
 40
0.0
 40
0.0
 40
0.0
 40
0.0
 40
1.162562193684164
 40
2.306891929938354
 40
3.427617889514127
 40
4.601287227507315
 40
5.928602502247459
 40
7.488331090244665
 40
9.326405401388753
 40
11.43105112958293
 40
11.43105112958293
 40
11.43105112958293
 40
11.43105112958293
 10
166.9449509605
 20
191.1227378796
 30
0.0
 10
167.0777525458897
 20
190.7586923911029
 30
0.0
 10
167.3412729900285
 20
190.036310737797
 30
0.0
 10
167.7430190190374
 20
188.9665481098238
 30
0.0
 10
168.0747331652214
 20
187.8679533927312
 30
0.0
 10
168.2708624381331
 20
186.6700313250722
 30
0.0
 10
168.1996781805036
 20
185.3087034671047
 30
0.0
 10
167.8659445993246
 20
183.7668898347192
 30
0.0
 10
167.3871921737242
 20
181.9964986944607
 30
0.0
 10
167.098862781948
 20
180.7140289797475
 30
0.0
 10
166.9449509605
 20
180.0294395644
 30
0.0
 11
166.9449509605
 21
191.1227378796
 31
0.0
 11
167.345099698
 21
190.0312105817
 31
0.0
 11
167.7337927717
 21
188.9549168301
 31
0.0
 11
168.0464638665
 21
187.8786903377
 31
0.0
 11
168.2230597399
 21
186.7183827869
 31
0.0
 11
168.1713492662
 21
185.392075181
 31
0.0
 11
167.8738781474
 21
183.8609761634
 31
0.0
 11
167.4222775097
 21
182.0792427273
 31
0.0
 11
166.9449509605
 21
180.0294395644
 31
0.0
  0
SPLINE
  5
1593
330
1B
100
AcDbEntity
  8
0
  6
Continuous
100
AcDbSpline
210
0.0
220
0.0
230
1.0
 70
     8
 71
     3
 72
    15
 73
    11
 74
     9
 42
0.0000000001
 43
0.0000000001
 44
0.0000000001
 40
0.0
 40
0.0
 40
0.0
 40
0.0
 40
1.573391482476103
 40
2.993032216992175
 40
4.259951335442961
 40
5.44915891936123
 40
6.681926395270444
 40
8.110054952488584
 40
9.780756667240215
 40
11.6372372758259
 40
11.6372372758259
 40
11.6372372758259
 40
11.6372372758259
 10
165.2129001529
 20
191.8667997821
 30
0.0
 10
165.4299973226693
 20
191.3892295583856
 30
0.0
 10
165.8429770741009
 20
190.4807569491379
 30
0.0
 10
166.5149248587989
 20
189.228889477929
 30
0.0
 10
167.0691235629776
 20
188.0622895112508
 30
0.0
 10
167.4194815842633
 20
186.8666173926516
 30
0.0
 10
167.3091642159968
 20
185.5582318270753
 30
0.0
 10
166.7488298949863
 20
184.2164781050668
 30
0.0
 10
165.9655869528086
 20
182.7637587611509
 30
0.0
 10
165.4724536327591
 20
181.6957855194589
 30
0.0
 10
165.2129001529
 20
181.1336734901
 30
0.0
 11
165.2129001529
 21
191.8667997821
 31
0.0
 11
165.8805317043
 21
190.4420791538
 31
0.0
 11
166.5279530432
 21
189.1786610025
 31
0.0
 11
167.0488581646
 21
188.02378356
 31
0.0
 11
167.3431559439
 21
186.8715667858
 31
0.0
 11
167.2572454031
 21
185.6417964704
 31
0.0
 11
166.7613186288
 21
184.302540031
 31
0.0
 11
166.0093950866
 21
182.8106100037
 31
0.0
 11
165.2129001529
 21
181.1336734901
 31
0.0
  0
SPLINE
  5
1594
330
1B
100
AcDbEntity
  8
0
  6
Continuous
100
AcDbSpline
210
0.0
220
0.0
230
1.0
 70
     8
 71
     3
 72
    11
 73
     7
 74
     5
 42
0.0000000001
 43
0.0000000001
 44
0.0000000001
 40
0.0
 40
0.0
 40
0.0
 40
0.0
 40
0.4656863230663801
 40
0.9486174185999818
 40
1.453469892219604
 40
1.978446512769517
 40
1.978446512769517
 40
1.978446512769517
 40
1.978446512769517
 10
166.9449669796
 20
191.1227470177
 30
0.0
 10
166.848994742822
 20
191.2464327750938
 30
0.0
 10
166.65349633327
 20
191.4983844818219
 30
0.0
 10
166.2248000716816
 20
191.7447024057778
 30
0.0
 10
165.7338876670206
 20
191.886060336102
 30
0.0
 10
165.3888104045298
 20
191.873303064442
 30
0.0
 10
165.2129001529
 20
191.8667997821
 30
0.0
 11
166.9449669796
 21
191.1227470177
 31
0.0
 11
166.6367361718
 21
191.4718279834
 31
0.0
 11
166.2242846036
 21
191.7230373521
 31
0.0
 11
165.7378028025
 21
191.8579872588
 31
0.0
 11
165.2129001529
 21
191.8667997821
 31
0.0
  0
SPLINE
  5
1595
330
1B
100
AcDbEntity
  8
0
  6
Continuous
100
AcDbSpline
210
0.0
220
0.0
230
1.0
 70
     8
 71
     3
 72
     9
 73
     5
 74
     3
 42
0.0000000001
 43
0.0000000001
 44
0.0000000001
 40
0.0
 40
0.0
 40
0.0
 40
0.0
 40
1.030877745805919
 40
2.100407175239758
 40
2.100407175239758
 40
2.100407175239758
 40
2.100407175239758
 10
166.9449509605
 20
180.0294395644
 30
0.0
 10
166.8140384071861
 20
179.7116099802414
 30
0.0
 10
166.5473048711987
 20
179.0640341238546
 30
0.0
 10
166.2369556763736
 20
178.4361816719736
 30
0.0
 10
166.0789255567
 20
178.116478577
 30
0.0
 11
166.9449509605
 21
180.0294395644
 31
0.0
 11
166.541707001
 21
179.0807018578
 31
0.0
 11
166.0789255567
 21
178.116478577
 31
0.0
  0
SPLINE
  5
1596
330
1B
100
AcDbEntity
  8
0
  6
Continuous
100
AcDbSpline
210
0.0
220
0.0
230
1.0
 70
     8
 71
     3
 72
    11
 73
     7
 74
     5
 42
0.0000000001
 43
0.0000000001
 44
0.0000000001
 40
0.0
 40
0.0
 40
0.0
 40
0.0
 40
0.5299128472380551
 40
1.077382144453028
 40
1.631069796332519
 40
2.178257098378961
 40
2.178257098378961
 40
2.178257098378961
 40
2.178257098378961
 10
166.0789255571
 20
178.1164820541
 30
0.0
 10
165.9855503274753
 20
178.267611404427
 30
0.0
 10
165.7957062698039
 20
178.5748771451875
 30
0.0
 10
165.3747211555755
 20
178.929997265739
 30
0.0
 10
164.8878084311845
 20
179.1979676971213
 30
0.0
 10
164.5264747861273
 20
179.2721995072
 30
0.0
 10
164.3468747492
 20
179.3090962535
 30
0.0
 11
166.0789255571
 21
178.1164820541
 31
0.0
 11
165.7774548446
 21
178.5522836548
 31
0.0
 11
165.366175842
 21
178.9136314283
 31
0.0
 11
164.8767460854
 21
179.1725301135
 31
0.0
 11
164.3468747492
 21
179.3090962535
 31
0.0
  0
SPLINE
  5
1597
330
1B
100
AcDbEntity
  8
0
  6
Continuous
100
AcDbSpline
210
0.0
220
0.0
230
1.0
 70
     8
 71
     3
 72
     9
 73
     5
 74
     3
 42
0.0000000001
 43
0.0000000001
 44
0.0000000001
 40
0.0
 40
0.0
 40
0.0
 40
0.0
 40
0.9899760122445677
 40
2.020227209882059
 40
2.020227209882059
 40
2.020227209882059
 40
2.020227209882059
 10
165.2129001529
 20
181.1336734901
 30
0.0
 10
165.0819805883904
 20
180.8306427785116
 30
0.0
 10
164.8148152598806
 20
180.2122531595622
 30
0.0
 10
164.5049143167417
 20
179.6141233214627
 30
0.0
 10
164.3468747575
 20
179.3090962537
 30
0.0
 11
165.2129001529
 21
181.1336734901
 31
0.0
 11
164.8098792974
 21
180.2294463644
 31
0.0
 11
164.3468747575
 21
179.3090962537
 31
0.0
  0
SPLINE
  5
1598
330
1B
100
AcDbEntity
  8
0
  6
Continuous
100
AcDbSpline
210
0.0
220
0.0
230
1.0
 70
     8
 71
     3
 72
    11
 73
     7
 74
     5
 42
0.0000000001
 43
0.0000000001
 44
0.0000000001
 40
0.0
 40
0.0
 40
0.0
 40
0.0
 40
0.5154787314649173
 40
1.048082626612949
 40
1.588832312696524
 40
2.126824106970845
 40
2.126824106970845
 40
2.126824106970845
 40
2.126824106970845
 10
166.9449512793
 20
180.02943968
 30
0.0
 10
166.8489290757713
 20
180.1731155129275
 30
0.0
 10
166.6536946322443
 20
180.4652403575889
 30
0.0
 10
166.2313890005896
 20
180.7962125228378
 30
0.0
 10
165.7465366176289
 20
181.0408938632927
 30
0.0
 10
165.39047554128
 20
181.1027997036311
 30
0.0
 10
165.2129001529
 20
181.1336734901
 30
0.0
 11
166.9449512793
 21
180.02943968
 31
0.0
 11
166.6367244991
 21
180.4426158828
 31
0.0
 11
166.2242770983
 21
180.7795937021
 31
0.0
 11
165.7377993105
 21
181.0157072023
 31
0.0
 11
165.2129001529
 21
181.1336734901
 31
0.0
  0
SPLINE
  5
1599
330
1B
100
AcDbEntity
  8
0
  6
Continuous
100
AcDbSpline
210
0.0
220
0.0
230
1.0
 70
     8
 71
     3
 72
     9
 73
     5
 74
     3
 42
0.0000000001
 43
0.0000000001
 44
0.0000000001
 40
0.0
 40
0.0
 40
0.0
 40
0.0
 40
1.943989688744411
 40
3.847572714725587
 40
3.847572714725587
 40
3.847572714725587
 40
3.847572714725587
 10
166.0789255567
 20
175.5344617732
 30
0.0
 10
166.2374887513152
 20
174.9060879560565
 30
0.0
 10
166.551319336268
 20
173.6624013421366
 30
0.0
 10
166.814662282509
 20
172.4070579135853
 30
0.0
 10
166.9449509605
 20
171.7859779186
 30
0.0
 11
166.0789255567
 21
175.5344617732
 31
0.0
 11
166.5417267318
 21
173.6463645876
 31
0.0
 11
166.9449509605
 21
171.7859779186
 31
0.0
  0
SPLINE
  5
159A
330
1B
100
AcDbEntity
  8
0
  6
Continuous
100
AcDbSpline
210
0.0
220
0.0
230
1.0
 70
     8
 71
     3
 72
     9
 73
     5
 74
     3
 42
0.0000000001
 43
0.0000000001
 44
0.0000000001
 40
0.0
 40
0.0
 40
0.0
 40
0.0
 40
1.897114894886236
 40
3.750856062355393
 40
3.750856062355393
 40
3.750856062355393
 40
3.750856062355393
 10
164.3468747574
 20
175.0749603682
 30
0.0
 10
164.5053636107753
 20
174.4626952452622
 30
0.0
 10
164.8187177877419
 20
173.2521632135278
 30
0.0
 10
165.0825228844149
 20
172.0298803021621
 30
0.0
 10
165.2129001529
 20
171.4258058953
 30
0.0
 11
164.3468747574
 21
175.0749603682
 31
0.0
 11
164.809665906
 21
173.2351589449
 31
0.0
 11
165.2129001529
 21
171.4258058953
 31
0.0
  0
SPLINE
  5
159B
330
1B
100
AcDbEntity
  8
0
  6
Continuous
100
AcDbSpline
210
0.0
220
0.0
230
1.0
 70
     8
 71
     3
 72
    13
 73
     9
 74
     7
 42
0.0000000001
 43
0.0000000001
 44
0.0000000001
 40
0.0
 40
0.0
 40
0.0
 40
0.0
 40
2.260818376670095
 40
4.342867136087806
 40
6.263238464718802
 40
8.03213660221887
 40
9.664087059504347
 40
11.17721442207418
 40
11.17721442207418
 40
11.17721442207418
 40
11.17721442207418
 10
166.9449509605
 20
171.7859779186
 30
0.0
 10
167.0463723877145
 20
171.0392076920928
 30
0.0
 10
167.24119554896
 20
169.6047165766749
 30
0.0
 10
167.5599087960251
 20
167.5414144225437
 30
0.0
 10
167.8415079872611
 20
165.6382570848531
 30
0.0
 10
168.0619772339394
 20
163.8782328877683
 30
0.0
 10
168.2079447961402
 20
162.2456012596195
 30
0.0
 10
168.2264530087007
 20
161.1971160027462
 30
0.0
 10
168.2353574888
 20
160.6926796033
 30
0.0
 11
166.9449509605
 21
171.7859779186
 31
0.0
 11
167.2563073037
 21
169.5467019285
 31
0.0
 11
167.5658685879
 21
167.487794731
 31
0.0
 11
167.8415408942
 21
165.5873129975
 31
0.0
 11
168.0568611918
 21
163.8315687706
 31
0.0
 11
168.191303738
 21
162.2051655313
 31
0.0
 11
168.2353574888
 21
160.6926796033
 31
0.0
  0
SPLINE
  5
159C
330
1B
100
AcDbEntity
  8
0
  6
Continuous
100
AcDbSpline
210
0.0
220
0.0
230
1.0
 70
     8
 71
     3
 72
    13
 73
     9
 74
     7
 42
0.0000000001
 43
0.0000000001
 44
0.0000000001
 40
0.0
 40
0.0
 40
0.0
 40
0.0
 40
2.317544808895347
 40
4.403181354070652
 40
6.289943201742666
 40
7.996745763169529
 40
9.546571355858776
 40
10.96991815617346
 40
10.96991815617346
 40
10.96991815617346
 40
10.96991815617346
 10
165.2129001529
 20
171.4258058953
 30
0.0
 10
165.3811245690918
 20
170.6717460671491
 30
0.0
 10
165.7007397971694
 20
169.2390824300001
 30
0.0
 10
166.2332850419102
 20
167.2110304044208
 30
0.0
 10
166.7034644807507
 20
165.3770412879347
 30
0.0
 10
167.0721329171057
 20
163.7027020349006
 30
0.0
 10
167.3173522423545
 20
162.1587192124636
 30
0.0
 10
167.3486124845552
 20
161.1673011607377
 30
0.0
 10
167.3635777001
 20
160.6926796033
 30
0.0
 11
165.2129001529
 21
171.4258058953
 31
0.0
 11
165.732307163
 21
169.1672155608
 31
0.0
 11
166.2480682579
 21
167.1463567603
 31
0.0
 11
166.7073558301
 21
165.3163498762
 31
0.0
 11
167.0661375769
 21
163.6476825511
 31
0.0
 11
167.290142708
 21
162.1141307688
 31
0.0
 11
167.3635777001
 21
160.6926796033
 31
0.0
  0
SPLINE
  5
159D
330
1B
100
AcDbEntity
  8
0
  6
Continuous
100
AcDbSpline
210
0.0
220
0.0
230
1.0
 70
     8
 71
     3
 72
    13
 73
     9
 74
     7
 42
0.0000000001
 43
0.0000000001
 44
0.0000000001
 40
0.0
 40
0.0
 40
0.0
 40
0.0
 40
1.526611228035079
 40
3.17994692115988
 40
4.965727513804736
 40
6.886665360044389
 40
8.947708149342601
 40
11.17720711216877
 40
11.17720711216877
 40
11.17720711216877
 40
11.17720711216877
 10
168.2353574888
 20
160.6926796033
 30
0.0
 10
168.2262884821283
 20
160.1837472094118
 30
0.0
 10
168.2073976477666
 20
159.1236357879163
 30
0.0
 10
168.0585322504312
 20
157.4739112932766
 30
0.0
 10
167.8350925154894
 20
155.7012233855198
 30
0.0
 10
167.5530277050646
 20
153.7993375139289
 30
0.0
 10
167.2372110515933
 20
151.7530450640501
 30
0.0
 10
167.0448880005363
 20
150.3358170504944
 30
0.0
 10
166.9449509605
 20
149.5993812881
 30
0.0
 11
168.2353574888
 21
160.6926796033
 31
0.0
 11
168.1905333639
 21
159.1667265767
 31
0.0
 11
168.0531972425
 21
157.5191047439
 31
0.0
 11
167.8345171594
 21
155.7467641033
 31
0.0
 11
167.5580812899
 21
153.8458208061
 31
0.0
 11
167.2517353594
 21
151.8076722467
 31
0.0
 11
166.9449509605
 21
149.5993812881
 31
0.0
  0
SPLINE
  5
159E
330
1B
100
AcDbEntity
  8
0
  6
Continuous
100
AcDbSpline
210
0.0
220
0.0
230
1.0
 70
     8
 71
     3
 72
    13
 73
     9
 74
     7
 42
0.0000000001
 43
0.0000000001
 44
0.0000000001
 40
0.0
 40
0.0
 40
0.0
 40
0.0
 40
1.436113237432018
 40
3.006568536061739
 40
4.730409566957288
 40
6.618709478297529
 40
8.684140781074056
 40
10.96989841579495
 40
10.96989841579495
 40
10.96989841579495
 40
10.96989841579495
 10
167.3635777001
 20
160.6926796033
 30
0.0
 10
167.348332037896
 20
160.2137988867584
 30
0.0
 10
167.3164145490106
 20
159.2112402741414
 30
0.0
 10
167.066296895898
 20
157.6509190259478
 30
0.0
 10
166.6927062654332
 20
155.9643148897114
 30
0.0
 10
166.2218486617365
 20
154.1310683893284
 30
0.0
 10
165.6942355096178
 20
152.11910882219
 30
0.0
 10
165.3786715591494
 20
150.7033020281095
 30
0.0
 10
165.2129001529
 20
149.9595533113
 30
0.0
 11
167.3635777001
 21
160.6926796033
 31
0.0
 11
167.288852575
 21
159.2585117657
 31
0.0
 11
167.0600242955
 21
157.7048169876
 31
0.0
 11
166.6956375534
 21
156.0199282073
 31
0.0
 11
166.2350710082
 21
154.1886567876
 31
0.0
 11
165.7246674353
 21
152.1872835942
 31
0.0
 11
165.2129001529
 21
149.9595533113
 31
0.0
  0
SPLINE
  5
159F
330
1B
100
AcDbEntity
  8
0
  6
Continuous
100
AcDbSpline
210
0.0
220
0.0
230
1.0
 70
     8
 71
     3
 72
     9
 73
     5
 74
     3
 42
0.0000000001
 43
0.0000000001
 44
0.0000000001
 40
0.0
 40
0.0
 40
0.0
 40
0.0
 40
1.903583001772865
 40
3.847572710159424
 40
3.847572710159424
 40
3.847572710159424
 40
3.847572710159424
 10
166.9449509605
 20
149.5993812881
 30
0.0
 10
166.8146622842899
 20
148.9783013009852
 30
0.0
 10
166.5513193386123
 20
147.7229578738674
 30
0.0
 10
166.2374887532914
 20
146.4792712616024
 30
0.0
 10
166.0789255567
 20
145.8508974382
 30
0.0
 11
166.9449509605
 21
149.5993812881
 31
0.0
 11
166.5417267372
 21
147.7389946427
 31
0.0
 11
166.0789255567
 21
145.8508974382
 31
0.0
  0
SPLINE
  5
15A0
330
1B
100
AcDbEntity
  8
0
  6
Continuous
100
AcDbSpline
210
0.0
220
0.0
230
1.0
 70
     8
 71
     3
 72
     9
 73
     5
 74
     3
 42
0.0000000001
 43
0.0000000001
 44
0.0000000001
 40
0.0
 40
0.0
 40
0.0
 40
0.0
 40
1.853741812268264
 40
3.750856062336031
 40
3.750856062336031
 40
3.750856062336031
 40
3.750856062336031
 10
165.2129001529
 20
149.9595533113
 30
0.0
 10
165.0825228372547
 20
149.355478694684
 30
0.0
 10
164.8187177369204
 20
148.133195784064
 30
0.0
 10
164.5053635579301
 20
146.9226637529313
 30
0.0
 10
164.3468747574
 20
146.3103988384
 30
0.0
 11
165.2129001529
 21
149.9595533113
 31
0.0
 11
164.8096657565
 21
148.1501996344
 31
0.0
 11
164.3468747574
 21
146.3103988384
 31
0.0
  0
SPLINE
  5
15A1
330
1B
100
AcDbEntity
  8
0
  6
Continuous
100
AcDbSpline
210
0.0
220
0.0
230
1.0
 70
     8
 71
     3
 72
     9
 73
     5
 74
     3
 42
0.0000000001
 43
0.0000000001
 44
0.0000000001
 40
0.0
 40
0.0
 40
0.0
 40
0.0
 40
1.069529442480778
 40
2.100407179030454
 40
2.100407179030454
 40
2.100407179030454
 40
2.100407179030454
 10
166.0789255567
 20
143.2688806339
 30
0.0
 10
166.2369556776353
 20
142.9491775347042
 30
0.0
 10
166.5473048717123
 20
142.3213250810575
 30
0.0
 10
166.8140384083021
 20
141.673749223571
 30
0.0
 10
166.9449509605
 20
141.3559196423
 30
0.0
 11
166.0789255567
 21
143.2688806339
 31
0.0
 11
166.5417070049
 21
142.3046573405
 31
0.0
 11
166.9449509605
 21
141.3559196423
 31
0.0
  0
SPLINE
  5
15A2
330
1B
100
AcDbEntity
  8
0
  6
Continuous
100
AcDbSpline
210
0.0
220
0.0
230
1.0
 70
     8
 71
     3
 72
     9
 73
     5
 74
     3
 42
0.0000000001
 43
0.0000000001
 44
0.0000000001
 40
0.0
 40
0.0
 40
0.0
 40
0.0
 40
1.030251769996789
 40
2.020227209916096
 40
2.020227209916096
 40
2.020227209916096
 40
2.020227209916096
 10
164.3468747575
 20
142.076262953
 30
0.0
 10
164.5049144030037
 20
141.77123571488
 30
0.0
 10
164.8148153431332
 20
141.1731058750083
 30
0.0
 10
165.0819806665672
 20
140.5547162540028
 30
0.0
 10
165.2129001529
 20
140.2516857166
 30
0.0
 11
164.3468747575
 21
142.076262953
 31
0.0
 11
164.8098795433
 21
141.1559123253
 31
0.0
 11
165.2129001529
 21
140.2516857166
 31
0.0
  0
SPLINE
  5
15A3
330
1B
100
AcDbEntity
  8
0
  6
Continuous
100
AcDbSpline
210
0.0
220
0.0
230
1.0
 70
     8
 71
     3
 72
    11
 73
     7
 74
     5
 42
0.0000000001
 43
0.0000000001
 44
0.0000000001
 40
0.0
 40
0.0
 40
0.0
 40
0.0
 40
0.5301486252968413
 40
1.07749525959485
 40
1.631032478791544
 40
2.178256977511778
 40
2.178256977511778
 40
2.178256977511778
 40
2.178256977511778
 10
166.0789255571
 20
143.2688771526
 30
0.0
 10
165.9855036697393
 20
143.1176827128991
 30
0.0
 10
165.7956292911776
 20
142.8103890894108
 30
0.0
 10
165.3746282951968
 20
142.4553104282777
 30
0.0
 10
164.8877836690273
 20
142.1873881506888
 30
0.0
 10
164.5264870599812
 20
142.1131627948838
 30
0.0
 10
164.3468747492
 20
142.0762629532
 30
0.0
 11
166.0789255571
 21
143.2688771526
 31
0.0
 11
165.7772965503
 21
142.8328983605
 31
0.0
 11
165.3660819372
 21
142.4716631462
 31
0.0
 11
164.8767810037
 21
142.2128426495
 31
0.0
 11
164.3468747492
 21
142.0762629532
 31
0.0
  0
SPLINE
  5
15A4
330
1B
100
AcDbEntity
  8
0
  6
Continuous
100
AcDbSpline
210
0.0
220
0.0
230
1.0
 70
     8
 71
     3
 72
    10
 73
     6
 74
     4
 42
0.0000000001
 43
0.0000000001
 44
0.0000000001
 40
0.0
 40
0.0
 40
0.0
 40
0.0
 40
0.153801380556134
 40
0.2511873439544419
 40
0.292635436164301
 40
0.292635436164301
 40
0.292635436164301
 40
0.292635436164301
 10
144.998627017
 20
193.6913770185
 30
0.0
 10
145.0211359876593
 20
193.7373961989143
 30
0.0
 10
145.0578974818318
 20
193.8125544039802
 30
0.0
 10
145.1017223947603
 20
193.9000202979827
 30
0.0
 10
145.1160885190397
 20
193.9440501499835
 30
0.0
 10
145.1203774411
 20
193.9571950038
 30
0.0
 11
144.998627017
 21
193.6913770185
 31
0.0
 11
145.0664749166
 21
193.8294042882
 31
0.0
 11
145.1069379717
 21
193.9179862674
 31
0.0
 11
145.1203774411
 21
193.9571950038
 31
0.0
  0
SPLINE
  5
15A5
330
1B
100
AcDbEntity
  8
0
  6
Continuous
100
AcDbSpline
210
0.0
220
0.0
230
1.0
 70
     8
 71
     3
 72
    11
 73
     7
 74
     5
 42
0.0000000001
 43
0.0000000001
 44
0.0000000001
 40
0.0
 40
0.0
 40
0.0
 40
0.0
 40
3.572862235290115
 40
7.160361904804814
 40
10.79501215686831
 40
14.5421789922163
 40
14.5421789922163
 40
14.5421789922163
 40
14.5421789922163
 10
143.0996514989
 20
160.6926796033
 30
0.0
 10
143.1234322125446
 20
159.5014543513274
 30
0.0
 10
143.1710910655414
 20
157.1141235916867
 30
0.0
 10
143.5561748313658
 20
153.5327317630213
 30
0.0
 10
144.1449242820629
 20
149.9215922695991
 30
0.0
 10
144.7111823951186
 20
147.5262999804389
 30
0.0
 10
144.998627017
 20
146.3103988384
 30
0.0
 11
143.0996514989
 21
160.6926796033
 31
0.0
 11
143.2227235665
 21
157.121937689
 31
0.0
 11
143.5865695826
 21
153.5529364344
 31
0.0
 11
144.1801136634
 21
149.9670770006
 31
0.0
 11
144.998627017
 21
146.3103988384
 31
0.0
  0
SPLINE
  5
15A6
330
1B
100
AcDbEntity
  8
0
  6
Continuous
100
AcDbSpline
210
0.0
220
0.0
230
1.0
 70
     8
 71
     3
 72
    11
 73
     7
 74
     5
 42
0.0000000001
 43
0.0000000001
 44
0.0000000001
 40
0.0
 40
0.0
 40
0.0
 40
0.0
 40
3.747611991046637
 40
7.382410554848388
 40
10.96969341451458
 40
14.54217906370978
 40
14.54217906370978
 40
14.54217906370978
 40
14.54217906370978
 10
144.998627017
 20
175.0749603682
 30
0.0
 10
144.7111501367092
 20
173.8589142485272
 30
0.0
 10
144.1448502208151
 20
171.4634283416343
 30
0.0
 10
143.5561116669553
 20
167.8521592565373
 30
0.0
 10
143.1710772073984
 20
164.2709120666274
 30
0.0
 10
143.123427242079
 20
161.8837792489532
 30
0.0
 10
143.0996514989
 20
160.6926796033
 30
0.0
 11
144.998627017
 21
175.0749603682
 31
0.0
 11
144.1800282135
 21
171.4178451616
 31
0.0
 11
143.5864904321
 21
167.8318343555
 31
0.0
 11
143.2226977464
 21
164.2630455978
 31
0.0
 11
143.0996514989
 21
160.6926796033
 31
0.0
  0
SPLINE
  5
15A7
330
1B
100
AcDbEntity
  8
0
  6
Continuous
100
AcDbSpline
210
0.0
220
0.0
230
1.0
 70
     8
 71
     3
 72
    15
 73
    11
 74
     9
 42
0.0000000001
 43
0.0000000001
 44
0.0000000001
 40
0.0
 40
0.0
 40
0.0
 40
0.0
 40
2.011836367857883
 40
3.901702669500928
 40
5.719340834626194
 40
7.503171099110699
 40
9.286957786455885
 40
11.10449205189445
 40
12.99381437160543
 40
15.00529075042342
 40
15.00529075042342
 40
15.00529075042342
 40
15.00529075042342
 10
144.998627017
 20
193.6913770185
 30
0.0
 10
144.7116157356605
 20
193.0847312033896
 30
0.0
 10
144.1549935866277
 20
191.9082182254588
 30
0.0
 10
143.5561323935505
 20
190.0928669420427
 30
0.0
 10
143.183112035682
 20
188.2963345599139
 30
0.0
 10
143.0582776906613
 20
186.4997226980666
 30
0.0
 10
143.1832531423732
 20
184.7031562465635
 30
0.0
 10
143.5563460655109
 20
182.9068759726825
 30
0.0
 10
144.1551665228568
 20
181.0918698905564
 30
0.0
 10
144.7116645806722
 20
179.9156321493412
 30
0.0
 10
144.998627017
 20
179.3090962537
 30
0.0
 11
144.998627017
 21
193.6913770185
 31
0.0
 11
144.1769645211
 21
191.8549793726
 31
0.0
 11
143.5840004456
 21
190.060546804
 31
0.0
 11
143.2218652245
 21
188.2793487294
 31
0.0
 11
143.0996515096
 21
186.4997099401
 31
0.0
 11
143.2220022063
 21
184.7201242431
 31
0.0
 11
143.5842351266
 21
182.9390520611
 31
0.0
 11
144.17709563
 21
181.1451581815
 31
0.0
 11
144.998627017
 21
179.3090962537
 31
0.0
  0
SPLINE
  5
15A8
330
1B
100
AcDbEntity
  8
0
  6
Continuous
100
AcDbSpline
210
0.0
220
0.0
230
1.0
 70
     8
 71
     3
 72
    15
 73
    11
 74
     9
 42
0.0000000001
 43
0.0000000001
 44
0.0000000001
 40
0.0
 40
0.0
 40
0.0
 40
0.0
 40
2.048805214965771
 40
3.969504323341575
 40
5.814546792380252
 40
7.624236019035569
 40
9.433878399441216
 40
11.27880913683802
 40
13.19891765718906
 40
15.24733541737875
 40
15.24733541737875
 40
15.24733541737875
 40
15.24733541737875
 10
137.6255870995
 20
184.7349527148
 30
0.0
 10
137.0092039576237
 20
184.4396922315568
 30
0.0
 10
135.8149784018508
 20
183.8676330840184
 30
0.0
 10
133.9718396205937
 20
183.2512437949966
 30
0.0
 10
132.1487623499059
 20
182.8673093336957
 30
0.0
 10
130.3257163228408
 20
182.7387544873412
 30
0.0
 10
128.5027195458326
 20
182.8674641459621
 30
0.0
 10
126.6799160006087
 20
183.2514778067569
 30
0.0
 10
124.8371505389316
 20
183.8678219358915
 30
0.0
 10
123.6432221132841
 20
184.4397453676983
 30
0.0
 10
123.0269570268
 20
184.7349527148
 30
0.0
 11
137.6255870995
 21
184.7349527148
 31
0.0
 11
135.7593728937
 21
183.889466259
 31
0.0
 11
133.9380643172
 21
183.2796137079
 31
0.0
 11
132.1310177602
 21
182.9071026968
 31
0.0
 11
130.3257026766
 21
182.7813547505
 31
0.0
 11
128.5204450204
 21
182.9072528827
 31
0.0
 11
126.7135345995
 21
183.2798708595
 31
0.0
 11
124.8928105159
 21
183.8896089519
 31
0.0
 11
123.0269570268
 21
184.7349527148
 31
0.0
  0
SPLINE
  5
15A9
330
1B
100
AcDbEntity
  8
0
  6
Continuous
100
AcDbSpline
210
0.0
220
0.0
230
1.0
 70
     8
 71
     3
 72
    10
 73
     6
 74
     4
 42
0.0000000001
 43
0.0000000001
 44
0.0000000001
 40
0.0
 40
0.0
 40
0.0
 40
0.0
 40
0.3324854197970965
 40
0.6469578200937627
 40
0.9402860904364063
 40
0.9402860904364063
 40
0.9402860904364063
 40
0.9402860904364063
 10
89.92008495769998
 20
184.7349527148
 30
0.0
 10
89.81205815661019
 20
184.759830190189
 30
0.0
 10
89.60185710843361
 20
184.8082373572066
 30
0.0
 10
89.2906194752467
 20
184.8508213790202
 30
0.0
 10
89.08801435951318
 20
184.8568879454453
 30
0.0
 10
88.9902359084
 20
184.859815707
 30
0.0
 11
89.92008495769998
 21
184.7349527148
 31
0.0
 11
89.59496288139999
 21
184.8045385602
 31
0.0
 11
89.28324025320001
 21
184.8460342662
 31
0.0
 11
88.9902359084
 21
184.859815707
 31
0.0
  0
SPLINE
  5
15AA
330
1B
100
AcDbEntity
  8
0
  6
Continuous
100
AcDbSpline
210
0.0
220
0.0
230
1.0
 70
     8
 71
     3
 72
    10
 73
     6
 74
     4
 42
0.0000000001
 43
0.0000000001
 44
0.0000000001
 40
0.0
 40
0.0
 40
0.0
 40
0.0
 40
0.2552984210279679
 40
0.4821041858914639
 40
0.6803200380439095
 40
0.6803200380439095
 40
0.6803200380439095
 40
0.6803200380439095
 10
86.67397663200001
 20
184.859815707
 30
0.0
 10
86.58893050009246
 20
184.8572442872446
 30
0.0
 10
86.42832983510829
 20
184.8523884317998
 30
0.0
 10
86.20276656200048
 20
184.8150048324154
 30
0.0
 10
86.07163050190206
 20
184.7604126710683
 30
0.0
 10
86.01047303399999
 20
184.7349527148
 30
0.0
 11
86.67397663200001
 21
184.859815707
 31
0.0
 11
86.41905045510001
 21
184.8460342662
 31
0.0
 11
86.19607296439999
 21
184.8045385602
 31
0.0
 11
86.01047303399999
 21
184.7349527148
 31
0.0
  0
SPLINE
  5
15AB
330
1B
100
AcDbEntity
  8
0
  6
Continuous
100
AcDbSpline
210
0.0
220
0.0
230
1.0
 70
     8
 71
     3
 72
    10
 73
     6
 74
     4
 42
0.0000000001
 43
0.0000000001
 44
0.0000000001
 40
0.0
 40
0.0
 40
0.0
 40
0.0
 40
0.1559122158417076
 40
0.2538795218490312
 40
0.2943748916279102
 40
0.2943748916279102
 40
0.2943748916279102
 40
0.2943748916279102
 10
71.41184296119999
 20
184.7349527148
 30
0.0
 10
71.3653150821694
 20
184.7580332071086
 30
0.0
 10
71.28955145058242
 20
184.7956163068017
 30
0.0
 10
71.20189209865737
 20
184.8402528910825
 30
0.0
 10
71.15825871181042
 20
184.8553889517681
 30
0.0
 10
71.1454975101
 20
184.859815707
 30
0.0
 11
71.41184296119999
 21
184.7349527148
 31
0.0
 11
71.27232081539999
 21
184.8045385602
 31
0.0
 11
71.1835756779
 21
184.8460342662
 31
0.0
 11
71.1454975101
 21
184.859815707
 31
0.0
  0
SPLINE
  5
15AC
330
1B
100
AcDbEntity
  8
0
  6
Continuous
100
AcDbSpline
210
0.0
220
0.0
230
1.0
 70
     8
 71
     3
 72
    10
 73
     6
 74
     4
 42
0.0000000001
 43
0.0000000001
 44
0.0000000001
 40
0.0
 40
0.0
 40
0.0
 40
0.0
 40
0.2933282702427382
 40
0.6078006705394186
 40
0.9402860903365151
 40
0.9402860903365151
 40
0.9402860903365151
 40
0.9402860903365151
 10
120.0471941523
 20
184.859815707
 30
0.0
 10
119.9494157012202
 20
184.8568879454441
 30
0.0
 10
119.7468105855202
 20
184.8508213790153
 30
0.0
 10
119.4355729523664
 20
184.8082373572066
 30
0.0
 10
119.2253719041898
 20
184.7598301901889
 30
0.0
 10
119.1173451031
 20
184.7349527148
 30
0.0
 11
120.0471941523
 21
184.859815707
 31
0.0
 11
119.7541898076
 21
184.8460342662
 31
0.0
 11
119.4424671794
 21
184.8045385602
 31
0.0
 11
119.1173451031
 21
184.7349527148
 31
0.0
  0
SPLINE
  5
15AD
330
1B
100
AcDbEntity
  8
0
  6
Continuous
100
AcDbSpline
210
0.0
220
0.0
230
1.0
 70
     8
 71
     3
 72
    10
 73
     6
 74
     4
 42
0.0000000001
 43
0.0000000001
 44
0.0000000001
 40
0.0
 40
0.0
 40
0.0
 40
0.0
 40
0.1982158521524457
 40
0.4250216170159277
 40
0.6803200381437515
 40
0.6803200381437515
 40
0.6803200381437515
 40
0.6803200381437515
 10
123.0269570268
 20
184.7349527148
 30
0.0
 10
122.9657995588979
 20
184.7604126710682
 30
0.0
 10
122.8346634987995
 20
184.8150048324153
 30
0.0
 10
122.6091002256587
 20
184.8523884318055
 30
0.0
 10
122.448499560641
 20
184.8572442872462
 30
0.0
 10
122.3634534287
 20
184.859815707
 30
0.0
 11
123.0269570268
 21
184.7349527148
 31
0.0
 11
122.8413570964
 21
184.8045385602
 31
0.0
 11
122.6183796057
 21
184.8460342662
 31
0.0
 11
122.3634534287
 21
184.859815707
 31
0.0
  0
SPLINE
  5
15AE
330
1B
100
AcDbEntity
  8
0
  6
Continuous
100
AcDbSpline
210
0.0
220
0.0
230
1.0
 70
     8
 71
     3
 72
    10
 73
     6
 74
     4
 42
0.0000000001
 43
0.0000000001
 44
0.0000000001
 40
0.0
 40
0.0
 40
0.0
 40
0.0
 40
0.040495369684833
 40
0.1384626756921695
 40
0.2943748916233663
 40
0.2943748916233663
 40
0.2943748916233663
 40
0.2943748916233663
 10
137.8919325506
 20
184.859815707
 30
0.0
 10
137.8791713489237
 20
184.8553889517659
 30
0.0
 10
137.8355379621219
 20
184.8402528910478
 30
0.0
 10
137.74787861019
 20
184.7956163067934
 30
0.0
 10
137.6721149785645
 20
184.7580332071086
 30
0.0
 10
137.6255870995
 20
184.7349527148
 30
0.0
 11
137.8919325506
 21
184.859815707
 31
0.0
 11
137.8538543829
 21
184.8460342662
 31
0.0
 11
137.7651092454
 21
184.8045385602
 31
0.0
 11
137.6255870995
 21
184.7349527148
 31
0.0
  0
SPLINE
  5
15AF
330
1B
100
AcDbEntity
  8
0
  6
Continuous
100
AcDbSpline
210
0.0
220
0.0
230
1.0
 70
     8
 71
     3
 72
    15
 73
    11
 74
     9
 42
0.0000000001
 43
0.0000000001
 44
0.0000000001
 40
0.0
 40
0.0
 40
0.0
 40
0.0
 40
2.048805214965771
 40
3.969504323436389
 40
5.814546792377124
 40
7.624236019132201
 40
9.433878399438088
 40
11.27880913683491
 40
13.19891765728075
 40
15.24733541747046
 40
15.24733541747046
 40
15.24733541747046
 40
15.24733541747046
 10
86.01047303399999
 20
184.7349527148
 30
0.0
 10
85.3940898921249
 20
184.4396922315529
 30
0.0
 10
84.19986433632586
 20
183.8676330839931
 30
0.0
 10
82.35672555505072
 20
183.2512437950312
 30
0.0
 10
80.53364828434326
 20
182.8673093336751
 30
0.0
 10
78.71060225730645
 20
182.738754487345
 30
0.0
 10
76.88760548029921
 20
182.8674641459653
 30
0.0
 10
75.06480193508142
 20
183.251477806775
 30
0.0
 10
73.22203647335689
 20
183.8678219358678
 30
0.0
 10
72.02810804768298
 20
184.4397453676949
 30
0.0
 10
71.41184296119999
 20
184.7349527148
 30
0.0
 11
86.01047303399999
 21
184.7349527148
 31
0.0
 11
84.1442588282
 21
183.889466259
 31
0.0
 11
82.32295025160001
 21
183.2796137079
 31
0.0
 11
80.5159036947
 21
182.9071026968
 31
0.0
 11
78.71058861100001
 21
182.7813547505
 31
0.0
 11
76.9053309549
 21
182.9072528827
 31
0.0
 11
75.09842053399999
 21
183.2798708595
 31
0.0
 11
73.2776964503
 21
183.8896089519
 31
0.0
 11
71.41184296119999
 21
184.7349527148
 31
0.0
  0
SPLINE
  5
15B0
330
1B
100
AcDbEntity
  8
0
  6
Continuous
100
AcDbSpline
210
0.0
220
0.0
230
1.0
 70
     8
 71
     3
 72
    15
 73
    11
 74
     9
 42
0.0000000001
 43
0.0000000001
 44
0.0000000001
 40
0.0
 40
0.0
 40
0.0
 40
0.0
 40
3.826992186386096
 40
7.520307750772847
 40
11.15354783220571
 40
14.76636705689622
 40
18.3790767270422
 40
22.01205694075966
 40
25.70420066716795
 40
29.5304577217677
 40
29.5304577217677
 40
29.5304577217677
 40
29.5304577217677
 10
119.1173451031
 20
184.7349527148
 30
0.0
 10
117.8763383063334
 20
184.4382643618462
 30
0.0
 10
115.4376730104686
 20
183.8552509634341
 30
0.0
 10
111.7669498112922
 20
183.245875254779
 30
0.0
 10
108.1380454716771
 20
182.8657233166509
 30
0.0
 10
104.5176118126349
 20
182.7392508037072
 30
0.0
 10
100.897270635227
 20
182.8658761913449
 30
0.0
 10
97.26889207231039
 20
183.2461088618718
 30
0.0
 10
93.59889749247164
 20
183.8554455587409
 30
0.0
 10
91.16085242884742
 20
184.4383179013744
 30
0.0
 10
89.92008495769998
 20
184.7349527148
 30
0.0
 11
119.1173451031
 21
184.7349527148
 31
0.0
 11
115.3849166915
 21
183.889466259
 31
0.0
 11
111.7422995384
 21
183.2796137079
 31
0.0
 11
108.1282064245
 21
182.9071026968
 31
0.0
 11
104.5175762573
 21
182.7813547505
 31
0.0
 11
100.9070609449
 21
182.9072528827
 31
0.0
 11
97.2932401031
 21
183.2798708595
 31
0.0
 11
93.65179193580001
 21
183.8896089519
 31
0.0
 11
89.92008495769998
 21
184.7349527148
 31
0.0
  0
SPLINE
  5
15B1
330
1B
100
AcDbEntity
  8
0
  6
Continuous
100
AcDbSpline
210
0.0
220
0.0
230
1.0
 70
     8
 71
     3
 72
    11
 73
     7
 74
     5
 42
0.0000000001
 43
0.0000000001
 44
0.0000000001
 40
0.0
 40
0.0
 40
0.0
 40
0.0
 40
0.5478282412493691
 40
1.102145941369553
 40
1.650386766300836
 40
2.1814567953288
 40
2.1814567953288
 40
2.1814567953288
 40
2.1814567953288
 10
86.0104730379
 20
192.3048175579
 30
0.0
 10
86.04767491767719
 20
192.4845772678973
 30
0.0
 10
86.1225193629256
 20
192.8462260838535
 30
0.0
 10
86.39177360146854
 20
193.3332381110298
 30
0.0
 10
86.74831989500731
 20
193.7541554495674
 30
0.0
 10
87.05657480790191
 20
193.9436355471933
 30
0.0
 10
87.20825024499999
 20
194.0368683731
 30
0.0
 11
86.0104730379
 21
192.3048175579
 31
0.0
 11
86.14801216879999
 21
192.8350993409
 31
0.0
 11
86.4081228881
 21
193.3245996232
 31
0.0
 11
86.7708230094
 21
193.7357159378
 31
0.0
 11
87.20825024499999
 21
194.0368683731
 31
0.0
  0
SPLINE
  5
15B2
330
1B
100
AcDbEntity
  8
0
  6
Continuous
100
AcDbSpline
210
0.0
220
0.0
230
1.0
 70
     8
 71
     3
 72
    16
 73
    12
 74
    10
 42
0.0000000001
 43
0.0000000001
 44
0.0000000001
 40
0.0
 40
0.0
 40
0.0
 40
0.0
 40
1.936477906195154
 40
3.752333377162619
 40
5.480121353938972
 40
7.151513092502671
 40
8.797487898525482
 40
10.44973214416402
 40
12.14164423755989
 40
13.90414463835463
 40
15.77595344509842
 40
15.77595344509842
 40
15.77595344509842
 40
15.77595344509842
 10
87.20826634700001
 20
194.0368683651
 30
0.0
 10
86.62749326487007
 20
194.3194396362021
 30
0.0
 10
85.50212322389933
 20
194.8669809268057
 30
0.0
 10
83.77927240418921
 20
195.4853882523925
 30
0.0
 10
82.09015589537542
 20
195.9091743071412
 30
0.0
 10
80.41767711377372
 20
196.1231909527281
 30
0.0
 10
78.75667810203565
 20
196.1246329876306
 30
0.0
 10
77.10221512186685
 20
195.9125077818778
 30
0.0
 10
75.45013899008788
 20
195.4885206815766
 30
0.0
 10
73.78207545695719
 20
194.8686845825253
 30
0.0
 10
72.70132359029809
 20
194.319644890654
 30
0.0
 10
72.1446948759
 20
194.0368683651
 30
0.0
 11
87.20826634700001
 21
194.0368683651
 31
0.0
 11
85.45148649259998
 21
194.8515285546
 31
0.0
 11
83.74273499940001
 21
195.4659383738
 31
0.0
 11
82.0652076165
 21
195.8796449997
 31
0.0
 11
80.4069530828
 21
196.088791468
 31
0.0
 11
78.76097841870001
 21
196.0894749903
 31
0.0
 11
77.1219242044
 21
195.8811187333
 31
0.0
 11
75.48153935729999
 21
195.4667468168
 31
0.0
 11
73.8298176604
 21
194.8517483625
 31
0.0
 11
72.1446948759
 21
194.0368683651
 31
0.0
  0
SPLINE
  5
15B3
330
1B
100
AcDbEntity
  8
0
  6
Continuous
100
AcDbSpline
210
0.0
220
0.0
230
1.0
 70
     8
 71
     3
 72
    11
 73
     7
 74
     5
 42
0.0000000001
 43
0.0000000001
 44
0.0000000001
 40
0.0
 40
0.0
 40
0.0
 40
0.0
 40
0.5302526299132178
 40
1.036551383599631
 40
1.518988094098168
 40
1.985311888190068
 40
1.985311888190068
 40
1.985311888190068
 40
1.985311888190068
 10
71.41184295780001
 20
192.3048175578
 30
0.0
 10
71.4003416563217
 20
192.482333253677
 30
0.0
 10
71.37785861844883
 20
192.829345469726
 30
0.0
 10
71.51288728066075
 20
193.3249097686329
 30
0.0
 10
71.76114947028736
 20
193.7546168994907
 30
0.0
 10
72.01830267956215
 20
193.9438558374206
 30
0.0
 10
72.14469565189999
 20
194.0368683723
 30
0.0
 11
71.41184295780001
 21
192.3048175578
 31
0.0
 11
71.4073353292
 21
192.8350510279
 31
0.0
 11
71.53619670000001
 21
193.3246765737
 31
0.0
 11
71.7885334918
 21
193.7358594079
 31
0.0
 11
72.14469565189999
 21
194.0368683723
 31
0.0
  0
SPLINE
  5
15B4
330
1B
100
AcDbEntity
  8
0
  6
Continuous
100
AcDbSpline
210
0.0
220
0.0
230
1.0
 70
     8
 71
     3
 72
     9
 73
     5
 74
     3
 42
0.0000000001
 43
0.0000000001
 44
0.0000000001
 40
0.0
 40
0.0
 40
0.0
 40
0.0
 40
2.086732688848521
 40
3.448679566414178
 40
3.448679566414178
 40
3.448679566414178
 40
3.448679566414178
 10
86.01047303399999
 20
192.3048176711
 30
0.0
 10
85.39057529781033
 20
192.6226833335611
 30
0.0
 10
84.36608918730457
 20
193.1480102337685
 30
0.0
 10
83.28193979120019
 20
193.5334183049188
 30
0.0
 10
82.85378929
 20
193.6856230282
 30
0.0
 11
86.01047303399999
 21
192.3048176711
 31
0.0
 11
84.1289356771
 21
193.2071870463
 31
0.0
 11
82.85378929
 21
193.6856230282
 31
0.0
  0
SPLINE
  5
15B5
330
1B
100
AcDbEntity
  8
0
  6
Continuous
100
AcDbSpline
210
0.0
220
0.0
230
1.0
 70
     8
 71
     3
 72
    14
 73
    10
 74
     8
 42
0.0000000001
 43
0.0000000001
 44
0.0000000001
 40
0.0
 40
0.0
 40
0.0
 40
0.0
 40
0.577053243961356
 40
2.417426879598063
 40
4.21014813274468
 40
6.004710038928164
 40
7.85042391186839
 40
9.792786291802761
 40
11.87999231558854
 40
11.87999231558854
 40
11.87999231558854
 40
11.87999231558854
 10
82.85378929
 20
193.6856230282
 30
0.0
 10
82.6704475906047
 20
193.7438090823887
 30
0.0
 10
81.90238128665881
 20
193.9875656731111
 30
0.0
 10
80.52663429100747
 20
194.2898363039409
 30
0.0
 10
78.71662464994162
 20
194.4285626064167
 30
0.0
 10
76.90358049005991
 20
194.2927326450181
 30
0.0
 10
75.08258188497034
 20
193.8855055341057
 30
0.0
 10
73.23184131405387
 20
193.2275332108229
 30
0.0
 10
72.03287477631399
 20
192.6196727405501
 30
0.0
 10
71.41184296119999
 20
192.3048176722
 30
0.0
 11
82.85378929
 21
193.6856230282
 31
0.0
 11
82.3025177757
 21
193.8561814167
 31
0.0
 11
80.50480774810001
 21
194.2501532119
 31
0.0
 11
78.7170317404
 21
194.3832187513
 31
0.0
 11
76.9273032693
 21
194.2515964323
 31
0.0
 11
75.1241664938
 21
193.8574423132
 31
0.0
 11
73.2938172394
 21
193.207370608
 31
0.0
 11
71.41184296119999
 21
192.3048176722
 31
0.0
  0
SPLINE
  5
15B6
330
1B
100
AcDbEntity
  8
0
  6
Continuous
100
AcDbSpline
210
0.0
220
0.0
230
1.0
 70
     8
 71
     3
 72
    16
 73
    12
 74
    10
 42
0.0000000001
 43
0.0000000001
 44
0.0000000001
 40
0.0
 40
0.0
 40
0.0
 40
0.0
 40
3.537830756582131
 40
6.957260282613499
 40
10.30124816987981
 40
13.6027153985919
 40
16.89027654654387
 40
20.19181949816578
 40
23.53597813935291
 40
26.95562808915855
 40
30.49357431326359
 40
30.49357431326359
 40
30.49357431326359
 40
30.49357431326359
 10
119.5822863666
 20
194.0368683651
 30
0.0
 10
118.4374887995392
 20
194.320943466311
 30
0.0
 10
116.1862068154797
 20
194.8795864752388
 30
0.0
 10
112.8053298295578
 20
195.4932093004493
 30
0.0
 10
109.4751383500079
 20
195.9136965446881
 30
0.0
 10
106.1685075643828
 20
196.1239035925786
 30
0.0
 10
102.8694799653576
 20
196.1239222836898
 30
0.0
 10
99.56276481125263
 20
195.9137442326371
 30
0.0
 10
96.23241551849959
 20
195.493262068311
 30
0.0
 10
92.85136971957687
 20
194.8796212067947
 30
0.0
 10
90.59997876747974
 20
194.3209522286163
 30
0.0
 10
89.4551436953
 20
194.0368683651
 30
0.0
 11
119.5822863666
 21
194.0368683651
 31
0.0
 11
116.1395942835
 21
194.8518025239
 31
0.0
 11
112.7759512364
 21
195.4669478199
 31
0.0
 11
109.4576693527
 21
195.8807839354
 31
0.0
 11
106.16278677
 21
196.0891936964
 31
0.0
 11
102.8752256221
 21
196.0892121837
 31
0.0
 11
99.58026532309999
 21
195.8808315478
 31
0.0
 11
96.2618109071
 21
195.4669990861
 31
0.0
 11
92.89794880509999
 21
194.8518263153
 31
0.0
 11
89.4551436953
 21
194.0368683651
 31
0.0
  0
SPLINE
  5
15B7
330
1B
100
AcDbEntity
  8
0
  6
Continuous
100
AcDbSpline
210
0.0
220
0.0
230
1.0
 70
     8
 71
     3
 72
    15
 73
    11
 74
     9
 42
0.0000000001
 43
0.0000000001
 44
0.0000000001
 40
0.0
 40
0.0
 40
0.0
 40
0.0
 40
3.871170145688878
 40
7.587819480213478
 40
11.20996934782579
 40
14.78650728870902
 40
18.36304387616757
 40
21.98519106962729
 40
25.70183891495867
 40
29.5730079806267
 40
29.5730079806267
 40
29.5730079806267
 40
29.5730079806267
 10
119.1173451031
 20
192.3048176706
 30
0.0
 10
117.8660349142349
 20
192.6213922229593
 30
0.0
 10
115.4133615701212
 20
193.2419050046066
 30
0.0
 10
111.7301035152109
 20
193.8914982537238
 30
0.0
 10
108.1113811939545
 20
194.2941073420616
 30
0.0
 10
104.5187121779475
 20
194.4274952864272
 30
0.0
 10
100.9260440735028
 20
194.2941069320171
 30
0.0
 10
97.30732361521352
 20
193.8914977845313
 30
0.0
 10
93.62406730757816
 20
193.241904716723
 30
0.0
 10
91.17139479626903
 20
192.6213921381329
 30
0.0
 10
89.92008495769998
 20
192.3048176705
 30
0.0
 11
119.1173451031
 21
192.3048176706
 31
0.0
 11
115.3528845591
 21
193.2074776894
 31
0.0
 11
111.6934888978
 21
193.8573281875
 31
0.0
 11
108.0928095037
 21
194.2511270757
 31
0.0
 11
104.51871173
 21
194.3832207796
 31
0.0
 11
100.9446153249
 21
194.2511266901
 31
0.0
 11
97.34393861869999
 21
193.857327822
 31
0.0
 11
93.6845444448
 21
193.2074774652
 31
0.0
 11
89.92008495769998
 21
192.3048176705
 31
0.0
  0
SPLINE
  5
15B8
330
1B
100
AcDbEntity
  8
0
  6
Continuous
100
AcDbSpline
210
0.0
220
0.0
230
1.0
 70
     8
 71
     3
 72
    11
 73
     7
 74
     5
 42
0.0000000001
 43
0.0000000001
 44
0.0000000001
 40
0.0
 40
0.0
 40
0.0
 40
0.0
 40
0.530292338685769
 40
1.036456372416661
 40
1.518790548727035
 40
1.985311648667131
 40
1.985311648667131
 40
1.985311648667131
 40
1.985311648667131
 10
137.6255871031
 20
192.3048175578
 30
0.0
 10
137.6370886584432
 20
192.4823468867035
 30
0.0
 10
137.6595684482847
 20
192.8293279588588
 30
0.0
 10
137.524564813392
 20
193.3248254838088
 30
0.0
 10
137.2763515791451
 20
193.7545413123692
 30
0.0
 10
137.0191781641685
 20
193.943810770974
 30
0.0
 10
136.8927344088
 20
194.0368683723
 30
0.0
 11
137.6255871031
 21
192.3048175578
 31
0.0
 11
137.630089895
 21
192.8350907792
 31
0.0
 11
137.501270796
 21
193.3245881426
 31
0.0
 11
137.2490264196
 21
193.7357073859
 31
0.0
 11
136.8927344088
 21
194.0368683723
 31
0.0
  0
SPLINE
  5
15B9
330
1B
100
AcDbEntity
  8
0
  6
Continuous
100
AcDbSpline
210
0.0
220
0.0
230
1.0
 70
     8
 71
     3
 72
    16
 73
    12
 74
    10
 42
0.0000000001
 43
0.0000000001
 44
0.0000000001
 40
0.0
 40
0.0
 40
0.0
 40
0.0
 40
1.871806547935051
 40
3.634306279407534
 40
5.326219122090057
 40
6.97846391005954
 40
8.624440057831162
 40
10.29583275089137
 40
12.02362166172267
 40
13.83947715508343
 40
15.77595344330192
 40
15.77595344330192
 40
15.77595344330192
 40
15.77595344330192
 10
136.8927351848
 20
194.0368683651
 30
0.0
 10
136.3361071502011
 20
194.3196445627368
 30
0.0
 10
135.255356169995
 20
194.8686838381212
 30
0.0
 10
133.5872934190651
 20
195.4885199324125
 30
0.0
 10
131.935217158801
 20
195.9125073790648
 30
0.0
 10
130.2807533350631
 20
196.1246329396264
 30
0.0
 10
128.619753366206
 20
196.1231910298941
 30
0.0
 10
126.9472735127733
 20
195.9091742199399
 30
0.0
 10
125.2581564128702
 20
195.4853878844754
 30
0.0
 10
123.5353058583183
 20
194.8669804813671
 30
0.0
 10
122.4099363052465
 20
194.3194394081008
 30
0.0
 10
121.8291637132
 20
194.0368683651
 30
0.0
 11
136.8927351848
 21
194.0368683651
 31
0.0
 11
135.2076144781
 21
194.8517474707
 31
0.0
 11
133.5558935007
 21
195.4667459392
 31
0.0
 11
131.9155079993
 21
195.8811183249
 31
0.0
 11
130.276453277
 21
196.0894748863
 31
0.0
 11
128.6304772711
 21
196.088791487
 31
0.0
 11
126.9722217931
 21
195.8796448779
 31
0.0
 11
125.2946935327
 21
195.4659379092
 31
0.0
 11
123.5859420714
 21
194.8515279351
 31
0.0
 11
121.8291637132
 21
194.0368683651
 31
0.0
  0
SPLINE
  5
15BA
330
1B
100
AcDbEntity
  8
0
  6
Continuous
100
AcDbSpline
210
0.0
220
0.0
230
1.0
 70
     8
 71
     3
 72
    11
 73
     7
 74
     5
 42
0.0000000001
 43
0.0000000001
 44
0.0000000001
 40
0.0
 40
0.0
 40
0.0
 40
0.0
 40
0.5478282393463639
 40
1.10214593952753
 40
1.650386764044341
 40
2.18145678972885
 40
2.18145678972885
 40
2.18145678972885
 40
2.18145678972885
 10
123.0269570228
 20
192.3048175579
 30
0.0
 10
122.9897551405504
 20
192.4845772666703
 30
0.0
 10
122.9149106901931
 20
192.84622608081
 30
0.0
 10
122.6456564501222
 20
193.3332381057077
 30
0.0
 10
122.2891101596292
 20
193.7541554445884
 30
0.0
 10
121.9808552505124
 20
193.9436355457272
 30
0.0
 10
121.8291798157
 20
194.0368683731
 30
0.0
 11
123.0269570228
 21
192.3048175579
 31
0.0
 11
122.8894178856
 21
192.8350993373
 31
0.0
 11
122.6293071641
 21
193.3245996185
 31
0.0
 11
122.2666070449
 21
193.7357159344
 31
0.0
 11
121.8291798157
 21
194.0368683731
 31
0.0
  0
SPLINE
  5
15BB
330
1B
100
AcDbEntity
  8
0
  6
Continuous
100
AcDbSpline
210
0.0
220
0.0
230
1.0
 70
     8
 71
     3
 72
    14
 73
    10
 74
     8
 42
0.0000000001
 43
0.0000000001
 44
0.0000000001
 40
0.0
 40
0.0
 40
0.0
 40
0.0
 40
2.087203615053844
 40
4.029565985272704
 40
5.875280569162138
 40
7.669843605510097
 40
9.462566227401295
 40
11.30294087941266
 40
11.87999233305474
 40
11.87999233305474
 40
11.87999233305474
 40
11.87999233305474
 10
137.6255870995
 20
192.3048176722
 30
0.0
 10
137.0045560111331
 20
192.6196723934064
 30
0.0
 10
135.8055902123815
 20
193.2275325301583
 30
0.0
 10
133.9548502778063
 20
193.8855049234852
 30
0.0
 10
132.1338511370469
 20
194.2927324557161
 30
0.0
 10
130.3208059105988
 20
194.4285626694997
 30
0.0
 10
128.5107950880949
 20
194.2898362579424
 30
0.0
 10
127.135047925993
 20
193.9875654416551
 30
0.0
 10
126.3669818773331
 20
193.7438089011148
 30
0.0
 10
126.183640749
 20
193.6856230208
 30
0.0
 11
137.6255870995
 21
192.3048176722
 31
0.0
 11
135.7436150467
 21
193.207369678
 31
0.0
 11
133.9132658941
 21
193.8574416408
 31
0.0
 11
132.1101284837
 21
194.2515961846
 31
0.0
 11
130.3203988976
 21
194.3832187513
 31
0.0
 11
128.5326215261
 21
194.2501530946
 31
0.0
 11
126.7349105424
 21
193.8561809143
 31
0.0
 11
126.183640749
 21
193.6856230208
 31
0.0
  0
SPLINE
  5
15BC
330
1B
100
AcDbEntity
  8
0
  6
Continuous
100
AcDbSpline
210
0.0
220
0.0
230
1.0
 70
     8
 71
     3
 72
     9
 73
     5
 74
     3
 42
0.0000000001
 43
0.0000000001
 44
0.0000000001
 40
0.0
 40
0.0
 40
0.0
 40
0.0
 40
1.361949054639997
 40
3.448679544345799
 40
3.448679544345799
 40
3.448679544345799
 40
3.448679544345799
 10
126.183640749
 20
193.6856230208
 30
0.0
 10
125.755489568644
 20
193.5334180374894
 30
0.0
 10
124.6713401927544
 20
193.1480099264424
 30
0.0
 10
123.646854101822
 20
192.6226830102678
 30
0.0
 10
123.0269570268
 20
192.3048176711
 30
0.0
 11
126.183640749
 21
193.6856230208
 31
0.0
 11
124.9084923542
 21
193.2071861925
 31
0.0
 11
123.0269570268
 21
192.3048176711
 31
0.0
  0
SPLINE
  5
15BD
330
1B
100
AcDbEntity
  8
0
  6
Continuous
100
AcDbSpline
210
0.0
220
0.0
230
1.0
 70
     8
 71
     3
 72
    11
 73
     7
 74
     5
 42
0.0000000001
 43
0.0000000001
 44
0.0000000001
 40
0.0
 40
0.0
 40
0.0
 40
0.0
 40
0.0826489623467926
 40
0.1652966237843146
 40
0.2479441639095475
 40
0.3305929542564161
 40
0.3305929542564161
 40
0.3305929542564161
 40
0.3305929542564161
 10
108.1017191998
 20
161.8057664721
 30
0.0
 10
108.0888583752242
 20
161.8316665714776
 30
0.0
 10
108.0631369285043
 20
161.8834663625608
 30
0.0
 10
108.1044497384175
 20
161.9671169929375
 30
0.0
 10
108.1907098937577
 20
162.0026609689027
 30
0.0
 10
108.2406455458895
 20
161.9734850237251
 30
0.0
 10
108.2656135608
 20
161.9588969408
 30
0.0
 11
108.1017191998
 21
161.8057664721
 31
0.0
 11
108.0764527871
 21
161.8844586532
 31
0.0
 11
108.1119409627
 21
161.9590992945
 31
0.0
 11
108.1888166787
 21
161.9894429953
 31
0.0
 11
108.2656135608
 21
161.9588969408
 31
0.0
  0
SPLINE
  5
15BE
330
1B
100
AcDbEntity
  8
0
  6
Continuous
100
AcDbSpline
210
0.0
220
0.0
230
1.0
 70
     8
 71
     3
 72
     9
 73
     5
 74
     3
 42
0.0000000001
 43
0.0000000001
 44
0.0000000001
 40
0.0
 40
0.0
 40
0.0
 40
0.0
 40
1.876898580626469
 40
3.753797107409332
 40
3.753797107409332
 40
3.753797107409332
 40
3.753797107409332
 10
108.2656135608
 20
161.9588969408
 30
0.0
 10
108.6869358580164
 20
161.4793218173807
 30
0.0
 10
109.5295804403624
 20
160.5201715842998
 30
0.0
 10
109.7595891284872
 20
159.2643391659622
 30
0.0
 10
109.8745934709
 20
158.6364229658
 30
0.0
 11
108.2656135608
 21
161.9588969408
 31
0.0
 11
109.3764214745
 21
160.4460010221
 31
0.0
 11
109.8745934709
 21
158.6364229658
 31
0.0
  0
SPLINE
  5
15BF
330
1B
100
AcDbEntity
  8
0
  6
Continuous
100
AcDbSpline
210
0.0
220
0.0
230
1.0
 70
     8
 71
     3
 72
    19
 73
    15
 74
    13
 42
0.0000000001
 43
0.0000000001
 44
0.0000000001
 40
0.0
 40
0.0
 40
0.0
 40
0.0
 40
0.0326698685984166
 40
0.0653891625292357
 40
0.1311410681479365
 40
0.1969599645322788
 40
0.2625370656866771
 40
0.3945411341389798
 40
0.5281108006152033
 40
0.6615440095529203
 40
0.7942824591599667
 40
0.9249498115753596
 40
1.05559285940278
 40
1.058855374860119
 40
1.058855374860119
 40
1.058855374860119
 40
1.058855374860119
 10
109.8745934709
 20
158.6364229658
 30
0.0
 10
109.8751819959488
 20
158.6255435729572
 30
0.0
 10
109.8763599364094
 20
158.6037683281417
 30
0.0
 10
109.8740841885153
 20
158.560016115063
 30
0.0
 10
109.8617978451384
 20
158.5061942367244
 30
0.0
 10
109.8350490354273
 20
158.4457637235435
 30
0.0
 10
109.7844943912717
 20
158.3732753860483
 30
0.0
 10
109.6932972003442
 20
158.3054704069742
 30
0.0
 10
109.5609083350715
 20
158.2713579897728
 30
0.0
 10
109.4259843388325
 20
158.2954458181292
 30
0.0
 10
109.3112227697952
 20
158.3682892499831
 30
0.0
 10
109.2366480387429
 20
158.4807817612587
 30
0.0
 10
109.2195888944557
 20
158.5700754071099
 30
0.0
 10
109.220393623636
 20
158.6147000382522
 30
0.0
 10
109.2204132303
 20
158.6157872862
 30
0.0
 11
109.8745934709
 21
158.6364229658
 31
0.0
 11
109.875781753
 21
158.6037747147
 31
0.0
 11
109.8740330434
 21
158.5711021848
 31
0.0
 11
109.8598019112
 21
158.5069088209
 31
0.0
 11
109.8331615958
 21
158.4467222716
 31
0.0
 11
109.7954271989
 21
158.3930895252
 31
0.0
 11
109.6900277107
 21
158.313616121
 31
0.0
 11
109.5604800278
 21
158.2810853101
 31
0.0
 11
109.428983272
 21
158.3037353534
 31
0.0
 11
109.3173087056
 21
158.3754869194
 31
0.0
 11
109.2447961713
 21
158.4841878364
 31
0.0
 11
109.2203600133
 21
158.6125252048
 31
0.0
 11
109.2204132303
 21
158.6157872862
 31
0.0
  0
SPLINE
  5
15C0
330
1B
100
AcDbEntity
  8
0
  6
Continuous
100
AcDbSpline
210
0.0
220
0.0
230
1.0
 70
     8
 71
     3
 72
     9
 73
     5
 74
     3
 42
0.0000000001
 43
0.0000000001
 44
0.0000000001
 40
0.0
 40
0.0
 40
0.0
 40
0.0
 40
1.714817782303723
 40
3.432846360175876
 40
3.432846360175876
 40
3.432846360175876
 40
3.432846360175876
 10
109.2204132303
 20
158.6157872862
 30
0.0
 10
109.1750143018915
 20
159.1963307645037
 30
0.0
 10
109.0841314408952
 20
160.3585047208184
 30
0.0
 10
108.4293940755741
 20
161.3230451716863
 30
0.0
 10
108.1017191998
 20
161.8057664721
 30
0.0
 11
109.2204132303
 21
158.6157872862
 31
0.0
 11
108.9435163867
 21
160.3081017264
 31
0.0
 11
108.1017191998
 21
161.8057664721
 31
0.0
  0
SPLINE
  5
15C1
330
1B
100
AcDbEntity
  8
0
  6
Continuous
100
AcDbSpline
210
0.0
220
0.0
230
1.0
 70
     8
 71
     3
 72
    15
 73
    11
 74
     9
 42
0.0000000001
 43
0.0000000001
 44
0.0000000001
 40
0.0
 40
0.0
 40
0.0
 40
0.0
 40
0.3183343104935607
 40
0.6651994936459407
 40
1.032442287947057
 40
1.24809117784445
 40
1.466967920144717
 40
3.524958002787442
 40
5.499204935575599
 40
6.215717163943257
 40
6.215717163943257
 40
6.215717163943257
 40
6.215717163943257
 10
109.2054801621
 20
157.3227649026
 30
0.0
 10
109.1906309397491
 20
157.2112572231457
 30
0.0
 10
109.1596016260269
 20
156.978247932392
 30
0.0
 10
108.7850456432536
 20
156.8198308960062
 30
0.0
 10
108.4617606988402
 20
156.9876584476736
 30
0.0
 10
108.3962183730069
 20
157.258362980278
 30
0.0
 10
108.3767981050728
 20
158.0846493382156
 30
0.0
 10
108.3526612997499
 20
159.518928868009
 30
0.0
 10
107.8141961706514
 20
161.03191065301
 30
0.0
 10
107.4074343224313
 20
161.8306190219734
 30
0.0
 10
107.2991192259
 20
162.0433040967
 30
0.0
 11
109.2054801621
 21
157.3227649026
 31
0.0
 11
109.1127716527
 21
157.0182294112
 31
0.0
 11
108.7949786299
 21
156.8792220375
 31
0.0
 11
108.470587377
 21
157.0513777374
 31
0.0
 11
108.4043972445
 21
157.256617378
 31
0.0
 11
108.3911719058
 21
157.4750941931
 31
0.0
 11
108.2390476068
 21
159.5274541464
 31
0.0
 11
107.6168563849
 21
161.4010947296
 31
0.0
 11
107.2991192259
 21
162.0433040967
 31
0.0
  0
SPLINE
  5
15C2
330
1B
100
AcDbEntity
  8
0
  6
Continuous
100
AcDbSpline
210
0.0
220
0.0
230
1.0
 70
     8
 71
     3
 72
    11
 73
     7
 74
     5
 42
0.0000000001
 43
0.0000000001
 44
0.0000000001
 40
0.0
 40
0.0
 40
0.0
 40
0.0
 40
0.0694145763669486
 40
0.1388279088482803
 40
0.2082411810134716
 40
0.2776559031253342
 40
0.2776559031253342
 40
0.2776559031253342
 40
0.2776559031253342
 10
107.2991192259
 20
162.0433040967
 30
0.0
 10
107.2924880589906
 20
162.0666907794049
 30
0.0
 10
107.279225844
 20
162.1134637257333
 30
0.0
 10
107.3268605615199
 20
162.1759124583086
 30
0.0
 10
107.4039985167924
 20
162.1907129483488
 30
0.0
 10
107.4399498056367
 20
162.1579838390594
 30
0.0
 10
107.4579256378
 20
162.1416191135
 30
0.0
 11
107.2991192259
 21
162.0433040967
 31
0.0
 11
107.2904806262
 21
162.1121790414
 31
0.0
 11
107.3317777468
 21
162.1679711426
 31
0.0
 11
107.4001295158
 21
162.1800640342
 31
0.0
 11
107.4579256378
 21
162.1416191135
 31
0.0
  0
SPLINE
  5
15C3
330
1B
100
AcDbEntity
  8
0
  6
Continuous
100
AcDbSpline
210
0.0
220
0.0
230
1.0
 70
     8
 71
     3
 72
     9
 73
     5
 74
     3
 42
0.0000000001
 43
0.0000000001
 44
0.0000000001
 40
0.0
 40
0.0
 40
0.0
 40
0.0
 40
2.584054886871964
 40
5.168109781818158
 40
5.168109781818158
 40
5.168109781818158
 40
5.168109781818158
 10
107.4579256378
 20
162.1416191135
 30
0.0
 10
107.9040245994246
 20
161.3946293319058
 30
0.0
 10
108.7962225240676
 20
159.9006497663833
 30
0.0
 10
109.0690609492805
 20
158.1820598580894
 30
0.0
 10
109.2054801621
 20
157.3227649026
 30
0.0
 11
107.4579256378
 21
162.1416191135
 31
0.0
 11
108.6413826483
 21
159.8444971832
 31
0.0
 11
109.2054801621
 21
157.3227649026
 31
0.0
  0
SPLINE
  5
15C4
330
1B
100
AcDbEntity
  8
0
  6
Continuous
100
AcDbSpline
210
0.0
220
0.0
230
1.0
 70
     8
 71
     3
 72
    12
 73
     8
 74
     6
 42
0.0000000001
 43
0.0000000001
 44
0.0000000001
 40
0.0
 40
0.0
 40
0.0
 40
0.0
 40
0.2946035384627802
 40
0.5891279836035694
 40
0.8836526391229883
 40
1.178183129484373
 40
1.196135196379206
 40
1.196135196379206
 40
1.196135196379206
 40
1.196135196379206
 10
106.5331188859
 20
163.8745457841
 30
0.0
 10
106.5784697268909
 20
163.7871692054292
 30
0.0
 10
106.6691592333616
 20
163.612439506407
 30
0.0
 10
106.8602434072955
 20
163.3852141273832
 30
0.0
 10
107.0742948629595
 20
163.1845733790768
 30
0.0
 10
107.2038081241642
 20
163.024215025375
 30
0.0
 10
107.2483012302328
 20
162.9300138959006
 30
0.0
 10
107.2508573512
 20
162.9246020579
 30
0.0
 11
106.5331188859
 21
163.8745457841
 31
0.0
 11
106.6783502764
 21
163.6182274506
 31
0.0
 11
106.8640738463
 21
163.3896417897
 31
0.0
 11
107.0700389006
 21
163.1791111052
 31
0.0
 11
107.2431157859
 21
162.9407991216
 31
0.0
 11
107.2508573512
 21
162.9246020579
 31
0.0
  0
SPLINE
  5
15C5
330
1B
100
AcDbEntity
  8
0
  6
Continuous
100
AcDbSpline
210
0.0
220
0.0
230
1.0
 70
     8
 71
     3
 72
    17
 73
    13
 74
    11
 42
0.0000000001
 43
0.0000000001
 44
0.0000000001
 40
0.0
 40
0.0
 40
0.0
 40
0.0
 40
0.0865660655914559
 40
0.1909744360812201
 40
0.2418414214296412
 40
0.2924990722539234
 40
0.3437508377907441
 40
0.3953633836083242
 40
0.4973681519512204
 40
0.5990795695022897
 40
0.7024058945062182
 40
0.8053258161893755
 40
0.8053258161893755
 40
0.8053258161893755
 40
0.8053258161893755
 10
107.2508573512
 20
162.9246020579
 30
0.0
 10
107.2612820653963
 20
162.8976285785892
 30
0.0
 10
107.2842801524798
 20
162.8381220622039
 30
0.0
 10
107.290925885357
 20
162.7558704793399
 30
0.0
 10
107.2775932928561
 20
162.6880580045219
 30
0.0
 10
107.2557603076507
 20
162.6414946995696
 30
0.0
 10
107.2244473182282
 20
162.6005977743994
 30
0.0
 10
107.1736509797779
 20
162.5545812095998
 30
0.0
 10
107.0968818469847
 20
162.5136676356931
 30
0.0
 10
106.9937954319094
 20
162.4994379125047
 30
0.0
 10
106.8907334041693
 20
162.5156817736894
 30
0.0
 10
106.828513095177
 20
162.545539486067
 30
0.0
 10
106.7974642425
 20
162.5604389253
 30
0.0
 11
107.2508573512
 21
162.9246020579
 31
0.0
 11
107.2784843972
 21
162.8425628597
 31
0.0
 11
107.2859227345
 21
162.73841979
 31
0.0
 11
107.2755876136
 21
162.6886138117
 31
0.0
 11
107.254307747
 21
162.6426424634
 31
0.0
 11
107.2233978022
 21
162.6017606975
 31
0.0
 11
107.1852312455
 21
162.5670163622
 31
0.0
 11
107.0950023114
 21
162.5194378774
 31
0.0
 11
106.9943919561
 21
162.5045124338
 31
0.0
 11
106.8923047732
 21
162.5204666347
 31
0.0
 11
106.7974642425
 21
162.5604389253
 31
0.0
  0
SPLINE
  5
15C6
330
1B
100
AcDbEntity
  8
0
  6
Continuous
100
AcDbSpline
210
0.0
220
0.0
230
1.0
 70
     8
 71
     3
 72
     9
 73
     5
 74
     3
 42
0.0000000001
 43
0.0000000001
 44
0.0000000001
 40
0.0
 40
0.0
 40
0.0
 40
0.0
 40
0.1425957268959168
 40
0.5703169868450142
 40
0.5703169868450142
 40
0.5703169868450142
 40
0.5703169868450142
 10
106.7974642425
 20
162.5604389253
 30
0.0
 10
106.7574665878506
 20
162.5864855585853
 30
0.0
 10
106.5974944598136
 20
162.6906600505993
 30
0.0
 10
106.4839621675259
 20
162.8467442513383
 30
0.0
 10
106.398816229
 20
162.9638028916
 30
0.0
 11
106.7974642425
 21
162.5604389253
 31
0.0
 11
106.6803744393
 21
162.641823932
 31
0.0
 11
106.398816229
 21
162.9638028916
 31
0.0
  0
SPLINE
  5
15C7
330
1B
100
AcDbEntity
  8
0
  6
Continuous
100
AcDbSpline
210
0.0
220
0.0
230
1.0
 70
     8
 71
     3
 72
    14
 73
    10
 74
     8
 42
0.0000000001
 43
0.0000000001
 44
0.0000000001
 40
0.0
 40
0.0
 40
0.0
 40
0.0
 40
0.347606634883509
 40
0.522260451715728
 40
0.6990524065232388
 40
0.8730015523743854
 40
1.048998825174943
 40
1.232469161586616
 40
1.413021080725487
 40
1.413021080725487
 40
1.413021080725487
 40
1.413021080725487
 10
106.398816229
 20
162.9638028916
 30
0.0
 10
106.3117360589066
 20
163.0428985229802
 30
0.0
 10
106.1809027421499
 20
163.1617354956613
 30
0.0
 10
105.9560495793281
 20
163.2355651270641
 30
0.0
 10
105.7797903333376
 20
163.2493219079443
 30
0.0
 10
105.6044783459935
 20
163.2028741336611
 30
0.0
 10
105.4690390917912
 20
163.0804701905199
 30
0.0
 10
105.3745392918073
 20
162.9242289687532
 30
0.0
 10
105.3448704212425
 20
162.8060010770768
 30
0.0
 10
105.3301549157
 20
162.747361056
 30
0.0
 11
106.398816229
 21
162.9638028916
 31
0.0
 11
106.1211165834
 21
163.1728801009
 31
0.0
 11
105.9555373438
 21
163.2284451182
 31
0.0
 11
105.779073133
 21
163.2392051178
 31
0.0
 11
105.6119835865
 21
163.1908378893
 31
0.0
 11
105.4777366627
 21
163.0770275054
 31
0.0
 11
105.3826737036
 21
162.9201058748
 31
0.0
 11
105.3301549157
 21
162.747361056
 31
0.0
  0
SPLINE
  5
15C8
330
1B
100
AcDbEntity
  8
0
  6
Continuous
100
AcDbSpline
210
0.0
220
0.0
230
1.0
 70
     8
 71
     3
 72
     9
 73
     5
 74
     3
 42
0.0000000001
 43
0.0000000001
 44
0.0000000001
 40
0.0
 40
0.0
 40
0.0
 40
0.0
 40
0.2840105212335608
 40
0.5691990757777432
 40
0.5691990757777432
 40
0.5691990757777432
 40
0.5691990757777432
 10
105.3301549157
 20
162.747361056
 30
0.0
 10
105.3207576084137
 20
162.6526428963041
 30
0.0
 10
105.3019240152112
 20
162.4628137001037
 30
0.0
 10
105.3361848251004
 20
162.2751491779438
 30
0.0
 10
105.3533506837
 20
162.1811227185
 30
0.0
 11
105.3301549157
 21
162.747361056
 31
0.0
 11
105.3151817085
 21
162.4637455077
 31
0.0
 11
105.3533506837
 21
162.1811227185
 31
0.0
  0
SPLINE
  5
15C9
330
1B
100
AcDbEntity
  8
0
  6
Continuous
100
AcDbSpline
210
0.0
220
0.0
230
1.0
 70
    24
 71
     3
 72
     8
 73
     4
 74
     2
 42
0.0000000001
 43
0.0000000001
 44
0.0000000001
 40
0.0
 40
0.0
 40
0.0
 40
0.0
 40
0.8517753885796455
 40
0.8517753885796455
 40
0.8517753885796455
 40
0.8517753885796455
 10
105.3533506837
 20
162.1811227185
 30
0.0
 10
105.3941862753667
 20
161.9001495282667
 30
0.0
 10
105.4350218670333
 20
161.6191763380333
 30
0.0
 10
105.4758574587
 20
161.3382031478
 30
0.0
 11
105.3533506837
 21
162.1811227185
 31
0.0
 11
105.4758574587
 21
161.3382031478
 31
0.0
  0
SPLINE
  5
15CA
330
1B
100
AcDbEntity
  8
0
  6
Continuous
100
AcDbSpline
210
0.0
220
0.0
230
1.0
 70
     8
 71
     3
 72
     9
 73
     5
 74
     3
 42
0.0000000001
 43
0.0000000001
 44
0.0000000001
 40
0.0
 40
0.0
 40
0.0
 40
0.0
 40
0.2827377410243119
 40
0.5654841985636256
 40
0.5654841985636256
 40
0.5654841985636256
 40
0.5654841985636256
 10
105.4758574587
 20
161.3382031478
 30
0.0
 10
105.4985938600755
 20
161.2466470628864
 30
0.0
 10
105.5440673637664
 20
161.0635320704789
 30
0.0
 10
105.5676812814585
 20
160.8763387869077
 30
0.0
 10
105.5794884223
 20
160.7827407024
 30
0.0
 11
105.4758574587
 21
161.3382031478
 31
0.0
 11
105.5386019348
 21
161.0625153517
 31
0.0
 11
105.5794884223
 21
160.7827407024
 31
0.0
  0
SPLINE
  5
15CB
330
1B
100
AcDbEntity
  8
0
  6
Continuous
100
AcDbSpline
210
0.0
220
0.0
230
1.0
 70
     8
 71
     3
 72
    11
 73
     7
 74
     5
 42
0.0000000001
 43
0.0000000001
 44
0.0000000001
 40
0.0
 40
0.0
 40
0.0
 40
0.0
 40
0.1415759634810953
 40
0.2831126858129809
 40
0.4271953337061515
 40
0.5711459557069677
 40
0.5711459557069677
 40
0.5711459557069677
 40
0.5711459557069677
 10
105.5794884223
 20
160.7827407024
 30
0.0
 10
105.5731855760721
 20
160.7354701810361
 30
0.0
 10
105.5605816306002
 20
160.6409422404587
 30
0.0
 10
105.4838982584542
 20
160.5171735008613
 30
0.0
 10
105.387284799579
 20
160.4113730184849
 30
0.0
 10
105.313523296966
 20
160.3497051446547
 30
0.0
 10
105.2766594507
 20
160.3188853411
 30
0.0
 11
105.5794884223
 21
160.7827407024
 31
0.0
 11
105.5510232397
 21
160.6440558553
 31
0.0
 11
105.4811707979
 21
160.5209571951
 31
0.0
 11
105.3850078732
 21
160.4136608702
 31
0.0
 11
105.2766594507
 21
160.3188853411
 31
0.0
  0
SPLINE
  5
15CC
330
1B
100
AcDbEntity
  8
0
  6
Continuous
100
AcDbSpline
210
0.0
220
0.0
230
1.0
 70
     8
 71
     3
 72
    14
 73
    10
 74
     8
 42
0.0000000001
 43
0.0000000001
 44
0.0000000001
 40
0.0
 40
0.0
 40
0.0
 40
0.0
 40
0.3545970613534292
 40
0.5318747382154244
 40
0.7092315255993593
 40
0.8869329022982779
 40
1.065302008353867
 40
1.242960497985354
 40
1.419472854876521
 40
1.419472854876521
 40
1.419472854876521
 40
1.419472854876521
 10
105.2766594507
 20
160.3188853411
 30
0.0
 10
105.1847064701951
 20
160.2445300325505
 30
0.0
 10
105.0467824071826
 20
160.1330014425539
 30
0.0
 10
104.8519977559479
 20
159.9987592248837
 30
0.0
 10
104.6996880591151
 20
159.9074283721297
 30
0.0
 10
104.5398362467997
 20
159.828957962378
 30
0.0
 10
104.374763631335
 20
159.7628213219869
 30
0.0
 10
104.2099725929907
 20
159.6955851596916
 30
0.0
 10
104.1094208152837
 20
159.6333202260861
 30
0.0
 10
104.0593076243
 20
159.6022885071
 30
0.0
 11
105.2766594507
 21
160.3188853411
 31
0.0
 11
104.9971775612
 21
160.1006447643
 31
0.0
 11
104.8510026711
 21
160.000343836
 31
0.0
 11
104.6985859098
 21
159.9096544711
 31
0.0
 11
104.5391838821
 21
159.8311129353
 31
0.0
 11
104.3745293918
 21
159.7625240381
 31
0.0
 11
104.2118936112
 21
159.6910247947
 31
0.0
 11
104.0593076243
 21
159.6022885071
 31
0.0
  0
SPLINE
  5
15CD
330
1B
100
AcDbEntity
  8
0
  6
Continuous
100
AcDbSpline
210
0.0
220
0.0
230
1.0
 70
     8
 71
     3
 72
     9
 73
     5
 74
     3
 42
0.0000000001
 43
0.0000000001
 44
0.0000000001
 40
0.0
 40
0.0
 40
0.0
 40
0.0
 40
0.2739200602508147
 40
0.5481647531170121
 40
0.5481647531170121
 40
0.5481647531170121
 40
0.5481647531170121
 10
104.0593076243
 20
159.6022885071
 30
0.0
 10
103.9886247157194
 20
159.5408382768867
 30
0.0
 10
103.8471751296752
 20
159.4178649895598
 30
0.0
 10
103.801175747634
 20
159.2361593179302
 30
0.0
 10
103.7781624358
 20
159.1452526775
 30
0.0
 11
104.0593076243
 21
159.6022885071
 31
0.0
 11
103.8710931943
 21
159.4032721064
 31
0.0
 11
103.7781624358
 21
159.1452526775
 31
0.0
  0
SPLINE
  5
15CE
330
1B
100
AcDbEntity
  8
0
  6
Continuous
100
AcDbSpline
210
0.0
220
0.0
230
1.0
 70
     8
 71
     3
 72
    23
 73
    19
 74
    17
 42
0.0000000001
 43
0.0000000001
 44
0.0000000001
 40
0.0
 40
0.0
 40
0.0
 40
0.0
 40
0.1762329192626844
 40
0.2650575638787791
 40
0.3532537587660397
 40
0.4420043531636021
 40
0.5323637154899662
 40
0.5763244277561348
 40
0.6191887728670654
 40
0.706388448435588
 40
0.7991883935131172
 40
0.8934200242865885
 40
0.9841358733085128
 40
1.072112112651449
 40
1.159305314241907
 40
1.247588662095315
 40
1.425050630068687
 40
1.494812225806334
 40
1.494812225806334
 40
1.494812225806334
 40
1.494812225806334
 10
103.7781624358
 20
159.1452526775
 30
0.0
 10
103.7718697235493
 20
159.0853489510694
 30
0.0
 10
103.762405368159
 20
158.9952526406788
 30
0.0
 10
103.8114902307262
 20
158.8856850385124
 30
0.0
 10
103.8584353192963
 20
158.8108521163451
 30
0.0
 10
103.9075611575621
 20
158.7364352580834
 30
0.0
 10
103.9385672685193
 20
158.6680431586809
 30
0.0
 10
103.9504419548471
 20
158.60983044081
 30
0.0
 10
103.9491405058829
 20
158.5513035596149
 30
0.0
 10
103.9227528717775
 20
158.4799701558212
 30
0.0
 10
103.8695081863166
 20
158.4051410851226
 30
0.0
 10
103.8054728740887
 20
158.3380027041882
 30
0.0
 10
103.7364308256968
 20
158.2785019813835
 30
0.0
 10
103.6623567566847
 20
158.2293501147868
 30
0.0
 10
103.5825518357755
 20
158.19178907176
 30
0.0
 10
103.4704574245912
 20
158.1564709941058
 30
0.0
 10
103.3605728629259
 20
158.1284111553005
 30
0.0
 10
103.2905132999109
 20
158.084541970838
 30
0.0
 10
103.2707438781
 20
158.0721629554
 30
0.0
 11
103.7781624358
 21
159.1452526775
 31
0.0
 11
103.779749741
 21
158.9690269067
 31
0.0
 11
103.813257235
 21
158.8867647323
 31
0.0
 11
103.8586514459
 21
158.8111477077
 31
0.0
 11
103.9052960269
 21
158.735643065
 31
0.0
 11
103.9406412589
 21
158.6524834057
 31
0.0
 11
103.9488572774
 21
158.6092972822
 31
0.0
 11
103.9479051002
 21
158.5664435141
 31
0.0
 11
103.9202157134
 21
158.483756869
 31
0.0
 11
103.8681104764
 21
158.4069657622
 31
0.0
 11
103.8035859024
 21
158.3382913158
 31
0.0
 11
103.7345577972
 21
158.2794314317
 31
0.0
 11
103.6610638056
 21
158.2310738895
 31
0.0
 11
103.5822458677
 21
158.1937859951
 31
0.0
 11
103.4984900542
 21
158.1658769784
 31
0.0
 11
103.3309209082
 21
158.1074532556
 31
0.0
 11
103.2707438781
 21
158.0721629554
 31
0.0
  0
SPLINE
  5
15CF
330
1B
100
AcDbEntity
  8
0
  6
Continuous
100
AcDbSpline
210
0.0
220
0.0
230
1.0
 70
     8
 71
     3
 72
     9
 73
     5
 74
     3
 42
0.0000000001
 43
0.0000000001
 44
0.0000000001
 40
0.0
 40
0.0
 40
0.0
 40
0.0
 40
0.2027918805025577
 40
0.4728781072231815
 40
0.4728781072231815
 40
0.4728781072231815
 40
0.4728781072231815
 10
103.2707438781
 20
158.0721629554
 30
0.0
 10
103.2230355786179
 20
158.0238325554699
 30
0.0
 10
103.111787483763
 20
157.9111338222481
 30
0.0
 10
103.0362781466251
 20
157.7715980352477
 30
0.0
 10
102.993150686
 20
157.6919016111
 30
0.0
 11
103.2707438781
 21
158.0721629554
 31
0.0
 11
103.1341916547
 21
157.922236183
 31
0.0
 11
102.993150686
 21
157.6919016111
 31
0.0
  0
SPLINE
  5
15D0
330
1B
100
AcDbEntity
  8
0
  6
Continuous
100
AcDbSpline
210
0.0
220
0.0
230
1.0
 70
     8
 71
     3
 72
    21
 73
    17
 74
    15
 42
0.0000000001
 43
0.0000000001
 44
0.0000000001
 40
0.0
 40
0.0
 40
0.0
 40
0.0
 40
0.0873810831981328
 40
0.1754592931064612
 40
0.2586158399125559
 40
0.3414923620898767
 40
0.426445635403864
 40
0.5101029853069388
 40
0.5942492367001212
 40
0.6785659827570276
 40
0.7622955783305477
 40
0.8460387665036022
 40
1.0136839886538
 40
1.097433546188366
 40
1.181272708986809
 40
1.32824668477095
 40
1.32824668477095
 40
1.32824668477095
 40
1.32824668477095
 10
102.993150686
 20
157.6919016111
 30
0.0
 10
102.9787065110113
 20
157.6665596014425
 30
0.0
 10
102.9497029253352
 20
157.6156734034501
 30
0.0
 10
102.9203716401277
 20
157.5341370384929
 30
0.0
 10
102.9139857515388
 20
157.4471238591153
 30
0.0
 10
102.9507062534288
 20
157.368501692029
 30
0.0
 10
103.0119653501645
 20
157.3092823302913
 30
0.0
 10
103.0894872529665
 20
157.2723192229885
 30
0.0
 10
103.1741313473005
 20
157.2627176582975
 30
0.0
 10
103.2580852267295
 20
157.2714133857557
 30
0.0
 10
103.3399538273544
 20
157.2900164392299
 30
0.0
 10
103.4499219544519
 20
157.3100767016825
 30
0.0
 10
103.5613381336874
 20
157.3195671062504
 30
0.0
 10
103.6722219827551
 20
157.3336345742352
 30
0.0
 10
103.7752212849172
 20
157.3538063173336
 30
0.0
 10
103.8492814075603
 20
157.3747823627435
 30
0.0
 10
103.896440381
 20
157.3881391968
 30
0.0
 11
102.993150686
 21
157.6919016111
 31
0.0
 11
102.9520760167
 21
157.6147762246
 31
0.0
 11
102.9238132364
 21
157.5313556857
 31
0.0
 11
102.9211187102
 21
157.4482428058
 31
0.0
 11
102.9543837539
 21
157.3723352647
 31
0.0
 11
103.0149826686
 21
157.3127967882
 31
0.0
 11
103.0905477822
 21
157.2769015824
 31
0.0
 11
103.1739550334
 21
157.2657740458
 31
0.0
 11
103.2579528628
 21
157.2731005949
 31
0.0
 11
103.3400750134
 21
157.2894284103
 31
0.0
 11
103.422509704
 21
157.3041743708
 31
0.0
 11
103.5890409724
 21
157.3234683376
 31
0.0
 11
103.6720530137
 21
157.3345583956
 31
0.0
 11
103.7543485561
 21
157.3505724182
 31
0.0
 11
103.896440381
 21
157.3881391968
 31
0.0
  0
SPLINE
  5
15D1
330
1B
100
AcDbEntity
  8
0
  6
Continuous
100
AcDbSpline
210
0.0
220
0.0
230
1.0
 70
     8
 71
     3
 72
     9
 73
     5
 74
     3
 42
0.0000000001
 43
0.0000000001
 44
0.0000000001
 40
0.0
 40
0.0
 40
0.0
 40
0.0
 40
0.0208291600139135
 40
0.3046761957914885
 40
0.3046761957914885
 40
0.3046761957914885
 40
0.3046761957914885
 10
103.8963804257
 20
157.3883387958
 30
0.0
 10
103.9030369424859
 20
157.3903162036635
 30
0.0
 10
104.0004043932225
 20
157.4192405148208
 30
0.0
 10
104.1009978633637
 20
157.4350637504835
 30
0.0
 10
104.1947142702
 20
157.4498052321
 30
0.0
 11
103.8963804257
 21
157.3883387958
 31
0.0
 11
103.9163650537
 21
157.3942097881
 31
0.0
 11
104.1947142702
 21
157.4498052321
 31
0.0
  0
SPLINE
  5
15D2
330
1B
100
AcDbEntity
  8
0
  6
Continuous
100
AcDbSpline
210
0.0
220
0.0
230
1.0
 70
     8
 71
     3
 72
    15
 73
    11
 74
     9
 42
0.0000000001
 43
0.0000000001
 44
0.0000000001
 40
0.0
 40
0.0
 40
0.0
 40
0.0
 40
0.3144510767642927
 40
0.4718072955793634
 40
0.6286259119877334
 40
0.7855900831554974
 40
0.9449593548765702
 40
1.104148807815066
 40
1.260604857752839
 40
1.278868794373477
 40
1.278868794373477
 40
1.278868794373477
 40
1.278868794373477
 10
104.1947142702
 20
157.4498052321
 30
0.0
 10
104.2981400641967
 20
157.4675374154674
 30
0.0
 10
104.4533217371642
 20
157.4941430597075
 30
0.0
 10
104.6626205327324
 20
157.5068802642526
 30
0.0
 10
104.819377322537
 20
157.5159754684806
 30
0.0
 10
104.9768317699165
 20
157.525017434497
 30
0.0
 10
105.1352669791869
 20
157.5314752128176
 30
0.0
 10
105.2937380234835
 20
157.5248907590291
 30
0.0
 10
105.4034796381366
 20
157.4981723432152
 30
0.0
 10
105.4564832696365
 20
157.4740238326891
 30
0.0
 10
105.4620238777
 20
157.4714995258
 30
0.0
 11
104.1947142702
 21
157.4498052321
 31
0.0
 11
104.5058378115
 21
157.495430025
 31
0.0
 11
104.6627815776
 21
157.5068157126
 31
0.0
 11
104.8193335113
 21
157.5159574032
 31
0.0
 11
104.9760628209
 21
157.5245407908
 31
0.0
 11
105.135361322
 21
157.5292897187
 31
0.0
 11
105.2942520301
 21
157.5195416519
 31
0.0
 11
105.4453537637
 21
157.4789613406
 31
0.0
 11
105.4620238777
 21
157.4714995258
 31
0.0
  0
SPLINE
  5
15D3
330
1B
100
AcDbEntity
  8
0
  6
Continuous
100
AcDbSpline
210
0.0
220
0.0
230
1.0
 70
     8
 71
     3
 72
    14
 73
    10
 74
     8
 42
0.0000000001
 43
0.0000000001
 44
0.0000000001
 40
0.0
 40
0.0
 40
0.0
 40
0.0
 40
0.2647945555821417
 40
0.5474465191773266
 40
0.8301112999058447
 40
1.112747917950716
 40
1.394635373506628
 40
1.6787195858655
 40
2.24402653952286
 40
2.24402653952286
 40
2.24402653952286
 40
2.24402653952286
 10
105.4620238777
 20
157.4714995258
 30
0.0
 10
105.5374019298703
 20
157.4232343114603
 30
0.0
 10
105.6932414341693
 20
157.3234489381187
 30
0.0
 10
105.8301489018623
 20
157.0719720160742
 30
0.0
 10
105.9012299964041
 20
156.7980825556959
 30
0.0
 10
105.9193200229056
 20
156.5135597016285
 30
0.0
 10
105.8723085420004
 20
156.2331833475415
 30
0.0
 10
105.7745794710473
 20
155.8690180165534
 30
0.0
 10
105.7247962263265
 20
155.5900559422088
 30
0.0
 10
105.6916633006
 20
155.4043944864
 30
0.0
 11
105.4620238777
 21
157.4714995258
 31
0.0
 11
105.6728219687
 21
157.3112487177
 31
0.0
 11
105.8186855129
 21
157.0691413882
 31
0.0
 11
105.8924023667
 21
156.7962582562
 31
0.0
 11
105.9084752574
 21
156.5140790223
 31
0.0
 11
105.8680793705
 21
156.2351010484
 31
0.0
 11
105.8015130429
 21
155.9589258074
 31
0.0
 11
105.6916633006
 21
155.4043944864
 31
0.0
  0
SPLINE
  5
15D4
330
1B
100
AcDbEntity
  8
0
  6
Continuous
100
AcDbSpline
210
0.0
220
0.0
230
1.0
 70
     8
 71
     3
 72
    22
 73
    18
 74
    16
 42
0.0000000001
 43
0.0000000001
 44
0.0000000001
 40
0.0
 40
0.0
 40
0.0
 40
0.0
 40
0.2115055280563238
 40
0.3178775949425672
 40
0.4247928417633258
 40
0.5308056986549099
 40
0.6364637130696815
 40
0.7431178350916058
 40
0.8499276294197847
 40
0.9559004353118881
 40
1.061890871564676
 40
1.168164488752103
 40
1.274376010105855
 40
1.380246286251685
 40
1.485972922178332
 40
1.697830686168816
 40
1.701487461861914
 40
1.701487461861914
 40
1.701487461861914
 40
1.701487461861914
 10
105.3308149091
 20
153.7405631249
 30
0.0
 10
105.3158104419877
 20
153.6716032473075
 30
0.0
 10
105.2932598071988
 20
153.5679615116135
 30
0.0
 10
105.2789870351142
 20
153.4268786268983
 30
0.0
 10
105.2785369119625
 20
153.3202365699352
 30
0.0
 10
105.2935704348095
 20
153.2144888603538
 30
0.0
 10
105.3306563962222
 20
153.1141934317525
 30
0.0
 10
105.3865416876503
 20
153.0230679788243
 30
0.0
 10
105.4554131972436
 20
152.9414304240488
 30
0.0
 10
105.5338076381846
 20
152.8693681827858
 30
0.0
 10
105.6184850470724
 20
152.8053098902633
 30
0.0
 10
105.7067727968536
 20
152.7462996052206
 30
0.0
 10
105.7975983896425
 20
152.6913220761803
 30
0.0
 10
105.8920024856651
 20
152.6429654086531
 30
0.0
 10
106.0234574057672
 20
152.590919150686
 30
0.0
 10
106.1282669561401
 20
152.5663806930106
 30
0.0
 10
106.198969450486
 20
152.553666448869
 30
0.0
 10
106.2001691058
 20
152.553450718
 30
0.0
 11
105.3308149091
 21
153.7405631249
 31
0.0
 11
105.2910565926
 21
153.532828042
 31
0.0
 11
105.2807129655
 21
153.4269600771
 31
0.0
 11
105.281144582
 21
153.3200457015
 31
0.0
 11
105.2972674897
 21
153.215266039
 31
0.0
 11
105.3336225801
 21
153.1160595704
 31
0.0
 11
105.38867158
 21
153.0247101897
 31
0.0
 11
105.4572193991
 21
152.9427984771
 31
0.0
 11
105.5348712817
 21
152.8706845345
 31
0.0
 11
105.6189991112
 21
152.8062137591
 31
0.0
 11
105.7072192886
 21
152.7469576876
 31
0.0
 11
105.7983207935
 21
152.6923554617
 31
0.0
 11
105.8927542922
 21
152.644492849
 31
0.0
 11
105.9910678181
 21
152.6056010481999
 31
0.0
 11
106.1965702515
 21
152.5540989897
 31
0.0
 11
106.2001691058
 21
152.553450718
 31
0.0
  0
SPLINE
  5
15D5
330
1B
100
AcDbEntity
  8
0
  6
Continuous
100
AcDbSpline
210
0.0
220
0.0
230
1.0
 70
     8
 71
     3
 72
    10
 73
     6
 74
     4
 42
0.0000000001
 43
0.0000000001
 44
0.0000000001
 40
0.0
 40
0.0
 40
0.0
 40
0.0
 40
0.0675578818662521
 40
0.1391419821443184
 40
0.2820697913483549
 40
0.2820697913483549
 40
0.2820697913483549
 40
0.2820697913483549
 10
106.2001691058
 20
152.553450718
 30
0.0
 10
106.2222469656596
 20
152.5489770289137
 30
0.0
 10
106.2677184502222
 20
152.5397630341914
 30
0.0
 10
106.3571372422798
 20
152.5090596422218
 30
0.0
 10
106.4177762690367
 20
152.4705552759761
 30
0.0
 10
106.4581796353
 20
152.4449000817
 30
0.0
 11
106.2001691058
 21
152.553450718
 31
0.0
 11
106.266081568
 21
152.5386313142
 31
0.0
 11
106.333700635
 21
152.5151378004
 31
0.0
 11
106.4581796353
 21
152.4449000817
 31
0.0
  0
SPLINE
  5
15D6
330
1B
100
AcDbEntity
  8
0
  6
Continuous
100
AcDbSpline
210
0.0
220
0.0
230
1.0
 70
     8
 71
     3
 72
    13
 73
     9
 74
     7
 42
0.0000000001
 43
0.0000000001
 44
0.0000000001
 40
0.0
 40
0.0
 40
0.0
 40
0.0
 40
0.058121900486776
 40
0.1173560145092663
 40
0.1490530029723337
 40
0.1816652085868881
 40
0.2122447568274569
 40
0.2407676198752752
 40
0.2407676198752752
 40
0.2407676198752752
 40
0.2407676198752752
 10
106.4581796353
 20
152.4449000817
 30
0.0
 10
106.4736553200638
 20
152.4332079024073
 30
0.0
 10
106.5049028303908
 20
152.4095998037177
 30
0.0
 10
106.5399239730653
 20
152.3741483798175
 30
0.0
 10
106.5662789806769
 20
152.3423727388782
 30
0.0
 10
106.5842566559969
 20
152.3166135511784
 30
0.0
 10
106.5981597396444
 20
152.288039443819
 30
0.0
 10
106.5954877696155
 20
152.2681112873725
 30
0.0
 10
106.5941982751
 20
152.2584939458
 30
0.0
 11
106.4581796353
 21
152.4449000817
 31
0.0
 11
106.5037055616
 21
152.4087677506
 31
0.0
 11
106.545559352
 21
152.3668518766
 31
0.0
 11
106.5657108917
 21
152.3423852764
 31
0.0
 11
106.5840043914
 21
152.3153870575
 31
0.0
 11
106.5953577785
 21
152.2869932312
 31
0.0
 11
106.5941982751
 21
152.2584939458
 31
0.0
  0
SPLINE
  5
15D7
330
1B
100
AcDbEntity
  8
0
  6
Continuous
100
AcDbSpline
210
0.0
220
0.0
230
1.0
 70
     8
 71
     3
 72
    13
 73
     9
 74
     7
 42
0.0000000001
 43
0.0000000001
 44
0.0000000001
 40
0.0
 40
0.0
 40
0.0
 40
0.0
 40
0.0318727657896114
 40
0.068407098769
 40
0.1085067760135671
 40
0.1461815885899316
 40
0.2141711805969389
 40
0.280586568106194
 40
0.280586568106194
 40
0.280586568106194
 40
0.280586568106194
 10
106.5941982751
 20
152.2584939458
 30
0.0
 10
106.5890582411997
 20
152.2487480100673
 30
0.0
 10
106.5780264151882
 20
152.2278307419311
 30
0.0
 10
106.5410424467617
 20
152.2165280921075
 30
0.0
 10
106.5040490771241
 20
152.210510001752
 30
0.0
 10
106.4553520182715
 20
152.2067797194756
 30
0.0
 10
106.3979415306377
 20
152.2085082570097
 30
0.0
 10
106.3534875572824
 20
152.2142708231577
 30
0.0
 10
106.3315209019
 20
152.2171183595
 30
0.0
 11
106.5941982751
 21
152.2584939458
 31
0.0
 11
106.5761113744
 21
152.2322501423
 31
0.0
 11
106.5425575709
 21
152.2177967774
 31
0.0
 11
106.5030481743
 21
152.2109417284999
 31
0.0
 11
106.4654857215
 21
152.2080342137
 31
0.0
 11
106.3975154076
 21
152.2096531793
 31
0.0
 11
106.3315209019
 21
152.2171183595
 31
0.0
  0
SPLINE
  5
15D8
330
1B
100
AcDbEntity
  8
0
  6
Continuous
100
AcDbSpline
210
0.0
220
0.0
230
1.0
 70
     8
 71
     3
 72
     9
 73
     5
 74
     3
 42
0.0000000001
 43
0.0000000001
 44
0.0000000001
 40
0.0
 40
0.0
 40
0.0
 40
0.0
 40
0.1419308804555348
 40
0.2838955956438986
 40
0.2838955956438986
 40
0.2838955956438986
 40
0.2838955956438986
 10
106.3315209019
 20
152.2171183595
 30
0.0
 10
106.2846757357088
 20
152.2238271702232
 30
0.0
 10
106.1909742359632
 20
152.237246390975
 30
0.0
 10
106.0982935590215
 20
152.256490612215
 30
0.0
 10
106.0519476977
 20
152.2661138696
 30
0.0
 11
106.3315209019
 21
152.2171183595
 31
0.0
 11
106.1912405482
 21
152.2387006947
 31
0.0
 11
106.0519476977
 21
152.2661138696
 31
0.0
  0
SPLINE
  5
15D9
330
1B
100
AcDbEntity
  8
0
  6
Continuous
100
AcDbSpline
210
0.0
220
0.0
230
1.0
 70
     8
 71
     3
 72
     9
 73
     5
 74
     3
 42
0.0000000001
 43
0.0000000001
 44
0.0000000001
 40
0.0
 40
0.0
 40
0.0
 40
0.0
 40
0.2839178325143638
 40
0.5678325219989397
 40
0.5678325219989397
 40
0.5678325219989397
 40
0.5678325219989397
 10
106.0519476977
 20
152.2661138696
 30
0.0
 10
105.9592634330746
 20
152.2853947217323
 30
0.0
 10
105.773895929858
 20
152.3239562125536
 30
0.0
 10
105.5863711580277
 20
152.3500820518545
 30
0.0
 10
105.4926092911
 20
152.3631448992
 30
0.0
 11
106.0519476977
 21
152.2661138696
 31
0.0
 11
105.7733555807
 21
152.3208474787
 31
0.0
 11
105.4926092911
 21
152.3631448992
 31
0.0
  0
SPLINE
  5
15DA
330
1B
100
AcDbEntity
  8
0
  6
Continuous
100
AcDbSpline
210
0.0
220
0.0
230
1.0
 70
     8
 71
     3
 72
     9
 73
     5
 74
     3
 42
0.0000000001
 43
0.0000000001
 44
0.0000000001
 40
0.0
 40
0.0
 40
0.0
 40
0.0
 40
0.2826634338562983
 40
0.5653412695928207
 40
0.5653412695928207
 40
0.5653412695928207
 40
0.5653412695928207
 10
105.4926092911
 20
152.3631448992
 30
0.0
 10
105.397969578544
 20
152.369260903798
 30
0.0
 10
105.2086853314791
 20
152.3814932246083
 30
0.0
 10
105.0245332693638
 20
152.336037725924
 30
0.0
 10
104.9324548927
 20
152.3133093976
 30
0.0
 11
105.4926092911
 21
152.3631448992
 31
0.0
 11
105.2099731343
 21
152.3670716929
 31
0.0
 11
104.9324548927
 21
152.3133093976
 31
0.0
  0
SPLINE
  5
15DB
330
1B
100
AcDbEntity
  8
0
  6
Continuous
100
AcDbSpline
210
0.0
220
0.0
230
1.0
 70
     8
 71
     3
 72
    23
 73
    19
 74
    17
 42
0.0000000001
 43
0.0000000001
 44
0.0000000001
 40
0.0
 40
0.0
 40
0.0
 40
0.0
 40
0.1101668910150877
 40
0.2195117905363931
 40
0.272599060833011
 40
0.3257932594111223
 40
0.3798834321812661
 40
0.4342792521487741
 40
0.5416242501163249
 40
0.6483929807511922
 40
0.8621546242895259
 40
0.9686854307404929
 40
1.075612615355675
 40
1.182640733672046
 40
1.289633790671798
 40
1.396327220051856
 40
1.503086161180828
 40
1.717202150687386
 40
1.717202150687386
 40
1.717202150687386
 40
1.717202150687386
 10
104.9324548927
 20
152.3133093976
 30
0.0
 10
104.8962111684722
 20
152.3071390601153
 30
0.0
 10
104.8239941463918
 20
152.2948444240682
 30
0.0
 10
104.7317146317747
 20
152.3012146597851
 30
0.0
 10
104.6635089822201
 20
152.3255823804339
 30
0.0
 10
104.6186634945036
 20
152.355661115981
 30
0.0
 10
104.5813361907396
 20
152.3950464872619
 30
0.0
 10
104.5423975799753
 20
152.4559832635221
 30
0.0
 10
104.5158185434405
 20
152.5434677514978
 30
0.0
 10
104.5180089753109
 20
152.6877612694322
 30
0.0
 10
104.5634270014204
 20
152.8240769145343
 30
0.0
 10
104.5860112269627
 20
152.9648054199434
 30
0.0
 10
104.5974348388359
 20
153.0710193965078
 30
0.0
 10
104.6119156329736
 20
153.1770650493861
 30
0.0
 10
104.6323570391296
 20
153.2820203462766
 30
0.0
 10
104.6493104619974
 20
153.3875028806
 30
0.0
 10
104.6570455950401
 20
153.5304820193374
 30
0.0
 10
104.6377642070539
 20
153.6362090707289
 30
0.0
 10
104.6248979683
 20
153.706759463
 30
0.0
 11
104.9324548927
 21
152.3133093976
 31
0.0
 11
104.8231969142
 21
152.2991871453
 31
0.0
 11
104.714304789
 21
152.3091275739
 31
0.0
 11
104.6645154269
 21
152.327547066
 31
0.0
 11
104.6202001775
 21
152.3569712301
 31
0.0
 11
104.5827675714
 21
152.3960166753
 31
0.0
 11
104.5534398762
 21
152.4418292448
 31
0.0
 11
104.5213642018
 21
152.5442699579
 31
0.0
 11
104.5210614871
 21
152.6510382594
 31
0.0
 11
104.5672003909
 21
152.8597611422
 31
0.0
 11
104.5850748191
 21
152.9647816999
 31
0.0
 11
104.597937523
 21
153.0709324119
 31
0.0
 11
104.6129137186
 21
153.1769075584
 31
0.0
 11
104.6317958894
 21
153.2822212701
 31
0.0
 11
104.6474503099
 21
153.3877600165
 31
0.0
 11
104.6523264116
 21
153.4944075441
 31
0.0
 11
104.6248979683
 21
153.706759463
 31
0.0
  0
SPLINE
  5
15DC
330
1B
100
AcDbEntity
  8
0
  6
Continuous
100
AcDbSpline
210
0.0
220
0.0
230
1.0
 70
     8
 71
     3
 72
    10
 73
     6
 74
     4
 42
0.0000000001
 43
0.0000000001
 44
0.0000000001
 40
0.0
 40
0.0
 40
0.0
 40
0.0
 40
1.01549251578848
 40
1.711415474013863
 40
2.021018890242537
 40
2.021018890242537
 40
2.021018890242537
 40
2.021018890242537
 10
104.6248979683
 20
153.706759463
 30
0.0
 10
104.5256750191975
 20
154.0331109289941
 30
0.0
 10
104.3584540029605
 20
154.5831129626731
 30
0.0
 10
104.4517580763987
 20
155.2805112573721
 30
0.0
 10
104.6224156787214
 20
155.570288874906
 30
0.0
 10
104.6749614677
 20
155.6595119352
 30
0.0
 11
104.6248979683
 21
153.706759463
 31
0.0
 11
104.4139226068
 21
154.7000944752
 31
0.0
 11
104.5291020772
 21
155.3864198014
 31
0.0
 11
104.6749614677
 21
155.6595119352
 31
0.0
  0
SPLINE
  5
15DD
330
1B
100
AcDbEntity
  8
0
  6
Continuous
100
AcDbSpline
210
0.0
220
0.0
230
1.0
 70
     8
 71
     3
 72
    13
 73
     9
 74
     7
 42
0.0000000001
 43
0.0000000001
 44
0.0000000001
 40
0.0
 40
0.0
 40
0.0
 40
0.0
 40
0.0711652480461576
 40
0.1431712759738108
 40
0.1815198704702038
 40
0.2213460292034842
 40
0.258940157166265
 40
0.2938851675731238
 40
0.2938851675731238
 40
0.2938851675731238
 40
0.2938851675731238
 10
104.6749614677
 20
155.6595119352
 30
0.0
 10
104.6872450692783
 20
155.6798023273859
 30
0.0
 10
104.7119573967105
 20
155.7206228320427
 30
0.0
 10
104.7384485672554
 20
155.7753072565743
 30
0.0
 10
104.7523866108862
 20
155.823645848956
 30
0.0
 10
104.7579935066393
 20
155.861607824759
 30
0.0
 10
104.756723580078
 20
155.9006139970611
 30
0.0
 10
104.7421658890551
 20
155.9205602966276
 30
0.0
 10
104.7351528658
 20
155.9301692286
 30
0.0
 11
104.6749614677
 21
155.6595119352
 31
0.0
 11
104.7108690034
 21
155.7209541146
 31
0.0
 11
104.7408642041
 21
155.7864152175
 31
0.0
 11
104.7514146722
 21
155.8232839349
 31
0.0
 11
104.7568778358
 21
155.8627336087
 31
0.0
 11
104.7530037398
 21
155.90012759
 31
0.0
 11
104.7351528658
 21
155.9301692286
 31
0.0
  0
SPLINE
  5
15DE
330
1B
100
AcDbEntity
  8
0
  6
Continuous
100
AcDbSpline
210
0.0
220
0.0
230
1.0
 70
     8
 71
     3
 72
    28
 73
    24
 74
    22
 42
0.0000000001
 43
0.0000000001
 44
0.0000000001
 40
0.0
 40
0.0
 40
0.0
 40
0.0
 40
0.087542752132716
 40
0.1752458498357308
 40
0.3501410331943086
 40
0.5251962314228923
 40
0.7002299657466017
 40
0.7878869426552051
 40
0.8755782092486626
 40
1.051050113562714
 40
1.226147679649297
 40
1.401316477773958
 40
1.575151249690413
 40
1.753339320575579
 40
1.843157752327495
 40
1.930425963171599
 40
2.016956868700396
 40
2.105150992338991
 40
2.192881256393474
 40
2.280682250047257
 40
2.456752610593004
 40
2.632466106137422
 40
2.8076297419952
 40
2.8076297419952
 40
2.8076297419952
 40
2.8076297419952
 10
104.7351528658
 20
155.9301692286
 30
0.0
 10
104.7093006679048
 20
155.9447229835596
 30
0.0
 10
104.6575489205598
 20
155.9738571505133
 30
0.0
 10
104.5379647265292
 20
155.9746015642816
 30
0.0
 10
104.3938429315255
 20
155.9543539275771
 30
0.0
 10
104.2272310264371
 20
155.8945045616445
 30
0.0
 10
104.1042033016419
 20
155.8154479148752
 30
0.0
 10
104.0030730406587
 20
155.7569385522996
 30
0.0
 10
103.8970791460474
 20
155.7072269425295
 30
0.0
 10
103.758605323807
 20
155.6592601605317
 30
0.0
 10
103.5872970938414
 20
155.6214574060296
 30
0.0
 10
103.414642659144
 20
155.5938239298804
 30
0.0
 10
103.2393434823817
 20
155.5803071096669
 30
0.0
 10
103.0921969717942
 20
155.5725895500962
 30
0.0
 10
102.9748244055993
 20
155.5556649988347
 30
0.0
 10
102.8902843575947
 20
155.5289024030792
 30
0.0
 10
102.81684044495
 20
155.4791034525032
 30
0.0
 10
102.7615205208646
 20
155.4098222870663
 30
0.0
 10
102.7252218958235
 20
155.3289762564499
 30
0.0
 10
102.6983347545651
 20
155.2144072683533
 30
0.0
 10
102.6970520396009
 20
155.0659229205965
 30
0.0
 10
102.7365939796733
 20
154.89378599179
 30
0.0
 10
102.777841828531
 20
154.7842909568263
 30
0.0
 10
102.7984334332
 20
154.7296292342
 30
0.0
 11
104.7351528658
 21
155.9301692286
 31
0.0
 11
104.6555749183
 21
155.9666532487
 31
0.0
 11
104.5681016793
 21
155.972998783
 31
0.0
 11
104.3949392818
 21
155.9484405002
 31
0.0
 11
104.2304031803
 21
155.8886726683
 31
0.0
 11
104.0787621438
 21
155.8012552547
 31
0.0
 11
104.0024912322
 21
155.7580523191
 31
0.0
 11
103.9231963279
 21
155.7206080086
 31
0.0
 11
103.7576192032
 21
155.6625166583
 31
0.0
 11
103.5870063804
 21
155.6231412555
 31
0.0
 11
103.4139319187
 21
155.5961349869
 31
0.0
 11
103.2407467974
 21
155.5811202712
 31
0.0
 11
103.0630822181
 21
155.5674716131
 31
0.0
 11
102.9744228336
 21
155.5530888379
 31
0.0
 11
102.8918166514
 21
155.5249470667
 31
0.0
 11
102.8202871181
 21
155.4762528835
 31
0.0
 11
102.7646565345
 21
155.4078172085
 31
0.0
 11
102.72791367
 21
155.3281519015
 31
0.0
 11
102.7072335932
 21
155.2428210811
 31
0.0
 11
102.7039209749
 21
155.0667818854
 31
0.0
 11
102.7403764797
 21
154.8948917208
 31
0.0
 11
102.7984334332
 21
154.7296292342
 31
0.0
  0
SPLINE
  5
15DF
330
1B
100
AcDbEntity
  8
0
  6
Continuous
100
AcDbSpline
210
0.0
220
0.0
230
1.0
 70
    24
 71
     3
 72
     8
 73
     4
 74
     2
 42
0.0000000001
 43
0.0000000001
 44
0.0000000001
 40
0.0
 40
0.0
 40
0.0
 40
0.0
 40
0.7429424464576027
 40
0.7429424464576027
 40
0.7429424464576027
 40
0.7429424464576027
 10
102.7984334332
 20
154.7296292342
 30
0.0
 10
102.8674859426667
 20
154.4918036124666
 30
0.0
 10
102.9365384521333
 20
154.2539779907333
 30
0.0
 10
103.0055909616
 20
154.016152369
 30
0.0
 11
102.7984334332
 21
154.7296292342
 31
0.0
 11
103.0055909616
 21
154.016152369
 31
0.0
  0
SPLINE
  5
15E0
330
1B
100
AcDbEntity
  8
0
  6
Continuous
100
AcDbSpline
210
0.0
220
0.0
230
1.0
 70
    24
 71
     3
 72
     8
 73
     4
 74
     2
 42
0.0000000001
 43
0.0000000001
 44
0.0000000001
 40
0.0
 40
0.0
 40
0.0
 40
0.0
 40
0.5906267878452269
 40
0.5906267878452269
 40
0.5906267878452269
 40
0.5906267878452269
 10
103.0055909616
 20
154.016152369
 30
0.0
 10
103.0425985915
 20
153.8227863026667
 30
0.0
 10
103.0796062214
 20
153.6294202363333
 30
0.0
 10
103.1166138513
 20
153.43605417
 30
0.0
 11
103.0055909616
 21
154.016152369
 31
0.0
 11
103.1166138513
 21
153.43605417
 31
0.0
  0
SPLINE
  5
15E1
330
1B
100
AcDbEntity
  8
0
  6
Continuous
100
AcDbSpline
210
0.0
220
0.0
230
1.0
 70
     8
 71
     3
 72
    18
 73
    14
 74
    12
 42
0.0000000001
 43
0.0000000001
 44
0.0000000001
 40
0.0
 40
0.0
 40
0.0
 40
0.0
 40
0.3673180334620351
 40
0.5512916781457232
 40
0.735130936125326
 40
0.9196689071201445
 40
1.014559563597046
 40
1.107591399649464
 40
1.198202538385458
 40
1.290195257062065
 40
1.384747132398156
 40
1.478621598035704
 40
1.520413549762649
 40
1.520413549762649
 40
1.520413549762649
 40
1.520413549762649
 10
103.1166138513
 20
153.43605417
 30
0.0
 10
103.1500161898238
 20
153.3176019085251
 30
0.0
 10
103.2001483085363
 20
153.1398220554827
 30
0.0
 10
103.2075421644826
 20
152.8935929703748
 30
0.0
 10
103.1905241180165
 20
152.7100779947432
 30
0.0
 10
103.1606673425381
 20
152.558045520505
 30
0.0
 10
103.1210344878904
 20
152.4401181943631
 30
0.0
 10
103.0779457065145
 20
152.3572092465248
 30
0.0
 10
103.0156743257616
 20
152.2877157675564
 30
0.0
 10
102.9342619794028
 20
152.2413984156294
 30
0.0
 10
102.844491909721
 20
152.2138687090531
 30
0.0
 10
102.7681569753829
 20
152.2030702908702
 30
0.0
 10
102.7229423385122
 20
152.2019264892469
 30
0.0
 10
102.709013999
 20
152.2015741419
 30
0.0
 11
103.1166138513
 21
153.43605417
 31
0.0
 11
103.1970269038
 21
153.077646192
 31
0.0
 11
103.2037828172
 21
152.8937966351
 31
0.0
 11
103.1874595198
 21
152.7106834932
 31
0.0
 11
103.1497760221
 21
152.5300340627
 31
0.0
 11
103.1185228752
 21
152.4404378714
 31
0.0
 11
103.0742146729
 21
152.3586350247
 31
0.0
 11
103.0129369357
 21
152.2918861117
 31
0.0
 11
102.9338167003
 21
152.244953728
 31
0.0
 11
102.8437318889
 21
152.2162346771
 31
0.0
 11
102.7507771097
 21
152.2031264994
 31
0.0
 11
102.709013999
 21
152.2015741419
 31
0.0
  0
SPLINE
  5
15E2
330
1B
100
AcDbEntity
  8
0
  6
Continuous
100
AcDbSpline
210
0.0
220
0.0
230
1.0
 70
     8
 71
     3
 72
     9
 73
     5
 74
     3
 42
0.0000000001
 43
0.0000000001
 44
0.0000000001
 40
0.0
 40
0.0
 40
0.0
 40
0.0
 40
0.2521771770033826
 40
0.5463375654209843
 40
0.5463375654209843
 40
0.5463375654209843
 40
0.5463375654209843
 10
102.709013999
 20
152.2015741419
 30
0.0
 10
102.6249813107488
 20
152.204760161886
 30
0.0
 10
102.4429259207232
 20
152.211662620004
 30
0.0
 10
102.2619906021202
 20
152.2331024170263
 30
0.0
 10
102.1645709719
 20
152.2446460842
 30
0.0
 11
102.709013999
 21
152.2015741419
 31
0.0
 11
102.4571545698
 21
152.2142294382
 31
0.0
 11
102.1645709719
 21
152.2446460842
 31
0.0
  0
SPLINE
  5
15E3
330
1B
100
AcDbEntity
  8
0
  6
Continuous
100
AcDbSpline
210
0.0
220
0.0
230
1.0
 70
    24
 71
     3
 72
     8
 73
     4
 74
     2
 42
0.0000000001
 43
0.0000000001
 44
0.0000000001
 40
0.0
 40
0.0
 40
0.0
 40
0.0
 40
0.5907631173721262
 40
0.5907631173721262
 40
0.5907631173721262
 40
0.5907631173721262
 10
102.1645709719
 20
152.2446460842
 30
0.0
 10
101.967660541
 20
152.2466900637667
 30
0.0
 10
101.7707501101
 20
152.2487340433333
 30
0.0
 10
101.5738396792
 20
152.2507780229
 30
0.0
 11
102.1645709719
 21
152.2446460842
 31
0.0
 11
101.5738396792
 21
152.2507780229
 31
0.0
  0
SPLINE
  5
15E4
330
1B
100
AcDbEntity
  8
0
  6
Continuous
100
AcDbSpline
210
0.0
220
0.0
230
1.0
 70
     8
 71
     3
 72
    10
 73
     6
 74
     4
 42
0.0000000001
 43
0.0000000001
 44
0.0000000001
 40
0.0
 40
0.0
 40
0.0
 40
0.0
 40
0.5914314537913705
 40
1.182855719925238
 40
1.30699707262547
 40
1.30699707262547
 40
1.30699707262547
 40
1.30699707262547
 10
101.5738396792
 20
152.2507780229
 30
0.0
 10
101.3767641140918
 20
152.2413096991932
 30
0.0
 10
100.9826153789319
 20
152.2223731668481
 30
0.0
 10
100.5471175715084
 20
152.2575694448271
 30
0.0
 10
100.3106838356947
 20
152.2888789608164
 30
0.0
 10
100.2696656495
 20
152.2943107557
 30
0.0
 11
101.5738396792
 21
152.2507780229
 31
0.0
 11
100.9826168421
 21
152.2350706544
 31
0.0
 11
100.3927802899
 21
152.2783777469
 31
0.0
 11
100.2696656495
 21
152.2943107557
 31
0.0
  0
SPLINE
  5
15E5
330
1B
100
AcDbEntity
  8
0
  6
Continuous
100
AcDbSpline
210
0.0
220
0.0
230
1.0
 70
     8
 71
     3
 72
    12
 73
     8
 74
     6
 42
0.0000000001
 43
0.0000000001
 44
0.0000000001
 40
0.0
 40
0.0
 40
0.0
 40
0.0
 40
0.3187385103169501
 40
0.7615861426134267
 40
1.204436223353898
 40
1.647313564549473
 40
1.6661443280466
 40
1.6661443280466
 40
1.6661443280466
 40
1.6661443280466
 10
100.2696656495
 20
152.2943107557
 30
0.0
 10
100.1642298271719
 20
152.3073930745451
 30
0.0
 10
99.91230400515454
 20
152.338651653045
 30
0.0
 10
99.50896745221677
 20
152.3463449301116
 30
0.0
 10
99.07019326020321
 20
152.2785129636085
 30
0.0
 10
98.76812995720161
 20
152.2754133787728
 30
0.0
 10
98.61464502465765
 20
152.2640774324334
 30
0.0
 10
98.60838514220001
 20
152.2636150959
 30
0.0
 11
100.2696656495
 21
152.2943107557
 31
0.0
 11
99.952813273
 21
152.3289345837
 31
0.0
 11
99.5099904866
 21
152.3336255618
 31
0.0
 11
99.06938846560001
 21
152.2890604061
 31
0.0
 11
98.62716594630001
 21
152.2649858808
 31
0.0
 11
98.60838514220001
 21
152.2636150959
 31
0.0
  0
SPLINE
  5
15E6
330
1B
100
AcDbEntity
  8
0
  6
Continuous
100
AcDbSpline
210
0.0
220
0.0
230
1.0
 70
     8
 71
     3
 72
     9
 73
     5
 74
     3
 42
0.0000000001
 43
0.0000000001
 44
0.0000000001
 40
0.0
 40
0.0
 40
0.0
 40
0.0
 40
0.2760394690899341
 40
0.2828538415046277
 40
0.2828538415046277
 40
0.2828538415046277
 40
0.2828538415046277
 10
98.60838514220001
 20
152.2636150959
 30
0.0
 10
98.51619170732806
 20
152.2489805416575
 30
0.0
 10
98.42172236458873
 20
152.2339847155176
 30
0.0
 10
98.33708921895638
 20
152.192377260665
 30
0.0
 10
98.33505027980002
 20
152.1913748748
 30
0.0
 11
98.60838514220001
 21
152.2636150959
 31
0.0
 11
98.34117280620001
 21
152.194366587
 31
0.0
 11
98.33505027980002
 21
152.1913748748
 31
0.0
  0
SPLINE
  5
15E7
330
1B
100
AcDbEntity
  8
0
  6
Continuous
100
AcDbSpline
210
0.0
220
0.0
230
1.0
 70
     8
 71
     3
 72
    15
 73
    11
 74
     9
 42
0.0000000001
 43
0.0000000001
 44
0.0000000001
 40
0.0
 40
0.0
 40
0.0
 40
0.0
 40
0.1232031008883446
 40
0.2538387684283214
 40
0.3180880147122943
 40
0.382674493385169
 40
0.4165150515572827
 40
0.4513975723800682
 40
0.4848835252732511
 40
0.5165650902863562
 40
0.5165650902863562
 40
0.5165650902863562
 40
0.5165650902863562
 10
98.33505027980002
 20
152.1913748748
 30
0.0
 10
98.29811996789857
 20
152.172910188538
 30
0.0
 10
98.22203142123746
 20
152.13486688292
 30
0.0
 10
98.11308658110973
 20
152.1250109917212
 30
0.0
 10
98.0278798900417
 20
152.142208769122
 30
0.0
 10
97.97762967496439
 20
152.1633559547594
 30
0.0
 10
97.93869478017808
 20
152.1849335431662
 30
0.0
 10
97.91014917513576
 20
152.2031900836067
 30
0.0
 10
97.88385149353067
 20
152.2252658837707
 30
0.0
 10
97.87603131879172
 20
152.2458963507752
 30
0.0
 10
97.87222949570001
 20
152.2559259714
 30
0.0
 11
98.33505027980002
 21
152.1913748748
 31
0.0
 11
98.2217031333
 21
152.1430900071
 31
0.0
 11
98.09158517349999
 21
152.1314713079
 31
0.0
 11
98.02861506040001
 21
152.1442278946
 31
0.0
 11
97.9688457566
 21
152.1687032608
 31
0.0
 11
97.93921201679999
 21
152.1850441556
 31
0.0
 11
97.91005174590001
 21
152.204187532
 31
0.0
 11
97.88583507609999
 21
152.2273146145
 31
0.0
 11
97.87222949570001
 21
152.2559259714
 31
0.0
  0
SPLINE
  5
15E8
330
1B
100
AcDbEntity
  8
0
  6
Continuous
100
AcDbSpline
210
0.0
220
0.0
230
1.0
 70
     8
 71
     3
 72
    15
 73
    11
 74
     9
 42
0.0000000001
 43
0.0000000001
 44
0.0000000001
 40
0.0
 40
0.0
 40
0.0
 40
0.0
 40
0.016757956183892
 40
0.033954161554587
 40
0.0534807214629729
 40
0.0749837599330972
 40
0.1182061583071424
 40
0.1556405691866226
 40
0.2256755471128366
 40
0.2989025696555951
 40
0.2989025696555951
 40
0.2989025696555951
 40
0.2989025696555951
 10
97.87222949570001
 20
152.2559259714
 30
0.0
 10
97.87139811718757
 20
152.2615995717202
 30
0.0
 10
97.86971361819411
 20
152.2730951467028
 30
0.0
 10
97.87900695928829
 20
152.2894213722903
 30
0.0
 10
97.89282073754501
 20
152.303011373524
 30
0.0
 10
97.91612458740804
 20
152.31894590415
 30
0.0
 10
97.94690257342047
 20
152.3338175655346
 30
0.0
 10
97.99451422411623
 20
152.3500865379484
 30
0.0
 10
98.05353145251723
 20
152.3625515373699
 30
0.0
 10
98.10013964141916
 20
152.3728862552635
 30
0.0
 10
98.1239629783
 20
152.378168749
 30
0.0
 11
97.87222949570001
 21
152.2559259714
 31
0.0
 11
97.87158290559999
 21
152.2726714489
 31
0.0
 11
97.8791131454
 21
152.2881312344
 31
0.0
 11
97.8927175251
 21
152.3021386394
 31
0.0
 11
97.9102933548
 21
152.3145269756
 31
0.0
 11
97.94898637919999
 21
152.333789
 31
0.0
 11
97.9843528971
 21
152.3460586589
 31
0.0
 11
98.05244526280001
 21
152.3624393752
 31
0.0
 11
98.1239629783
 21
152.378168749
 31
0.0
  0
SPLINE
  5
15E9
330
1B
100
AcDbEntity
  8
0
  6
Continuous
100
AcDbSpline
210
0.0
220
0.0
230
1.0
 70
     8
 71
     3
 72
     9
 73
     5
 74
     3
 42
0.0000000001
 43
0.0000000001
 44
0.0000000001
 40
0.0
 40
0.0
 40
0.0
 40
0.0
 40
0.700160051508096
 40
0.8905026552192821
 40
0.8905026552192821
 40
0.8905026552192821
 40
0.8905026552192821
 10
98.1239629783
 20
152.378168749
 30
0.0
 10
98.3567288629547
 20
152.4499971406185
 30
0.0
 10
98.65277351429259
 20
152.5413525004659
 30
0.0
 10
98.83961133000723
 20
152.775667959207
 30
0.0
 10
98.8795474224
 20
152.8257522731
 30
0.0
 11
98.1239629783
 21
152.378168749
 31
0.0
 11
98.7547497099
 21
152.6820308838
 31
0.0
 11
98.8795474224
 21
152.8257522731
 31
0.0
  0
SPLINE
  5
15EA
330
1B
100
AcDbEntity
  8
0
  6
Continuous
100
AcDbSpline
210
0.0
220
0.0
230
1.0
 70
     8
 71
     3
 72
    19
 73
    15
 74
    13
 42
0.0000000001
 43
0.0000000001
 44
0.0000000001
 40
0.0
 40
0.0
 40
0.0
 40
0.0
 40
0.1921033515747778
 40
0.2875816936209499
 40
0.3834473346606546
 40
0.4795268096407392
 40
0.5757461924792073
 40
0.6713037852862771
 40
0.7664266869262516
 40
0.8625790108064152
 40
0.9589554907336343
 40
1.149739298658359
 40
1.341736928105895
 40
1.533355050413615
 40
1.533355050413615
 40
1.533355050413615
 40
1.533355050413615
 10
98.8795474224
 20
152.8257522731
 30
0.0
 10
98.92013936656208
 20
152.8754819246586
 30
0.0
 10
98.98090613587564
 20
152.949927983518
 30
0.0
 10
99.07913846062063
 20
153.0326730903523
 30
0.0
 10
99.16343288991577
 20
153.0795790052075
 30
0.0
 10
99.2561107916613
 20
153.1078362052002
 30
0.0
 10
99.35275444371577
 20
153.1135594985262
 30
0.0
 10
99.44790812046736
 20
153.0980477783239
 30
0.0
 10
99.53748800787993
 20
153.0634124671859
 30
0.0
 10
99.62276258020847
 20
153.0195544255064
 30
0.0
 10
99.73531120439223
 20
152.9589829445908
 30
0.0
 10
99.88321137790749
 20
152.8977534076371
 30
0.0
 10
100.0744683418718
 20
152.8602586673674
 30
0.0
 10
100.201559068676
 20
152.8809968058652
 30
0.0
 10
100.2650415673
 20
152.8913556171
 30
0.0
 11
98.8795474224
 21
152.8257522731
 31
0.0
 11
99.0070823713
 21
152.9694134526
 31
0.0
 11
99.0808064961
 21
153.0300836036
 31
0.0
 11
99.1647270074
 21
153.0764254736
 31
0.0
 11
99.2567436712
 21
153.1040696248
 31
0.0
 11
99.35277995670001
 21
153.1100027101
 31
0.0
 11
99.4471254409
 21
153.094830922
 31
0.0
 11
99.5364164276
 21
153.0620363171
 31
0.0
 11
99.6225602414
 21
153.0193220018
 31
0.0
 11
99.70807790350001
 21
152.9748792819
 31
0.0
 11
99.88514754000001
 21
152.9038524898
 31
0.0
 11
100.0744340791
 21
152.8717013494
 31
0.0
 11
100.2650415673
 21
152.8913556171
 31
0.0
  0
SPLINE
  5
15EB
330
1B
100
AcDbEntity
  8
0
  6
Continuous
100
AcDbSpline
210
0.0
220
0.0
230
1.0
 70
     8
 71
     3
 72
    19
 73
    15
 74
    13
 42
0.0000000001
 43
0.0000000001
 44
0.0000000001
 40
0.0
 40
0.0
 40
0.0
 40
0.0
 40
0.2005728971785756
 40
0.4763213308561209
 40
1.094318113031801
 40
1.271601182620642
 40
1.438297987041137
 40
1.580734451796338
 40
1.776494648247583
 40
2.038705010825743
 40
2.340212063187978
 40
4.839059926727751
 40
4.938041072991457
 40
5.185975237405023
 40
5.185975237405023
 40
5.185975237405023
 40
5.185975237405023
 10
100.2650415673
 20
152.8913556171
 30
0.0
 10
100.3281453029191
 20
152.9149975359112
 30
0.0
 10
100.478004310566
 20
152.9711424607266
 30
0.0
 10
100.7592076062413
 20
153.2022525718658
 30
0.0
 10
101.1456222687011
 20
153.3198314266546
 30
0.0
 10
101.4421904039558
 20
153.2329555260567
 30
0.0
 10
101.6192876138922
 20
153.1562715621062
 30
0.0
 10
101.7301259583593
 20
153.340006577577
 30
0.0
 10
101.6201827502444
 20
153.5300311417524
 30
0.0
 10
101.4473101951736
 20
153.708543617591
 30
0.0
 10
100.9508957757727
 20
154.6083293742426
 30
0.0
 10
100.4313491303105
 20
155.5208497652133
 30
0.0
 10
100.4875502754771
 20
156.4701214714253
 30
0.0
 10
100.5137899012932
 20
156.5830569366263
 30
0.0
 10
100.5325428923
 20
156.6637698925999
 30
0.0
 11
100.2650415673
 21
152.8913556171
 31
0.0
 11
100.4494836636
 21
152.9701629784
 31
0.0
 11
100.6800940343
 21
153.1213451718
 31
0.0
 11
101.2794153465
 21
153.2721231129
 31
0.0
 11
101.4505520378
 21
153.2258465567
 31
0.0
 11
101.6151262616
 21
153.1993295911
 31
0.0
 11
101.6942656873
 21
153.3177571968
 31
0.0
 11
101.6286265738
 21
153.5021848555
 31
0.0
 11
101.4642472574
 21
153.7064731679
 31
0.0
 11
101.3065098152
 21
153.9634272532
 31
0.0
 11
100.4794945236
 21
156.3214531972
 31
0.0
 11
100.4861869294
 21
156.4202078377
 31
0.0
 11
100.5325428923
 21
156.6637698925999
 31
0.0
  0
SPLINE
  5
15EC
330
1B
100
AcDbEntity
  8
0
  6
Continuous
100
AcDbSpline
210
0.0
220
0.0
230
1.0
 70
     8
 71
     3
 72
     9
 73
     5
 74
     3
 42
0.0000000001
 43
0.0000000001
 44
0.0000000001
 40
0.0
 40
0.0
 40
0.0
 40
0.0
 40
0.5905875512063936
 40
1.181174809054053
 40
1.181174809054053
 40
1.181174809054053
 40
1.181174809054053
 10
100.5325428923
 20
156.6637698925999
 30
0.0
 10
100.5945672342122
 20
156.8508339950108
 30
0.0
 10
100.7186158872276
 20
157.2249621069133
 30
0.0
 10
100.8885962976814
 20
157.5805834958787
 30
0.0
 10
100.9735864818
 20
157.7583941462
 30
0.0
 11
100.5325428923
 21
156.6637698925999
 31
0.0
 11
100.7300988631
 21
157.2203355168
 31
0.0
 11
100.9735864818
 21
157.7583941462
 31
0.0
  0
SPLINE
  5
15ED
330
1B
100
AcDbEntity
  8
0
  6
Continuous
100
AcDbSpline
210
0.0
220
0.0
230
1.0
 70
     8
 71
     3
 72
     9
 73
     5
 74
     3
 42
0.0000000001
 43
0.0000000001
 44
0.0000000001
 40
0.0
 40
0.0
 40
0.0
 40
0.0
 40
0.2941807190779578
 40
0.5883575600807507
 40
0.5883575600807507
 40
0.5883575600807507
 40
0.5883575600807507
 10
100.9735864818
 20
157.7583941462
 30
0.0
 10
101.0228800924791
 20
157.843738664629
 30
0.0
 10
101.1214666640178
 20
158.0144265764218
 30
0.0
 10
101.170958503812
 20
158.2052254939486
 30
0.0
 10
101.1957042606
 20
158.3006243239
 30
0.0
 11
100.9735864818
 21
157.7583941462
 31
0.0
 11
101.1091934691
 21
158.0194555192
 31
0.0
 11
101.1957042606
 21
158.3006243239
 31
0.0
  0
SPLINE
  5
15EE
330
1B
100
AcDbEntity
  8
0
  6
Continuous
100
AcDbSpline
210
0.0
220
0.0
230
1.0
 70
     8
 71
     3
 72
    11
 73
     7
 74
     5
 42
0.0000000001
 43
0.0000000001
 44
0.0000000001
 40
0.0
 40
0.0
 40
0.0
 40
0.0
 40
0.317321949171845
 40
0.6393246958291967
 40
0.9576221755589554
 40
1.276321077648787
 40
1.276321077648787
 40
1.276321077648787
 40
1.276321077648787
 10
101.1957042606
 20
158.3006243239
 30
0.0
 10
101.2025379755728
 20
158.4066355614536
 30
0.0
 10
101.2163062092475
 20
158.6202218021166
 30
0.0
 10
101.1557115823548
 20
158.9353286184032
 30
0.0
 10
101.1240872797547
 20
159.253900124411
 30
0.0
 10
101.1302070643963
 20
159.4663706120552
 30
0.0
 10
101.133268885
 20
159.5726728032
 30
0.0
 11
101.1957042606
 21
158.3006243239
 31
0.0
 11
101.2028476153
 21
158.6178658595
 31
0.0
 11
101.1603836615
 21
158.9370563692
 31
0.0
 11
101.1308733749
 21
159.2539829042
 31
0.0
 11
101.133268885
 21
159.5726728032
 31
0.0
  0
SPLINE
  5
15EF
330
1B
100
AcDbEntity
  8
0
  6
Continuous
100
AcDbSpline
210
0.0
220
0.0
230
1.0
 70
     8
 71
     3
 72
    11
 73
     7
 74
     5
 42
0.0000000001
 43
0.0000000001
 44
0.0000000001
 40
0.0
 40
0.0
 40
0.0
 40
0.0
 40
0.5900227628325946
 40
1.180033726560007
 40
1.770055077265545
 40
2.360076086065101
 40
2.360076086065101
 40
2.360076086065101
 40
2.360076086065101
 10
101.133268885
 20
159.5726728032
 30
0.0
 10
101.1447090754246
 20
159.7691919091657
 30
0.0
 10
101.1675892274963
 20
160.1622261911645
 30
0.0
 10
101.1002349990882
 20
160.7530365308514
 30
0.0
 10
100.9116937232246
 20
161.3149122175344
 30
0.0
 10
100.8631644555212
 20
161.7062277842381
 30
0.0
 10
100.8388998287
 20
161.9018855109
 30
0.0
 11
101.133268885
 21
159.5726728032
 31
0.0
 11
101.1506434031
 21
160.1624396951
 31
0.0
 11
101.0800379529
 21
160.7482108174
 31
0.0
 11
100.9309851084
 21
161.3190947319
 31
0.0
 11
100.8388998287
 21
161.9018855109
 31
0.0
  0
SPLINE
  5
15F0
330
1B
100
AcDbEntity
  8
0
  6
Continuous
100
AcDbSpline
210
0.0
220
0.0
230
1.0
 70
     8
 71
     3
 72
    15
 73
    11
 74
     9
 42
0.0000000001
 43
0.0000000001
 44
0.0000000001
 40
0.0
 40
0.0
 40
0.0
 40
0.0
 40
0.6071139685288625
 40
0.9937666662287841
 40
1.464372839469718
 40
3.006070761652777
 40
3.715963644661172
 40
4.359905250918875
 40
5.52788232976894
 40
6.2725096156831
 40
6.2725096156831
 40
6.2725096156831
 40
6.2725096156831
 10
100.8388998287
 20
161.9018855109
 30
0.0
 10
100.8020178070605
 20
162.10330777865
 30
0.0
 10
100.7416467308072
 20
162.4330098542111
 30
0.0
 10
100.9501253227153
 20
162.9260285445036
 30
0.0
 10
101.7724863762648
 20
163.1519561226905
 30
0.0
 10
102.60009259148
 20
163.4140040035721
 30
0.0
 10
103.5079207589049
 20
163.8206016963146
 30
0.0
 10
104.0174089157982
 20
164.5077816784167
 30
0.0
 10
104.5745915312448
 20
165.1495469534635
 30
0.0
 10
105.0563762783205
 20
165.5686999155704
 30
0.0
 10
105.2439477778
 20
165.7318872105
 30
0.0
 11
100.8388998287
 21
161.9018855109
 31
0.0
 11
100.8035896828
 21
162.507971779
 31
0.0
 11
100.9731271786
 21
162.8554733562
 31
0.0
 11
101.40104889
 21
163.0513130335
 31
0.0
 11
102.863013664
 21
163.5406917037
 31
0.0
 11
103.4870958134
 21
163.8790249361
 31
0.0
 11
103.9151779051
 21
164.3600722467
 31
0.0
 11
104.6910773228
 21
165.2330845893
 31
0.0
 11
105.2439477778
 21
165.7318872105
 31
0.0
  0
SPLINE
  5
15F1
330
1B
100
AcDbEntity
  8
0
  6
Continuous
100
AcDbSpline
210
0.0
220
0.0
230
1.0
 70
     8
 71
     3
 72
    15
 73
    11
 74
     9
 42
0.0000000001
 43
0.0000000001
 44
0.0000000001
 40
0.0
 40
0.0
 40
0.0
 40
0.0
 40
0.161340721981121
 40
0.3227379853549893
 40
0.4830060454771598
 40
0.6439778472920881
 40
0.8044236238367346
 40
0.9650292937783154
 40
1.283800324309276
 40
1.308995266807075
 40
1.308995266807075
 40
1.308995266807075
 40
1.308995266807075
 10
105.2439477778
 20
165.7318872105
 30
0.0
 10
105.2904893865911
 20
165.7590741585808
 30
0.0
 10
105.3835889145464
 20
165.8134575823302
 30
0.0
 10
105.5396314177665
 20
165.8604696197083
 30
0.0
 10
105.7026721126295
 20
165.8639882678829
 30
0.0
 10
105.859379785507
 20
165.8190807523624
 30
0.0
 10
105.9965434777657
 20
165.7314743865815
 30
0.0
 10
106.1416510499096
 20
165.5723530604425
 30
0.0
 10
106.2091563194121
 20
165.4131979770325
 30
0.0
 10
106.2389821334184
 20
165.3025445552754
 30
0.0
 10
106.2411668253
 20
165.2944393739
 30
0.0
 11
105.2439477778
 21
165.7318872105
 31
0.0
 11
105.3863631069
 21
165.8077074097
 31
0.0
 11
105.5411904524
 21
165.8532877751
 31
0.0
 11
105.7014364715
 21
165.8559456799
 31
0.0
 11
105.8562638488
 21
165.8118956604
 31
0.0
 11
105.9918662307
 21
165.7261352894
 31
0.0
 11
106.1007757213
 21
165.6080975663
 31
0.0
 11
106.2345258719
 21
165.318743342
 31
0.0
 11
106.2411668253
 21
165.2944393739
 31
0.0
  0
SPLINE
  5
15F2
330
1B
100
AcDbEntity
  8
0
  6
Continuous
100
AcDbSpline
210
0.0
220
0.0
230
1.0
 70
     8
 71
     3
 72
    10
 73
     6
 74
     4
 42
0.0000000001
 43
0.0000000001
 44
0.0000000001
 40
0.0
 40
0.0
 40
0.0
 40
0.0
 40
0.7128145481319128
 40
1.081809683551996
 40
1.451038268122965
 40
1.451038268122965
 40
1.451038268122965
 40
1.451038268122965
 10
106.2411668253
 20
165.2944393739
 30
0.0
 10
106.2814632029248
 20
165.0603739135927
 30
0.0
 10
106.3426193783154
 20
164.7051422727556
 30
0.0
 10
106.4241187244384
 20
164.2276735365342
 30
0.0
 10
106.496777839727
 20
163.9922798478307
 30
0.0
 10
106.5331188859
 20
163.8745457841
 30
0.0
 11
106.2411668253
 21
165.2944393739
 31
0.0
 11
106.3618844617
 21
164.5919211661
 31
0.0
 11
106.4318996491
 21
164.2296294556
 31
0.0
 11
106.5331188859
 21
163.8745457841
 31
0.0
  0
SPLINE
  5
15F3
330
1B
100
AcDbEntity
  8
0
  6
Continuous
100
AcDbSpline
210
0.0
220
0.0
230
1.0
 70
     8
 71
     3
 72
    11
 73
     7
 74
     5
 42
0.0000000001
 43
0.0000000001
 44
0.0000000001
 40
0.0
 40
0.0
 40
0.0
 40
0.0
 40
0.076524766071291
 40
0.1530488471183111
 40
0.2295731481516239
 40
0.3060981158286271
 40
0.3060981158286271
 40
0.3060981158286271
 40
0.3060981158286271
 10
104.9088631287
 20
161.5107254225
 30
0.0
 10
104.9083882655698
 20
161.5372696309765
 30
0.0
 10
104.9074385435601
 20
161.5903578103146
 30
0.0
 10
104.8437066288628
 20
161.6458429866893
 30
0.0
 10
104.7594438195224
 20
161.6521606453883
 30
0.0
 10
104.7210181284983
 20
161.6155179735315
 30
0.0
 10
104.7018051993
 20
161.5971965578
 30
0.0
 11
104.9088631287
 21
161.5107254225
 31
0.0
 11
104.8970538854
 21
161.5863335014
 31
0.0
 11
104.8402849049
 21
161.6376483904
 31
0.0
 11
104.7638814382
 21
161.6419471024
 31
0.0
 11
104.7018051993
 21
161.5971965578
 31
0.0
  0
SPLINE
  5
15F4
330
1B
100
AcDbEntity
  8
0
  6
Continuous
100
AcDbSpline
210
0.0
220
0.0
230
1.0
 70
     8
 71
     3
 72
     9
 73
     5
 74
     3
 42
0.0000000001
 43
0.0000000001
 44
0.0000000001
 40
0.0
 40
0.0
 40
0.0
 40
0.0
 40
0.7727468994829886
 40
1.545493817198373
 40
1.545493817198373
 40
1.545493817198373
 40
1.545493817198373
 10
104.7018051993
 20
161.5971965578
 30
0.0
 10
104.5258209201952
 20
161.3985253527636
 30
0.0
 10
104.1738523578333
 20
161.0011829380031
 30
0.0
 10
103.6523232559287
 20
160.9023383135231
 30
0.0
 10
103.3915587019
 20
160.8529160007
 30
0.0
 11
104.7018051993
 21
161.5971965578
 31
0.0
 11
104.1314622281
 21
161.0758073885
 31
0.0
 11
103.3915587019
 21
160.8529160007
 31
0.0
  0
SPLINE
  5
15F5
330
1B
100
AcDbEntity
  8
0
  6
Continuous
100
AcDbSpline
210
0.0
220
0.0
230
1.0
 70
     8
 71
     3
 72
    11
 73
     7
 74
     5
 42
0.0000000001
 43
0.0000000001
 44
0.0000000001
 40
0.0
 40
0.0
 40
0.0
 40
0.0
 40
0.0927301718626696
 40
0.1854591792156748
 40
0.2781880564669667
 40
0.3696876033050515
 40
0.3696876033050515
 40
0.3696876033050515
 40
0.3696876033050515
 10
103.3915587019
 20
160.8529160007
 30
0.0
 10
103.3605376686351
 20
160.8438196685121
 30
0.0
 10
103.2984959916689
 20
160.8256271183683
 30
0.0
 10
103.2580931711394
 20
160.7301061212106
 30
0.0
 10
103.2874005169915
 20
160.6311721044892
 30
0.0
 10
103.3463440497706
 20
160.6058791989603
 30
0.0
 10
103.3756191552
 20
160.5933171342
 30
0.0
 11
103.3915587019
 21
160.8529160007
 31
0.0
 11
103.3072723109
 21
160.8142547919
 31
0.0
 11
103.2697331821
 21
160.7294639751
 31
0.0
 11
103.2975248287
 21
160.6409977722
 31
0.0
 11
103.3756191552
 21
160.5933171342
 31
0.0
  0
SPLINE
  5
15F6
330
1B
100
AcDbEntity
  8
0
  6
Continuous
100
AcDbSpline
210
0.0
220
0.0
230
1.0
 70
     8
 71
     3
 72
    11
 73
     7
 74
     5
 42
0.0000000001
 43
0.0000000001
 44
0.0000000001
 40
0.0
 40
0.0
 40
0.0
 40
0.0
 40
0.6988322777685705
 40
1.306146211736619
 40
1.648115404522009
 40
1.994404686584943
 40
1.994404686584943
 40
1.994404686584943
 40
1.994404686584943
 10
103.3756191552
 20
160.5933171342
 30
0.0
 10
103.6100327405335
 20
160.5816036280764
 30
0.0
 10
104.0481613533682
 20
160.5597106043334
 30
0.0
 10
104.57927685546
 20
160.8057307841268
 30
0.0
 10
104.8280687319463
 20
161.1735865757296
 30
0.0
 10
104.8818192020571
 20
161.3978765294222
 30
0.0
 10
104.9088631287
 20
161.5107254225
 30
0.0
 11
103.3756191552
 21
160.5933171342
 31
0.0
 11
104.0739319772
 21
160.6202569761
 31
0.0
 11
104.6141892636
 21
160.8976597138
 31
0.0
 11
104.8078801056
 21
161.1794872968
 31
0.0
 11
104.9088631287
 21
161.5107254225
 31
0.0
  0
SPLINE
  5
15F7
330
1B
100
AcDbEntity
  8
0
  6
Continuous
100
AcDbSpline
210
0.0
220
0.0
230
1.0
 70
     8
 71
     3
 72
    14
 73
    10
 74
     8
 42
0.0000000001
 43
0.0000000001
 44
0.0000000001
 40
0.0
 40
0.0
 40
0.0
 40
0.0
 40
0.1075455329273464
 40
0.3766325619370347
 40
1.878702993594247
 40
2.125726504757382
 40
2.341742298802643
 40
3.172447642107931
 40
3.510354964043136
 40
3.510354964043136
 40
3.510354964043136
 40
3.510354964043136
 10
103.8340775187
 20
163.2730401035
 30
0.0
 10
103.8030748539914
 20
163.2928617054407
 30
0.0
 10
103.6945011855346
 20
163.3622784493762
 30
0.0
 10
103.0357242319737
 20
163.1633015862786
 30
0.0
 10
102.5288865860718
 20
162.7682416974471
 30
0.0
 10
101.9610546222036
 20
162.425941322161
 30
0.0
 10
101.71053400297
 20
162.0553741824975
 30
0.0
 10
101.8373116947232
 20
161.5439479221342
 30
0.0
 10
101.974927835013
 20
161.1854805688661
 30
0.0
 10
102.0147198917
 20
161.0818288227
 30
0.0
 11
103.8340775187
 21
163.2730401035
 31
0.0
 11
103.7391538792
 21
163.3235924953
 31
0.0
 11
103.4721447734
 21
163.2902163571
 31
0.0
 11
102.1649126924
 21
162.5503786262
 31
0.0
 11
101.964655863
 21
162.4057486938
 31
0.0
 11
101.8422766895
 21
162.2277426232
 31
0.0
 11
101.8979035866
 21
161.398901857
 31
0.0
 11
102.0147198917
 21
161.0818288227
 31
0.0
  0
SPLINE
  5
15F8
330
1B
100
AcDbEntity
  8
0
  6
Continuous
100
AcDbSpline
210
0.0
220
0.0
230
1.0
 70
     8
 71
     3
 72
    18
 73
    14
 74
    12
 42
0.0000000001
 43
0.0000000001
 44
0.0000000001
 40
0.0
 40
0.0
 40
0.0
 40
0.0
 40
0.237182340987645
 40
0.5543044460098199
 40
0.758311872442229
 40
0.9027276966534
 40
1.688328385275236
 40
2.469029640399706
 40
3.220816401243156
 40
3.321560996617453
 40
3.378289523274173
 40
3.438459212241382
 40
3.512118974132831
 40
3.512118974132831
 40
3.512118974132831
 40
3.512118974132831
 10
102.0147198917
 20
161.0818288227
 30
0.0
 10
102.0694185800795
 20
161.0168332501816
 30
0.0
 10
102.1972515630639
 20
160.8649360445638
 30
0.0
 10
102.5176319997553
 20
160.9918295332557
 30
0.0
 10
102.5494331623855
 20
161.233201673617
 30
0.0
 10
102.4115573965782
 20
161.586522334882
 30
0.0
 10
102.478047170881
 20
162.197639759593
 30
0.0
 10
102.9174507149269
 20
162.8652719714074
 30
0.0
 10
103.4493391872707
 20
163.1048228941127
 30
0.0
 10
103.7453372776677
 20
163.1402383211149
 30
0.0
 10
103.8220586900435
 20
163.1422015736162
 30
0.0
 10
103.8628311253928
 20
163.2060703095688
 30
0.0
 10
103.844285200316
 20
163.2492654744024
 30
0.0
 10
103.8340775187
 20
163.2730401035
 30
0.0
 11
102.0147198917
 21
161.0818288227
 31
0.0
 11
102.1982888307
 21
160.9316359217
 31
0.0
 11
102.4931113851
 21
161.0484524056
 31
0.0
 11
102.532050213
 21
161.248709235
 31
0.0
 11
102.4931113851
 21
161.3877764776
 31
0.0
 11
102.5376129027
 21
162.1721157262
 31
0.0
 11
102.9770653895
 21
162.8173877321
 31
0.0
 11
103.6612762234
 21
163.1288983556
 31
0.0
 11
103.7614046381
 21
163.140023735
 31
0.0
 11
103.8170315351
 21
163.1511491144
 31
0.0
 11
103.8504076734
 21
163.2012133218
 31
0.0
 11
103.8340775187
 21
163.2730401035
 31
0.0
  0
SPLINE
  5
15F9
330
1B
100
AcDbEntity
  8
0
  6
Continuous
100
AcDbSpline
210
0.0
220
0.0
230
1.0
 70
     8
 71
     3
 72
    16
 73
    12
 74
    10
 42
0.0000000001
 43
0.0000000001
 44
0.0000000001
 40
0.0
 40
0.0
 40
0.0
 40
0.0
 40
0.5221772150235642
 40
1.191475377854181
 40
1.860774818865634
 40
2.530074954863495
 40
3.199375213612099
 40
3.868675060442644
 40
4.537973930803187
 40
5.207271294368528
 40
5.516801455533543
 40
5.516801455533543
 40
5.516801455533543
 40
5.516801455533543
 10
132.4613557319
 20
178.6926965131
 30
0.0
 10
132.2871078560733
 20
178.7016215391401
 30
0.0
 10
131.889518593812
 20
178.721986174876
 30
0.0
 10
131.2892889062028
 20
178.9054352757094
 30
0.0
 10
130.7002169888675
 20
179.2326697960262
 30
0.0
 10
130.1986973938896
 20
179.6848922704083
 30
0.0
 10
129.8099428436468
 20
180.2363233384913
 30
0.0
 10
129.5526869955132
 20
180.8606026873573
 30
0.0
 10
129.44194912374
 20
181.5255792849436
 30
0.0
 10
129.469074934745
 20
182.0802916364301
 30
0.0
 10
129.546819004663
 20
182.3973922449038
 30
0.0
 10
129.5714036571
 20
182.4976675232
 30
0.0
 11
132.4613557319
 21
178.6926965131
 31
0.0
 11
131.9411580927
 21
178.7381218371
 31
0.0
 11
131.2990584893
 21
178.9269819178
 31
0.0
 11
130.7148093304
 21
179.253500925
 31
0.0
 11
130.2174916154
 21
179.701426993
 31
0.0
 11
129.8318591998
 21
180.2484649043
 31
0.0
 11
129.5771065312
 21
180.8673860324
 31
0.0
 11
129.4659132371
 21
181.5273837818
 31
0.0
 11
129.5038130054
 21
182.1956072238
 31
0.0
 11
129.5714036571
 21
182.4976675232
 31
0.0
  0
SPLINE
  5
15FA
330
1B
100
AcDbEntity
  8
0
  6
Continuous
100
AcDbSpline
210
0.0
220
0.0
230
1.0
 70
     8
 71
     3
 72
    11
 73
     7
 74
     5
 42
0.0000000001
 43
0.0000000001
 44
0.0000000001
 40
0.0
 40
0.0
 40
0.0
 40
0.0
 40
0.6363213753785322
 40
1.272566193729607
 40
1.908750913168802
 40
2.544902686165538
 40
2.544902686165538
 40
2.544902686165538
 40
2.544902686165538
 10
142.066184859
 20
137.0719365742
 30
0.0
 10
141.9161937075905
 20
137.223175177291
 30
0.0
 10
141.6162294504903
 20
137.5256341876707
 30
0.0
 10
141.057892915258
 20
137.8435661367546
 30
0.0
 10
140.4507561923753
 20
138.0536612709262
 30
0.0
 10
140.0256457587927
 20
138.0796767751944
 30
0.0
 10
139.813096046
 20
138.0926841905
 30
0.0
 11
142.066184859
 21
137.0719365742
 31
0.0
 11
141.5981394095
 21
137.503026298
 31
0.0
 11
141.0497326645
 21
137.8256057625
 31
0.0
 11
140.4456532338
 21
138.0251528463
 31
0.0
 11
139.813096046
 21
138.0926841905
 31
0.0
  0
SPLINE
  5
15FB
330
1B
100
AcDbEntity
  8
0
  6
Continuous
100
AcDbSpline
210
0.0
220
0.0
230
1.0
 70
     8
 71
     3
 72
    10
 73
     6
 74
     4
 42
0.0000000001
 43
0.0000000001
 44
0.0000000001
 40
0.0
 40
0.0
 40
0.0
 40
0.0
 40
0.743177629174702
 40
1.485709194488345
 40
2.22835513576631
 40
2.22835513576631
 40
2.22835513576631
 40
2.22835513576631
 10
134.4700827254
 20
137.2980927508
 30
0.0
 10
134.6647979748175
 20
137.4526048591249
 30
0.0
 10
135.0540592025645
 20
137.7614947543348
 30
0.0
 10
135.7599904589653
 20
138.0374937401986
 30
0.0
 10
136.2553879777957
 20
138.0742833711895
 30
0.0
 10
136.5031058129
 20
138.0926796033
 30
0.0
 11
134.4700827254
 21
137.2980927508
 31
0.0
 11
135.0745970961
 21
137.7303835836
 31
0.0
 11
135.7661785289
 21
138.0006949731
 31
0.0
 11
136.5031058129
 21
138.0926796033
 31
0.0
  0
SPLINE
  5
15FC
330
1B
100
AcDbEntity
  8
0
  6
Continuous
100
AcDbSpline
210
0.0
220
0.0
230
1.0
 70
     8
 71
     3
 72
    12
 73
     8
 74
     6
 42
0.0000000001
 43
0.0000000001
 44
0.0000000001
 40
0.0
 40
0.0
 40
0.0
 40
0.0
 40
1.43723726978298
 40
2.896987094487723
 40
4.397370034708336
 40
5.964272525166107
 40
7.620232327313695
 40
7.620232327313695
 40
7.620232327313695
 40
7.620232327313695
 10
126.5887199321
 20
140.901787931
 30
0.0
 10
126.1090503594408
 20
140.9092376589899
 30
0.0
 10
125.1421977799625
 20
140.9242538058001
 30
0.0
 10
123.6860708158304
 20
140.7109308275497
 30
0.0
 10
122.2236242303756
 20
140.3320944015903
 30
0.0
 10
120.7427708205895
 20
139.7875009906393
 30
0.0
 10
119.7781013091385
 20
139.3135524498283
 30
0.0
 10
119.2824382034
 20
139.0700298725
 30
0.0
 11
126.5887199321
 21
140.901787931
 31
0.0
 11
125.1515710258
 21
140.885850843
 31
0.0
 11
123.7053484952
 21
140.6875834914
 31
0.0
 11
122.2521021502
 21
140.3144561297
 31
0.0
 11
120.7815129839
 21
139.7735763662
 31
0.0
 11
119.2824382034
 21
139.0700298725
 31
0.0
  0
SPLINE
  5
15FD
330
1B
100
AcDbEntity
  8
0
  6
Continuous
100
AcDbSpline
210
0.0
220
0.0
230
1.0
 70
     8
 71
     3
 72
     9
 73
     5
 74
     3
 42
0.0000000001
 43
0.0000000001
 44
0.0000000001
 40
0.0
 40
0.0
 40
0.0
 40
0.0
 40
0.0052746724993963
 40
0.0118791367523201
 40
0.0118791367523201
 40
0.0118791367523201
 40
0.0118791367523201
 10
142.0576596023
 20
137.0637012144
 30
0.0
 10
142.0589218530288
 20
137.0649251755303
 30
0.0
 10
142.0617645790984
 20
137.0676816692553
 30
0.0
 10
142.0646179031698
 20
137.07042719281
 30
0.0
 10
142.0662042707
 20
137.0719536263
 30
0.0
 11
142.0576596023
 21
137.0637012144
 31
0.0
 11
142.061448444
 21
137.0673709349
 31
0.0
 11
142.0662042707
 21
137.0719536263
 31
0.0
  0
SPLINE
  5
15FE
330
1B
100
AcDbEntity
  8
0
  6
Continuous
100
AcDbSpline
210
0.0
220
0.0
230
1.0
 70
     8
 71
     3
 72
    10
 73
     6
 74
     4
 42
0.0000000001
 43
0.0000000001
 44
0.0000000001
 40
0.0
 40
0.0
 40
0.0
 40
0.0
 40
0.1584713422495484
 40
0.2571037493240064
 40
0.2961490744976436
 40
0.2961490744976436
 40
0.2961490744976436
 40
0.2961490744976436
 10
133.2371214282
 20
120.1009718284
 30
0.0
 10
133.2843264056868
 20
120.1246243585694
 30
0.0
 10
133.3609117145908
 20
120.1629982001815
 30
0.0
 10
133.4488572899435
 20
120.2082366642579
 30
0.0
 10
133.4918634122166
 20
120.2243156174747
 30
0.0
 10
133.5040599236
 20
120.2288755993
 30
0.0
 11
133.2371214282
 21
120.1009718284
 31
0.0
 11
133.3786471629
 21
120.1722714268
 31
0.0
 11
133.4676409633
 21
120.2147973626
 31
0.0
 11
133.5040599236
 21
120.2288755993
 31
0.0
  0
SPLINE
  5
15FF
330
1B
100
AcDbEntity
  8
0
  6
Continuous
100
AcDbSpline
210
0.0
220
0.0
230
1.0
 70
     8
 71
     3
 72
    10
 73
     6
 74
     4
 42
0.0000000001
 43
0.0000000001
 44
0.0000000001
 40
0.0
 40
0.0
 40
0.0
 40
0.0
 40
0.2022107802046074
 40
0.4341605570393112
 40
0.6947980694882174
 40
0.6947980694882174
 40
0.6947980694882174
 40
0.6947980694882174
 10
120.4872194678
 20
120.1009718284
 30
0.0
 10
120.4248757143915
 20
120.1270634515307
 30
0.0
 10
120.2910193557921
 20
120.1830839743783
 30
0.0
 10
120.060632074495
 20
120.2212760153781
 30
0.0
 10
119.8965433275112
 20
120.2262459240098
 30
0.0
 10
119.809720781
 20
120.2288755993
 30
0.0
 11
120.4872194678
 21
120.1009718284
 31
0.0
 11
120.2979958781
 21
120.1722714268
 31
0.0
 11
120.0699778004
 21
120.2147973626
 31
0.0
 11
119.809720781
 21
120.2288755993
 31
0.0
  0
SPLINE
  5
1600
330
1B
100
AcDbEntity
  8
0
  6
Continuous
100
AcDbSpline
210
0.0
220
0.0
230
1.0
 70
     8
 71
     3
 72
    10
 73
     6
 74
     4
 42
0.0000000001
 43
0.0000000001
 44
0.0000000001
 40
0.0
 40
0.0
 40
0.0
 40
0.0
 40
0.338347082628265
 40
0.658198588813173
 40
0.9552084097600082
 40
0.9552084097600082
 40
0.9552084097600082
 40
0.9552084097600082
 10
117.2686169908
 20
120.1009718284
 30
0.0
 10
117.3785089119335
 20
120.1264582270268
 30
0.0
 10
117.5922855665161
 20
120.1760378228661
 30
0.0
 10
117.9084241846861
 20
120.2196535499615
 30
0.0
 10
118.1140488608459
 20
120.2258784161319
 30
0.0
 10
118.213054173
 20
120.2288755993
 30
0.0
 11
117.2686169908
 21
120.1009718284
 31
0.0
 11
117.5993663152
 21
120.1722714268
 31
0.0
 11
117.9163781932
 21
120.2147973626
 31
0.0
 11
118.213054173
 21
120.2288755993
 31
0.0
  0
SPLINE
  5
1601
330
1B
100
AcDbEntity
  8
0
  6
Continuous
100
AcDbSpline
210
0.0
220
0.0
230
1.0
 70
     8
 71
     3
 72
    10
 73
     6
 74
     4
 42
0.0000000001
 43
0.0000000001
 44
0.0000000001
 40
0.0
 40
0.0
 40
0.0
 40
0.0
 40
0.3383470826282511
 40
0.658198588912273
 40
0.9552084098591083
 40
0.9552084098591083
 40
0.9552084098591083
 40
0.9552084098591083
 10
91.76881306999999
 20
120.1009718284
 30
0.0
 10
91.65892114886664
 20
120.1264582270281
 30
0.0
 10
91.4451444942522
 20
120.1760378228773
 30
0.0
 10
91.12900587604635
 20
120.2196535499555
 30
0.0
 10
90.92338119985392
 20
120.2258784161303
 30
0.0
 10
90.8243758877
 20
120.2288755993
 30
0.0
 11
91.76881306999999
 21
120.1009718284
 31
0.0
 11
91.4380637456
 21
120.1722714268
 31
0.0
 11
91.1210518675
 21
120.2147973626
 31
0.0
 11
90.8243758877
 21
120.2288755993
 31
0.0
  0
SPLINE
  5
1602
330
1B
100
AcDbEntity
  8
0
  6
Continuous
100
AcDbSpline
210
0.0
220
0.0
230
1.0
 70
     8
 71
     3
 72
    16
 73
    12
 74
    10
 42
0.0000000001
 43
0.0000000001
 44
0.0000000001
 40
0.0
 40
0.0
 40
0.0
 40
0.0
 40
2.982477700791726
 40
5.861317486117841
 40
8.689857938592146
 40
11.49771730169104
 40
14.30048532412068
 40
17.10819736800702
 40
19.93642567713642
 40
22.81434956636111
 40
25.79616013221204
 40
25.79616013221204
 40
25.79616013221204
 40
25.79616013221204
 10
117.2686169908
 20
120.1009718284
 30
0.0
 10
116.3022558611981
 20
119.8667055161437
 30
0.0
 10
114.4031136193847
 20
119.4063133958366
 30
0.0
 10
111.5493153138713
 20
118.8992209631992
 30
0.0
 10
108.7311239546839
 20
118.5498744411091
 30
0.0
 10
105.9216732019423
 20
118.3741089174788
 30
0.0
 10
103.113762340714
 20
118.3741734933715
 30
0.0
 10
100.3044725060539
 20
118.5500510039129
 30
0.0
 10
97.48674909815503
 20
118.8994408235281
 30
0.0
 10
94.63358511720169
 20
119.4064819444473
 30
0.0
 10
92.73495728335662
 20
119.8667551537187
 30
0.0
 10
91.76881306999999
 20
120.1009718284
 30
0.0
 11
117.2686169908
 21
120.1009718284
 31
0.0
 11
114.3628670998
 21
119.428817972
 31
0.0
 11
111.5290896247
 21
118.9214485492
 31
0.0
 11
108.7215148538
 21
118.5776971898
 31
0.0
 11
105.9190778854
 21
118.4032803297
 31
0.0
 11
103.1163098637
 21
118.4033442825
 31
0.0
 11
100.3140274305
 21
118.5778724635
 31
0.0
 11
97.5067747005
 21
118.9216856082
 31
0.0
 11
94.67390933
 21
119.4289525052
 31
0.0
 11
91.76881306999999
 21
120.1009718284
 31
0.0
  0
SPLINE
  5
1603
330
1B
100
AcDbEntity
  8
0
  6
Continuous
100
AcDbSpline
210
0.0
220
0.0
230
1.0
 70
     8
 71
     3
 72
    13
 73
     9
 74
     7
 42
0.0000000001
 43
0.0000000001
 44
0.0000000001
 40
0.0
 40
0.0
 40
0.0
 40
0.0
 40
1.600823667345963
 40
3.1058145064034
 40
4.551077119487366
 40
5.963109159333083
 40
7.364493171592342
 40
8.057814934243559
 40
8.057814934243559
 40
8.057814934243559
 40
8.057814934243559
 10
133.2371214282
 20
120.1009718284
 30
0.0
 10
132.7568209231534
 20
119.8677564536631
 30
0.0
 10
131.8249729586115
 20
119.415287072588
 30
0.0
 10
130.3934558289431
 20
118.9039049961235
 30
0.0
 10
128.9797812119541
 20
118.5515543717783
 30
0.0
 10
127.5679801382784
 20
118.3755047159256
 30
0.0
 10
126.3950732020378
 20
118.3701572465477
 30
0.0
 10
125.7005334454515
 20
118.4435235276885
 30
0.0
 10
125.4706493567
 20
118.4678068614
 30
0.0
 11
133.2371214282
 21
120.1009718284
 31
0.0
 11
131.7842464827
 21
119.428817972
 31
0.0
 11
130.3673577452
 21
118.9214485492
 31
0.0
 11
128.9635703597
 21
118.5776971898
 31
0.0
 11
127.5623518755
 21
118.4032803297
 31
0.0
 11
126.1609678647
 21
118.4033442825
 31
0.0
 11
125.4706493567
 21
118.4678068614
 31
0.0
  0
SPLINE
  5
1604
330
1B
100
AcDbEntity
  8
0
  6
Continuous
100
AcDbSpline
210
0.0
220
0.0
230
1.0
 70
     8
 71
     3
 72
    11
 73
     7
 74
     5
 42
0.0000000001
 43
0.0000000001
 44
0.0000000001
 40
0.0
 40
0.0
 40
0.0
 40
0.0
 40
0.7192936534038531
 40
2.164414565643253
 40
3.668941486897296
 40
5.269412055424152
 40
5.269412055424152
 40
5.269412055424152
 40
5.269412055424152
 10
125.4706493567
 20
118.4678068614
 30
0.0
 10
125.2332157762801
 20
118.5016928188647
 30
0.0
 10
124.5187583395967
 20
118.6036584897144
 30
0.0
 10
123.3303532895762
 20
118.905549376532
 30
0.0
 10
121.8989735188612
 20
119.4150619309468
 30
0.0
 10
120.967399288537
 20
119.8676733361072
 30
0.0
 10
120.4872194678
 20
120.1009718284
 30
0.0
 11
125.4706493567
 21
118.4678068614
 31
0.0
 11
124.7598266481
 21
118.5778724635
 31
0.0
 11
123.3562002831
 21
118.9216856082
 31
0.0
 11
121.9397675978
 21
119.4289525052
 31
0.0
 11
120.4872194678
 21
120.1009718284
 31
0.0
  0
SPLINE
  5
1605
330
1B
100
AcDbEntity
  8
0
  6
Continuous
100
AcDbSpline
210
0.0
220
0.0
230
1.0
 70
     8
 71
     3
 72
    10
 73
     6
 74
     4
 42
0.0000000001
 43
0.0000000001
 44
0.0000000001
 40
0.0
 40
0.0
 40
0.0
 40
0.0
 40
0.2022107802045808
 40
0.4341605570392986
 40
0.6947980695880464
 40
0.6947980695880464
 40
0.6947980695880464
 40
0.6947980695880464
 10
88.55021059290002
 20
120.1009718284
 30
0.0
 10
88.61255434630847
 20
120.1270634515307
 30
0.0
 10
88.74641070490793
 20
120.1830839743783
 30
0.0
 10
88.9767979862381
 20
120.2212760153837
 30
0.0
 10
89.14088673325533
 20
120.2262459240115
 30
0.0
 10
89.2277092798
 20
120.2288755993
 30
0.0
 11
88.55021059290002
 21
120.1009718284
 31
0.0
 11
88.73943418259999
 21
120.1722714268
 31
0.0
 11
88.96745226030001
 21
120.2147973626
 31
0.0
 11
89.2277092798
 21
120.2288755993
 31
0.0
  0
SPLINE
  5
1606
330
1B
100
AcDbEntity
  8
0
  6
Continuous
100
AcDbSpline
210
0.0
220
0.0
230
1.0
 70
     8
 71
     3
 72
    10
 73
     6
 74
     4
 42
0.0000000001
 43
0.0000000001
 44
0.0000000001
 40
0.0
 40
0.0
 40
0.0
 40
0.0
 40
0.1584713422495611
 40
0.2571037492337769
 40
0.2961490745006893
 40
0.2961490745006893
 40
0.2961490745006893
 40
0.2961490745006893
 10
75.80030863250001
 20
120.1009718284
 30
0.0
 10
75.75310365500678
 20
120.124624358555
 30
0.0
 10
75.67651834611928
 20
120.1629982001303
 30
0.0
 10
75.58857277081177
 20
120.2082366643107
 30
0.0
 10
75.54556664851813
 20
120.224315617478
 30
0.0
 10
75.53337013709999
 20
120.2288755993
 30
0.0
 11
75.80030863250001
 21
120.1009718284
 31
0.0
 11
75.6587828978
 21
120.1722714268
 31
0.0
 11
75.56978909750001
 21
120.2147973626
 31
0.0
 11
75.53337013709999
 21
120.2288755993
 31
0.0
  0
SPLINE
  5
1607
330
1B
100
AcDbEntity
  8
0
  6
Continuous
100
AcDbSpline
210
0.0
220
0.0
230
1.0
 70
    24
 71
     3
 72
     8
 73
     4
 74
     2
 42
0.0000000001
 43
0.0000000001
 44
0.0000000001
 40
0.0
 40
0.0
 40
0.0
 40
0.0
 40
0.0299548325145801
 40
0.0299548325145801
 40
0.0299548325145801
 40
0.0299548325145801
 10
139.813096046
 20
138.0926796033
 30
0.0
 10
139.8074782936
 20
138.100934297
 30
0.0
 10
139.8018605412
 20
138.1091889907
 30
0.0
 10
139.7962427888
 20
138.1174436844
 30
0.0
 11
139.813096046
 21
138.0926796033
 31
0.0
 11
139.7962427888
 21
138.1174436844
 31
0.0
  0
SPLINE
  5
1608
330
1B
100
AcDbEntity
  8
0
  6
Continuous
100
AcDbSpline
210
0.0
220
0.0
230
1.0
 70
     8
 71
     3
 72
    10
 73
     6
 74
     4
 42
0.0000000001
 43
0.0000000001
 44
0.0000000001
 40
0.0
 40
0.0
 40
0.0
 40
0.0
 40
0.145975183475957
 40
0.4272426115742399
 40
0.8451968930259119
 40
0.8451968930259119
 40
0.8451968930259119
 40
0.8451968930259119
 10
139.7962427888
 20
138.1174436844
 30
0.0
 10
139.7569875112884
 20
138.1461931757472
 30
0.0
 10
139.6420945076781
 20
138.2303376684763
 30
0.0
 10
139.4098073933404
 20
138.3900619581644
 30
0.0
 10
139.2303996444625
 20
138.5390895582248
 30
0.0
 10
139.1231600726
 20
138.6281696349
 30
0.0
 11
139.7962427888
 21
138.1174436844
 31
0.0
 11
139.6781819711
 21
138.2032947037
 31
0.0
 11
139.4494381383
 21
138.3669639588
 31
0.0
 11
139.1231600726
 21
138.6281696349
 31
0.0
  0
SPLINE
  5
1609
330
1B
100
AcDbEntity
  8
0
  6
Continuous
100
AcDbSpline
210
0.0
220
0.0
230
1.0
 70
     8
 71
     3
 72
    11
 73
     7
 74
     5
 42
0.0000000001
 43
0.0000000001
 44
0.0000000001
 40
0.0
 40
0.0
 40
0.0
 40
0.0
 40
0.0498722708802535
 40
0.2010509900936592
 40
0.4783540728555684
 40
0.9051154219857135
 40
0.9051154219857135
 40
0.9051154219857135
 40
0.9051154219857135
 10
142.0662042707
 20
137.0719536263
 30
0.0
 10
142.0638548869661
 20
137.0884740955007
 30
0.0
 10
142.0543837737105
 20
137.1550733626082
 30
0.0
 10
141.9765686685067
 20
137.297484339377
 30
0.0
 10
141.8645372725269
 20
137.5581199285424
 30
0.0
 10
141.7753165183046
 20
137.7755068122944
 30
0.0
 10
141.721236284
 20
137.907273616
 30
0.0
 11
142.0662042707
 21
137.0719536263
 31
0.0
 11
142.057726446
 21
137.1211000391
 31
0.0
 11
141.9987753893
 21
137.2603113104
 31
0.0
 11
141.8845818458
 21
137.5130104088
 31
0.0
 11
141.721236284
 21
137.907273616
 31
0.0
  0
SPLINE
  5
160A
330
1B
100
AcDbEntity
  8
0
  6
Continuous
100
AcDbSpline
210
0.0
220
0.0
230
1.0
 70
     8
 71
     3
 72
    12
 73
     8
 74
     6
 42
0.0000000001
 43
0.0000000001
 44
0.0000000001
 40
0.0
 40
0.0
 40
0.0
 40
0.0
 40
0.3496668587503881
 40
0.7651714239353267
 40
1.242555363261512
 40
1.77514285653366
 40
2.359241391297397
 40
2.359241391297397
 40
2.359241391297397
 40
2.359241391297397
 10
139.1231600726
 20
138.6281696349
 30
0.0
 10
139.0350276165417
 20
138.7044480484126
 30
0.0
 10
138.8421685130567
 20
138.8713671052872
 30
0.0
 10
138.5233595969975
 20
139.1358247762186
 30
0.0
 10
138.1525689295351
 20
139.4329814384008
 30
0.0
 10
137.7321737584874
 20
139.7580492289264
 30
0.0
 10
137.4316851653591
 20
139.9777578691579
 30
0.0
 10
137.2745103261
 20
140.0926796033
 30
0.0
 11
139.1231600726
 21
138.6281696349
 31
0.0
 11
138.8580391269
 21
138.8561560298
 31
0.0
 11
138.5385514746
 21
139.1218093447
 31
0.0
 11
138.1661143406
 21
139.4204496078
 31
0.0
 11
137.7443956681
 21
139.7457230301
 31
0.0
 11
137.2745103261
 21
140.0926796033
 31
0.0
  0
SPLINE
  5
160B
330
1B
100
AcDbEntity
  8
0
  6
Continuous
100
AcDbSpline
210
0.0
220
0.0
230
1.0
 70
     8
 71
     3
 72
    12
 73
     8
 74
     6
 42
0.0000000001
 43
0.0000000001
 44
0.0000000001
 40
0.0
 40
0.0
 40
0.0
 40
0.0
 40
0.4893131279917666
 40
1.01272377359768
 40
1.580879875495989
 40
2.194100552332589
 40
2.844381566584387
 40
2.844381566584387
 40
2.844381566584387
 40
2.844381566584387
 10
141.7212214574
 20
137.9072651925
 30
0.0
 10
141.6149249704346
 20
138.0325933627209
 30
0.0
 10
141.3949247839657
 20
138.2919831281357
 30
0.0
 10
140.9203718075741
 20
138.5454403653935
 30
0.0
 10
140.3695309371685
 20
138.6939310663945
 30
0.0
 10
139.7541398634202
 20
138.7314378815483
 30
0.0
 10
139.3375596371802
 20
138.6632630906859
 30
0.0
 10
139.1231600729
 20
138.6281758625
 30
0.0
 11
141.7212214574
 21
137.9072651925
 31
0.0
 11
141.3827218058
 21
138.2605997692
 31
0.0
 11
140.9280483864
 21
138.5198887694
 31
0.0
 11
140.3805778289
 21
138.6718010625
 31
0.0
 11
139.7684578531
 21
138.7085261728
 31
0.0
 11
139.1231600729
 21
138.6281758625
 31
0.0
  0
SPLINE
  5
160C
330
1B
100
AcDbEntity
  8
0
  6
Continuous
100
AcDbSpline
210
0.0
220
0.0
230
1.0
 70
     8
 71
     3
 72
    12
 73
     8
 74
     6
 42
0.0000000001
 43
0.0000000001
 44
0.0000000001
 40
0.0
 40
0.0
 40
0.0
 40
0.0
 40
0.621191141990887
 40
1.351591217314108
 40
2.179791849302649
 40
3.090120316630713
 40
4.070534194366817
 40
4.070534194366817
 40
4.070534194366817
 40
4.070534194366817
 10
141.721236284
 20
137.907273616
 30
0.0
 10
141.6334427384444
 20
138.0948066421622
 30
0.0
 10
141.4424210430457
 20
138.5028420663388
 30
0.0
 10
141.1238064722705
 20
139.1558951567652
 30
0.0
 10
140.7533937000033
 20
139.8908145208677
 30
0.0
 10
140.3340136451572
 20
140.6943359699875
 30
0.0
 10
140.0301500779752
 20
141.2465134150393
 30
0.0
 10
139.8725865374
 20
141.5328361028
 30
0.0
 11
141.721236284
 21
137.907273616
 31
0.0
 11
141.4564748408
 21
138.4692165073
 31
0.0
 11
141.1367797247
 21
139.1259350945
 31
0.0
 11
140.7640527101
 21
139.8655233985
 31
0.0
 11
140.3419892431
 21
140.6720966117
 31
0.0
 11
139.8725865374
 21
141.5328361028
 31
0.0
  0
SPLINE
  5
160D
330
1B
100
AcDbEntity
  8
0
  6
Continuous
100
AcDbSpline
210
0.0
220
0.0
230
1.0
 70
     8
 71
     3
 72
     9
 73
     5
 74
     3
 42
0.0000000001
 43
0.0000000001
 44
0.0000000001
 40
0.0
 40
0.0
 40
0.0
 40
0.0
 40
0.272534110867995
 40
0.5434252742586012
 40
0.5434252742586012
 40
0.5434252742586012
 40
0.5434252742586012
 10
137.2745103261
 20
140.0926796033
 30
0.0
 10
137.2304755236928
 20
140.172138376911
 30
0.0
 10
137.1426713787407
 20
140.3305769140331
 30
0.0
 10
137.054954703776
 20
140.4890638940638
 30
0.0
 10
137.011228964
 20
140.5680678058
 30
0.0
 11
137.2745103261
 21
140.0926796033
 31
0.0
 11
137.1424279188
 21
140.3310681082
 31
0.0
 11
137.011228964
 21
140.5680678058
 31
0.0
  0
SPLINE
  5
160E
330
1B
100
AcDbEntity
  8
0
  6
Continuous
100
AcDbSpline
210
0.0
220
0.0
230
1.0
 70
     8
 71
     3
 72
     9
 73
     5
 74
     3
 42
0.0000000001
 43
0.0000000001
 44
0.0000000001
 40
0.0
 40
0.0
 40
0.0
 40
0.0
 40
0.2714615810430287
 40
0.5410744016644906
 40
0.5410744016644906
 40
0.5410744016644906
 40
0.5410744016644906
 10
139.8725865374
 20
141.5328361028
 30
0.0
 10
139.8285389690685
 20
141.6118787761189
 30
0.0
 10
139.7407438137166
 20
141.76942581098
 30
0.0
 10
139.6530239990106
 20
141.9270148067768
 30
0.0
 10
139.6093139536
 20
142.0055400771
 30
0.0
 11
139.8725865374
 21
141.5328361028
 31
0.0
 11
139.7404627965
 21
141.7699746848
 31
0.0
 11
139.6093139536
 21
142.0055400771
 31
0.0
  0
SPLINE
  5
160F
330
1B
100
AcDbEntity
  8
0
  6
Continuous
100
AcDbSpline
210
0.0
220
0.0
230
1.0
 70
     8
 71
     3
 72
    15
 73
    11
 74
     9
 42
0.0000000001
 43
0.0000000001
 44
0.0000000001
 40
0.0
 40
0.0
 40
0.0
 40
0.0
 40
0.661286803096835
 40
1.350109723481026
 40
2.058817897474308
 40
2.776038259448792
 40
3.488887251632683
 40
4.185250941059981
 40
4.856032656448413
 40
5.497215011444491
 40
5.497215011444491
 40
5.497215011444491
 40
5.497215011444491
 10
131.1969563354
 20
139.1818746756
 30
0.0
 10
131.1402857766681
 20
139.3958915716283
 30
0.0
 10
131.0245848855861
 20
139.8328370708638
 30
0.0
 10
131.0445933166208
 20
140.5273660023706
 30
0.0
 10
131.1980532298655
 20
141.218868329957
 30
0.0
 10
131.4912689601736
 20
141.8741230434077
 30
0.0
 10
131.9035643842932
 20
142.4569527590955
 30
0.0
 10
132.4145419212318
 20
142.9307612246359
 30
0.0
 10
132.9934605736689
 20
143.2851878802411
 30
0.0
 10
133.4199670017939
 20
143.3912131621532
 30
0.0
 10
133.6284089875
 20
143.4430297793
 30
0.0
 11
131.1969563354
 21
139.1818746756
 31
0.0
 11
131.0578498173
 21
139.8283649018
 31
0.0
 11
131.0657376432
 21
140.5171426583
 31
0.0
 11
131.2201650059
 21
141.2088213883
 31
0.0
 11
131.5122979954
 21
141.8638506732
 31
0.0
 11
131.9254295188
 21
142.4447775447
 31
0.0
 11
132.4359351774
 21
142.9183874691
 31
0.0
 11
133.0146243205
 21
143.2576027184
 31
0.0
 11
133.6284089875
 21
143.4430297793
 31
0.0
  0
SPLINE
  5
1610
330
1B
100
AcDbEntity
  8
0
  6
Continuous
100
AcDbSpline
210
0.0
220
0.0
230
1.0
 70
     8
 71
     3
 72
     9
 73
     5
 74
     3
 42
0.0000000001
 43
0.0000000001
 44
0.0000000001
 40
0.0
 40
0.0
 40
0.0
 40
0.0
 40
0.267367281378492
 40
0.5333106292088016
 40
0.5333106292088016
 40
0.5333106292088016
 40
0.5333106292088016
 10
133.6282568827
 20
140.5680678058
 30
0.0
 10
133.6714931148772
 20
140.4900976473629
 30
0.0
 10
133.7577353135043
 20
140.3345725807158
 30
0.0
 10
133.8323934265499
 20
140.1731669453448
 30
0.0
 10
133.8696228149
 20
140.0926796033
 30
0.0
 11
133.6282568827
 21
140.5680678058
 31
0.0
 11
133.7550540725
 21
140.3326793273
 31
0.0
 11
133.8696228149
 21
140.0926796033
 31
0.0
  0
SPLINE
  5
1611
330
1B
100
AcDbEntity
  8
0
  6
Continuous
100
AcDbSpline
210
0.0
220
0.0
230
1.0
 70
     8
 71
     3
 72
     9
 73
     5
 74
     3
 42
0.0000000001
 43
0.0000000001
 44
0.0000000001
 40
0.0
 40
0.0
 40
0.0
 40
0.0
 40
0.1346607562756166
 40
0.2659347514515019
 40
0.2659347514515019
 40
0.2659347514515019
 40
0.2659347514515019
 10
131.1969632668
 20
139.1818786418
 30
0.0
 10
131.2246118254949
 20
139.1465004830851
 30
0.0
 10
131.2792135727885
 20
139.0766339376649
 30
0.0
 10
131.3291204972224
 20
139.0033410971769
 30
0.0
 10
131.3537561694
 20
138.9671613804
 30
0.0
 11
131.1969632668
 21
139.1818786418
 31
0.0
 11
131.2787051518
 21
139.0748656355
 31
0.0
 11
131.3537561694
 21
138.9671613804
 31
0.0
  0
SPLINE
  5
1612
330
1B
100
AcDbEntity
  8
0
  6
Continuous
100
AcDbSpline
210
0.0
220
0.0
230
1.0
 70
     8
 71
     3
 72
    10
 73
     6
 74
     4
 42
0.0000000001
 43
0.0000000001
 44
0.0000000001
 40
0.0
 40
0.0
 40
0.0
 40
0.0
 40
0.3782137219526151
 40
0.7507075283903999
 40
1.113773741920982
 40
1.113773741920982
 40
1.113773741920982
 40
1.113773741920982
 10
133.8696228149
 20
140.0926796033
 30
0.0
 10
133.9610772041025
 20
140.0057282793127
 30
0.0
 10
134.1426028719822
 20
139.8331406397531
 30
0.0
 10
134.37607302648
 20
139.5432507165849
 30
0.0
 10
134.5154015648091
 20
139.3415166371981
 30
0.0
 10
134.5841729546
 20
139.2419423994
 30
0.0
 11
133.8696228149
 21
140.0926796033
 31
0.0
 11
134.1378531464
 21
139.8260373172
 31
0.0
 11
134.3742383681
 21
139.5381594563
 31
0.0
 11
134.5841729546
 21
139.2419423994
 31
0.0
  0
SPLINE
  5
1613
330
1B
100
AcDbEntity
  8
0
  6
Continuous
100
AcDbSpline
210
0.0
220
0.0
230
1.0
 70
     8
 71
     3
 72
    10
 73
     6
 74
     4
 42
0.0000000001
 43
0.0000000001
 44
0.0000000001
 40
0.0
 40
0.0
 40
0.0
 40
0.0
 40
0.3615071539579414
 40
0.7572264569449456
 40
1.184300238034879
 40
1.184300238034879
 40
1.184300238034879
 40
1.184300238034879
 10
131.3537154562
 20
138.9671431636
 30
0.0
 10
131.4192345466977
 20
138.8660024373682
 30
0.0
 10
131.5564732934739
 20
138.6541492750203
 30
0.0
 10
131.7615266638122
 20
138.3167711302068
 30
0.0
 10
131.9093568974106
 20
138.0857493216249
 30
0.0
 10
131.9860887247
 20
137.9658366009
 30
0.0
 11
131.3537154562
 21
138.9671431636
 31
0.0
 11
131.5488755243
 21
138.6628407315
 31
0.0
 11
131.7573398272
 21
138.3264831819
 31
0.0
 11
131.9860887247
 21
137.9658366009
 31
0.0
  0
SPLINE
  5
1614
330
1B
100
AcDbEntity
  8
0
  6
Continuous
100
AcDbSpline
210
0.0
220
0.0
230
1.0
 70
     8
 71
     3
 72
    11
 73
     7
 74
     5
 42
0.0000000001
 43
0.0000000001
 44
0.0000000001
 40
0.0
 40
0.0
 40
0.0
 40
0.0
 40
0.3566823751333189
 40
0.7432335167220762
 40
1.152817404300719
 40
1.571649923773181
 40
1.571649923773181
 40
1.571649923773181
 40
1.571649923773181
 10
134.5841729546
 20
139.2419423994
 30
0.0
 10
134.6566037217442
 20
139.1472386078371
 30
0.0
 10
134.8075306459113
 20
138.9499004802555
 30
0.0
 10
135.105577303377
 20
138.7031579722256
 30
0.0
 10
135.4498386889319
 20
138.4870681956423
 30
0.0
 10
135.7057921482203
 20
138.3821533410945
 30
0.0
 10
135.8351976396
 20
138.329110267
 30
0.0
 11
134.5841729546
 21
139.2419423994
 31
0.0
 11
134.8109602204
 21
138.9666428302
 31
0.0
 11
135.1042794111
 21
138.7148777861
 31
0.0
 11
135.4524056485
 21
138.4990837088
 31
0.0
 11
135.8351976396
 21
138.329110267
 31
0.0
  0
SPLINE
  5
1615
330
1B
100
AcDbEntity
  8
0
  6
Continuous
100
AcDbSpline
210
0.0
220
0.0
230
1.0
 70
     8
 71
     3
 72
    12
 73
     8
 74
     6
 42
0.0000000001
 43
0.0000000001
 44
0.0000000001
 40
0.0
 40
0.0
 40
0.0
 40
0.0
 40
0.4698685435992836
 40
1.017148260956067
 40
1.625144903389051
 40
2.27153426285276
 40
2.930926822976788
 40
2.930926822976788
 40
2.930926822976788
 40
2.930926822976788
 10
131.9861201617
 20
137.9658368434
 30
0.0
 10
132.0999317916299
 20
138.0739378268953
 30
0.0
 10
132.3463055977438
 20
138.3079495071146
 30
0.0
 10
132.8098355184797
 20
138.594442674492
 30
0.0
 10
133.3495117187946
 20
138.8582170393811
 30
0.0
 10
133.9483530331156
 20
139.0828277783776
 30
0.0
 10
134.3708306126686
 20
139.1885550611115
 30
0.0
 10
134.5841729546
 20
139.2419451277
 30
0.0
 11
131.9861201617
 21
137.9658368434
 31
0.0
 11
132.3368891689
 21
138.2784668993
 31
0.0
 11
132.7962299735
 21
138.5759918802
 31
0.0
 11
133.3419507843
 21
138.8440379842
 31
0.0
 11
133.9476865988
 21
139.069655641
 31
0.0
 11
134.5841729546
 21
139.2419451277
 31
0.0
  0
SPLINE
  5
1616
330
1B
100
AcDbEntity
  8
0
  6
Continuous
100
AcDbSpline
210
0.0
220
0.0
230
1.0
 70
     8
 71
     3
 72
    11
 73
     7
 74
     5
 42
0.0000000001
 43
0.0000000001
 44
0.0000000001
 40
0.0
 40
0.0
 40
0.0
 40
0.0
 40
0.7241622148812814
 40
1.418804642473133
 40
2.06127946318127
 40
2.633028895207515
 40
2.633028895207515
 40
2.633028895207515
 40
2.633028895207515
 10
131.9860962696
 20
137.9658344526
 30
0.0
 10
132.0560130091122
 20
137.7344592981908
 30
0.0
 10
132.1929963984248
 20
137.2811407785513
 30
0.0
 10
132.486294751358
 20
136.6579494444442
 30
0.0
 10
132.8231732243157
 20
136.1136127989985
 30
0.0
 10
133.1046028740473
 20
135.8213676017335
 30
0.0
 10
133.2371214282
 20
135.6837562625
 30
0.0
 11
131.9860962696
 21
137.9658344526
 31
0.0
 11
132.2127530353
 21
137.2780571456
 31
0.0
 11
132.5060563748
 21
136.6483736908
 31
0.0
 11
132.8544528549
 21
136.1085646617
 31
0.0
 11
133.2371214282
 21
135.6837562625
 31
0.0
  0
SPLINE
  5
1617
330
1B
100
AcDbEntity
  8
0
  6
Continuous
100
AcDbSpline
210
0.0
220
0.0
230
1.0
 70
     8
 71
     3
 72
    11
 73
     7
 74
     5
 42
0.0000000001
 43
0.0000000001
 44
0.0000000001
 40
0.0
 40
0.0
 40
0.0
 40
0.0
 40
0.2986260321931455
 40
0.5192379540865845
 40
0.6544249705592872
 40
0.709664314971951
 40
0.709664314971951
 40
0.709664314971951
 40
0.709664314971951
 10
135.8351976396
 20
138.329110267
 30
0.0
 10
135.9285105029081
 20
138.2944116823169
 30
0.0
 10
136.0907588503754
 20
138.2340792927117
 30
0.0
 10
136.2961482341752
 20
138.1609068004298
 30
0.0
 10
136.4246837105551
 20
138.1128393073174
 30
0.0
 10
136.4862323034648
 20
138.0972126285024
 30
0.0
 10
136.5040864698
 20
138.0926796033
 30
0.0
 11
135.8351976396
 21
138.329110267
 31
0.0
 11
136.1153720607
 21
138.225767145
 31
0.0
 11
136.3228029476
 21
138.1506535827
 31
0.0
 11
136.4506923091
 21
138.1068375966
 31
0.0
 11
136.5040864698
 21
138.0926796033
 31
0.0
  0
SPLINE
  5
1618
330
1B
100
AcDbEntity
  8
0
  6
Continuous
100
AcDbSpline
210
0.0
220
0.0
230
1.0
 70
     8
 71
     3
 72
    12
 73
     8
 74
     6
 42
0.0000000001
 43
0.0000000001
 44
0.0000000001
 40
0.0
 40
0.0
 40
0.0
 40
0.0
 40
0.7619596344535851
 40
1.551308243764267
 40
2.348373164354329
 40
3.131896737785449
 40
3.883429274685644
 40
3.883429274685644
 40
3.883429274685644
 40
3.883429274685644
 10
133.2371253544
 20
135.6837562625
 30
0.0
 10
133.3122565749455
 20
135.9274456575797
 30
0.0
 10
133.4652196408693
 20
136.4235839704395
 30
0.0
 10
133.9002291323862
 20
137.0864670616818
 30
0.0
 10
134.4553525411874
 20
137.6520109617414
 30
0.0
 10
135.1061775812498
 20
138.0958464683271
 30
0.0
 10
135.5955907947907
 20
138.2524623197119
 30
0.0
 10
135.8351976414
 20
138.3291382844
 30
0.0
 11
133.2371253544
 21
135.6837562625
 31
0.0
 11
133.494942851
 21
136.4007727358
 31
0.0
 11
133.9180435102
 21
137.0671488002
 31
0.0
 11
134.4765454923
 21
137.6358209585
 31
0.0
 11
135.1310041092
 21
138.0666261452
 31
0.0
 11
135.8351976414
 21
138.3291382844
 31
0.0
  0
SPLINE
  5
1619
330
1B
100
AcDbEntity
  8
0
  6
Continuous
100
AcDbSpline
210
0.0
220
0.0
230
1.0
 70
     8
 71
     3
 72
    11
 73
     7
 74
     5
 42
0.0000000001
 43
0.0000000001
 44
0.0000000001
 40
0.0
 40
0.0
 40
0.0
 40
0.0
 40
0.2816269141192229
 40
0.4869094054653495
 40
0.6077891299753733
 40
0.6488079577785333
 40
0.6488079577785333
 40
0.6488079577785333
 40
0.6488079577785333
 10
133.2371214282
 20
135.6837562625
 30
0.0
 10
133.2741557709537
 20
135.5974687163359
 30
0.0
 10
133.3381850554717
 20
135.4482847580724
 30
0.0
 10
133.4217048774695
 20
135.2639042746513
 30
0.0
 10
133.4691162725957
 20
135.1506724006526
 30
0.0
 10
133.4969962230804
 20
135.1044261831269
 30
0.0
 10
133.5040599236
 20
135.0927091813
 30
0.0
 11
133.2371214282
 21
135.6837562625
 31
0.0
 11
133.3491878584
 21
135.4253866939
 31
0.0
 11
133.4322316599
 21
135.2376511664
 31
0.0
 11
133.4833165723
 21
135.1280964334
 31
0.0
 11
133.5040599236
 21
135.0927091813
 31
0.0
  0
SPLINE
  5
161A
330
1B
100
AcDbEntity
  8
0
  6
Continuous
100
AcDbSpline
210
0.0
220
0.0
230
1.0
 70
     8
 71
     3
 72
    11
 73
     7
 74
     5
 42
0.0000000001
 43
0.0000000001
 44
0.0000000001
 40
0.0
 40
0.0
 40
0.0
 40
0.0
 40
0.6183816324027978
 40
1.236738417479138
 40
1.855049684054644
 40
2.472813257848041
 40
2.472813257848041
 40
2.472813257848041
 40
2.472813257848041
 10
133.5045514154
 20
135.0926796033
 30
0.0
 10
133.5168130046305
 20
135.2992639972018
 30
0.0
 10
133.5413356904059
 20
135.7124244841931
 30
0.0
 10
133.7396114756298
 20
136.3041793398821
 30
0.0
 10
134.0400050727459
 20
136.8509624013737
 30
0.0
 10
134.3267658614907
 20
137.1490933339669
 30
0.0
 10
134.4700827254
 20
137.2980927508
 30
0.0
 11
133.5045514154
 21
135.0926796033
 31
0.0
 11
133.5682535896
 21
135.7077713658
 31
0.0
 11
133.7566534793
 21
136.2967285758
 31
0.0
 11
134.0617461868
 21
136.8345271089
 31
0.0
 11
134.4700827254
 21
137.2980927508
 31
0.0
  0
SPLINE
  5
161B
330
1B
100
AcDbEntity
  8
0
  6
Continuous
100
AcDbSpline
210
0.0
220
0.0
230
1.0
 70
     8
 71
     3
 72
    12
 73
     8
 74
     6
 42
0.0000000001
 43
0.0000000001
 44
0.0000000001
 40
0.0
 40
0.0
 40
0.0
 40
0.0
 40
1.222942526503186
 40
2.467745942733719
 40
3.726449039484167
 40
4.984601287558639
 40
6.239586695982459
 40
6.239586695982459
 40
6.239586695982459
 40
6.239586695982459
 10
127.9220645493
 20
145.9559906589
 30
0.0
 10
128.3075525488119
 20
145.822912696341
 30
0.0
 10
129.0854193954968
 20
145.5543779164514
 30
0.0
 10
130.2226224053785
 20
145.0519695157519
 30
0.0
 10
131.3529040279839
 20
144.5094955624682
 30
0.0
 10
132.4784954319445
 20
143.9486707158789
 30
0.0
 10
133.2454593404711
 20
143.6114271772046
 30
0.0
 10
133.6284580638
 20
143.4430178905
 30
0.0
 11
127.9220645493
 21
145.9559906589
 31
0.0
 11
129.072442053
 21
145.5409966564
 31
0.0
 11
130.2154737942
 21
145.0480321712
 31
0.0
 11
131.3517761916
 21
144.5065985673
 31
0.0
 11
132.4836997543
 21
143.9573298466
 31
0.0
 11
133.6284580638
 21
143.4430178905
 31
0.0
  0
SPLINE
  5
161C
330
1B
100
AcDbEntity
  8
0
  6
Continuous
100
AcDbSpline
210
0.0
220
0.0
230
1.0
 70
     8
 71
     3
 72
    16
 73
    12
 74
    10
 42
0.0000000001
 43
0.0000000001
 44
0.0000000001
 40
0.0
 40
0.0
 40
0.0
 40
0.0
 40
0.4041691902627705
 40
0.9034430350172458
 40
1.495750576597189
 40
2.162463421082677
 40
2.875641833571555
 40
3.602511481129112
 40
4.308975242158322
 40
4.962923721078687
 40
5.537857594247744
 40
5.537857594247744
 40
5.537857594247744
 40
5.537857594247744
 10
126.5886372751
 20
140.90178748
 30
0.0
 10
126.5186844426124
 20
141.0181890857223
 30
0.0
 10
126.3623182454524
 20
141.2783826444801
 30
0.0
 10
126.2861881262779
 20
141.7811377626852
 30
0.0
 10
126.2854254801119
 20
142.3667685258467
 30
0.0
 10
126.3814669162656
 20
143.0199727926647
 30
0.0
 10
126.5622964897021
 20
143.6995434866751
 30
0.0
 10
126.8193190456571
 20
144.3691824496852
 30
0.0
 10
127.139985823672
 20
144.9873207529877
 30
0.0
 10
127.4966383076977
 20
145.529280664264
 30
0.0
 10
127.7864676134954
 20
145.819988687253
 30
0.0
 10
127.9220645525
 20
145.955996735
 30
0.0
 11
126.5886372751
 21
140.90178748
 31
0.0
 11
126.4008703941
 21
141.2596929602
 31
0.0
 11
126.3024472849
 21
141.7491694802
 31
0.0
 11
126.2991482993
 21
142.3414678345
 31
0.0
 11
126.3911666035
 21
143.0018000605
 31
0.0
 11
126.5730971259
 21
143.6913830744
 31
0.0
 11
126.8342543148
 21
144.369716626
 31
0.0
 11
127.1592998961
 21
144.9969617262
 31
0.0
 11
127.5291436819
 21
145.5362799877
 31
0.0
 11
127.9220645525
 21
145.955996735
 31
0.0
  0
SPLINE
  5
161D
330
1B
100
AcDbEntity
  8
0
  6
Continuous
100
AcDbSpline
210
0.0
220
0.0
230
1.0
 70
     8
 71
     3
 72
    12
 73
     8
 74
     6
 42
0.0000000001
 43
0.0000000001
 44
0.0000000001
 40
0.0
 40
0.0
 40
0.0
 40
0.0
 40
0.8227765967987546
 40
1.721056515847869
 40
2.702299814735674
 40
3.767643840732713
 40
4.924471393279162
 40
4.924471393279162
 40
4.924471393279162
 40
4.924471393279162
 10
126.5886372751
 20
140.90178748
 30
0.0
 10
126.8536873320202
 20
140.8310453257346
 30
0.0
 10
127.4081101598731
 20
140.6830692578478
 30
0.0
 10
128.2609651341875
 20
140.3913933416007
 30
0.0
 10
129.1781935784238
 20
140.0415575433758
 30
0.0
 10
130.1645536989489
 20
139.6321730101711
 30
0.0
 10
130.8435219723664
 20
139.3360743439869
 30
0.0
 10
131.1969821703
 20
139.1819300382
 30
0.0
 11
126.5886372751
 21
140.90178748
 31
0.0
 11
127.3812159465
 21
140.6809246767
 31
0.0
 11
128.233005723
 21
140.3956861982
 31
0.0
 11
129.150325155
 21
140.0473135941
 31
0.0
 11
130.1351765487
 21
139.6410801316
 31
0.0
 11
131.1969821703
 21
139.1819300382
 31
0.0
  0
SPLINE
  5
161E
330
1B
100
AcDbEntity
  8
0
  6
Continuous
100
AcDbSpline
210
0.0
220
0.0
230
1.0
 70
     8
 71
     3
 72
    10
 73
     6
 74
     4
 42
0.0000000001
 43
0.0000000001
 44
0.0000000001
 40
0.0
 40
0.0
 40
0.0
 40
0.0
 40
2.126097610745011
 40
4.025086534275898
 40
5.723517344895917
 40
5.723517344895917
 40
5.723517344895917
 40
5.723517344895917
 10
122.4409728206
 20
147.6031065754
 30
0.0
 10
123.1226556669696
 20
147.409253659871
 30
0.0
 10
124.4132043377842
 20
147.0422551006409
 30
0.0
 10
126.2390388708395
 20
146.4885911994209
 30
0.0
 10
127.3823018344733
 20
146.1268008356839
 30
0.0
 10
127.9220645493
 20
145.9559906589
 30
0.0
 11
122.4409728206
 21
147.6031065754
 31
0.0
 11
124.4842013347
 21
147.0153070436
 31
0.0
 11
126.3018102686
 21
146.4653464131
 31
0.0
 11
127.9220645493
 21
145.9559906589
 31
0.0
  0
SPLINE
  5
161F
330
1B
100
AcDbEntity
  8
0
  6
Continuous
100
AcDbSpline
210
0.0
220
0.0
230
1.0
 70
    24
 71
     3
 72
     8
 73
     4
 74
     2
 42
0.0000000001
 43
0.0000000001
 44
0.0000000001
 40
0.0
 40
0.0
 40
0.0
 40
0.0
 40
0.2752492714823908
 40
0.2752492714823908
 40
0.2752492714823908
 40
0.2752492714823908
 10
121.272663284
 20
142.8228066223
 30
0.0
 10
121.2468141129
 20
142.9108397881666
 30
0.0
 10
121.2209649418
 20
142.9988729540333
 30
0.0
 10
121.1951157707
 20
143.0869061199
 30
0.0
 11
121.272663284
 21
142.8228066223
 31
0.0
 11
121.1951157707
 21
143.0869061199
 31
0.0
  0
SPLINE
  5
1620
330
1B
100
AcDbEntity
  8
0
  6
Continuous
100
AcDbSpline
210
0.0
220
0.0
230
1.0
 70
    24
 71
     3
 72
     8
 73
     4
 74
     2
 42
0.0000000001
 43
0.0000000001
 44
0.0000000001
 40
0.0
 40
0.0
 40
0.0
 40
0.0
 40
0.0678429767149135
 40
0.0678429767149135
 40
0.0678429767149135
 40
0.0678429767149135
 10
121.1951157707
 20
143.0869061199
 30
0.0
 10
121.1914239910333
 20
143.1092170697667
 30
0.0
 10
121.1877322113667
 20
143.1315280196333
 30
0.0
 10
121.1840404317
 20
143.1538389695
 30
0.0
 11
121.1951157707
 21
143.0869061199
 31
0.0
 11
121.1840404317
 21
143.1538389695
 31
0.0
  0
SPLINE
  5
1621
330
1B
100
AcDbEntity
  8
0
  6
Continuous
100
AcDbSpline
210
0.0
220
0.0
230
1.0
 70
     8
 71
     3
 72
    15
 73
    11
 74
     9
 42
0.0000000001
 43
0.0000000001
 44
0.0000000001
 40
0.0
 40
0.0
 40
0.0
 40
0.0
 40
0.4431658746292809
 40
0.9763430045162391
 40
1.579694459835871
 40
2.227914241156889
 40
2.89263321989442
 40
3.544413698554009
 40
4.154653662977747
 40
4.697559555324178
 40
4.697559555324178
 40
4.697559555324178
 40
4.697559555324178
 10
121.1840404317
 20
143.1538389695
 30
0.0
 10
121.1711592330148
 20
143.3012351251425
 30
0.0
 10
121.1427805401912
 20
143.6259650145425
 30
0.0
 10
121.1892774408545
 20
144.152638385378
 30
0.0
 10
121.2856435541514
 20
144.7397888317468
 30
0.0
 10
121.439278071934
 20
145.3605514814325
 30
0.0
 10
121.6389285242621
 20
145.9848445779203
 30
0.0
 10
121.8777770823889
 20
146.5813264284093
 30
0.0
 10
122.1375577218612
 20
147.1253770417623
 30
0.0
 10
122.3442376303529
 20
147.4498193107132
 30
0.0
 10
122.4415433957
 20
147.6025680879
 30
0.0
 11
121.1840404317
 21
143.1538389695
 31
0.0
 11
121.1571644715
 21
143.5961891421
 31
0.0
 11
121.1933551006
 21
144.1281365927
 31
0.0
 11
121.2908352678
 21
144.7235613114
 31
0.0
 11
121.4448184488
 21
145.3532263532
 31
0.0
 11
121.6477436577
 21
145.9862134623
 31
0.0
 11
121.8896467188
 21
146.5914412718
 31
0.0
 11
122.1586495536
 21
147.1391914786
 31
0.0
 11
122.4415433957
 21
147.6025680879
 31
0.0
  0
SPLINE
  5
1622
330
1B
100
AcDbEntity
  8
0
  6
Continuous
100
AcDbSpline
210
0.0
220
0.0
230
1.0
 70
     8
 71
     3
 72
    10
 73
     6
 74
     4
 42
0.0000000001
 43
0.0000000001
 44
0.0000000001
 40
0.0
 40
0.0
 40
0.0
 40
0.0
 40
2.087798640187968
 40
3.965317972547031
 40
5.652819517170456
 40
5.652819517170456
 40
5.652819517170456
 40
5.652819517170456
 10
121.272663284
 20
142.8228066223
 30
0.0
 10
121.930854450079
 20
142.5966982676366
 30
0.0
 10
123.1809449568866
 20
142.1672547833697
 30
0.0
 10
124.9513538203867
 20
141.5218571111505
 30
0.0
 10
126.0626759439269
 20
141.1010003503461
 30
0.0
 10
126.5887199321
 20
140.901787931
 30
0.0
 11
121.272663284
 21
142.8228066223
 31
0.0
 11
123.2449661063
 21
142.1380258259
 31
0.0
 11
125.0094210125
 21
141.4963267318
 31
0.0
 11
126.5887199321
 21
140.901787931
 31
0.0
  0
SPLINE
  5
1623
330
1B
100
AcDbEntity
  8
0
  6
Continuous
100
AcDbSpline
210
0.0
220
0.0
230
1.0
 70
     8
 71
     3
 72
    12
 73
     8
 74
     6
 42
0.0000000001
 43
0.0000000001
 44
0.0000000001
 40
0.0
 40
0.0
 40
0.0
 40
0.0
 40
0.6383290597453204
 40
1.313478645479928
 40
2.004724890741384
 40
2.675956847312791
 40
3.266169594550289
 40
3.266169594550289
 40
3.266169594550289
 40
3.266169594550289
 10
120.1037831733
 20
145.4208828318
 30
0.0
 10
120.203566768911
 20
145.6093401843904
 30
0.0
 10
120.408889744582
 20
145.997125613288
 30
0.0
 10
120.8393943817
 20
146.514086652522
 30
0.0
 10
121.3409637693956
 20
146.9735516970377
 30
0.0
 10
121.8788411723326
 20
147.3467558497643
 30
0.0
 10
122.2621829935141
 20
147.5210283604727
 30
0.0
 10
122.4415433957
 20
147.6025680879
 30
0.0
 11
120.1037831733
 21
145.4208828318
 31
0.0
 11
120.4212584143
 21
145.9746638895
 31
0.0
 11
120.8464155489
 21
146.4991335016
 31
0.0
 11
121.3561661754
 21
146.9660121479
 31
0.0
 11
121.9113150424
 21
147.3433211393
 31
0.0
 11
122.4415433957
 21
147.6025680879
 31
0.0
  0
SPLINE
  5
1624
330
1B
100
AcDbEntity
  8
0
  6
Continuous
100
AcDbSpline
210
0.0
220
0.0
230
1.0
 70
     8
 71
     3
 72
    21
 73
    17
 74
    15
 42
0.0000000001
 43
0.0000000001
 44
0.0000000001
 40
0.0
 40
0.0
 40
0.0
 40
0.0
 40
2.054104965050331
 40
3.930081321080878
 40
5.629777500190241
 40
7.124922904879907
 40
8.43501643963033
 40
9.670806917576078
 40
10.9611707260024
 40
12.423626323993
 40
14.09377785263982
 40
15.94840797565328
 40
17.98145127677145
 40
20.1968614331121
 40
22.64086259824411
 40
25.17097335943995
 40
25.17097335943995
 40
25.17097335943995
 40
25.17097335943995
 10
117.8478821416
 20
168.8092323143
 30
0.0
 10
117.4178725775284
 20
168.2761437587084
 30
0.0
 10
116.5951431725574
 20
167.2561952115509
 30
0.0
 10
115.5381242717496
 20
165.7025599735751
 30
0.0
 10
114.722047182298
 20
164.2183351908084
 30
0.0
 10
114.1794816334164
 20
162.8118948776386
 30
0.0
 10
113.9061657139153
 20
161.4859926035925
 30
0.0
 10
113.8781845086855
 20
160.2004347285323
 30
0.0
 10
114.0938301039019
 20
158.8813592383044
 30
0.0
 10
114.5788209822369
 20
157.482470112546
 30
0.0
 10
115.3431804805593
 20
156.0013908421455
 30
0.0
 10
116.3634873514496
 20
154.4522184971762
 30
0.0
 10
117.6066472363502
 20
152.8402437902725
 30
0.0
 10
119.0605024511699
 20
151.1473878178541
 30
0.0
 10
120.6868343664429
 20
149.3865188092622
 30
0.0
 10
121.8495505288723
 20
148.2043987641359
 30
0.0
 10
122.4409728206
 20
147.6031065754
 30
0.0
 11
117.8478821416
 21
168.8092323143
 31
0.0
 11
116.5810288543
 21
167.1923124165
 31
0.0
 11
115.5314228915
 21
165.6374443799
 31
0.0
 11
114.725748272
 21
164.1408296971
 31
0.0
 11
114.1992722528
 21
162.7414431235
 31
0.0
 11
113.9418201981
 21
161.4568951448999
 31
0.0
 11
113.9156770904
 21
160.2213812262
 31
0.0
 11
114.1181478503
 21
158.9470012399
 31
0.0
 11
114.5858213811
 21
157.5613397211
 31
0.0
 11
115.338898785
 21
156.0706081717
 31
0.0
 11
116.3485298003
 21
154.5148774411
 31
0.0
 11
117.5826772552
 21
152.8992830849
 31
0.0
 11
119.0202931521
 21
151.2136666713
 31
0.0
 11
120.6764158849
 21
149.4163355418
 31
0.0
 11
122.4409728206
 21
147.6031065754
 31
0.0
  0
SPLINE
  5
1625
330
1B
100
AcDbEntity
  8
0
  6
Continuous
100
AcDbSpline
210
0.0
220
0.0
230
1.0
 70
     8
 71
     3
 72
    11
 73
     7
 74
     5
 42
0.0000000001
 43
0.0000000001
 44
0.0000000001
 40
0.0
 40
0.0
 40
0.0
 40
0.0
 40
0.5288516860047483
 40
1.084772378464056
 40
1.651069516558933
 40
2.210508747033357
 40
2.210508747033357
 40
2.210508747033357
 40
2.210508747033357
 10
116.1096799714
 20
170.1625525851
 30
0.0
 10
116.2334675215498
 20
170.0368958159324
 30
0.0
 10
116.4873786250856
 20
169.7791505993296
 30
0.0
 10
116.912236270055
 20
169.4281593360851
 30
0.0
 10
117.3654247569928
 20
169.0972338875499
 30
0.0
 10
117.6880131231572
 20
168.9051636604306
 30
0.0
 10
117.8483247133
 20
168.8097135861
 30
0.0
 11
116.1096799714
 21
170.1625525851
 31
0.0
 11
116.4870381756
 21
169.7920328265
 31
0.0
 11
116.9129167254
 21
169.4347160523
 31
0.0
 11
117.3721352257
 21
169.1033388992
 31
0.0
 11
117.8483247133
 21
168.8097135861
 31
0.0
  0
SPLINE
  5
1626
330
1B
100
AcDbEntity
  8
0
  6
Continuous
100
AcDbSpline
210
0.0
220
0.0
230
1.0
 70
     8
 71
     3
 72
    21
 73
    17
 74
    15
 42
0.0000000001
 43
0.0000000001
 44
0.0000000001
 40
0.0
 40
0.0
 40
0.0
 40
0.0
 40
2.185211984369444
 40
4.215374904599909
 40
6.09744543485591
 40
7.794015770018563
 40
9.307680032175188
 40
10.74865062096399
 40
12.24523148935525
 40
13.91374960754689
 40
15.77291562538975
 40
17.7882640190832
 40
19.95730527217483
 40
22.28642436662108
 40
24.83189679871097
 40
27.44551656640102
 40
27.44551656640102
 40
27.44551656640102
 40
27.44551656640102
 10
116.1096108905
 20
170.1625525844
 30
0.0
 10
115.7343279056104
 20
169.5380627243346
 30
0.0
 10
115.0103896845395
 20
168.3333929242755
 30
0.0
 10
114.091730116379
 20
166.51799021322
 30
0.0
 10
113.3836887307418
 20
164.7847385152741
 30
0.0
 10
112.9159816547111
 20
163.1487022168452
 30
0.0
 10
112.6814985198966
 20
161.6116441182719
 30
0.0
 10
112.6574929451345
 20
160.12356434152
 30
0.0
 10
112.8422873670104
 20
158.5947586527313
 30
0.0
 10
113.2598227314019
 20
156.9683931484387
 30
0.0
 10
113.9220692074941
 20
155.239988046427
 30
0.0
 10
114.8092620610098
 20
153.429183291701
 30
0.0
 10
115.8909718037449
 20
151.5453701416381
 30
0.0
 10
117.1566291618193
 20
149.5671471003376
 30
0.0
 10
118.5718622485614
 20
147.5105052694114
 30
0.0
 10
119.588663814902
 20
146.1235305745818
 30
0.0
 10
120.1037801514
 20
145.4208828336
 30
0.0
 11
116.1096108905
 21
170.1625525844
 31
0.0
 11
115.0076350493
 21
168.2755441949
 31
0.0
 11
114.0951505023
 21
166.4620025124
 31
0.0
 11
113.3943129986
 21
164.7152866585
 31
0.0
 11
112.9363315145
 21
163.0817004617
 31
0.0
 11
112.7127449551
 21
161.5846404933
 31
0.0
 11
112.689963391
 21
160.1438500026
 31
0.0
 11
112.8658065373
 21
158.6576355216
 31
0.0
 11
113.2726813166
 21
157.0394866951
 31
0.0
 11
113.927787483
 21
155.2995630782
 31
0.0
 11
114.80540651
 21
153.485337626
 31
0.0
 11
115.8786291464
 21
151.6004150466
 31
0.0
 11
117.1281101505
 21
149.6348126004
 31
0.0
 11
118.5691487467
 21
147.5365186108
 31
0.0
 11
120.1037801514
 21
145.4208828336
 31
0.0
  0
SPLINE
  5
1627
330
1B
100
AcDbEntity
  8
0
  6
Continuous
100
AcDbSpline
210
0.0
220
0.0
230
1.0
 70
     8
 71
     3
 72
    14
 73
    10
 74
     8
 42
0.0000000001
 43
0.0000000001
 44
0.0000000001
 40
0.0
 40
0.0
 40
0.0
 40
0.0
 40
0.3574312675461261
 40
0.835286433579357
 40
1.410074647671986
 40
2.053136548362185
 40
2.731747420382836
 40
3.411293038667596
 40
4.057140200461419
 40
4.057140200461419
 40
4.057140200461419
 40
4.057140200461419
 10
116.9790023417
 20
172.7606287954
 30
0.0
 10
116.9828210126868
 20
172.6414696174515
 30
0.0
 10
116.9917449215868
 20
172.3630047661243
 30
0.0
 10
117.0599269546673
 20
171.8971709040455
 30
0.0
 10
117.1606115130096
 20
171.3410874738798
 30
0.0
 10
117.2977156202321
 20
170.7237500434879
 30
0.0
 10
117.4620814696959
 20
170.0772091266192
 30
0.0
 10
117.6439706199879
 20
169.4342651061849
 30
0.0
 10
117.781371163728
 20
169.0143385117992
 30
0.0
 10
117.8483247133
 20
168.8097135861
 30
0.0
 11
116.9790023417
 21
172.7606287954
 31
0.0
 11
116.9962199591
 21
172.4036124587
 31
0.0
 11
117.0576310165
 21
171.9297198108
 31
0.0
 11
117.1600622443
 21
171.3641322096
 31
0.0
 11
117.2982238125
 21
170.7360876338
 31
0.0
 11
117.4649308848
 21
170.0782719547
 31
0.0
 11
117.6515254093
 21
169.424846572
 31
0.0
 11
117.8483247133
 21
168.8097135861
 31
0.0
  0
SPLINE
  5
1628
330
1B
100
AcDbEntity
  8
0
  6
Continuous
100
AcDbSpline
210
0.0
220
0.0
230
1.0
 70
     8
 71
     3
 72
     9
 73
     5
 74
     3
 42
0.0000000001
 43
0.0000000001
 44
0.0000000001
 40
0.0
 40
0.0
 40
0.0
 40
0.0
 40
1.570522831752316
 40
3.074001840529241
 40
3.074001840529241
 40
3.074001840529241
 40
3.074001840529241
 10
120.8306982152
 20
169.5520210761
 30
0.0
 10
120.3241697684043
 20
169.4196956725568
 30
0.0
 10
119.3327359947271
 20
169.1606936855645
 30
0.0
 10
118.3355841490516
 20
168.9246702181357
 30
0.0
 10
117.8478821416
 20
168.8092323143
 30
0.0
 11
120.8306982152
 21
169.5520210761
 31
0.0
 11
119.3096203214
 21
169.1610428081
 31
0.0
 11
117.8478821416
 21
168.8092323143
 31
0.0
  0
SPLINE
  5
1629
330
1B
100
AcDbEntity
  8
0
  6
Continuous
100
AcDbSpline
210
0.0
220
0.0
230
1.0
 70
     8
 71
     3
 72
    14
 73
    10
 74
     8
 42
0.0000000001
 43
0.0000000001
 44
0.0000000001
 40
0.0
 40
0.0
 40
0.0
 40
0.0
 40
0.362347248029705
 40
0.8554460171142663
 40
1.454907384689028
 40
2.12861737072525
 40
2.83964692714799
 40
3.548738284022503
 40
4.216753280041315
 40
4.216753280041315
 40
4.216753280041315
 40
4.216753280041315
 10
119.8320137326
 20
173.6266324364
 30
0.0
 10
119.8307447066171
 20
173.5057071285191
 30
0.0
 10
119.8277487318206
 20
173.2202211104591
 30
0.0
 10
119.8990927613056
 20
172.7389788213721
 30
0.0
 10
120.0106793478256
 20
172.161157689236
 30
0.0
 10
120.1700147338662
 20
171.5187911058691
 30
0.0
 10
120.3648745792313
 20
170.8485490530205
 30
0.0
 10
120.5826266898377
 20
170.1870953046091
 30
0.0
 10
120.7496685490547
 20
169.759458921218
 30
0.0
 10
120.8306982144
 20
169.5520185036
 30
0.0
 11
119.8320137326
 21
173.6266324364
 31
0.0
 11
119.8362704517
 21
173.2643101924
 31
0.0
 11
119.8970238045
 21
172.7749683628
 31
0.0
 11
120.010822318
 21
172.1864075507
 31
0.0
 11
120.1712008986
 21
171.5320652426
 31
0.0
 11
120.3690481463
 21
170.8491161254
 31
0.0
 11
120.5931239894
 21
170.1763601749
 31
0.0
 11
120.8306982144
 21
169.5520185036
 31
0.0
  0
SPLINE
  5
162A
330
1B
100
AcDbEntity
  8
0
  6
Continuous
100
AcDbSpline
210
0.0
220
0.0
230
1.0
 70
     8
 71
     3
 72
    11
 73
     7
 74
     5
 42
0.0000000001
 43
0.0000000001
 44
0.0000000001
 40
0.0
 40
0.0
 40
0.0
 40
0.0
 40
1.600823667255229
 40
3.105814506406814
 40
4.551077119393621
 40
5.269414934842032
 40
5.269414934842032
 40
5.269414934842032
 40
5.269414934842032
 10
88.55021059290002
 20
120.1009718284
 30
0.0
 10
88.06992360528439
 20
119.8676241430086
 30
0.0
 10
87.13810186633376
 20
119.4148980613362
 30
0.0
 10
85.70639949131898
 20
118.9053291991194
 30
0.0
 10
84.51808614823219
 20
118.6035520243498
 30
0.0
 10
83.80389563826856
 20
118.5016417196106
 30
0.0
 10
83.56677697070001
 20
118.4678064399
 30
0.0
 11
88.55021059290002
 21
120.1009718284
 31
0.0
 11
87.0973356475
 21
119.428817972
 31
0.0
 11
85.68044690989999
 21
118.9214485492
 31
0.0
 11
84.27665952450001
 21
118.5776971898
 31
0.0
 11
83.56677697070001
 21
118.4678064399
 31
0.0
  0
SPLINE
  5
162B
330
1B
100
AcDbEntity
  8
0
  6
Continuous
100
AcDbSpline
210
0.0
220
0.0
230
1.0
 70
     8
 71
     3
 72
    13
 73
     9
 74
     7
 42
0.0000000001
 43
0.0000000001
 44
0.0000000001
 40
0.0
 40
0.0
 40
0.0
 40
0.0
 40
0.6943406856132285
 40
2.095724697872487
 40
3.507693817513028
 40
4.952814729752442
 40
6.457341651006471
 40
8.057812219533329
 40
8.057812219533329
 40
8.057812219533329
 40
8.057812219533329
 10
83.56677697070001
 20
118.4678064399
 30
0.0
 10
83.33655420084456
 20
118.4434932271791
 30
0.0
 10
82.64167407240655
 20
118.3701087900583
 30
0.0
 10
81.46844704547081
 20
118.375571301494
 30
0.0
 10
80.05672998746363
 20
118.5517320468206
 30
0.0
 10
78.64329676300073
 20
118.9041245777213
 30
0.0
 10
77.21210247880376
 20
119.4154511115214
 30
0.0
 10
76.28050198879049
 20
119.8678057080727
 30
0.0
 10
75.80030863250001
 20
120.1009718284
 30
0.0
 11
83.56677697070001
 21
118.4678064399
 31
0.0
 11
82.8754410402
 21
118.4032803297
 31
0.0
 11
81.4740570294
 21
118.4033442825
 31
0.0
 11
80.07291581280001
 21
118.5778724635
 31
0.0
 11
78.66928944779998
 21
118.9216856082
 31
0.0
 11
77.2528567625
 21
119.4289525052
 31
0.0
 11
75.80030863250001
 21
120.1009718284
 31
0.0
  0
SPLINE
  5
162C
330
1B
100
AcDbEntity
  8
0
  6
Continuous
100
AcDbSpline
210
0.0
220
0.0
230
1.0
 70
     8
 71
     3
 72
     9
 73
     5
 74
     3
 42
0.0000000001
 43
0.0000000001
 44
0.0000000001
 40
0.0
 40
0.0
 40
0.0
 40
0.0
 40
1.531638706311796
 40
2.981659884648107
 40
2.981659884648107
 40
2.981659884648107
 40
2.981659884648107
 10
119.8320053672
 20
173.6266541995
 30
0.0
 10
119.3454027235746
 20
173.472055557998
 30
0.0
 10
118.3981273796685
 20
173.1710964834539
 30
0.0
 10
117.44333225526
 20
172.8949315201301
 30
0.0
 10
116.9790025849
 20
172.7606287958
 30
0.0
 11
119.8320053672
 21
173.6266541995
 31
0.0
 11
118.3702131624
 21
173.1694007942
 31
0.0
 11
116.9790025849
 21
172.7606287958
 31
0.0
  0
SPLINE
  5
162D
330
1B
100
AcDbEntity
  8
0
  6
Continuous
100
AcDbSpline
210
0.0
220
0.0
230
1.0
 70
     8
 71
     3
 72
    13
 73
     9
 74
     7
 42
0.0000000001
 43
0.0000000001
 44
0.0000000001
 40
0.0
 40
0.0
 40
0.0
 40
0.0
 40
1.142059363730212
 40
2.431220863603221
 40
3.864702927753797
 40
5.476126548447436
 40
7.136284718336056
 40
8.678134722319367
 40
8.678134722319367
 40
8.678134722319367
 40
8.678134722319367
 10
128.1088528487
 20
174.0058660098
 30
0.0
 10
127.8653080258116
 20
173.7127115293339
 30
0.0
 10
127.3468487640313
 20
173.0886430160827
 30
0.0
 10
126.3800541778862
 20
172.230354940701
 30
0.0
 10
125.2046429653982
 20
171.3864159375902
 30
0.0
 10
123.8294723812209
 20
170.6255559478754
 30
0.0
 10
122.3498691194109
 20
169.9946679745645
 30
0.0
 10
121.324459532864
 20
169.6958902847848
 30
0.0
 10
120.8306982152
 20
169.5520210761
 30
0.0
 11
128.1088528487
 21
174.0058660098
 31
0.0
 11
127.3584171723
 21
173.1449677081
 31
0.0
 11
126.4033126989
 21
172.279108125
 31
0.0
 11
125.2386808187
 21
171.4433429595
 31
0.0
 11
123.8317185941
 21
170.6577582194
 31
0.0
 11
122.3024425344
 21
170.0116623424
 31
0.0
 11
120.8306982152
 21
169.5520210761
 31
0.0
  0
SPLINE
  5
162E
330
1B
100
AcDbEntity
  8
0
  6
Continuous
100
AcDbSpline
210
0.0
220
0.0
230
1.0
 70
     8
 71
     3
 72
    12
 73
     8
 74
     6
 42
0.0000000001
 43
0.0000000001
 44
0.0000000001
 40
0.0
 40
0.0
 40
0.0
 40
0.0
 40
0.6465105276088349
 40
1.339506638778822
 40
2.061184421111913
 40
2.789377596551021
 40
3.500985824859163
 40
3.500985824859163
 40
3.500985824859163
 40
3.500985824859163
 10
125.535363334
 20
176.224730412
 30
0.0
 10
125.6294288503945
 20
176.0300536278032
 30
0.0
 10
125.8243234086575
 20
175.6267023539853
 30
0.0
 10
126.2727661447771
 20
175.0973096001711
 30
0.0
 10
126.8152959585604
 20
174.630741785322
 30
0.0
 10
127.4319804838063
 20
174.2476095089407
 30
0.0
 10
127.8849680351359
 20
174.0858319243386
 30
0.0
 10
128.1088528487
 20
174.005874883
 30
0.0
 11
125.535363334
 21
176.224730412
 31
0.0
 11
125.8400478677
 21
175.654517121
 31
0.0
 11
126.2786159421
 21
175.1179524425
 31
0.0
 11
126.8251870819
 21
174.6467000572
 31
0.0
 11
127.44750738
 21
174.2685694616
 31
0.0
 11
128.1088528487
 21
174.005874883
 31
0.0
  0
SPLINE
  5
162F
330
1B
100
AcDbEntity
  8
0
  6
Continuous
100
AcDbSpline
210
0.0
220
0.0
230
1.0
 70
     8
 71
     3
 72
    13
 73
     9
 74
     7
 42
0.0000000001
 43
0.0000000001
 44
0.0000000001
 40
0.0
 40
0.0
 40
0.0
 40
0.0
 40
0.8158838694530257
 40
1.735277885160715
 40
2.762463088901122
 40
3.931420845974392
 40
5.161263600889542
 40
6.33440683477721
 40
6.33440683477721
 40
6.33440683477721
 40
6.33440683477721
 10
125.5353832685
 20
176.2247304109
 30
0.0
 10
125.3239944076141
 20
176.0533892247958
 30
0.0
 10
124.8743980505854
 20
175.6889690147688
 30
0.0
 10
124.1003297783259
 20
175.187142930551
 30
0.0
 10
123.185214757839
 20
174.6937280341351
 30
0.0
 10
122.1317116080913
 20
174.2488641461478
 30
0.0
 10
120.9972064070993
 20
173.8807789388062
 30
0.0
 10
120.2142476271842
 20
173.7100193968728
 30
0.0
 10
119.8320053672
 20
173.6266541995
 30
0.0
 11
125.5353832685
 21
176.2247304109
 31
0.0
 11
124.893115804
 21
175.7215813351
 31
0.0
 11
124.1246643312
 21
175.2168361617
 31
0.0
 11
123.2202378989
 21
174.7298841401
 31
0.0
 11
122.1446737396
 21
174.2720370291
 31
0.0
 11
120.9740289918
 21
173.8950700859
 31
0.0
 11
119.8320053672
 21
173.6266541995
 31
0.0
  0
SPLINE
  5
1630
330
1B
100
AcDbEntity
  8
0
  6
Continuous
100
AcDbSpline
210
0.0
220
0.0
230
1.0
 70
     8
 71
     3
 72
    11
 73
     7
 74
     5
 42
0.0000000001
 43
0.0000000001
 44
0.0000000001
 40
0.0
 40
0.0
 40
0.0
 40
0.0
 40
0.7736970376917932
 40
1.941372600046687
 40
3.541012692367127
 40
5.596679451734788
 40
5.596679451734788
 40
5.596679451734788
 40
5.596679451734788
 10
131.6814454369
 20
178.3126765162
 30
0.0
 10
131.511186436423
 20
178.1189634681191
 30
0.0
 10
131.083969913243
 20
177.6328956851302
 30
0.0
 10
130.3149381099928
 20
176.7374559205889
 30
0.0
 10
129.2827349888872
 20
175.504679552198
 30
0.0
 10
128.5313920967061
 20
174.5453644189037
 30
0.0
 10
128.1088528487
 20
174.0058660098
 30
0.0
 11
131.6814454369
 21
178.3126765162
 31
0.0
 11
131.1715566187
 21
177.7307654412
 31
0.0
 11
130.4103088996
 21
176.8453456938
 31
0.0
 11
129.3862613914
 21
175.6164538654
 31
0.0
 11
128.1088528487
 21
174.0058660098
 31
0.0
  0
SPLINE
  5
1631
330
1B
100
AcDbEntity
  8
0
  6
Continuous
100
AcDbSpline
210
0.0
220
0.0
230
1.0
 70
     8
 71
     3
 72
    14
 73
    10
 74
     8
 42
0.0000000001
 43
0.0000000001
 44
0.0000000001
 40
0.0
 40
0.0
 40
0.0
 40
0.0
 40
0.6473430623085426
 40
1.299255151241732
 40
1.954889341878398
 40
2.612709850110835
 40
3.270781409610005
 40
3.927123150171725
 40
4.580069837280741
 40
4.580069837280741
 40
4.580069837280741
 40
4.580069837280741
 10
128.7189124726
 20
181.2500389162
 30
0.0
 10
128.7397902503424
 20
181.0344020045091
 30
0.0
 10
128.7816931637397
 20
180.6016061893917
 30
0.0
 10
129.0222690416798
 20
179.9875506860146
 30
0.0
 10
129.3800742003135
 20
179.4343045443153
 30
0.0
 10
129.8510661648788
 20
178.9677349050036
 30
0.0
 10
130.4092516568179
 20
178.6134495764534
 30
0.0
 10
131.0285379167463
 20
178.3753824209256
 30
0.0
 10
131.4646909307835
 20
178.3339405200355
 30
0.0
 10
131.682201954
 20
178.3132733001
 30
0.0
 11
128.7189124726
 21
181.2500389162
 31
0.0
 11
128.8108357609
 21
180.609255685
 31
0.0
 11
129.0409848775
 21
179.9993206427
 31
0.0
 11
129.3982789235
 21
179.4495960238
 31
0.0
 11
129.865516532
 21
178.9865443655
 31
0.0
 11
130.4202046291
 21
178.6324549808
 31
0.0
 11
131.035641476
 21
178.4043717331
 31
0.0
 11
131.682201954
 21
178.3132733001
 31
0.0
  0
SPLINE
  5
1632
330
1B
100
AcDbEntity
  8
0
  6
Continuous
100
AcDbSpline
210
0.0
220
0.0
230
1.0
 70
     8
 71
     3
 72
    11
 73
     7
 74
     5
 42
0.0000000001
 43
0.0000000001
 44
0.0000000001
 40
0.0
 40
0.0
 40
0.0
 40
0.0
 40
0.8180042357745878
 40
2.053615715626979
 40
3.753014141980231
 40
5.949701289151273
 40
5.949701289151273
 40
5.949701289151273
 40
5.949701289151273
 10
128.7189124726
 20
181.2500389162
 30
0.0
 10
128.5669133691523
 20
181.0236650770027
 30
0.0
 10
128.1853166316905
 20
180.4553491032568
 30
0.0
 10
127.4992970104241
 20
179.4092043840867
 30
0.0
 10
126.5778082770259
 20
177.9678620515914
 30
0.0
 10
125.9112189878172
 20
176.8531987694731
 30
0.0
 10
125.5353832685
 20
176.2247304109
 30
0.0
 11
128.7189124726
 21
181.2500389162
 31
0.0
 11
128.2639009204
 21
180.5702629111
 31
0.0
 11
127.5857502496
 21
179.5373798602
 31
0.0
 11
126.6733882097
 21
178.1036607386
 31
0.0
 11
125.5353832685
 21
176.2247304109
 31
0.0
  0
SPLINE
  5
1633
330
1B
100
AcDbEntity
  8
0
  6
Continuous
100
AcDbSpline
210
0.0
220
0.0
230
1.0
 70
     8
 71
     3
 72
    18
 73
    14
 74
    12
 42
0.0000000001
 43
0.0000000001
 44
0.0000000001
 40
0.0
 40
0.0
 40
0.0
 40
0.0
 40
0.256902253190074
 40
0.5856207451360385
 40
0.9582641907931067
 40
1.376715146410832
 40
1.849137843007239
 40
2.386748607241941
 40
2.997400933030844
 40
3.66737981821978
 40
4.35070470918645
 40
5.022949494978929
 40
5.681921946270188
 40
5.681921946270188
 40
5.681921946270188
 40
5.681921946270188
 10
129.0449380654
 20
182.4932362652
 30
0.0
 10
129.0174197804653
 20
182.4120857963272
 30
0.0
 10
128.9546905582485
 20
182.2270994933293
 30
0.0
 10
128.8898993164583
 20
181.9134276872326
 30
0.0
 10
128.8526291552553
 20
181.5412351939908
 30
0.0
 10
128.8684084624753
 20
181.1188769857336
 30
0.0
 10
128.9542884110194
 20
180.6488093170683
 30
0.0
 10
129.1334308067473
 20
180.1364753282113
 30
0.0
 10
129.4332270840774
 20
179.605768240742
 30
0.0
 10
129.8633171525071
 20
179.1053435152729
 30
0.0
 10
130.4064175790518
 20
178.6974202143901
 30
0.0
 10
131.0226561822767
 20
178.408743256856
 30
0.0
 10
131.4638195071056
 20
178.3448843931509
 30
0.0
 10
131.682201954
 20
178.3132733001
 30
0.0
 11
129.0449380654
 21
182.4932362652
 31
0.0
 11
128.9668351125
 21
182.2484941633
 31
0.0
 11
128.8981583957
 21
181.927029771
 31
0.0
 11
128.8621880428
 21
181.556126453
 31
0.0
 11
128.8770963584
 21
181.1379411539
 31
0.0
 11
128.9615094052
 21
180.6731211438
 31
0.0
 11
129.1390368
 21
180.165667345
 31
0.0
 11
129.4392007753
 21
179.6338799336
 31
0.0
 11
129.8766913469
 21
179.1264612639
 31
0.0
 11
130.4223985068
 21
178.7151990577
 31
0.0
 11
131.0353738302
 21
178.4392021285
 31
0.0
 11
131.682201954
 21
178.3132733001
 31
0.0
  0
SPLINE
  5
1634
330
1B
100
AcDbEntity
  8
0
  6
Continuous
100
AcDbSpline
210
0.0
220
0.0
230
1.0
 70
     8
 71
     3
 72
    10
 73
     6
 74
     4
 42
0.0000000001
 43
0.0000000001
 44
0.0000000001
 40
0.0
 40
0.0
 40
0.0
 40
0.0
 40
0.0978137589041369
 40
0.3837997105779518
 40
0.867561420716394
 40
0.867561420716394
 40
0.867561420716394
 40
0.867561420716394
 10
132.4613557175
 20
178.6926796033
 30
0.0
 10
132.4320651081785
 20
178.678357619006
 30
0.0
 10
132.3171351892571
 20
178.6221612976648
 30
0.0
 10
132.0572490933091
 20
178.4953209411995
 30
0.0
 10
131.8264777945104
 20
178.3831637270356
 30
0.0
 10
131.6814454369
 20
178.3126765162
 30
0.0
 11
132.4613557175
 21
178.6926796033
 31
0.0
 11
132.3734812359
 21
178.6497190759
 31
0.0
 11
132.1164689563
 21
178.5242892043
 31
0.0
 11
131.6814454369
 21
178.3126765162
 31
0.0
  0
SPLINE
  5
1635
330
1B
100
AcDbEntity
  8
0
  6
Continuous
100
AcDbSpline
210
0.0
220
0.0
230
1.0
 70
     8
 71
     3
 72
    16
 73
    12
 74
    10
 42
0.0000000001
 43
0.0000000001
 44
0.0000000001
 40
0.0
 40
0.0
 40
0.0
 40
0.0
 40
1.672063456755538
 40
3.205560157142376
 40
4.630270543851776
 40
5.990897796635589
 40
7.336610544840799
 40
8.71621805675856
 40
10.1735280552292
 40
11.73426589416727
 40
13.41029983218644
 40
13.41029983218644
 40
13.41029983218644
 40
13.41029983218644
 10
88.55021059290002
 20
137.3379791154
 30
0.0
 10
88.05494513286917
 20
137.594418857618
 30
0.0
 10
87.10545770793358
 20
138.0860467423378
 30
0.0
 10
85.65948503154125
 20
138.6359169012751
 30
0.0
 10
84.26491118974937
 20
139.0046209205503
 30
0.0
 10
82.89650790547944
 20
139.1898138092418
 30
0.0
 10
81.53067624385001
 20
139.1953778755657
 30
0.0
 10
80.14378303656324
 20
139.0173393317868
 30
0.0
 10
78.722169736425
 20
138.6472090308546
 30
0.0
 10
77.25553762587845
 20
138.0913351222379
 30
0.0
 10
76.29676896942249
 20
137.5949911587766
 30
0.0
 10
75.80030863250001
 20
137.3379791156
 30
0.0
 11
88.55021059290002
 21
137.3379791154
 31
0.0
 11
87.0503838547
 21
138.0771110108
 31
0.0
 11
85.61707154360001
 21
138.6222971707
 31
0.0
 11
84.23813841279998
 21
138.9805472325
 31
0.0
 11
82.88949676599999
 21
139.1607477584
 31
0.0
 11
81.54379482970001
 21
139.166142137
 31
0.0
 11
80.17512842829999
 21
138.9927374986
 31
0.0
 11
78.76322070170001
 21
138.6318095235
 31
0.0
 11
77.3037763736
 21
138.078704782
 31
0.0
 11
75.80030863250001
 21
137.3379791156
 31
0.0
  0
SPLINE
  5
1636
330
1B
100
AcDbEntity
  8
0
  6
Continuous
100
AcDbSpline
210
0.0
220
0.0
230
1.0
 70
     8
 71
     3
 72
    12
 73
     8
 74
     6
 42
0.0000000001
 43
0.0000000001
 44
0.0000000001
 40
0.0
 40
0.0
 40
0.0
 40
0.0
 40
0.4268205824602332
 40
0.8384502473911456
 40
1.233939873228715
 40
1.61556920049216
 40
1.988706001459125
 40
1.988706001459125
 40
1.988706001459125
 40
1.988706001459125
 10
75.8003087324
 20
137.3379785977
 30
0.0
 10
75.78896579405286
 20
137.4802625660406
 30
0.0
 10
75.76668362244698
 20
137.7597664919462
 30
0.0
 10
75.84075900928326
 20
138.1693922796609
 30
0.0
 10
75.99453164794197
 20
138.536868643309
 30
0.0
 10
76.22341176129081
 20
138.8527466363092
 30
0.0
 10
76.43049072351329
 20
138.998147629266
 30
0.0
 10
76.5328651924
 20
139.0700301096
 30
0.0
 11
75.8003087324
 21
137.3379785977
 31
0.0
 11
75.7850976173
 21
137.7645280457
 31
0.0
 11
75.8562813835
 21
138.1699560325
 31
0.0
 11
76.01033815229999
 21
138.5342067101
 31
0.0
 11
76.2396470387
 21
138.8392614233
 31
0.0
 11
76.5328651924
 21
139.0700301096
 31
0.0
  0
SPLINE
  5
1637
330
1B
100
AcDbEntity
  8
0
  6
Continuous
100
AcDbSpline
210
0.0
220
0.0
230
1.0
 70
     8
 71
     3
 72
    17
 73
    13
 74
    11
 42
0.0000000001
 43
0.0000000001
 44
0.0000000001
 40
0.0
 40
0.0
 40
0.0
 40
0.0
 40
1.580067635026065
 40
3.046632131825663
 40
4.416145895855669
 40
5.717587157663761
 40
6.98433893174446
 40
8.250572329170138
 40
9.54979517560445
 40
10.91012640942708
 40
12.34396864693608
 40
13.86405456309128
 40
13.86405456309128
 40
13.86405456309128
 40
13.86405456309128
 10
89.75499185910002
 20
139.0700298725
 30
0.0
 10
89.28228521442152
 20
139.3028836504045
 30
0.0
 10
88.37082850163264
 20
139.751864305444
 30
0.0
 10
86.99044101311614
 20
140.2702595061371
 30
0.0
 10
85.66023943763794
 20
140.6415277013945
 30
0.0
 10
84.36403519695224
 20
140.8635981127694
 30
0.0
 10
83.08563045634901
 20
140.9415461931872
 30
0.0
 10
81.80726645587043
 20
140.8737073285977
 30
0.0
 10
80.51401837043636
 20
140.6558712328071
 30
0.0
 10
79.19969446806542
 20
140.2812087462375
 30
0.0
 10
77.85770456911607
 20
139.7565677401334
 30
0.0
 10
76.98299068614992
 20
139.3032871951661
 30
0.0
 10
76.5328645541
 20
139.0700298725
 30
0.0
 11
89.75499185910002
 21
139.0700298725
 31
0.0
 11
88.3258838549
 21
139.7440210027
 31
0.0
 11
86.95334048899998
 21
140.260679625
 31
0.0
 11
85.63296128490001
 21
140.6242270184
 31
0.0
 11
84.34983018009999
 21
140.8417676487
 31
0.0
 11
83.08534209559998
 21
140.9174640244
 31
0.0
 11
81.82087131379998
 21
140.8506758613
 31
0.0
 11
80.5394421469
 21
140.6363879827
 31
0.0
 11
79.229936811
 21
140.2680174614
 31
0.0
 11
77.89492973909999
 21
139.7448925432
 31
0.0
 11
76.5328645541
 21
139.0700298725
 31
0.0
  0
SPLINE
  5
1638
330
1B
100
AcDbEntity
  8
0
  6
Continuous
100
AcDbSpline
210
0.0
220
0.0
230
1.0
 70
     8
 71
     3
 72
    12
 73
     8
 74
     6
 42
0.0000000001
 43
0.0000000001
 44
0.0000000001
 40
0.0
 40
0.0
 40
0.0
 40
0.0
 40
0.4383118069735722
 40
0.8825603177605446
 40
1.32626304211081
 40
1.763021696423539
 40
2.187532453928646
 40
2.187532453928646
 40
2.187532453928646
 40
2.187532453928646
 10
88.5502104893
 20
137.3379785825
 30
0.0
 10
88.57827419569793
 20
137.4817895382131
 30
0.0
 10
88.63478171669561
 20
137.7713592936981
 30
0.0
 10
88.82159796293766
 20
138.1766753457905
 30
0.0
 10
89.07425982884681
 20
138.5403552471132
 30
0.0
 10
89.38466646681523
 20
138.851489922985
 30
0.0
 10
89.63272183203273
 20
138.9978772980059
 30
0.0
 10
89.754985748
 20
139.0700301164
 30
0.0
 11
88.5502104893
 21
137.3379785825
 31
0.0
 11
88.65112659759998
 21
137.7645148403
 31
0.0
 11
88.83275917410001
 21
138.1699360367
 31
0.0
 11
89.08612362040002
 21
138.5341867264
 31
0.0
 11
89.39868655879999
 21
138.8392482475
 31
0.0
 11
89.754985748
 21
139.0700301164
 31
0.0
  0
SPLINE
  5
1639
330
1B
100
AcDbEntity
  8
0
  6
Continuous
100
AcDbSpline
210
0.0
220
0.0
230
1.0
 70
     8
 71
     3
 72
    17
 73
    13
 74
    11
 42
0.0000000001
 43
0.0000000001
 44
0.0000000001
 40
0.0
 40
0.0
 40
0.0
 40
0.0
 40
2.827127132576808
 40
5.55301613036729
 40
8.198563256303343
 40
10.80023962512106
 40
13.38674680564074
 40
15.97328888892745
 40
18.57492361798202
 40
21.22021530099937
 40
23.94615028116705
 40
26.77464112729149
 40
26.77464112729149
 40
26.77464112729149
 40
26.77464112729149
 10
117.7408396204
 20
139.0700298725
 30
0.0
 10
116.8269663640163
 20
139.300696118697
 30
0.0
 10
115.0319452362665
 20
139.7537685578893
 30
0.0
 10
112.3464943054209
 20
140.2687776702813
 30
0.0
 10
109.7142260327725
 20
140.6431077414536
 30
0.0
 10
107.1111837674341
 20
140.8672706986183
 30
0.0
 10
104.5192776008046
 20
140.942600985415
 30
0.0
 10
101.9273833461378
 20
140.8673366567306
 30
0.0
 10
99.32442267462193
 20
140.6432446899048
 30
0.0
 10
96.69222793884097
 20
140.2689938992277
 30
0.0
 10
94.00638539109727
 20
139.753980579795
 30
0.0
 10
92.21090581320027
 20
139.3008025725496
 30
0.0
 10
91.2965903269
 20
139.0700298725
 30
0.0
 11
117.7408396204
 21
139.0700298725
 31
0.0
 11
114.9930309331
 21
139.7350074975
 31
0.0
 11
112.3165930104
 21
140.2518738963
 31
0.0
 11
109.6968836157
 21
140.6207129979
 31
0.0
 11
107.1047218601
 21
140.8430131573
 31
0.0
 11
104.5192889089
 21
140.9175507299
 31
0.0
 11
101.9338191968
 21
140.8430771344
 31
0.0
 11
99.3416935417
 21
140.6208433575
 31
0.0
 11
96.72222770019999
 21
140.2521066039
 31
0.0
 11
94.04573176549999
 21
139.735298102
 31
0.0
 11
91.2965903269
 21
139.0700298725
 31
0.0
  0
SPLINE
  5
163A
330
1B
100
AcDbEntity
  8
0
  6
Continuous
100
AcDbSpline
210
0.0
220
0.0
230
1.0
 70
     8
 71
     3
 72
    16
 73
    12
 74
    10
 42
0.0000000001
 43
0.0000000001
 44
0.0000000001
 40
0.0
 40
0.0
 40
0.0
 40
0.0
 40
3.047138751495923
 40
5.958312807907229
 40
8.772885816181574
 40
11.54144761977907
 40
14.2983914463367
 40
17.06674422250851
 40
19.88108952945546
 40
22.79237348144909
 40
25.84037568381254
 40
25.84037568381254
 40
25.84037568381254
 40
25.84037568381254
 10
117.2686169908
 20
137.3379791
 30
0.0
 10
116.2850534399164
 20
137.592378216009
 30
0.0
 10
114.3618133840627
 20
138.0898250455937
 30
0.0
 10
111.4867721071145
 20
138.635842952688
 30
0.0
 10
108.6782880681154
 20
139.0075353968276
 30
0.0
 10
105.9023379920301
 20
139.1930221817569
 30
0.0
 10
103.1356987159624
 20
139.1930401864614
 30
0.0
 10
100.35989142926
 20
139.007605553391
 30
0.0
 10
97.55150866250439
 20
138.6359806444089
 30
0.0
 10
94.67621260534266
 20
138.0899684316391
 30
0.0
 10
92.75265635733774
 20
137.5924469323801
 30
0.0
 10
91.76881306999999
 20
137.3379791008
 30
0.0
 11
117.2686169908
 21
137.3379791
 31
0.0
 11
114.3102338764
 21
138.0680639713
 31
0.0
 11
111.4508035286
 21
138.6145001275
 31
0.0
 11
108.6599348624
 21
138.9790180378
 31
0.0
 11
105.8974552107
 21
139.1624318712
 31
0.0
 11
103.1405113842
 21
139.1624496964
 31
0.0
 11
100.3782375389
 21
138.9790913126
 31
0.0
 11
97.58758783259999
 21
138.6146551406
 31
0.0
 11
94.7280398214
 21
138.0682492285
 31
0.0
 11
91.76881306999999
 21
137.3379791008
 31
0.0
  0
SPLINE
  5
163B
330
1B
100
AcDbEntity
  8
0
  6
Continuous
100
AcDbSpline
210
0.0
220
0.0
230
1.0
 70
     8
 71
     3
 72
    12
 73
     8
 74
     6
 42
0.0000000001
 43
0.0000000001
 44
0.0000000001
 40
0.0
 40
0.0
 40
0.0
 40
0.0
 40
0.4382627011057898
 40
0.8826258491978585
 40
1.326427215104307
 40
1.763292226184543
 40
2.18753196800555
 40
2.18753196800555
 40
2.18753196800555
 40
2.18753196800555
 10
120.4872195714
 20
137.3379785826
 30
0.0
 10
120.4591865088747
 20
137.4817829132538
 30
0.0
 10
120.4027301744557
 20
137.7713932751244
 30
0.0
 10
120.2157125873244
 20
138.1766707764165
 30
0.0
 10
119.9631648774536
 20
138.5405639841858
 30
0.0
 10
119.6525818587738
 20
138.8515001586889
 30
0.0
 10
119.4046116056397
 20
138.9979022990667
 30
0.0
 10
119.2824443132
 20
139.0700301163
 30
0.0
 11
120.4872195714
 21
137.3379785826
 31
0.0
 11
120.3863574902
 21
137.7644771591
 31
0.0
 11
120.2046052428
 21
138.1699703501
 31
0.0
 11
119.9512387625
 21
138.5343397767
 31
0.0
 11
119.6385049354
 21
138.8393784485
 31
0.0
 11
119.2824443132
 21
139.0700301163
 31
0.0
  0
SPLINE
  5
163C
330
1B
100
AcDbEntity
  8
0
  6
Continuous
100
AcDbSpline
210
0.0
220
0.0
230
1.0
 70
     8
 71
     3
 72
    16
 73
    12
 74
    10
 42
0.0000000001
 43
0.0000000001
 44
0.0000000001
 40
0.0
 40
0.0
 40
0.0
 40
0.0
 40
1.438635884603326
 40
2.788383541720876
 40
4.064943002261158
 40
5.29648201211217
 40
6.518360484621054
 40
7.767515766593101
 40
9.080090213706324
 40
10.48790619876245
 40
12.01183648053527
 40
12.01183648053527
 40
12.01183648053527
 40
12.01183648053527
 10
131.9860962696
 20
137.9658344526
 30
0.0
 10
131.5450334792022
 20
138.1549378267725
 30
0.0
 10
130.6901596096059
 20
138.5214605458773
 30
0.0
 10
129.3866044189172
 20
138.9033943476481
 30
0.0
 10
128.1190595470002
 20
139.1342186718944
 30
0.0
 10
126.8749319292961
 20
139.2099841732912
 30
0.0
 10
125.6400675926624
 20
139.1373434015275
 30
0.0
 10
124.3953647453201
 20
138.9173998397729
 30
0.0
 10
123.1233713138553
 20
138.5455511748025
 30
0.0
 10
121.8055479354283
 20
138.0237104003906
 30
0.0
 10
120.938114107756
 20
137.5725128968952
 30
0.0
 10
120.4872194678
 20
137.3379791153
 30
0.0
 11
131.9860962696
 21
137.9658344526
 31
0.0
 11
130.6524434965
 21
138.5053189188
 31
0.0
 11
129.3576676698
 21
138.8865987327
 31
0.0
 11
128.1010282354
 21
139.1112348567
 31
0.0
 11
126.8717301533
 21
139.1854949276
 31
0.0
 11
125.6519095404
 21
139.1146099932
 31
0.0
 11
124.421426344
 21
138.8994355945
 31
0.0
 11
123.1601898875
 21
138.5359328022
 31
0.0
 11
121.8514804361
 21
138.0170634356
 31
0.0
 11
120.4872194678
 21
137.3379791153
 31
0.0
  0
HATCH
  5
268F
330
1B
100
AcDbEntity
  8
0
100
AcDbHatch
 10
0.0
 20
0.0
 30
0.0
210
0.0
220
0.0
230
1.0
  2
SOLID
 70
     1
 71
     0
 91
        4
 92
        7
 72
     0
 73
     1
 93
        4
 10
197.3409763643
 20
181.1926796033
 10
191.4513454497
 20
183.6926796032999
 10
191.4513454496999
 20
160.6926796033
 10
197.3409763643
 20
160.6926796033
 97
        0
 92
        7
 72
     0
 73
     1
 93
        4
 10
191.4513454497
 20
183.6926796033
 10
189.3409763643
 20
183.6926796033
 10
189.3409763642999
 20
160.6926796033
 10
191.4513454497
 20
160.6926796033
 97
        0
 92
        7
 72
     0
 73
     1
 93
        4
 10
197.3409763643
 20
160.6926796033
 10
191.4513454497
 20
160.6926796033
 10
191.4513454497
 20
137.6926796033
 10
197.3409763643
 20
140.1926796033
 97
        0
 92
        7
 72
     0
 73
     1
 93
        4
 10
191.4513454497
 20
160.6926796033
 10
189.3409763643
 20
160.6926796033
 10
189.3409763643
 20
137.6926796033
 10
191.4513454497
 20
137.6926796033
 97
        0
 75
     0
 76
     1
 47
0.18043386055308
 98
        4
 10
193.0242764335707
 20
175.3076976157283
 10
190.4130675600526
 20
173.7710653083368
 10
193.4830784523668
 20
147.2472876550102
 10
189.8713005680459
 20
149.2320600713163
  0
ENDSEC
  0
SECTION
  2
OBJECTS
  0
DICTIONARY
  5
1A03
330
0
100
AcDbDictionary
281
     1
  3
ACAD_COLOR
350
2682
  3
ACAD_GROUP
350
1A04
  3
ACAD_LAYOUT
350
2683
  3
ACAD_MATERIAL
350
2681
  3
ACAD_MLINESTYLE
350
1A05
  3
ACAD_PLOTSETTINGS
350
2684
  3
ACAD_PLOTSTYLENAME
350
267F
  3
ACDBHEADERROUNDTRIPXREC
350
286C
  3
AcDbVariableDictionary
350
2869
  0
DICTIONARY
  5
2682
102
{ACAD_REACTORS
330
1A03
102
}
330
1A03
100
AcDbDictionary
281
     1
  0
DICTIONARY
  5
1A04
102
{ACAD_REACTORS
330
1A03
102
}
330
1A03
100
AcDbDictionary
281
     1
  0
DICTIONARY
  5
2683
102
{ACAD_REACTORS
330
1A03
102
}
330
1A03
100
AcDbDictionary
281
     1
  3
Layout1
350
2686
  3
Model
350
2685
  0
DICTIONARY
  5
2681
102
{ACAD_REACTORS
330
1A03
102
}
330
1A03
100
AcDbDictionary
281
     1
  0
DICTIONARY
  5
1A05
102
{ACAD_REACTORS
330
1A03
102
}
330
1A03
100
AcDbDictionary
281
     1
  3
STANDARD
350
1A06
  0
DICTIONARY
  5
2684
102
{ACAD_REACTORS
330
1A03
102
}
330
1A03
100
AcDbDictionary
281
     1
  0
ACDBDICTIONARYWDFLT
  5
267F
102
{ACAD_REACTORS
330
1A03
102
}
330
1A03
100
AcDbDictionary
281
     1
  3
Normal
350
2680
100
AcDbDictionaryWithDefault
340
2680
  0
DICTIONARY
  5
286C
102
{ACAD_REACTORS
330
1A03
102
}
330
1A03
100
AcDbDictionary
281
     1
  3
COLORDICT
350
286D
  3
MATERIALDICT
350
286E
  0
DICTIONARY
  5
2869
102
{ACAD_REACTORS
330
1A03
102
}
330
1A03
100
AcDbDictionary
281
     1
  3
DIMASSOC
350
286A
  3
HIDETEXT
350
286B
  0
LAYOUT
  5
2686
102
{ACAD_REACTORS
330
2683
102
}
330
2683
100
AcDbPlotSettings
  1

  2
\\alderaan\HP LaserJet 4050 Ricerca
  4

  6

 40
0.0
 41
0.0
 42
0.0
 43
0.0
 44
0.0
 45
0.0
 46
0.0
 47
0.0
 48
0.0
 49
0.0
140
0.0
141
0.0
142
1.0
143
1.0
 70
   688
 72
     0
 73
     0
 74
     5
  7

 75
    16
147
1.0
148
0.0
149
0.0
100
AcDbLayout
  1
Layout1
 70
     0
 71
     1
 10
0.0
 20
0.0
 11
12.0
 21
9.0
 12
0.0
 22
0.0
 32
0.0
 14
1.000000000000000E+20
 24
1.000000000000000E+20
 34
1.000000000000000E+20
 15
-1.000000000000000E+20
 25
-1.000000000000000E+20
 35
-1.000000000000000E+20
146
0.0
 13
0.0
 23
0.0
 33
0.0
 16
1.0
 26
0.0
 36
0.0
 17
0.0
 27
1.0
 37
0.0
 76
     0
330
1C
  0
LAYOUT
  5
2685
102
{ACAD_REACTORS
330
2683
102
}
330
2683
100
AcDbPlotSettings
  1

  2
\\alderaan\HP LaserJet 4050 Ricerca
  4
A4
  6

 40
5.027083396911621
 41
5.069430828094482
 42
5.365737915039062
 43
5.365753173828125
 44
209.8886566162109
 45
297.0530090332031
 46
7.619999999999999
 47
33.274
 48
42.12131005348282
 49
48.15864182779694
140
258.5737343339554
141
229.655724512166
142
1.0
143
25.0
 70
 11940
 72
     0
 73
     1
 74
     4
  7

 75
     0
147
0.04
148
-1069.881275358464
149
-1223.229502426042
100
AcDbLayout
  1
Model
 70
     1
 71
     0
 10
0.0
 20
0.0
 11
12.0
 21
9.0
 12
0.0
 22
0.0
 32
0.0
 14
0.0
 24
0.0
 34
0.0
 15
0.0
 25
0.0
 35
0.0
146
0.0
 13
0.0
 23
0.0
 33
0.0
 16
1.0
 26
0.0
 36
0.0
 17
0.0
 27
1.0
 37
0.0
 76
     0
330
1B
  0
MLINESTYLE
  5
1A06
102
{ACAD_REACTORS
330
1A05
102
}
330
1A05
100
AcDbMlineStyle
  2
STANDARD
 70
     0
  3

 62
   256
 51
90.00000000000019
 52
90.00000000000019
 71
     2
 49
0.5
 62
   256
  6
BYLAYER
 49
-0.5
 62
   256
  6
BYLAYER
  0
ACDBPLACEHOLDER
  5
2680
102
{ACAD_REACTORS
330
267F
102
}
330
267F
  0
XRECORD
  5
286D
102
{ACAD_REACTORS
330
286C
102
}
330
286C
100
AcDbXrecord
280
     1
340
2682
  0
XRECORD
  5
286E
102
{ACAD_REACTORS
330
286C
102
}
330
286C
100
AcDbXrecord
280
     1
340
2681
  0
DICTIONARYVAR
  5
286A
102
{ACAD_REACTORS
330
2869
102
}
330
2869
100
DictionaryVariables
280
     0
  1
1
  0
DICTIONARYVAR
  5
286B
102
{ACAD_REACTORS
330
2869
102
}
330
2869
100
DictionaryVariables
280
     0
  1
0
  0
ENDSEC
  0
EOF
