  0
SECTION
  2
HEADER
  9
$ACADVER
  1
AC1015
  9
$ACADMAINTVER
 70
     6
  9
$DWGCODEPAGE
  3
ANSI_1252
  9
$INSBASE
 10
0.0
 20
0.0
 30
0.0
  9
$EXTMIN
 10
-6.04190702849991
 20
69.54826459789999
 30
0.0
  9
$EXTMAX
 10
232.7845038394001
 20
221.3934918704232
 30
0.0
  9
$LIMMIN
 10
0.0
 20
0.0
  9
$LIMMAX
 10
420.0
 20
297.0
  9
$ORTHOMODE
 70
     0
  9
$REGENMODE
 70
     1
  9
$FILLMODE
 70
     1
  9
$QTEXTMODE
 70
     0
  9
$MIRRTEXT
 70
     1
  9
$LTSCALE
 40
23.1
  9
$ATTMODE
 70
     1
  9
$TEXTSIZE
 40
0.2
  9
$TRACEWID
 40
0.05
  9
$TEXTSTYLE
  7
STANDARD
  9
$CLAYER
  8
0
  9
$CELTYPE
  6
BYLAYER
  9
$CECOLOR
 62
   256
  9
$CELTSCALE
 40
1.0
  9
$DISPSILH
 70
     0
  9
$DIMSCALE
 40
1.0
  9
$DIMASZ
 40
3.0
  9
$DIMEXO
 40
2.625
  9
$DIMDLI
 40
15.96
  9
$DIMRND
 40
0.0
  9
$DIMDLE
 40
0.0
  9
$DIMEXE
 40
7.559999999999999
  9
$DIMTP
 40
0.003
  9
$DIMTM
 40
0.003
  9
$DIMTXT
 40
1.5
  9
$DIMCEN
 40
3.779999999999999
  9
$DIMTSZ
 40
0.0
  9
$DIMTOL
 70
     1
  9
$DIMLIM
 70
     0
  9
$DIMTIH
 70
     1
  9
$DIMTOH
 70
     1
  9
$DIMSE1
 70
     0
  9
$DIMSE2
 70
     0
  9
$DIMTAD
 70
     0
  9
$DIMZIN
 70
     0
  9
$DIMBLK
  1

  9
$DIMASO
 70
     1
  9
$DIMSHO
 70
     1
  9
$DIMPOST
  1

  9
$DIMAPOST
  1

  9
$DIMALT
 70
     0
  9
$DIMALTD
 70
     2
  9
$DIMALTF
 40
25.4
  9
$DIMLFAC
 40
1.0
  9
$DIMTOFL
 70
     0
  9
$DIMTVP
 40
0.0
  9
$DIMTIX
 70
     0
  9
$DIMSOXD
 70
     0
  9
$DIMSAH
 70
     0
  9
$DIMBLK1
  1

  9
$DIMBLK2
  1

  9
$DIMSTYLE
  2
STANDARD
  9
$DIMCLRD
 70
     0
  9
$DIMCLRE
 70
     0
  9
$DIMCLRT
 70
     0
  9
$DIMTFAC
 40
1.0
  9
$DIMGAP
 40
0.09
  9
$DIMJUST
 70
     0
  9
$DIMSD1
 70
     0
  9
$DIMSD2
 70
     0
  9
$DIMTOLJ
 70
     1
  9
$DIMTZIN
 70
     0
  9
$DIMALTZ
 70
     0
  9
$DIMALTTZ
 70
     0
  9
$DIMUPT
 70
     0
  9
$DIMDEC
 70
     4
  9
$DIMTDEC
 70
     4
  9
$DIMALTU
 70
     2
  9
$DIMALTTD
 70
     2
  9
$DIMTXSTY
  7
STANDARD
  9
$DIMAUNIT
 70
     0
  9
$DIMADEC
 70
     0
  9
$DIMALTRND
 40
0.0
  9
$DIMAZIN
 70
     0
  9
$DIMDSEP
 70
    46
  9
$DIMATFIT
 70
     3
  9
$DIMFRAC
 70
     0
  9
$DIMLDRBLK
  1

  9
$DIMLUNIT
 70
     2
  9
$DIMLWD
 70
    -2
  9
$DIMLWE
 70
    -2
  9
$DIMTMOVE
 70
     0
  9
$LUNITS
 70
     2
  9
$LUPREC
 70
     4
  9
$SKETCHINC
 40
0.1
  9
$FILLETRAD
 40
0.0
  9
$AUNITS
 70
     0
  9
$AUPREC
 70
     0
  9
$MENU
  1
acad
  9
$ELEVATION
 40
0.0
  9
$PELEVATION
 40
0.0
  9
$THICKNESS
 40
0.0
  9
$LIMCHECK
 70
     0
  9
$CHAMFERA
 40
0.0
  9
$CHAMFERB
 40
0.0
  9
$CHAMFERC
 40
0.0
  9
$CHAMFERD
 40
0.0
  9
$SKPOLY
 70
     0
  9
$TDCREATE
 40
2444972.041666667
  9
$TDUCREATE
 40
2444972.0
  9
$TDUPDATE
 40
2453410.612369699
  9
$TDUUPDATE
 40
2453410.570703032
  9
$TDINDWG
 40
0.0493826736
  9
$TDUSRTIMER
 40
0.0493826736
  9
$USRTIMER
 70
     1
  9
$ANGBASE
 50
0.0
  9
$ANGDIR
 70
     0
  9
$PDMODE
 70
     0
  9
$PDSIZE
 40
0.0
  9
$PLINEWID
 40
0.0
  9
$SPLFRAME
 70
     0
  9
$SPLINETYPE
 70
     6
  9
$SPLINESEGS
 70
     8
  9
$HANDSEED
  5
2BC2
  9
$SURFTAB1
 70
     6
  9
$SURFTAB2
 70
     6
  9
$SURFTYPE
 70
     6
  9
$SURFU
 70
     6
  9
$SURFV
 70
     6
  9
$UCSBASE
  2

  9
$UCSNAME
  2

  9
$UCSORG
 10
0.0
 20
0.0
 30
0.0
  9
$UCSXDIR
 10
1.0
 20
0.0
 30
0.0
  9
$UCSYDIR
 10
0.0
 20
1.0
 30
0.0
  9
$UCSORTHOREF
  2

  9
$UCSORTHOVIEW
 70
     0
  9
$UCSORGTOP
 10
0.0
 20
0.0
 30
0.0
  9
$UCSORGBOTTOM
 10
0.0
 20
0.0
 30
0.0
  9
$UCSORGLEFT
 10
0.0
 20
0.0
 30
0.0
  9
$UCSORGRIGHT
 10
0.0
 20
0.0
 30
0.0
  9
$UCSORGFRONT
 10
0.0
 20
0.0
 30
0.0
  9
$UCSORGBACK
 10
0.0
 20
0.0
 30
0.0
  9
$PUCSBASE
  2

  9
$PUCSNAME
  2

  9
$PUCSORG
 10
0.0
 20
0.0
 30
0.0
  9
$PUCSXDIR
 10
1.0
 20
0.0
 30
0.0
  9
$PUCSYDIR
 10
0.0
 20
1.0
 30
0.0
  9
$PUCSORTHOREF
  2

  9
$PUCSORTHOVIEW
 70
     0
  9
$PUCSORGTOP
 10
0.0
 20
0.0
 30
0.0
  9
$PUCSORGBOTTOM
 10
0.0
 20
0.0
 30
0.0
  9
$PUCSORGLEFT
 10
0.0
 20
0.0
 30
0.0
  9
$PUCSORGRIGHT
 10
0.0
 20
0.0
 30
0.0
  9
$PUCSORGFRONT
 10
0.0
 20
0.0
 30
0.0
  9
$PUCSORGBACK
 10
0.0
 20
0.0
 30
0.0
  9
$USERI1
 70
     0
  9
$USERI2
 70
     0
  9
$USERI3
 70
     0
  9
$USERI4
 70
     0
  9
$USERI5
 70
     0
  9
$USERR1
 40
0.0
  9
$USERR2
 40
0.0
  9
$USERR3
 40
0.0
  9
$USERR4
 40
0.0
  9
$USERR5
 40
0.0
  9
$WORLDVIEW
 70
     1
  9
$SHADEDGE
 70
     3
  9
$SHADEDIF
 70
    70
  9
$TILEMODE
 70
     1
  9
$MAXACTVP
 70
    16
  9
$PINSBASE
 10
0.0
 20
0.0
 30
0.0
  9
$PLIMCHECK
 70
     0
  9
$PEXTMIN
 10
1.000000000000000E+20
 20
1.000000000000000E+20
 30
1.000000000000000E+20
  9
$PEXTMAX
 10
-1.000000000000000E+20
 20
-1.000000000000000E+20
 30
-1.000000000000000E+20
  9
$PLIMMIN
 10
0.0
 20
0.0
  9
$PLIMMAX
 10
12.0
 20
9.0
  9
$UNITMODE
 70
     0
  9
$VISRETAIN
 70
     0
  9
$PLINEGEN
 70
     1
  9
$PSLTSCALE
 70
     0
  9
$TREEDEPTH
 70
  3020
  9
$CMLSTYLE
  2
STANDARD
  9
$CMLJUST
 70
     0
  9
$CMLSCALE
 40
1.0
  9
$PROXYGRAPHICS
 70
     1
  9
$MEASUREMENT
 70
     0
  9
$CELWEIGHT
370
    -1
  9
$ENDCAPS
280
     0
  9
$JOINSTYLE
280
     0
  9
$LWDISPLAY
290
     0
  9
$INSUNITS
 70
     0
  9
$HYPERLINKBASE
  1

  9
$STYLESHEET
  1

  9
$XEDIT
290
     1
  9
$CEPSNTYPE
380
     0
  9
$PSTYLEMODE
290
     1
  9
$FINGERPRINTGUID
  2
{2BA838C6-2552-4DC1-A3F2-F4237DB76220}
  9
$VERSIONGUID
  2
{4CEBA050-2F07-48CC-A2D7-FA710A5FCDB8}
  9
$EXTNAMES
290
     1
  9
$PSVPSCALE
 40
0.0
  9
$OLESTARTUP
290
     0
  0
ENDSEC
  0
SECTION
  2
CLASSES
  0
CLASS
  1
IMAGE
  2
AcDbRasterImage
  3
ISM
 90
      127
280
     0
281
     1
  0
CLASS
  1
DICTIONARYVAR
  2
AcDbDictionaryVar
  3
ObjectDBX Classes
 90
        0
280
     0
281
     0
  0
CLASS
  1
RASTERVARIABLES
  2
AcDbRasterVariables
  3
ISM
 90
        0
280
     0
281
     0
  0
CLASS
  1
IMAGEDEF
  2
AcDbRasterImageDef
  3
ISM
 90
        0
280
     0
281
     0
  0
CLASS
  1
IMAGEDEF_REACTOR
  2
AcDbRasterImageDefReactor
  3
ISM
 90
        1
280
     0
281
     0
  0
CLASS
  1
IDBUFFER
  2
AcDbIdBuffer
  3
ObjectDBX Classes
 90
        0
280
     0
281
     0
  0
CLASS
  1
SPATIAL_FILTER
  2
AcDbSpatialFilter
  3
ObjectDBX Classes
 90
        0
280
     0
281
     0
  0
CLASS
  1
SORTENTSTABLE
  2
AcDbSortentsTable
  3
ObjectDBX Classes
 90
        0
280
     0
281
     0
  0
CLASS
  1
LAYER_INDEX
  2
AcDbLayerIndex
  3
ObjectDBX Classes
 90
        0
280
     0
281
     0
  0
CLASS
  1
SPATIAL_INDEX
  2
AcDbSpatialIndex
  3
AutoCAD 2000
 90
        0
280
     0
281
     0
  0
CLASS
  1
OBJECT_PTR
  2
CAseDLPNTableRecord
  3
ASE-LPNTableRecord
 90
        1
280
     0
281
     0
  0
CLASS
  1
PLOTSETTINGS
  2
AcDbPlotSettings
  3
ObjectDBX Classes
 90
        0
280
     0
281
     0
  0
CLASS
  1
ACDBDICTIONARYWDFLT
  2
AcDbDictionaryWithDefault
  3
ObjectDBX Classes
 90
        0
280
     0
281
     0
  0
CLASS
  1
WIPEOUT
  2
AcDbWipeout
  3
WipeOut|AutoCAD Express Tool|expresstools@autodesk.com
 90
      127
280
     0
281
     1
  0
CLASS
  1
WIPEOUTVARIABLES
  2
AcDbWipeoutVariables
  3
WipeOut|AutoCAD Express Tool|expresstools@autodesk.com
 90
        0
280
     0
281
     0
  0
CLASS
  1
RTEXT
  2
RText
  3
RText|AutoCAD Express Tool|expresstools@autodesk.com
 90
        0
280
     0
281
     1
  0
CLASS
  1
ARCALIGNEDTEXT
  2
AcDbArcAlignedText
  3
ATEXT|AutoCAD Express Tool|expresstools@autodesk.com
 90
        0
280
     0
281
     1
  0
CLASS
  1
ACDBPLACEHOLDER
  2
AcDbPlaceHolder
  3
ObjectDBX Classes
 90
        0
280
     0
281
     0
  0
CLASS
  1
LAYOUT
  2
AcDbLayout
  3
ObjectDBX Classes
 90
        0
280
     0
281
     0
  0
ENDSEC
  0
SECTION
  2
TABLES
  0
TABLE
  2
VPORT
  5
8
330
0
100
AcDbSymbolTable
 70
     1
  0
VPORT
  5
2BBB
330
8
100
AcDbSymbolTableRecord
100
AcDbViewportTableRecord
  2
*Active
 70
     0
 10
0.0
 20
0.0
 11
1.0
 21
1.0
 12
103.9510454517185
 22
151.6460459692822
 13
0.0
 23
0.0
 14
1.0
 24
1.0
 15
0.0
 25
0.0
 16
0.0
 26
0.0
 36
1.0
 17
0.0
 27
0.0
 37
0.0
 40
216.2870489678792
 41
1.888667992047713
 42
50.0
 43
0.0
 44
0.0
 50
0.0
 51
0.0
 71
     0
 72
   100
 73
     1
 74
     1
 75
     0
 76
     0
 77
     0
 78
     0
281
     0
 65
     1
110
0.0
120
0.0
130
0.0
111
1.0
121
0.0
131
0.0
112
0.0
122
1.0
132
0.0
 79
     0
146
0.0
  0
ENDTAB
  0
TABLE
  2
LTYPE
  5
5
330
0
100
AcDbSymbolTable
 70
     2
  0
LTYPE
  5
14
330
5
100
AcDbSymbolTableRecord
100
AcDbLinetypeTableRecord
  2
BYBLOCK
 70
     0
  3

 72
    65
 73
     0
 40
0.0
  0
LTYPE
  5
15
330
5
100
AcDbSymbolTableRecord
100
AcDbLinetypeTableRecord
  2
BYLAYER
 70
     0
  3

 72
    65
 73
     0
 40
0.0
  0
LTYPE
  5
16
330
5
100
AcDbSymbolTableRecord
100
AcDbLinetypeTableRecord
  2
CONTINUOUS
 70
     0
  3
Solid line
 72
    65
 73
     0
 40
0.0
  0
LTYPE
  5
1F5
330
5
100
AcDbSymbolTableRecord
100
AcDbLinetypeTableRecord
  2
CENTER
 70
     0
  3
____ _ ____ _ ____ _ ____ _ ____ _ ____ _ ____
 72
    65
 73
     4
 40
0.6
 49
0.375
 74
     0
 49
-0.075
 74
     0
 49
0.075
 74
     0
 49
-0.075
 74
     0
  0
ENDTAB
  0
TABLE
  2
LAYER
  5
2
330
0
100
AcDbSymbolTable
 70
     3
  0
LAYER
  5
10
330
2
100
AcDbSymbolTableRecord
100
AcDbLayerTableRecord
  2
0
 70
     0
 62
     7
  6
CONTINUOUS
370
    -3
390
2A49
  0
LAYER
  5
1FA
330
2
100
AcDbSymbolTableRecord
100
AcDbLayerTableRecord
  2
DEFAULT_1
 70
     0
 62
     7
  6
CENTER
370
    -3
390
2A49
  0
LAYER
  5
2ABA
330
2
100
AcDbSymbolTableRecord
100
AcDbLayerTableRecord
  2
Defpoints
 70
     0
 62
     7
  6
CONTINUOUS
290
     0
370
    -3
390
2A49
  0
ENDTAB
  0
TABLE
  2
STYLE
  5
3
330
0
100
AcDbSymbolTable
 70
     1
  0
STYLE
  5
11
330
3
100
AcDbSymbolTableRecord
100
AcDbTextStyleTableRecord
  2
STANDARD
 70
     0
 40
0.0
 41
1.0
 50
0.0
 71
     0
 42
0.2
  3
txt
  4

  0
ENDTAB
  0
TABLE
  2
VIEW
  5
6
330
0
100
AcDbSymbolTable
 70
     0
  0
ENDTAB
  0
TABLE
  2
UCS
  5
7
330
0
100
AcDbSymbolTable
 70
     0
  0
ENDTAB
  0
TABLE
  2
APPID
  5
9
330
0
100
AcDbSymbolTable
 70
     1
  0
APPID
  5
218
330
9
100
AcDbSymbolTableRecord
100
AcDbRegAppTableRecord
  2
ACAD
 70
     0
  0
ENDTAB
  0
TABLE
  2
DIMSTYLE
  5
A
330
0
100
AcDbSymbolTable
 70
     1
100
AcDbDimStyleTable
  0
DIMSTYLE
105
219
330
A
100
AcDbSymbolTableRecord
100
AcDbDimStyleTableRecord
  2
STANDARD
 70
     0
 41
3.0
 47
0.003
 48
0.003
 71
     1
 73
     0
 74
     0
 77
     1
 78
     8
140
1.5
271
     3
272
     3
284
     8
340
11
  0
ENDTAB
  0
TABLE
  2
BLOCK_RECORD
  5
1
330
0
100
AcDbSymbolTable
 70
     0
  0
BLOCK_RECORD
  5
1B
330
1
100
AcDbSymbolTableRecord
100
AcDbBlockTableRecord
  2
*MODEL_SPACE
340
2A4E
  0
BLOCK_RECORD
  5
1C
330
1
100
AcDbSymbolTableRecord
100
AcDbBlockTableRecord
  2
*PAPER_SPACE
340
2A4F
  0
ENDTAB
  0
ENDSEC
  0
SECTION
  2
BLOCKS
  0
BLOCK
  5
1E
330
1B
100
AcDbEntity
  8
0
100
AcDbBlockBegin
  2
*MODEL_SPACE
 70
     0
 71
     0
 10
0.0
 20
0.0
 30
0.0
  3
*MODEL_SPACE
  1

  0
ENDBLK
  5
1F
330
1B
100
AcDbEntity
  8
0
100
AcDbBlockEnd
  0
BLOCK
  5
20
330
1C
100
AcDbEntity
 67
     1
  8
0
100
AcDbBlockBegin
  2
*PAPER_SPACE
 70
     0
 71
     0
 10
0.0
 20
0.0
 30
0.0
  3
*PAPER_SPACE
  1

  0
ENDBLK
  5
21
330
1C
100
AcDbEntity
 67
     1
  8
0
100
AcDbBlockEnd
  0
ENDSEC
  0
SECTION
  2
ENTITIES
  0
TEXT
  5
2F4
330
1B
100
AcDbEntity
  8
0
  6
Continuous
 62
     1
100
AcDbText
 10
328.0620514055
 20
31.790927071
 30
0.0
 40
1.5
  1
 
 41
1.285714285699999
 72
     5
 11
329.990622834
 21
31.790927071
 31
0.0
100
AcDbText
  0
TEXT
  5
2F5
330
1B
100
AcDbEntity
  8
0
  6
Continuous
 62
     1
100
AcDbText
 10
329.990622834
 20
31.790927071
 30
0.0
 40
1.5
  1
 
 41
1.285714285699999
 72
     5
 11
331.9191942626
 21
31.790927071
 31
0.0
100
AcDbText
  0
TEXT
  5
2F7
330
1B
100
AcDbEntity
  8
0
  6
Continuous
 62
     1
100
AcDbText
 10
352.7763371197
 20
31.790927071
 30
0.0
 40
1.5
  1
 
 41
1.285714285699999
 72
     5
 11
354.7049085483
 21
31.790927071
 31
0.0
100
AcDbText
  0
TEXT
  5
301
330
1B
100
AcDbEntity
  8
0
  6
Continuous
 62
     1
100
AcDbText
 10
401.7191942625999
 20
20.9052127852
 30
0.0
 40
1.5
  1
 
 41
1.0285714286
 72
     5
 11
403.2620514054999
 21
20.9052127852
 31
0.0
100
AcDbText
  0
LINE
  5
3E4
330
1B
100
AcDbEntity
  8
0
  6
Continuous
100
AcDbLine
 10
37.51168281
 20
120.9554442749
 30
0.0
 11
39.4656788878
 21
117.5710237905
 31
0.0
  0
LINE
  5
3E5
330
1B
100
AcDbEntity
  8
0
  6
Continuous
100
AcDbLine
 10
37.4580929715
 20
171.541084921
 30
0.0
 11
37.4580929715
 21
121.1554442749
 31
0.0
  0
LINE
  5
3E6
330
1B
100
AcDbEntity
  8
0
  6
Continuous
100
AcDbLine
 10
37.51168281
 20
120.9554442749
 30
0.0
 11
37.51168281
 21
171.741084921
 31
0.0
  0
LINE
  5
3E7
330
1B
100
AcDbEntity
  8
0
  6
Continuous
100
AcDbLine
 10
39.47881891370001
 20
175.1482645979
 30
0.0
 11
39.47881891370001
 21
175.1179190079
 31
0.0
  0
LINE
  5
3E8
330
1B
100
AcDbEntity
  8
0
  6
Continuous
100
AcDbLine
 10
39.47881891370001
 20
161.8777484544
 30
0.0
 11
39.47881891370001
 21
159.5884351514
 31
0.0
  0
LINE
  5
3E9
330
1B
100
AcDbEntity
  8
0
  6
Continuous
100
AcDbLine
 10
39.47881891370001
 20
133.1080940445
 30
0.0
 11
39.47881891370001
 21
130.8187807415
 31
0.0
  0
LINE
  5
3EA
330
1B
100
AcDbEntity
  8
0
  6
Continuous
100
AcDbLine
 10
39.47881891370001
 20
117.578610188
 30
0.0
 11
39.47881891370001
 21
117.5482645979
 31
0.0
  0
LINE
  5
3EB
330
1B
100
AcDbEntity
  8
0
  6
Continuous
100
AcDbLine
 10
47.8080914457
 20
149.8482630721
 30
0.0
 11
48.5080922086
 21
142.8482630721
 31
0.0
  0
LINE
  5
3EC
330
1B
100
AcDbEntity
  8
0
  6
Continuous
100
AcDbLine
 10
48.2455914457
 20
142.8482630721
 30
0.0
 11
48.0705922086
 21
144.6354983321
 31
0.0
  0
LINE
  5
3ED
330
1B
100
AcDbEntity
  8
0
  6
Continuous
100
AcDbLine
 10
48.0268414457
 20
145.2312434188
 30
0.0
 11
47.6330922086
 21
149.2525218001
 31
0.0
  0
LINE
  5
3EE
330
1B
100
AcDbEntity
  8
0
  6
Continuous
100
AcDbLine
 10
46.1455929715
 20
147.4652865401
 30
0.0
 11
46.10184220859999
 21
148.0610316268
 31
0.0
  0
LINE
  5
3EF
330
1B
100
AcDbEntity
  8
0
  6
Continuous
100
AcDbLine
 10
46.3643429715
 20
148.2099650374
 30
0.0
 11
46.40809373449999
 21
147.4652865401
 31
0.0
  0
LINE
  5
3F0
330
1B
100
AcDbEntity
  8
0
  6
Continuous
100
AcDbLine
 10
44.65809373449999
 20
142.8482630721
 30
0.0
 11
44.65809373449999
 21
149.8482630721
 31
0.0
  0
LINE
  5
3F1
330
1B
100
AcDbEntity
  8
0
  6
Continuous
100
AcDbLine
 10
44.9205944974
 20
148.9546473494
 30
0.0
 11
44.9205944974
 21
143.7418826094
 31
0.0
  0
LINE
  5
3F2
330
1B
100
AcDbEntity
  8
0
  6
Continuous
100
AcDbLine
 10
46.1455929715
 20
145.2312434188
 30
0.0
 11
46.1455929715
 21
147.4652865401
 31
0.0
  0
LINE
  5
3F3
330
1B
100
AcDbEntity
  8
0
  6
Continuous
100
AcDbLine
 10
46.40809373449999
 20
147.4652865401
 30
0.0
 11
46.40809373449999
 21
145.2312434188
 31
0.0
  0
LINE
  5
3F4
330
1B
100
AcDbEntity
  8
0
  6
Continuous
100
AcDbLine
 10
37.51168281
 20
171.741084921
 30
0.0
 11
39.4656788878
 21
175.1255054054
 31
0.0
  0
LINE
  5
3F5
330
1B
100
AcDbEntity
  8
0
  6
Continuous
100
AcDbLine
 10
46.0143444974
 20
148.5078394881
 30
0.0
 11
45.8830922086
 21
148.8057101241
 31
0.0
  0
LINE
  5
3F6
330
1B
100
AcDbEntity
  8
0
  6
Continuous
100
AcDbLine
 10
46.10184220859999
 20
149.4014552107
 30
0.0
 11
46.27684144569999
 21
148.8057101241
 31
0.0
  0
LINE
  5
3F7
330
1B
100
AcDbEntity
  8
0
  6
Continuous
100
AcDbLine
 10
46.10184220859999
 20
148.0610316268
 30
0.0
 11
46.0143444974
 21
148.5078394881
 31
0.0
  0
LINE
  5
3F8
330
1B
100
AcDbEntity
  8
0
  6
Continuous
100
AcDbLine
 10
46.27684144569999
 20
148.8057101241
 30
0.0
 11
46.3643429715
 21
148.2099650374
 31
0.0
  0
LINE
  5
3F9
330
1B
100
AcDbEntity
  8
0
  6
Continuous
100
AcDbLine
 10
51.9205944974
 20
149.8482630721
 30
0.0
 11
52.620593353
 21
142.8482630721
 31
0.0
  0
LINE
  5
3FA
330
1B
100
AcDbEntity
  8
0
  6
Continuous
100
AcDbLine
 10
52.3580944974
 20
142.8482630721
 30
0.0
 11
52.1830914457
 21
144.6354983321
 31
0.0
  0
LINE
  5
3FB
330
1B
100
AcDbEntity
  8
0
  6
Continuous
100
AcDbLine
 10
52.1393444974
 20
145.2312434188
 30
0.0
 11
51.7455914457
 21
149.2525218001
 31
0.0
  0
LINE
  5
3FC
330
1B
100
AcDbEntity
  8
0
  6
Continuous
100
AcDbLine
 10
48.8580944974
 20
149.1035845748
 30
0.0
 11
48.8580944974
 21
149.8482630721
 31
0.0
  0
LINE
  5
3FD
330
1B
100
AcDbEntity
  8
0
  6
Continuous
100
AcDbLine
 10
49.5580914457
 20
142.8482630721
 30
0.0
 11
49.5580914457
 21
149.1035845748
 31
0.0
  0
LINE
  5
3FE
330
1B
100
AcDbEntity
  8
0
  6
Continuous
100
AcDbLine
 10
49.8205922086
 20
149.1035845748
 30
0.0
 11
49.8205922086
 21
142.8482630721
 31
0.0
  0
LINE
  5
3FF
330
1B
100
AcDbEntity
  8
0
  6
Continuous
100
AcDbLine
 10
50.5205929715
 20
149.8482630721
 30
0.0
 11
50.5205929715
 21
149.1035845748
 31
0.0
  0
LINE
  5
400
330
1B
100
AcDbEntity
  8
0
  6
Continuous
100
AcDbLine
 10
51.0580929715
 20
194.5604025521
 30
0.0
 11
51.0580929715
 21
187.1154007016
 31
0.0
  0
LINE
  5
401
330
1B
100
AcDbEntity
  8
0
  6
Continuous
100
AcDbLine
 10
51.0848754513
 20
194.5604025521
 30
0.0
 11
51.0848754513
 21
187.1154007016
 31
0.0
  0
LINE
  5
402
330
1B
100
AcDbEntity
  8
0
  6
Continuous
100
AcDbLine
 10
51.3512209024
 20
194.5604026668
 30
0.0
 11
51.3512209024
 21
186.9905377094999
 31
0.0
  0
LINE
  5
403
330
1B
100
AcDbEntity
  8
0
  6
Continuous
100
AcDbLine
 10
46.40809373449999
 20
145.2312434188
 30
0.0
 11
46.3643429715
 21
144.4865611067
 31
0.0
  0
LINE
  5
404
330
1B
100
AcDbEntity
  8
0
  6
Continuous
100
AcDbLine
 10
46.10184220859999
 20
144.6354983321
 30
0.0
 11
46.1455929715
 21
145.2312434188
 31
0.0
  0
LINE
  5
405
330
1B
100
AcDbEntity
  8
0
  6
Continuous
100
AcDbLine
 10
47.6330922086
 20
149.2525218001
 30
0.0
 11
47.2393429715
 21
145.2312434188
 31
0.0
  0
LINE
  5
406
330
1B
100
AcDbEntity
  8
0
  6
Continuous
100
AcDbLine
 10
47.19559220859999
 20
144.6354983321
 30
0.0
 11
47.02059297149999
 21
142.8482630721
 31
0.0
  0
LINE
  5
407
330
1B
100
AcDbEntity
  8
0
  6
Continuous
100
AcDbLine
 10
46.75809220859999
 20
142.8482630721
 30
0.0
 11
47.4580929715
 21
149.8482630721
 31
0.0
  0
LWPOLYLINE
  5
408
330
1B
100
AcDbEntity
  8
0
  6
Continuous
100
AcDbPolyline
 90
        5
 70
     0
 43
0.0
 10
51.0848754513
 20
194.5604025521
 10
51.1529691525
 20
195.0780406423
 10
51.3526097831
 20
195.5604025521
 10
51.67019216399999
 20
195.9746161145
 10
52.0840735806
 20
196.2924533597
  0
LINE
  5
40F
330
1B
100
AcDbEntity
  8
0
  6
Continuous
100
AcDbLine
 10
46.3643429715
 20
144.4865611067
 30
0.0
 11
46.27684144569999
 21
143.8908160201
 31
0.0
  0
LINE
  5
410
330
1B
100
AcDbEntity
  8
0
  6
Continuous
100
AcDbLine
 10
46.0143444974
 20
144.1886904708
 30
0.0
 11
46.10184220859999
 21
144.6354983321
 31
0.0
  0
LINE
  5
411
330
1B
100
AcDbEntity
  8
0
  6
Continuous
100
AcDbLine
 10
45.92684297149999
 20
149.6993296614
 30
0.0
 11
46.10184220859999
 21
149.4014552107
 31
0.0
  0
LINE
  5
412
330
1B
100
AcDbEntity
  8
0
  6
Continuous
100
AcDbLine
 10
57.10339243319999
 20
117.5482645979
 30
0.0
 11
57.10339167869999
 21
117.8444520478
 31
0.0
  0
LINE
  5
413
330
1B
100
AcDbEntity
  8
0
  6
Continuous
100
AcDbLine
 10
57.103391672
 20
130.1651663128
 30
0.0
 11
57.1033916657
 21
134.0275503329
 31
0.0
  0
LINE
  5
414
330
1B
100
AcDbEntity
  8
0
  6
Continuous
100
AcDbLine
 10
57.10339166269999
 20
158.668978863
 30
0.0
 11
57.1033917993
 21
162.5313628831
 31
0.0
  0
LINE
  5
415
330
1B
100
AcDbEntity
  8
0
  6
Continuous
100
AcDbLine
 10
58.8354432407
 20
118.5482645979
 30
0.0
 11
58.8354432407
 21
118.5775558655
 31
0.0
  0
LINE
  5
416
330
1B
100
AcDbEntity
  8
0
  6
Continuous
100
AcDbLine
 10
58.8354432407
 20
131.3580110614
 30
0.0
 11
58.8354432407
 21
133.5678093112
 31
0.0
  0
LINE
  5
417
330
1B
100
AcDbEntity
  8
0
  6
Continuous
100
AcDbLine
 10
58.8354432407
 20
159.1287199243
 30
0.0
 11
58.8354432407
 21
161.3385211077
 31
0.0
  0
LINE
  5
418
330
1B
100
AcDbEntity
  8
0
  6
Continuous
100
AcDbLine
 10
51.7455914457
 20
149.2525218001
 30
0.0
 11
51.3518422086
 21
145.2312434188
 31
0.0
  0
LINE
  5
419
330
1B
100
AcDbEntity
  8
0
  6
Continuous
100
AcDbLine
 10
51.3080914457
 20
144.6354983321
 30
0.0
 11
51.13309220859999
 21
142.8482630721
 31
0.0
  0
LINE
  5
41A
330
1B
100
AcDbEntity
  8
0
  6
Continuous
100
AcDbLine
 10
50.8705914457
 20
142.8482630721
 30
0.0
 11
51.57059220859999
 21
149.8482630721
 31
0.0
  0
LINE
  5
41B
330
1B
100
AcDbEntity
  8
0
  6
Continuous
100
AcDbLine
 10
46.27684144569999
 20
143.8908160201
 30
0.0
 11
46.10184220859999
 21
143.2950747481
 31
0.0
  0
LINE
  5
41C
330
1B
100
AcDbEntity
  8
0
  6
Continuous
100
AcDbLine
 10
56.1939913564
 20
198.6803154055
 30
0.0
 11
52.0580929715
 21
196.2924533597
 31
0.0
  0
LINE
  5
41D
330
1B
100
AcDbEntity
  8
0
  6
Continuous
100
AcDbLine
 10
74.07829335489998
 20
118.9088932473
 30
0.0
 11
65.18397098849999
 21
123.0563838809
 31
0.0
  0
LINE
  5
41E
330
1B
100
AcDbEntity
  8
0
  6
Continuous
100
AcDbLine
 10
74.078296092
 20
118.9088984572
 30
0.0
 11
74.55758859220001
 21
118.6287162169
 31
0.0
  0
LINE
  5
41F
330
1B
100
AcDbEntity
  8
0
  6
Continuous
100
AcDbLine
 10
45.8830922086
 20
148.8057101241
 30
0.0
 11
45.7080929715
 21
148.9546473494
 31
0.0
  0
LINE
  5
420
330
1B
100
AcDbEntity
  8
0
  6
Continuous
100
AcDbLine
 10
59.9580929715
 20
183.5056239108
 30
0.0
 11
59.9580929715
 21
179.4046137841
 31
0.0
  0
LINE
  5
421
330
1B
100
AcDbEntity
  8
0
  6
Continuous
100
AcDbLine
 10
60.7406991291
 20
121.8482645979
 30
0.0
 11
60.7406991291
 21
168.5485932398
 31
0.0
  0
LINE
  5
422
330
1B
100
AcDbEntity
  8
0
  6
Continuous
100
AcDbLine
 10
63.33877534039999
 20
167.1893600638
 30
0.0
 11
63.33877534039999
 21
123.348264598
 31
0.0
  0
LWPOLYLINE
  5
423
330
1B
100
AcDbEntity
  8
0
  6
Continuous
100
AcDbPolyline
 90
        5
 70
     0
 43
0.0
 10
66.61335457319999
 20
194.5604025521
 10
66.6497791316
 20
195.0781432814
 10
66.75657737100001
 20
195.560612003
 10
66.92644932340001
 20
195.9748491374
 10
67.14762817800001
 20
196.2924533597
  0
LINE
  5
42A
330
1B
100
AcDbEntity
  8
0
  6
Continuous
100
AcDbLine
 10
64.8424511974
 20
214.9920032848
 30
0.0
 11
63.1959904487
 21
201.5826565677
 31
0.0
  0
LINE
  5
42B
330
1B
100
AcDbEntity
  8
0
  6
Continuous
100
AcDbLine
 10
45.8830922086
 20
143.8908160201
 30
0.0
 11
46.0143444974
 21
144.1886904708
 31
0.0
  0
LINE
  5
42C
330
1B
100
AcDbEntity
  8
0
  6
Continuous
100
AcDbLine
 10
123.0639049161
 20
113.0482645979
 30
0.0
 11
142.2904022243
 21
113.0482645979
 31
0.0
  0
LINE
  5
42D
330
1B
100
AcDbEntity
  8
0
  6
Continuous
100
AcDbLine
 10
123.0639049161
 20
113.0837491975
 30
0.0
 11
142.2904022243
 21
113.0837491975
 31
0.0
  0
LINE
  5
42E
330
1B
100
AcDbEntity
  8
0
  6
Continuous
100
AcDbLine
 10
122.942154492
 20
113.3495671827
 30
0.0
 11
142.2904022326
 21
113.3495671827
 31
0.0
  0
LINE
  5
42F
330
1B
100
AcDbEntity
  8
0
  6
Continuous
100
AcDbLine
 10
45.7080929715
 20
149.8482630721
 30
0.0
 11
45.92684297149999
 21
149.6993296614
 31
0.0
  0
LINE
  5
430
330
1B
100
AcDbEntity
  8
0
  6
Continuous
100
AcDbLine
 10
65.94985097510001
 20
186.9905377094999
 30
0.0
 11
65.94985097510001
 21
194.5604026657
 31
0.0
  0
LINE
  5
431
330
1B
100
AcDbEntity
  8
0
  6
Continuous
100
AcDbLine
 10
66.61335457319999
 20
187.1154007016
 30
0.0
 11
66.61335457319999
 21
194.5604025521
 31
0.0
  0
LINE
  5
432
330
1B
100
AcDbEntity
  8
0
  6
Continuous
100
AcDbLine
 10
67.3033924332
 20
124.9993083806
 30
0.0
 11
67.3033924332
 21
164.9311631451
 31
0.0
  0
LINE
  5
433
330
1B
100
AcDbEntity
  8
0
  6
Continuous
100
AcDbLine
 10
68.9296138496
 20
194.5604025521
 30
0.0
 11
68.9296138496
 21
187.1154007016
 31
0.0
  0
LINE
  5
434
330
1B
100
AcDbEntity
  8
0
  6
Continuous
100
AcDbLine
 10
69.03544324070001
 20
129.8052461948
 30
0.0
 11
69.03544324070001
 21
159.1748107467
 31
0.0
  0
LINE
  5
435
330
1B
100
AcDbEntity
  8
0
  6
Continuous
100
AcDbLine
 10
69.8594628988
 20
194.5604026652
 30
0.0
 11
69.8594628988
 21
186.9905377094999
 31
0.0
  0
LWPOLYLINE
  5
436
330
1B
100
AcDbEntity
  8
0
  6
Continuous
100
AcDbPolyline
 90
        5
 70
     0
 43
0.0
 10
68.9296138496
 20
194.5604025521
 10
68.9612976876
 20
195.0780406423
 10
69.0541900005
 20
195.5604025521
 10
69.2019603306
 20
195.9746161145
 10
69.3945383742
 20
196.2924533597
  0
LINE
  5
43D
330
1B
100
AcDbEntity
  8
0
  6
Continuous
100
AcDbLine
 10
46.10184220859999
 20
143.2950747481
 30
0.0
 11
45.92684297149999
 21
142.9972002974
 31
0.0
  0
LINE
  5
43E
330
1B
100
AcDbEntity
  8
0
  6
Continuous
100
AcDbLine
 10
57.8231943041
 20
176.0270744295
 30
0.0
 11
59.0794133151
 21
177.2832934405
 31
0.0
  0
LINE
  5
43F
330
1B
100
AcDbEntity
  8
0
  6
Continuous
100
AcDbLine
 10
39.47881891370001
 20
117.5482645979
 30
0.0
 11
57.10339243319999
 21
117.5482645979
 31
0.0
  0
LINE
  5
440
330
1B
100
AcDbEntity
  8
0
  6
Continuous
100
AcDbLine
 10
39.47881891370001
 20
117.578610188
 30
0.0
 11
57.10339167869999
 21
117.578610188
 31
0.0
  0
LINE
  5
441
330
1B
100
AcDbEntity
  8
0
  6
Continuous
100
AcDbLine
 10
39.3580993866
 20
117.8444520478
 30
0.0
 11
57.10339252749999
 21
117.8444520478
 31
0.0
  0
LINE
  5
442
330
1B
100
AcDbEntity
  8
0
  6
Continuous
100
AcDbLine
 10
162.6845038394
 20
121.5482645979
 30
0.0
 11
166.8845038394
 21
121.5482645979
 31
0.0
  0
LINE
  5
443
330
1B
100
AcDbEntity
  8
0
  6
Continuous
100
AcDbLine
 10
120.7545038394
 20
122.2282645979
 30
0.0
 11
120.1780929715
 21
122.2282645979
 31
0.0
  0
LINE
  5
444
330
1B
100
AcDbEntity
  8
0
  6
Continuous
100
AcDbLine
 10
57.1033916661
 20
134.0275506495
 30
0.0
 11
58.8354436317
 21
133.5678222012
 31
0.0
  0
LWPOLYLINE
  5
445
330
1B
100
AcDbEntity
  8
0
  6
Continuous
100
AcDbPolyline
 90
        5
 70
     0
 43
0.0
 10
75.5906542595
 20
145.4822391941
 10
75.888466155
 20
145.0054833264
 10
76.1169852598
 20
144.3841629828
 10
76.2606383745
 20
143.6606201181
 10
76.30963577670001
 20
142.8841629829
  0
LWPOLYLINE
  5
44C
330
1B
100
AcDbEntity
  8
0
  6
Continuous
100
AcDbPolyline
 90
        5
 70
     0
 43
0.0
 10
57.10339243319999
 20
117.5786101723
 10
57.6213201435
 20
117.6467677774
 10
58.1039022888
 20
117.8465636279
 10
58.5180932493
 20
118.1642767753
 10
58.8354432407
 20
118.5775565066
  0
LINE
  5
453
330
1B
100
AcDbEntity
  8
0
  6
Continuous
100
AcDbLine
 10
147.7545038394
 20
124.8274583842
 30
0.0
 11
160.2845038394
 21
124.8639067795
 31
0.0
  0
LINE
  5
454
330
1B
100
AcDbEntity
  8
0
  6
Continuous
100
AcDbLine
 10
169.3948729248
 20
123.3482645979
 30
0.0
 11
167.2845038394
 21
123.3482645979
 31
0.0
  0
LINE
  5
455
330
1B
100
AcDbEntity
  8
0
  6
Continuous
100
AcDbLine
 10
63.33877534039999
 20
123.3482645979
 30
0.0
 11
63.8929659638
 21
123.3482645979
 31
0.0
  0
LINE
  5
456
330
1B
100
AcDbEntity
  8
0
  6
Continuous
100
AcDbLine
 10
186.4188184144
 20
125.6482645979
 30
0.0
 11
175.9543768205
 21
125.6482645979
 31
0.0
  0
LINE
  5
457
330
1B
100
AcDbEntity
  8
0
  6
Continuous
100
AcDbLine
 10
100.2596364088
 20
126.4132645979
 30
0.0
 11
100.3508200818
 21
126.4132645979
 31
0.0
  0
LINE
  5
458
330
1B
100
AcDbEntity
  8
0
  6
Continuous
100
AcDbLine
 10
188.6545038394
 20
127.7182645979
 30
0.0
 11
175.3997219921
 21
127.7182645979
 31
0.0
  0
LINE
  5
459
330
1B
100
AcDbEntity
  8
0
  6
Continuous
100
AcDbLine
 10
142.2904022243
 20
127.7318479476
 30
0.0
 11
122.942154492
 21
127.7318479476
 31
0.0
  0
LINE
  5
45A
330
1B
100
AcDbEntity
  8
0
  6
Continuous
100
AcDbLine
 10
103.0481440742
 20
128.3482645979
 30
0.0
 11
115.8078528148
 21
128.3482645979
 31
0.0
  0
LINE
  5
45B
330
1B
100
AcDbEntity
  8
0
  6
Continuous
100
AcDbLine
 10
142.2904022243
 20
128.3850255384
 30
0.0
 11
123.0639049161
 21
128.3850255384
 31
0.0
  0
LINE
  5
45C
330
1B
100
AcDbEntity
  8
0
  6
Continuous
100
AcDbLine
 10
100.4595583526
 20
129.8132639839
 30
0.0
 11
103.2833419739
 21
129.348264598
 31
0.0
  0
LINE
  5
45D
330
1B
100
AcDbEntity
  8
0
  6
Continuous
100
AcDbLine
 10
79.2960927923
 20
162.8858815661
 30
0.0
 11
79.2960927923
 21
164.2492858401
 31
0.0
  0
LINE
  5
45E
330
1B
100
AcDbEntity
  8
0
  6
Continuous
100
AcDbLine
 10
80.0970929105
 20
157.4322647086
 30
0.0
 11
80.0970929105
 21
164.0788604251
 31
0.0
  0
LINE
  5
45F
330
1B
100
AcDbEntity
  8
0
  6
Continuous
100
AcDbLine
 10
80.89809302880001
 20
157.4322647086
 30
0.0
 11
80.89809302880001
 21
165.4422644606
 31
0.0
  0
LINE
  5
460
330
1B
100
AcDbEntity
  8
0
  6
Continuous
100
AcDbLine
 10
117.8837579878
 20
130.0804560037
 30
0.0
 11
114.9859811708
 21
129.3482645979
 31
0.0
  0
LWPOLYLINE
  5
461
330
1B
100
AcDbEntity
  8
0
  6
Continuous
100
AcDbPolyline
 90
        5
 70
     0
 43
0.0
 10
57.10339243319999
 20
130.818781032
 10
57.6210301558
 20
130.8555278067
 10
58.1033924332
 20
130.9632641077
 10
58.51760626459999
 20
131.1346478735
 10
58.8354432407
 20
131.3579992113
  0
LINE
  5
468
330
1B
100
AcDbEntity
  8
0
  6
Continuous
100
AcDbLine
 10
103.2833419739
 20
129.3482645979
 30
0.0
 11
114.9859811708
 21
129.3482645979
 31
0.0
  0
LINE
  5
469
330
1B
100
AcDbEntity
  8
0
  6
Continuous
100
AcDbLine
 10
57.10339252869999
 20
130.1651663128
 30
0.0
 11
39.3580993866
 21
130.1651663128
 31
0.0
  0
LINE
  5
46A
330
1B
100
AcDbEntity
  8
0
  6
Continuous
100
AcDbLine
 10
57.103391672
 20
130.8187807415
 30
0.0
 11
39.47881891370001
 21
130.8187807415
 31
0.0
  0
LINE
  5
46B
330
1B
100
AcDbEntity
  8
0
  6
Continuous
100
AcDbLine
 10
123.0639049161
 20
131.046988257
 30
0.0
 11
142.2904022243
 21
131.046988257
 31
0.0
  0
LINE
  5
46C
330
1B
100
AcDbEntity
  8
0
  6
Continuous
100
AcDbLine
 10
122.942154492
 20
131.9659838331
 30
0.0
 11
142.2904022243
 21
131.9659838331
 31
0.0
  0
LINE
  5
46D
330
1B
100
AcDbEntity
  8
0
  6
Continuous
100
AcDbLine
 10
74.746397901
 20
132.4482645979
 30
0.0
 11
103.5368769999
 21
132.4482645979
 31
0.0
  0
LINE
  5
46E
330
1B
100
AcDbEntity
  8
0
  6
Continuous
100
AcDbLine
 10
39.47881891370001
 20
133.1080940445
 30
0.0
 11
57.1033916657
 21
133.1080940445
 31
0.0
  0
LINE
  5
46F
330
1B
100
AcDbEntity
  8
0
  6
Continuous
100
AcDbLine
 10
39.3580993866
 20
134.0275503329
 30
0.0
 11
57.10339252909999
 21
134.0275503329
 31
0.0
  0
LINE
  5
470
330
1B
100
AcDbEntity
  8
0
  6
Continuous
100
AcDbLine
 10
69.8594628923
 20
194.5604025524
 30
0.0
 11
69.39453837959999
 21
196.2924533664
 31
0.0
  0
LINE
  5
471
330
1B
100
AcDbEntity
  8
DEFAULT_1
  6
CENTER
100
AcDbLine
 10
84.45809297149999
 20
219.7510565958
 30
0.0
 11
84.45809297149999
 21
197.7482645979
 31
0.0
  0
LINE
  5
472
330
1B
100
AcDbEntity
  8
DEFAULT_1
  6
CENTER
100
AcDbLine
 10
84.45809297149999
 20
196.1482224273
 30
0.0
 11
84.45809297149999
 21
110.4482645979
 31
0.0
  0
LINE
  5
473
330
1B
100
AcDbEntity
  8
0
  6
Continuous
100
AcDbLine
 10
85.17009298390001
 20
157.4322647086
 30
0.0
 11
85.17009298390001
 21
158.2843922606
 31
0.0
  0
LINE
  5
474
330
1B
100
AcDbEntity
  8
0
  6
Continuous
100
AcDbLine
 10
89.1750929792
 20
163.2267326346
 30
0.0
 11
89.1750929792
 21
163.5675837031
 31
0.0
  0
LINE
  5
475
330
1B
100
AcDbEntity
  8
0
  6
Continuous
100
AcDbLine
 10
85.30359296390002
 20
163.5675837031
 30
0.0
 11
85.4370929439
 21
164.2492858401
 31
0.0
  0
LINE
  5
476
330
1B
100
AcDbEntity
  8
0
  6
Continuous
100
AcDbLine
 10
81.9660928685
 20
159.4773710003
 30
0.0
 11
83.7015929658
 21
163.7380093566
 31
0.0
  0
LINE
  5
477
330
1B
100
AcDbEntity
  8
0
  6
Continuous
100
AcDbLine
 10
82.36659292769998
 20
159.1365198126
 30
0.0
 11
84.1020929653
 21
163.3971582881
 31
0.0
  0
LINE
  5
478
330
1B
100
AcDbEntity
  8
0
  6
Continuous
100
AcDbLine
 10
58.8354432407
 20
118.5482645979
 30
0.0
 11
60.7406991291
 21
121.8482645979
 31
0.0
  0
LINE
  5
479
330
1B
100
AcDbEntity
  8
0
  6
Continuous
100
AcDbLine
 10
79.2960927923
 20
164.2492858401
 30
0.0
 11
80.0970929105
 21
165.4422644606
 31
0.0
  0
LINE
  5
47A
330
1B
100
AcDbEntity
  8
0
  6
Continuous
100
AcDbLine
 10
79.2960927923
 20
162.8858815661
 30
0.0
 11
80.0970929105
 21
164.0788604251
 31
0.0
  0
LINE
  5
47B
330
1B
100
AcDbEntity
  8
0
  6
Continuous
100
AcDbLine
 10
45.7080929715
 20
143.7418826094
 30
0.0
 11
45.8830922086
 21
143.8908160201
 31
0.0
  0
LINE
  5
47C
330
1B
100
AcDbEntity
  8
0
  6
Continuous
100
AcDbLine
 10
115.7851286476
 20
138.7328844902
 30
0.0
 11
112.8873511687
 21
138.1051161469
 31
0.0
  0
LWPOLYLINE
  5
47D
330
1B
100
AcDbEntity
  8
0
  6
Continuous
100
AcDbPolyline
 90
        5
 70
     0
 43
0.0
 10
57.10339243319999
 20
133.1080937357
 10
57.6213201363
 20
133.1395272149
 10
58.1039022871
 20
133.2312665406
 10
58.5180932525
 20
133.3778231193
 10
58.8354432407
 20
133.5678218909
  0
LINE
  5
484
330
1B
100
AcDbEntity
  8
0
  6
Continuous
100
AcDbLine
 10
144.0224530318
 20
131.506486045
 30
0.0
 11
142.2904022243
 21
131.9659838331
 31
0.0
  0
LINE
  5
485
330
1B
100
AcDbEntity
  8
0
  6
Continuous
100
AcDbLine
 10
103.5368769999
 20
141.5084104207
 30
0.0
 11
112.8873511687
 21
138.1051161469
 31
0.0
  0
LINE
  5
486
330
1B
100
AcDbEntity
  8
0
  6
Continuous
100
AcDbLine
 10
81.9660928685
 20
159.4773710003
 30
0.0
 11
82.36659292769998
 21
159.1365198126
 31
0.0
  0
LWPOLYLINE
  5
487
330
1B
100
AcDbEntity
  8
0
  6
Continuous
100
AcDbPolyline
 90
        5
 70
     0
 43
0.0
 10
65.5571806861
 20
175.016217525
 10
66.10339317090001
 20
174.5394596012
 10
66.5225167517
 20
173.9181365783
 10
66.78598884900001
 20
173.1945905935
 10
66.87585427489999
 20
172.4181301099
  0
LINE
  5
48E
330
1B
100
AcDbEntity
  8
0
  6
Continuous
100
AcDbLine
 10
119.9370303535
 20
122.469327216
 30
0.0
 11
120.7545038394
 21
121.6518537301
 31
0.0
  0
LINE
  5
48F
330
1B
100
AcDbEntity
  8
0
  6
Continuous
100
AcDbLine
 10
89.9760930974
 20
157.4322647086
 30
0.0
 11
89.9760930974
 21
158.2843922606
 31
0.0
  0
LINE
  5
490
330
1B
100
AcDbEntity
  8
0
  6
Continuous
100
AcDbLine
 10
89.9760930974
 20
163.2267326346
 30
0.0
 11
89.9760930974
 21
163.5675837031
 31
0.0
  0
LINE
  5
491
330
1B
100
AcDbEntity
  8
0
  6
Continuous
100
AcDbLine
 10
89.8425929982
 20
162.5450304976
 30
0.0
 11
89.9760930974
 21
163.2267326346
 31
0.0
  0
LINE
  5
492
330
1B
100
AcDbEntity
  8
0
  6
Continuous
100
AcDbLine
 10
99.05672305260001
 20
194.5604025525
 30
0.0
 11
99.521647563
 21
196.2924533681
 31
0.0
  0
LINE
  5
493
330
1B
100
AcDbEntity
  8
0
  6
Continuous
100
AcDbLine
 10
88.9080927808
 20
162.5450304976
 30
0.0
 11
89.1750929792
 21
163.2267326346
 31
0.0
  0
LINE
  5
494
330
1B
100
AcDbEntity
  8
0
  6
Continuous
100
AcDbLine
 10
85.97109298300001
 20
163.5675837031
 30
0.0
 11
86.2380929429
 21
164.0788604251
 31
0.0
  0
LINE
  5
495
330
1B
100
AcDbEntity
  8
0
  6
Continuous
100
AcDbLine
 10
89.57559279989999
 20
162.0337539545
 30
0.0
 11
89.8425929982
 21
162.5450304976
 31
0.0
  0
LINE
  5
496
330
1B
100
AcDbEntity
  8
0
  6
Continuous
100
AcDbLine
 10
85.4370929439
 20
164.2492858401
 30
0.0
 11
85.97109298300001
 21
164.9309879771
 31
0.0
  0
LINE
  5
497
330
1B
100
AcDbEntity
  8
0
  6
Continuous
100
AcDbLine
 10
45.92684297149999
 20
142.9972002974
 30
0.0
 11
45.7080929715
 21
142.8482630721
 31
0.0
  0
LINE
  5
498
330
1B
100
AcDbEntity
  8
0
  6
Continuous
100
AcDbLine
 10
100.6750593956
 20
141.5084104207
 30
0.0
 11
103.5368769999
 21
141.5084104207
 31
0.0
  0
LINE
  5
499
330
1B
100
AcDbEntity
  8
0
  6
Continuous
100
AcDbLine
 10
52.620593353
 20
142.8482630721
 30
0.0
 11
52.3580944974
 21
142.8482630721
 31
0.0
  0
LINE
  5
49A
330
1B
100
AcDbEntity
  8
0
  6
Continuous
100
AcDbLine
 10
51.13309220859999
 20
142.8482630721
 30
0.0
 11
50.8705914457
 21
142.8482630721
 31
0.0
  0
LINE
  5
49B
330
1B
100
AcDbEntity
  8
0
  6
Continuous
100
AcDbLine
 10
49.8205922086
 20
142.8482630721
 30
0.0
 11
49.5580914457
 21
142.8482630721
 31
0.0
  0
LINE
  5
49C
330
1B
100
AcDbEntity
  8
0
  6
Continuous
100
AcDbLine
 10
48.5080922086
 20
142.8482630721
 30
0.0
 11
48.2455914457
 21
142.8482630721
 31
0.0
  0
LINE
  5
49D
330
1B
100
AcDbEntity
  8
0
  6
Continuous
100
AcDbLine
 10
47.02059297149999
 20
142.8482630721
 30
0.0
 11
46.75809220859999
 21
142.8482630721
 31
0.0
  0
LINE
  5
49E
330
1B
100
AcDbEntity
  8
0
  6
Continuous
100
AcDbLine
 10
45.7080929715
 20
142.8482630721
 30
0.0
 11
44.65809373449999
 21
142.8482630721
 31
0.0
  0
LINE
  5
49F
330
1B
100
AcDbEntity
  8
0
  6
Continuous
100
AcDbLine
 10
99.92930250080001
 20
142.8841629828
 30
0.0
 11
76.309635911
 21
142.8841629828
 31
0.0
  0
LINE
  5
4A0
330
1B
100
AcDbEntity
  8
0
  6
Continuous
100
AcDbLine
 10
44.9205944974
 20
143.7418826094
 30
0.0
 11
45.7080929715
 21
143.7418826094
 31
0.0
  0
LINE
  5
4A1
330
1B
100
AcDbEntity
  8
0
  6
Continuous
100
AcDbLine
 10
52.1830914457
 20
144.6354983321
 30
0.0
 11
51.3080914457
 21
144.6354983321
 31
0.0
  0
LINE
  5
4A2
330
1B
100
AcDbEntity
  8
0
  6
Continuous
100
AcDbLine
 10
48.0705922086
 20
144.6354983321
 30
0.0
 11
47.19559220859999
 21
144.6354983321
 31
0.0
  0
LINE
  5
4A3
330
1B
100
AcDbEntity
  8
0
  6
Continuous
100
AcDbLine
 10
47.2393429715
 20
145.2312434188
 30
0.0
 11
48.0268414457
 21
145.2312434188
 31
0.0
  0
LINE
  5
4A4
330
1B
100
AcDbEntity
  8
0
  6
Continuous
100
AcDbLine
 10
51.3518422086
 20
145.2312434188
 30
0.0
 11
52.1393444974
 21
145.2312434188
 31
0.0
  0
LINE
  5
4A5
330
1B
100
AcDbEntity
  8
0
  6
Continuous
100
AcDbLine
 10
101.294409224
 20
145.4822391942
 30
0.0
 11
75.5906542598
 21
145.4822391942
 31
0.0
  0
LINE
  5
4A6
330
1B
100
AcDbEntity
  8
0
  6
Continuous
100
AcDbLine
 10
75.3660116742
 20
145.7709143288
 30
0.0
 11
101.5557735793
 21
145.7709143288
 31
0.0
  0
LINE
  5
4A7
330
1B
100
AcDbEntity
  8
DEFAULT_1
  6
CENTER
100
AcDbLine
 10
32.4580929715
 20
146.3482645979
 30
0.0
 11
193.5568553881
 21
146.3482645979
 31
0.0
  0
LINE
  5
4A8
330
1B
100
AcDbEntity
  8
0
  6
Continuous
100
AcDbLine
 10
144.8884783311
 20
135.2549663038
 30
0.0
 11
143.156427628
 21
135.615138306
 31
0.0
  0
LINE
  5
4A9
330
1B
100
AcDbEntity
  8
0
  6
Continuous
100
AcDbLine
 10
104.5042560505
 20
144.1662625182
 30
0.0
 11
113.8547302193
 21
140.7629682445
 31
0.0
  0
LINE
  5
4AA
330
1B
100
AcDbEntity
  8
0
  6
Continuous
100
AcDbLine
 10
83.7015929658
 20
163.7380093566
 30
0.0
 11
84.1020929653
 21
163.3971582881
 31
0.0
  0
LINE
  5
4AB
330
1B
100
AcDbEntity
  8
0
  6
Continuous
100
AcDbLine
 10
89.30859307839999
 20
164.9309879771
 30
0.0
 11
89.8425929982
 21
164.2492858401
 31
0.0
  0
LINE
  5
4AC
330
1B
100
AcDbEntity
  8
0
  6
Continuous
100
AcDbLine
 10
120.8080934748
 20
116.9554446267
 30
0.0
 11
123.0639049161
 21
113.0482645979
 31
0.0
  0
LINE
  5
4AD
330
1B
100
AcDbEntity
  8
0
  6
Continuous
100
AcDbLine
 10
88.9080927808
 20
164.0788604251
 30
0.0
 11
89.1750929792
 21
163.5675837031
 31
0.0
  0
LINE
  5
4AE
330
1B
100
AcDbEntity
  8
0
  6
Continuous
100
AcDbLine
 10
89.8425929982
 20
164.2492858401
 30
0.0
 11
89.9760930974
 21
163.5675837031
 31
0.0
  0
LWPOLYLINE
  5
4AF
330
1B
100
AcDbEntity
  8
0
  6
Continuous
100
AcDbPolyline
 90
        5
 70
     0
 43
0.0
 10
99.9865720935
 20
194.5604025521
 10
99.95487546770001
 20
195.0781432814
 10
99.861939713
 20
195.560612003
 10
99.7141172565
 20
195.9748491374
 10
99.52164756889999
 20
196.2924533597
  0
LINE
  5
4B6
330
1B
100
AcDbEntity
  8
0
  6
Continuous
100
AcDbLine
 10
99.0567230443
 20
186.9905377094999
 30
0.0
 11
99.0567230443
 21
194.5604026652
 31
0.0
  0
LINE
  5
4B7
330
1B
100
AcDbEntity
  8
0
  6
Continuous
100
AcDbLine
 10
99.9865720935
 20
187.1154007016
 30
0.0
 11
99.9865720935
 21
194.5604025521
 31
0.0
  0
LINE
  5
4B8
330
1B
100
AcDbEntity
  8
0
  6
Continuous
100
AcDbLine
 10
100.6750593956
 20
141.5084104207
 30
0.0
 11
100.6750593956
 21
132.4482645979
 31
0.0
  0
LWPOLYLINE
  5
4B9
330
1B
100
AcDbEntity
  8
0
  6
Continuous
100
AcDbPolyline
 90
        5
 70
     0
 43
0.0
 10
100.6595068736
 20
172.4181375823
 10
100.7423143422
 20
173.1945947143
 10
100.9850935563
 20
173.918137579
 10
101.3712995135
 20
174.5394579226
 10
101.8746129161
 20
175.0162137904
  0
LINE
  5
4C0
330
1B
100
AcDbEntity
  8
0
  6
Continuous
100
AcDbLine
 10
85.17009298390001
 20
158.2843922606
 30
0.0
 11
88.9080927808
 21
162.5450304976
 31
0.0
  0
LINE
  5
4C1
330
1B
100
AcDbEntity
  8
0
  6
Continuous
100
AcDbLine
 10
86.2380929429
 20
158.2843922606
 30
0.0
 11
89.57559279989999
 21
162.0337539545
 31
0.0
  0
LINE
  5
4C2
330
1B
100
AcDbEntity
  8
0
  6
Continuous
100
AcDbLine
 10
86.2380929429
 20
164.0788604251
 30
0.0
 11
86.6385930021
 21
164.4197114935
 31
0.0
  0
LINE
  5
4C3
330
1B
100
AcDbEntity
  8
0
  6
Continuous
100
AcDbLine
 10
85.97109298300001
 20
164.9309879771
 30
0.0
 11
86.5050929029
 21
165.2718390456
 31
0.0
  0
LINE
  5
4C4
330
1B
100
AcDbEntity
  8
0
  6
Continuous
100
AcDbLine
 10
117.8580929715
 20
187.1154007016
 30
0.0
 11
113.7580929715
 21
184.7482645979
 31
0.0
  0
LINE
  5
4C5
330
1B
100
AcDbEntity
  8
0
  6
Continuous
100
AcDbLine
 10
144.0224530322
 20
161.1900431506
 30
0.0
 11
142.2904022243
 21
160.7305453632
 31
0.0
  0
LINE
  5
4C6
330
1B
100
AcDbEntity
  8
0
  6
Continuous
100
AcDbLine
 10
144.8884750632
 20
157.4415622116999
 30
0.0
 11
143.156427628
 21
157.0813908899
 31
0.0
  0
LINE
  5
4C7
330
1B
100
AcDbEntity
  8
0
  6
Continuous
100
AcDbLine
 10
74.93407753530001
 20
147.5029651363
 30
0.0
 11
100.4638784437
 21
147.5029651363
 31
0.0
  0
LINE
  5
4C8
330
1B
100
AcDbEntity
  8
0
  6
Continuous
100
AcDbLine
 10
45.7080929715
 20
148.9546473494
 30
0.0
 11
44.9205944974
 21
148.9546473494
 31
0.0
  0
LINE
  5
4C9
330
1B
100
AcDbEntity
  8
0
  6
Continuous
100
AcDbLine
 10
50.5205929715
 20
149.1035845748
 30
0.0
 11
49.8205922086
 21
149.1035845748
 31
0.0
  0
LINE
  5
4CA
330
1B
100
AcDbEntity
  8
0
  6
Continuous
100
AcDbLine
 10
49.5580914457
 20
149.1035845748
 30
0.0
 11
48.8580944974
 21
149.1035845748
 31
0.0
  0
LINE
  5
4CB
330
1B
100
AcDbEntity
  8
0
  6
Continuous
100
AcDbLine
 10
44.65809373449999
 20
149.8482630721
 30
0.0
 11
45.7080929715
 21
149.8482630721
 31
0.0
  0
LINE
  5
4CC
330
1B
100
AcDbEntity
  8
0
  6
Continuous
100
AcDbLine
 10
47.4580929715
 20
149.8482630721
 30
0.0
 11
47.8080914457
 21
149.8482630721
 31
0.0
  0
LINE
  5
4CD
330
1B
100
AcDbEntity
  8
0
  6
Continuous
100
AcDbLine
 10
48.8580944974
 20
149.8482630721
 30
0.0
 11
50.5205929715
 21
149.8482630721
 31
0.0
  0
LINE
  5
4CE
330
1B
100
AcDbEntity
  8
0
  6
Continuous
100
AcDbLine
 10
51.57059220859999
 20
149.8482630721
 30
0.0
 11
51.9205944974
 21
149.8482630721
 31
0.0
  0
LINE
  5
4CF
330
1B
100
AcDbEntity
  8
0
  6
Continuous
100
AcDbLine
 10
51.0781798313
 20
187.1038035477
 30
0.0
 11
55.15809297149999
 21
184.7482645979
 31
0.0
  0
LINE
  5
4D0
330
1B
100
AcDbEntity
  8
0
  6
Continuous
100
AcDbLine
 10
88.7745931585
 20
165.2718390456
 30
0.0
 11
89.30859307839999
 21
164.9309879771
 31
0.0
  0
LINE
  5
4D1
330
1B
100
AcDbEntity
  8
0
  6
Continuous
100
AcDbLine
 10
88.5075929601
 20
164.4197114935
 30
0.0
 11
88.9080927808
 21
164.0788604251
 31
0.0
  0
LWPOLYLINE
  5
4D2
330
1B
100
AcDbEntity
  8
0
  6
Continuous
100
AcDbPolyline
 90
        5
 70
     0
 43
0.0
 10
102.3028313699
 20
194.5604025521
 10
102.2664068115
 20
195.0781432814
 10
102.1596085721
 20
195.560612003
 10
101.9897366197
 20
195.9748491374
 10
101.7685577651
 20
196.2924533597
  0
LINE
  5
4D9
330
1B
100
AcDbEntity
  8
0
  6
Continuous
100
AcDbLine
 10
102.3028313699
 20
194.5604025521
 30
0.0
 11
102.3028313699
 21
187.1154007016
 31
0.0
  0
LINE
  5
4DA
330
1B
100
AcDbEntity
  8
0
  6
Continuous
100
AcDbLine
 10
102.966334968
 20
194.5604026657
 30
0.0
 11
102.966334968
 21
186.9905377094999
 31
0.0
  0
LINE
  5
4DB
330
1B
100
AcDbEntity
  8
0
  6
Continuous
100
AcDbLine
 10
103.5368769999
 20
141.5084104207
 30
0.0
 11
103.5368769999
 21
132.4482645979
 31
0.0
  0
LWPOLYLINE
  5
4DC
330
1B
100
AcDbEntity
  8
0
  6
Continuous
100
AcDbPolyline
 90
        5
 70
     0
 43
0.0
 10
99.92930250080001
 20
142.8841629829
 10
100.0223322681
 20
143.6606201181
 10
100.2950817449
 20
144.3841629828
 10
100.7289635052
 20
145.0054833264
 10
101.294409224
 20
145.4822391942
  0
LINE
  5
4E3
330
1B
100
AcDbEntity
  8
0
  6
Continuous
100
AcDbLine
 10
80.0970929105
 20
157.4322647086
 30
0.0
 11
80.89809302880001
 21
157.4322647086
 31
0.0
  0
LINE
  5
4E4
330
1B
100
AcDbEntity
  8
0
  6
Continuous
100
AcDbLine
 10
85.17009298390001
 20
157.4322647086
 30
0.0
 11
89.9760930974
 21
157.4322647086
 31
0.0
  0
LINE
  5
4E5
330
1B
100
AcDbEntity
  8
0
  6
Continuous
100
AcDbLine
 10
86.2380929429
 20
158.2843922606
 30
0.0
 11
89.9760930974
 21
158.2843922606
 31
0.0
  0
LINE
  5
4E6
330
1B
100
AcDbEntity
  8
0
  6
Continuous
100
AcDbLine
 10
57.10339252989999
 20
158.668978863
 30
0.0
 11
39.3580993866
 21
158.668978863
 31
0.0
  0
LINE
  5
4E7
330
1B
100
AcDbEntity
  8
0
  6
Continuous
100
AcDbLine
 10
57.10339166269999
 20
159.5884351514
 30
0.0
 11
39.47881891370001
 21
159.5884351514
 31
0.0
  0
LWPOLYLINE
  5
4E8
330
1B
100
AcDbEntity
  8
0
  6
Continuous
100
AcDbPolyline
 90
        5
 70
     0
 43
0.0
 10
57.10339243319999
 20
159.5884354615
 10
57.6210301513
 20
159.5571057933
 10
58.1033924332
 20
159.4652516736
 10
58.51760626789999
 20
159.3191328181
 10
58.8354432407
 20
159.1287073065
  0
LWPOLYLINE
  5
4EF
330
1B
100
AcDbEntity
  8
0
  6
Continuous
100
AcDbPolyline
 90
        5
 70
     0
 43
0.0
 10
57.10339243319999
 20
161.8777482126
 10
57.6213202103
 20
161.8410240778
 10
58.1039023043
 20
161.7329675571
 10
58.5180932194
 20
161.5618110068
 10
58.8354432407
 20
161.3385300317
  0
LINE
  5
4F6
330
1B
100
AcDbEntity
  8
0
  6
Continuous
100
AcDbLine
 10
87.840092941
 20
164.5901369086
 30
0.0
 11
88.5075929601
 21
164.4197114935
 31
0.0
  0
LINE
  5
4F7
330
1B
100
AcDbEntity
  8
0
  6
Continuous
100
AcDbLine
 10
55.7017899677
 20
175.1482645979
 30
0.0
 11
55.8057599921
 21
175.1179190079
 31
0.0
  0
LINE
  5
4F8
330
1B
100
AcDbEntity
  8
0
  6
Continuous
100
AcDbLine
 10
108.9580929715
 20
183.5056239108
 30
0.0
 11
108.9580929715
 21
178.4803154055
 31
0.0
  0
LINE
  5
4F9
330
1B
100
AcDbEntity
  8
0
  6
Continuous
100
AcDbLine
 10
104.5042560505
 20
144.1662625182
 30
0.0
 11
103.5368769999
 21
141.5084104207
 31
0.0
  0
LINE
  5
4FA
330
1B
100
AcDbEntity
  8
0
  6
Continuous
100
AcDbLine
 10
142.2904022326
 20
160.7305453628
 30
0.0
 11
122.942154492
 21
160.7305453628
 31
0.0
  0
LINE
  5
4FB
330
1B
100
AcDbEntity
  8
0
  6
Continuous
100
AcDbLine
 10
142.2904022243
 20
161.6495409389
 30
0.0
 11
123.0639049161
 21
161.6495409389
 31
0.0
  0
LINE
  5
4FC
330
1B
100
AcDbEntity
  8
0
  6
Continuous
100
AcDbLine
 10
39.47881891370001
 20
161.8777484544
 30
0.0
 11
57.1033917993
 21
161.8777484544
 31
0.0
  0
LINE
  5
4FD
330
1B
100
AcDbEntity
  8
0
  6
Continuous
100
AcDbLine
 10
39.3580993866
 20
162.5313628831
 30
0.0
 11
57.1033925
 21
162.5313628831
 31
0.0
  0
LINE
  5
4FE
330
1B
100
AcDbEntity
  8
0
  6
Continuous
100
AcDbLine
 10
85.30359296390002
 20
163.5675837031
 30
0.0
 11
85.97109298300001
 21
163.5675837031
 31
0.0
  0
LINE
  5
4FF
330
1B
100
AcDbEntity
  8
0
  6
Continuous
100
AcDbLine
 10
123.0639049161
 20
164.3115036575
 30
0.0
 11
142.2904022243
 21
164.3115036575
 31
0.0
  0
LINE
  5
500
330
1B
100
AcDbEntity
  8
0
  6
Continuous
100
AcDbLine
 10
87.3060930211
 20
164.5901369086
 30
0.0
 11
87.840092941
 21
164.5901369086
 31
0.0
  0
LINE
  5
501
330
1B
100
AcDbEntity
  8
0
  6
Continuous
100
AcDbLine
 10
122.942154492
 20
164.9646812483
 30
0.0
 11
142.2904022325
 21
164.9646812483
 31
0.0
  0
LINE
  5
502
330
1B
100
AcDbEntity
  8
0
  6
Continuous
100
AcDbLine
 10
188.6545038394
 20
164.9782645979
 30
0.0
 11
175.3997219921
 21
164.9782645979
 31
0.0
  0
LINE
  5
503
330
1B
100
AcDbEntity
  8
0
  6
Continuous
100
AcDbLine
 10
80.0970929105
 20
165.4422644606
 30
0.0
 11
80.89809302880001
 21
165.4422644606
 31
0.0
  0
LINE
  5
504
330
1B
100
AcDbEntity
  8
0
  6
Continuous
100
AcDbLine
 10
87.4395928819
 20
165.4422644606
 30
0.0
 11
87.9735930402
 21
165.4422644606
 31
0.0
  0
LWPOLYLINE
  5
505
330
1B
100
AcDbEntity
  8
0
  6
Continuous
100
AcDbPolyline
 90
        5
 70
     0
 43
0.0
 10
63.33877533849999
 20
167.1893894459
 10
62.5623182051
 20
167.2820169382999
 10
61.8387753404
 20
167.5535870049
 10
61.2174549969
 20
167.9855925946
 10
60.7406991291
 20
168.5485932403
  0
LINE
  5
50C
330
1B
100
AcDbEntity
  8
0
  6
Continuous
100
AcDbLine
 10
87.9735930402
 20
165.4422644606
 30
0.0
 11
88.7745931585
 21
165.2718390456
 31
0.0
  0
LINE
  5
50D
330
1B
100
AcDbEntity
  8
0
  6
Continuous
100
AcDbLine
 10
118.6830120289
 20
126.1141111366
 30
0.0
 11
119.4193922633
 21
123.3659026882
 31
0.0
  0
LINE
  5
50E
330
1B
100
AcDbEntity
  8
0
  6
Continuous
100
AcDbLine
 10
104.0737347457
 20
214.9920032848
 30
0.0
 11
105.7201954944
 21
201.5826565677
 31
0.0
  0
LINE
  5
50F
330
1B
100
AcDbEntity
  8
0
  6
Continuous
100
AcDbLine
 10
117.5649650407
 20
186.9905377094999
 30
0.0
 11
117.5649650407
 21
194.5604026668
 31
0.0
  0
LINE
  5
510
330
1B
100
AcDbEntity
  8
0
  6
Continuous
100
AcDbLine
 10
117.8313104918
 20
187.1154007016
 30
0.0
 11
117.8313104918
 21
194.5604025521
 31
0.0
  0
LINE
  5
511
330
1B
100
AcDbEntity
  8
0
  6
Continuous
100
AcDbLine
 10
117.8580929715
 20
194.5604025521
 30
0.0
 11
117.8580929715
 21
187.1154007016
 31
0.0
  0
LINE
  5
512
330
1B
100
AcDbEntity
  8
0
  6
Continuous
100
AcDbLine
 10
119.4193922633
 20
123.3659026882
 30
0.0
 11
119.4193922633
 21
163.5724117867
 31
0.0
  0
LINE
  5
513
330
1B
100
AcDbEntity
  8
0
  6
Continuous
100
AcDbLine
 10
119.9370303535
 20
168.4562254791
 30
0.0
 11
119.9370303535
 21
122.469327216
 31
0.0
  0
LINE
  5
514
330
1B
100
AcDbEntity
  8
0
  6
Continuous
100
AcDbLine
 10
120.1780941922
 20
122.2282637587
 30
0.0
 11
120.1780941922
 21
170.4682654372
 31
0.0
  0
LINE
  5
515
330
1B
100
AcDbEntity
  8
0
  6
Continuous
100
AcDbLine
 10
120.8080934748
 20
175.7410845692
 30
0.0
 11
123.0639049161
 21
179.6482645979
 31
0.0
  0
LINE
  5
516
330
1B
100
AcDbEntity
  8
0
  6
Continuous
100
AcDbLine
 10
86.6385930021
 20
164.4197114935
 30
0.0
 11
87.3060930211
 21
164.5901369086
 31
0.0
  0
LINE
  5
517
330
1B
100
AcDbEntity
  8
0
  6
Continuous
100
AcDbLine
 10
86.5050929029
 20
165.2718390456
 30
0.0
 11
87.4395928819
 21
165.4422644606
 31
0.0
  0
LINE
  5
518
330
1B
100
AcDbEntity
  8
0
  6
Continuous
100
AcDbLine
 10
186.4188184144
 20
167.0482645979
 30
0.0
 11
175.9543768205
 21
167.0482645979
 31
0.0
  0
LINE
  5
519
330
1B
100
AcDbEntity
  8
0
  6
Continuous
100
AcDbLine
 10
169.3948729248
 20
169.3482645979
 30
0.0
 11
167.2845038394
 21
169.3482645979
 31
0.0
  0
LINE
  5
51A
330
1B
100
AcDbEntity
  8
0
  6
Continuous
100
AcDbLine
 10
120.7545038394
 20
170.4682645979
 30
0.0
 11
120.1780929715
 21
170.4682645979
 31
0.0
  0
LINE
  5
51B
330
1B
100
AcDbEntity
  8
0
  6
Continuous
100
AcDbLine
 10
162.6845038394
 20
171.1482645979
 30
0.0
 11
166.8845038394
 21
171.1482645979
 31
0.0
  0
LINE
  5
51C
330
1B
100
AcDbEntity
  8
0
  6
Continuous
100
AcDbLine
 10
147.7545038394
 20
167.8690708117
 30
0.0
 11
160.2845038394
 21
167.8326224164
 31
0.0
  0
LINE
  5
51D
330
1B
100
AcDbEntity
  8
0
  6
Continuous
100
AcDbLine
 10
57.8230634558
 20
176.0269435812
 30
0.0
 11
57.9083272272
 21
176.0121907739
 31
0.0
  0
LINE
  5
51E
330
1B
100
AcDbEntity
  8
0
  6
Continuous
100
AcDbLine
 10
110.3325345909
 20
173.0573555857
 30
0.0
 11
117.6530947196
 21
170.3928896007
 31
0.0
  0
LINE
  5
51F
330
1B
100
AcDbEntity
  8
0
  6
Continuous
100
AcDbLine
 10
160.2845038394
 20
123.9482645979
 30
0.0
 11
162.6845038394
 21
121.5482645979
 31
0.0
  0
LINE
  5
520
330
1B
100
AcDbEntity
  8
0
  6
Continuous
100
AcDbLine
 10
120.7545038394
 20
117.155646218
 30
0.0
 11
120.7545038394
 21
175.5408829779
 31
0.0
  0
LINE
  5
521
330
1B
100
AcDbEntity
  8
0
  6
Continuous
100
AcDbLine
 10
120.8080935001
 20
116.9554445907
 30
0.0
 11
120.8080935001
 21
175.7410846052
 31
0.0
  0
LINE
  5
522
330
1B
100
AcDbEntity
  8
0
  6
Continuous
100
AcDbLine
 10
123.0639049161
 20
164.3115036575
 30
0.0
 11
123.0639049161
 21
161.6495409389
 31
0.0
  0
LINE
  5
523
330
1B
100
AcDbEntity
  8
0
  6
Continuous
100
AcDbLine
 10
123.0639049161
 20
131.046988257
 30
0.0
 11
123.0639049161
 21
128.3850255384
 31
0.0
  0
LINE
  5
524
330
1B
100
AcDbEntity
  8
0
  6
Continuous
100
AcDbLine
 10
123.0639049161
 20
113.0837491975
 30
0.0
 11
123.0639049161
 21
113.0482645979
 31
0.0
  0
LINE
  5
525
330
1B
100
AcDbEntity
  8
0
  6
Continuous
100
AcDbLine
 10
123.0639049161
 20
179.6127799984
 30
0.0
 11
123.0639049161
 21
179.6482645979
 31
0.0
  0
LINE
  5
526
330
1B
100
AcDbEntity
  8
0
  6
Continuous
100
AcDbLine
 10
112.8873511687
 20
138.1051161469
 30
0.0
 11
113.8547302193
 21
140.7629682445
 31
0.0
  0
LINE
  5
527
330
1B
100
AcDbEntity
  8
0
  6
Continuous
100
AcDbLine
 10
57.1033916629
 20
158.6689785432
 30
0.0
 11
58.8354436313
 21
159.1287069955
 31
0.0
  0
LINE
  5
528
330
1B
100
AcDbEntity
  8
0
  6
Continuous
100
AcDbLine
 10
100.6594168305
 20
172.418137579
 30
0.0
 11
66.8758511809
 21
172.4181301098
 31
0.0
  0
LINE
  5
529
330
1B
100
AcDbEntity
  8
0
  6
Continuous
100
AcDbLine
 10
55.9252637971
 20
174.8520771481
 30
0.0
 11
39.3580993866
 21
174.8520771481
 31
0.0
  0
LINE
  5
52A
330
1B
100
AcDbEntity
  8
0
  6
Continuous
100
AcDbLine
 10
65.55717522320001
 20
175.016217525
 30
0.0
 11
101.8746129161
 21
175.0162137904
 31
0.0
  0
LINE
  5
52B
330
1B
100
AcDbEntity
  8
0
  6
Continuous
100
AcDbLine
 10
55.8057599921
 20
175.1179190079
 30
0.0
 11
39.47881891370001
 21
175.1179190079
 31
0.0
  0
LINE
  5
52C
330
1B
100
AcDbEntity
  8
0
  6
Continuous
100
AcDbLine
 10
39.47881891370001
 20
175.1482645979
 30
0.0
 11
55.7021702365
 21
175.1482645979
 31
0.0
  0
LINE
  5
52D
330
1B
100
AcDbEntity
  8
0
  6
Continuous
100
AcDbLine
 10
104.7018617311
 20
175.8822391942
 30
0.0
 11
63.7349035883
 21
175.8822391942
 31
0.0
  0
LWPOLYLINE
  5
52E
330
1B
100
AcDbEntity
  8
0
  6
Continuous
100
AcDbPolyline
 90
        5
 70
     0
 43
0.0
 10
144.0224530318
 20
161.1900431509
 10
143.7048473356
 20
161.380266741
 10
143.2906089155
 20
161.5263641147
 10
142.8081396347
 20
161.6182146618
 10
142.2904022243
 20
161.6495409389
  0
LWPOLYLINE
  5
535
330
1B
100
AcDbEntity
  8
0
  6
Continuous
100
AcDbPolyline
 90
        5
 70
     0
 43
0.0
 10
117.8313104918
 20
194.5604025521
 10
117.7631893076
 20
195.0781432814
 10
117.5634553135
 20
195.560612003
 10
117.2457609047
 20
195.9748491374
 10
116.8321123625
 20
196.2924533597
  0
LINE
  5
53C
330
1B
100
AcDbEntity
  8
0
  6
Continuous
100
AcDbLine
 10
108.9580929715
 20
178.4803154055
 30
0.0
 11
60.2673290446
 21
178.4803154055
 31
0.0
  0
LINE
  5
53D
330
1B
100
AcDbEntity
  8
0
  6
Continuous
100
AcDbLine
 10
142.2904022325
 20
179.3469620132
 30
0.0
 11
122.942154492
 21
179.3469620132
 31
0.0
  0
LINE
  5
53E
330
1B
100
AcDbEntity
  8
0
  6
Continuous
100
AcDbLine
 10
142.2904022243
 20
179.6127799984
 30
0.0
 11
123.0639049161
 21
179.6127799984
 31
0.0
  0
LINE
  5
53F
330
1B
100
AcDbEntity
  8
0
  6
Continuous
100
AcDbLine
 10
123.0639049161
 20
179.6482645979
 30
0.0
 11
142.2904022243
 21
179.6482645979
 31
0.0
  0
LINE
  5
540
330
1B
100
AcDbEntity
  8
0
  6
Continuous
100
AcDbLine
 10
108.9580929715
 20
183.5056239108
 30
0.0
 11
59.9580929715
 21
183.5056239108
 31
0.0
  0
LWPOLYLINE
  5
541
330
1B
100
AcDbEntity
  8
0
  6
Continuous
100
AcDbPolyline
 90
        5
 70
     0
 43
0.0
 10
144.0224530318
 20
163.7720670491
 10
143.7046157866
 20
163.9955090083
 10
143.2904022243
 20
164.1669620539
 10
142.8080403145
 20
164.2747419441
 10
142.2904022243
 20
164.3115036575
  0
LINE
  5
548
330
1B
100
AcDbEntity
  8
0
  6
Continuous
100
AcDbLine
 10
113.7580929715
 20
184.7482645979
 30
0.0
 11
55.15809297149999
 21
184.7482645979
 31
0.0
  0
LINE
  5
549
330
1B
100
AcDbEntity
  8
0
  6
Continuous
100
AcDbLine
 10
117.8580929715
 20
187.1154007016
 30
0.0
 11
117.8313104918
 21
187.1154007016
 31
0.0
  0
LINE
  5
54A
330
1B
100
AcDbEntity
  8
0
  6
Continuous
100
AcDbLine
 10
102.3028313699
 20
187.1154007016
 30
0.0
 11
99.9865720935
 21
187.1154007016
 31
0.0
  0
LINE
  5
54B
330
1B
100
AcDbEntity
  8
0
  6
Continuous
100
AcDbLine
 10
68.9296138496
 20
187.1154007016
 30
0.0
 11
66.61335457319999
 21
187.1154007016
 31
0.0
  0
LINE
  5
54C
330
1B
100
AcDbEntity
  8
0
  6
Continuous
100
AcDbLine
 10
51.0848754513
 20
187.1154007016
 30
0.0
 11
51.0580929715
 21
187.1154007016
 31
0.0
  0
LINE
  5
54D
330
1B
100
AcDbEntity
  8
0
  6
Continuous
100
AcDbLine
 10
142.2904022243
 20
113.0482645979
 30
0.0
 11
142.2904022243
 21
113.3495671827
 31
0.0
  0
LINE
  5
54E
330
1B
100
AcDbEntity
  8
0
  6
Continuous
100
AcDbLine
 10
142.2904022243
 20
127.7318479476
 30
0.0
 11
142.2904022243
 21
131.9659838331
 31
0.0
  0
LINE
  5
54F
330
1B
100
AcDbEntity
  8
0
  6
Continuous
100
AcDbLine
 10
142.2904022243
 20
160.7305453628
 30
0.0
 11
142.2904022243
 21
164.9646812483
 31
0.0
  0
LINE
  5
550
330
1B
100
AcDbEntity
  8
0
  6
Continuous
100
AcDbLine
 10
142.2904022243
 20
179.3469620132
 30
0.0
 11
142.2904022243
 21
179.6482645979
 31
0.0
  0
LINE
  5
551
330
1B
100
AcDbEntity
  8
0
  6
Continuous
100
AcDbLine
 10
144.0224530318
 20
178.6482645979
 30
0.0
 11
144.0224530318
 21
178.61384579
 31
0.0
  0
LINE
  5
552
330
1B
100
AcDbEntity
  8
0
  6
Continuous
100
AcDbLine
 10
144.0224530318
 20
163.7720636246
 30
0.0
 11
144.0224530318
 21
161.1900468234
 31
0.0
  0
LINE
  5
553
330
1B
100
AcDbEntity
  8
0
  6
Continuous
100
AcDbLine
 10
144.0224530318
 20
131.5058616663
 30
0.0
 11
144.0224530318
 21
128.9250544537
 31
0.0
  0
LINE
  5
554
330
1B
100
AcDbEntity
  8
0
  6
Continuous
100
AcDbLine
 10
144.0224530318
 20
114.0826834033
 30
0.0
 11
144.0224530318
 21
114.0482645979
 31
0.0
  0
LINE
  5
555
330
1B
100
AcDbEntity
  8
0
  6
Continuous
100
AcDbLine
 10
160.2845038394
 20
168.7482645979
 30
0.0
 11
162.6845038394
 21
171.1482645979
 31
0.0
  0
LINE
  5
556
330
1B
100
AcDbEntity
  8
0
  6
Continuous
100
AcDbLine
 10
117.8580929715
 20
194.5604025521
 30
0.0
 11
117.5649650407
 21
194.5604025521
 31
0.0
  0
LINE
  5
557
330
1B
100
AcDbEntity
  8
0
  6
Continuous
100
AcDbLine
 10
102.966334968
 20
194.5604025521
 30
0.0
 11
99.0567230443
 21
194.5604025521
 31
0.0
  0
LINE
  5
558
330
1B
100
AcDbEntity
  8
0
  6
Continuous
100
AcDbLine
 10
69.8594628988
 20
194.5604025521
 30
0.0
 11
65.94985097510001
 21
194.5604025521
 31
0.0
  0
LINE
  5
559
330
1B
100
AcDbEntity
  8
0
  6
Continuous
100
AcDbLine
 10
51.3512209024
 20
194.5604025521
 30
0.0
 11
51.0580929715
 21
194.5604025521
 31
0.0
  0
LINE
  5
55A
330
1B
100
AcDbEntity
  8
0
  6
Continuous
100
AcDbLine
 10
116.8580929715
 20
196.2924533597
 30
0.0
 11
116.8321131259
 21
196.2924533597
 31
0.0
  0
LINE
  5
55B
330
1B
100
AcDbEntity
  8
0
  6
Continuous
100
AcDbLine
 10
101.7685416544
 20
196.2924533597
 30
0.0
 11
99.5216643078
 21
196.2924533597
 31
0.0
  0
LINE
  5
55C
330
1B
100
AcDbEntity
  8
0
  6
Continuous
100
AcDbLine
 10
69.3945216364
 20
196.2924533597
 30
0.0
 11
67.1476442881
 21
196.2924533597
 31
0.0
  0
LINE
  5
55D
330
1B
100
AcDbEntity
  8
0
  6
Continuous
100
AcDbLine
 10
52.0840728171
 20
196.2924533597
 30
0.0
 11
52.0580929715
 21
196.2924533597
 31
0.0
  0
LINE
  5
55E
330
1B
100
AcDbEntity
  8
0
  6
Continuous
100
AcDbLine
 10
175.2845038394
 20
166.8482645979
 30
0.0
 11
169.3948729248
 21
169.3482645979
 31
0.0
  0
LINE
  5
55F
330
1B
100
AcDbEntity
  8
0
  6
Continuous
100
AcDbLine
 10
112.7221945867
 20
198.6803154055
 30
0.0
 11
116.8580929715
 21
196.2924533597
 31
0.0
  0
LINE
  5
560
330
1B
100
AcDbEntity
  8
0
  6
Continuous
100
AcDbLine
 10
144.8884784356
 20
177.1482611687
 30
0.0
 11
144.8884784356
 21
176.7783228742
 31
0.0
  0
LINE
  5
561
330
1B
100
AcDbEntity
  8
0
  6
Continuous
100
AcDbLine
 10
144.8884784356
 20
165.685024559
 30
0.0
 11
144.8884784356
 21
157.4415629132
 31
0.0
  0
LINE
  5
562
330
1B
100
AcDbEntity
  8
0
  6
Continuous
100
AcDbLine
 10
144.8884784356
 20
135.2549662827
 30
0.0
 11
144.8884784356
 21
127.0115046369
 31
0.0
  0
LINE
  5
563
330
1B
100
AcDbEntity
  8
0
  6
Continuous
100
AcDbLine
 10
144.8884784356
 20
115.9182063217
 30
0.0
 11
144.8884784356
 21
115.5482680269
 31
0.0
  0
LINE
  5
564
330
1B
100
AcDbEntity
  8
0
  6
Continuous
100
AcDbLine
 10
147.2098456844
 20
117.0355044908
 30
0.0
 11
147.2098456844
 21
175.6610247051
 31
0.0
  0
LINE
  5
565
330
1B
100
AcDbEntity
  8
0
  6
Continuous
100
AcDbLine
 10
147.7545038394
 20
117.6311181844
 30
0.0
 11
147.7545038394
 21
175.0654110115
 31
0.0
  0
LINE
  5
566
330
1B
100
AcDbEntity
  8
0
  6
Continuous
100
AcDbLine
 10
56.1939913564
 20
198.6803154055
 30
0.0
 11
112.7221945867
 21
198.6803154055
 31
0.0
  0
LINE
  5
567
330
1B
100
AcDbEntity
  8
0
  6
Continuous
100
AcDbLine
 10
57.19399135639999
 20
198.9482645979
 30
0.0
 11
111.7221945867
 21
198.9482645979
 31
0.0
  0
LINE
  5
568
330
1B
100
AcDbEntity
  8
0
  6
Continuous
100
AcDbLine
 10
105.7201954944
 20
201.5826565677
 30
0.0
 11
63.1959904487
 21
201.5826565677
 31
0.0
  0
LWPOLYLINE
  5
569
330
1B
100
AcDbEntity
  8
0
  6
Continuous
100
AcDbPolyline
 90
        5
 70
     0
 43
0.0
 10
144.0224530318
 20
178.613845602
 10
143.7048473356
 20
179.0273864258
 10
143.2906089155
 20
179.3449971152
 10
142.8081396347
 20
179.5446776812999
 10
142.2904022243
 20
179.6127799984
  0
LINE
  5
570
330
1B
100
AcDbEntity
  8
0
  6
Continuous
100
AcDbLine
 10
144.0224530318
 20
178.6482645979
 30
0.0
 11
144.8884784356
 21
177.1482645979
 31
0.0
  0
LINE
  5
571
330
1B
100
AcDbEntity
  8
0
  6
Continuous
100
AcDbLine
 10
166.8845038394
 20
171.1482645979
 30
0.0
 11
167.2845038394
 21
170.7482645979
 31
0.0
  0
LINE
  5
572
330
1B
100
AcDbEntity
  8
0
  6
Continuous
100
AcDbLine
 10
160.2845038394
 20
123.9482645979
 30
0.0
 11
160.2845038394
 21
168.7482645979
 31
0.0
  0
LINE
  5
573
330
1B
100
AcDbEntity
  8
0
  6
Continuous
100
AcDbLine
 10
162.6845038394
 20
121.5482645979
 30
0.0
 11
162.6845038394
 21
171.1482645979
 31
0.0
  0
LWPOLYLINE
  5
574
330
1B
100
AcDbEntity
  8
0
  6
Continuous
100
AcDbPolyline
 90
        5
 70
     0
 43
0.0
 10
144.0224530318
 20
128.9244621468
 10
143.7048473356
 20
128.7011449132
 10
143.2906089155
 20
128.5296315975
 10
142.8081396347
 20
128.4218015785
 10
142.2904022243
 20
128.3850255384
  0
LWPOLYLINE
  5
57B
330
1B
100
AcDbEntity
  8
0
  6
Continuous
100
AcDbPolyline
 90
        5
 70
     0
 43
0.0
 10
144.0224530318
 20
131.506486045
 10
143.7048473356
 20
131.3162624549
 10
143.2906089155
 20
131.1701650812
 10
142.8081396347
 20
131.0783145341
 10
142.2904022243
 20
131.046988257
  0
LINE
  5
582
330
1B
100
AcDbEntity
  8
0
  6
Continuous
100
AcDbLine
 10
166.8845038394
 20
121.5482645979
 30
0.0
 11
166.8845038394
 21
171.1482645979
 31
0.0
  0
LINE
  5
583
330
1B
100
AcDbEntity
  8
0
  6
Continuous
100
AcDbLine
 10
167.2845038394
 20
121.9482645979
 30
0.0
 11
167.2845038394
 21
170.7482645979
 31
0.0
  0
LINE
  5
584
330
1B
100
AcDbEntity
  8
0
  6
Continuous
100
AcDbLine
 10
169.3948729248
 20
123.3482645979
 30
0.0
 11
169.3948729248
 21
169.3482645979
 31
0.0
  0
LINE
  5
585
330
1B
100
AcDbEntity
  8
0
  6
Continuous
100
AcDbLine
 10
144.0224530318
 20
114.0482645979
 30
0.0
 11
144.8884784356
 21
115.5482645979
 31
0.0
  0
LWPOLYLINE
  5
586
330
1B
100
AcDbEntity
  8
0
  6
Continuous
100
AcDbPolyline
 90
        5
 70
     0
 43
0.0
 10
144.0224530318
 20
114.0826835939
 10
143.7046157866
 20
113.668911419
 10
143.2904022243
 20
113.3514128623
 10
142.8080403145
 20
113.1518249258
 10
142.2904022243
 20
113.0837491975
  0
LINE
  5
58D
330
1B
100
AcDbEntity
  8
0
  6
Continuous
100
AcDbLine
 10
64.8424511974
 20
214.9920032848
 30
0.0
 11
104.0737347457
 21
214.9920032848
 31
0.0
  0
LINE
  5
58E
330
1B
100
AcDbEntity
  8
0
  6
Continuous
100
AcDbLine
 10
102.0886424424
 20
216.7482645979
 30
0.0
 11
66.8275435007
 21
216.7482645979
 31
0.0
  0
LINE
  5
58F
330
1B
100
AcDbEntity
  8
0
  6
Continuous
100
AcDbLine
 10
189.1673465012
 20
164.4654219362
 30
0.0
 11
186.7016619357
 21
166.9311065017
 31
0.0
  0
LINE
  5
590
330
1B
100
AcDbEntity
  8
0
  6
Continuous
100
AcDbLine
 10
175.9543768205
 20
125.6482645979
 30
0.0
 11
175.363943383
 21
127.8517921851
 31
0.0
  0
LINE
  5
591
330
1B
100
AcDbEntity
  8
0
  6
Continuous
100
AcDbLine
 10
175.2845038394
 20
125.848826937
 30
0.0
 11
175.2845038394
 21
166.8477022589
 31
0.0
  0
LINE
  5
592
330
1B
100
AcDbEntity
  8
0
  6
Continuous
100
AcDbLine
 10
175.3639434482
 20
127.8517919432
 30
0.0
 11
175.3639434482
 21
164.8447372527
 31
0.0
  0
LINE
  5
593
330
1B
100
AcDbEntity
  8
0
  6
Continuous
100
AcDbLine
 10
175.3997229556
 20
127.7182654372
 30
0.0
 11
175.3997229556
 21
164.9782637587
 31
0.0
  0
LINE
  5
594
330
1B
100
AcDbEntity
  8
0
  6
Continuous
100
AcDbLine
 10
175.9543768205
 20
167.0482645979
 30
0.0
 11
175.363943383
 21
164.8447370108
 31
0.0
  0
LINE
  5
595
330
1B
100
AcDbEntity
  8
0
  6
Continuous
100
AcDbLine
 10
175.2845038394
 20
125.8482645979
 30
0.0
 11
169.3948729248
 21
123.3482645979
 31
0.0
  0
LINE
  5
596
330
1B
100
AcDbEntity
  8
0
  6
Continuous
100
AcDbLine
 10
175.9543768205
 20
125.6482645979
 30
0.0
 11
175.9543768205
 21
167.0482645979
 31
0.0
  0
LINE
  5
597
330
1B
100
AcDbEntity
  8
0
  6
Continuous
100
AcDbLine
 10
186.4188184144
 20
167.0482529558
 30
0.0
 11
186.4188184144
 21
125.6482762401
 31
0.0
  0
LINE
  5
598
330
1B
100
AcDbEntity
  8
0
  6
Continuous
100
AcDbLine
 10
186.7016619712
 20
166.9310948898
 30
0.0
 11
186.7016619712
 21
125.7654343061
 31
0.0
  0
LINE
  5
599
330
1B
100
AcDbEntity
  8
0
  6
Continuous
100
AcDbLine
 10
166.8845038394
 20
121.5482645979
 30
0.0
 11
167.2845038394
 21
121.9482645979
 31
0.0
  0
LINE
  5
59A
330
1B
100
AcDbEntity
  8
0
  6
Continuous
100
AcDbLine
 10
188.6545027713
 20
127.7182654372
 30
0.0
 11
188.6545027713
 21
164.9782637587
 31
0.0
  0
LINE
  5
59B
330
1B
100
AcDbEntity
  8
0
  6
Continuous
100
AcDbLine
 10
189.1673463988
 20
164.4654220385
 30
0.0
 11
189.1673463988
 21
128.2311071574
 31
0.0
  0
LINE
  5
59C
330
1B
100
AcDbEntity
  8
0
  6
Continuous
100
AcDbLine
 10
189.2845038394
 20
164.1824898161
 30
0.0
 11
189.2845038394
 21
128.5140393798
 31
0.0
  0
LINE
  5
59D
330
1B
100
AcDbEntity
  8
0
  6
Continuous
100
AcDbLine
 10
189.1673465012
 20
128.2311072597
 30
0.0
 11
186.7016619357
 21
125.7654226942
 31
0.0
  0
ARC
  5
1732
330
1B
100
AcDbEntity
  8
0
  6
Continuous
100
AcDbCircle
 10
147.486554647
 20
178.6482645979
 30
0.0
 40
3.0
100
AcDbArc
 50
210.0000000000005
 51
264.7077258826006
  0
ARC
  5
1733
330
1B
100
AcDbEntity
  8
0
  6
Continuous
100
AcDbCircle
 10
147.486554647
 20
114.0482645979
 30
0.0
 40
3.0
100
AcDbArc
 50
95.29227411740023
 51
150.0000000000003
  0
ARC
  5
1734
330
1B
100
AcDbEntity
  8
0
  6
Continuous
100
AcDbCircle
 10
142.2904022243
 20
115.0482645979
 30
0.0
 40
2.0
100
AcDbArc
 50
270.0000000000006
 51
330.0000000000007
  0
ARC
  5
1735
330
1B
100
AcDbEntity
  8
0
  6
Continuous
100
AcDbCircle
 10
142.2904022243
 20
177.6482645979
 30
0.0
 40
2.0
100
AcDbArc
 50
30.00000000000008
 51
90.00000000000019
  0
ARC
  5
1736
330
1B
100
AcDbEntity
  8
0
  6
Continuous
100
AcDbCircle
 10
147.1545038394
 20
175.0636108823
 30
0.0
 40
0.6
100
AcDbArc
 50
0.0
 51
84.7077209019002
  0
ARC
  5
1737
330
1B
100
AcDbEntity
  8
0
  6
Continuous
100
AcDbCircle
 10
147.1545038394
 20
117.6329183136
 30
0.0
 40
0.6
100
AcDbArc
 50
275.2922790981006
 51
360.0000000000008
  0
ARC
  5
1738
330
1B
100
AcDbEntity
  8
0
  6
Continuous
100
AcDbCircle
 10
121.1545038394
 20
117.1554442749
 30
0.0
 40
0.4
100
AcDbArc
 50
180.0000000000004
 51
209.9999418181005
  0
ARC
  5
1739
330
1B
100
AcDbEntity
  8
0
  6
Continuous
100
AcDbCircle
 10
121.1545038394
 20
175.541084921
 30
0.0
 40
0.4
100
AcDbArc
 50
150.0000581819003
 51
180.0000000000004
  0
ARC
  5
173A
330
1B
100
AcDbEntity
  8
0
  6
Continuous
100
AcDbCircle
 10
115.8580929715
 20
194.5604025521
 30
0.0
 40
2.0
100
AcDbArc
 50
0.0
 51
60.00000000000015
  0
ARC
  5
173B
330
1B
100
AcDbEntity
  8
0
  6
Continuous
100
AcDbCircle
 10
53.0580929715
 20
194.5604025521
 30
0.0
 40
2.0
100
AcDbArc
 50
120.0000000000002
 51
180.0000000000004
  0
ARC
  5
173C
330
1B
100
AcDbEntity
  8
0
  6
Continuous
100
AcDbCircle
 10
111.7221945867
 20
196.9482645979
 30
0.0
 40
2.0
100
AcDbArc
 50
60.00000000000015
 51
90.00000000000019
  0
ARC
  5
173D
330
1B
100
AcDbEntity
  8
0
  6
Continuous
100
AcDbCircle
 10
57.19399135639999
 20
196.9482645979
 30
0.0
 40
2.0
100
AcDbArc
 50
90.00000000000019
 51
120.0000000000002
  0
ARC
  5
173E
330
1B
100
AcDbEntity
  8
0
  6
Continuous
100
AcDbCircle
 10
108.6978339493
 20
201.9482645979
 30
0.0
 40
3.0
100
AcDbArc
 50
187.0000000000004
 51
270.0000000000006
  0
ARC
  5
173F
330
1B
100
AcDbEntity
  8
0
  6
Continuous
100
AcDbCircle
 10
60.21835199379999
 20
201.9482645979
 30
0.0
 40
3.0
100
AcDbArc
 50
270.0000000000006
 51
353.0000000000008
  0
ARC
  5
1740
330
1B
100
AcDbEntity
  8
0
  6
Continuous
100
AcDbCircle
 10
102.0886424424
 20
214.7482645979
 30
0.0
 40
2.0
100
AcDbArc
 50
7.000000000100015
 51
90.00000000000019
  0
ARC
  5
1741
330
1B
100
AcDbEntity
  8
0
  6
Continuous
100
AcDbCircle
 10
66.8275435007
 20
214.7482645979
 30
0.0
 40
2.0
100
AcDbArc
 50
90.00000000000019
 51
172.9999999999004
  0
ARC
  5
1742
330
1B
100
AcDbEntity
  8
0
  6
Continuous
100
AcDbCircle
 10
186.4188184144
 20
166.6482645979
 30
0.0
 40
0.4
100
AcDbArc
 50
44.9998361657001
 51
90.00000000000019
  0
ARC
  5
1743
330
1B
100
AcDbEntity
  8
0
  6
Continuous
100
AcDbCircle
 10
186.4188184144
 20
126.0482645979
 30
0.0
 40
0.4
100
AcDbArc
 50
270.0000000000006
 51
315.0001638343007
  0
ARC
  5
1744
330
1B
100
AcDbEntity
  8
0
  6
Continuous
100
AcDbCircle
 10
188.8845038394
 20
128.5139500229
 30
0.0
 40
0.4
100
AcDbArc
 50
314.9999897340007
 51
359.9999851026008
  0
ARC
  5
1745
330
1B
100
AcDbEntity
  8
0
  6
Continuous
100
AcDbCircle
 10
188.8845038394
 20
164.182579173
 30
0.0
 40
0.4
100
AcDbArc
 50
0.0000148974
 51
45.00001026600009
  0
ARC
  5
1746
330
1B
100
AcDbEntity
  8
0
  6
Continuous
100
AcDbCircle
 10
174.9775730442
 20
127.7482645979
 30
0.0
 40
0.4
100
AcDbArc
 50
14.99999542420003
 51
39.1501734162001
  0
ARC
  5
1747
330
1B
100
AcDbEntity
  8
0
  6
Continuous
100
AcDbCircle
 10
174.9775730442
 20
164.9482645979
 30
0.0
 40
0.4
100
AcDbArc
 50
320.8498265838007
 51
345.0000045758009
  0
CIRCLE
  5
1748
330
1B
100
AcDbEntity
  8
0
  6
Continuous
100
AcDbCircle
 10
48.4580929715
 20
146.3482645979
 30
0.0
 40
6.0
  0
ARC
  5
1749
330
1B
100
AcDbEntity
  8
0
  6
Continuous
100
AcDbCircle
 10
37.8580929715
 20
171.541084921
 30
0.0
 40
0.4
100
AcDbArc
 50
150.0000000088003
 51
180.0000000000004
  0
ARC
  5
174A
330
1B
100
AcDbEntity
  8
0
  6
Continuous
100
AcDbCircle
 10
37.8580929715
 20
121.1554442749
 30
0.0
 40
0.4
100
AcDbArc
 50
180.0000000000004
 51
209.9999999890005
  0
ARC
  5
174B
330
1B
100
AcDbEntity
  8
0
  6
Continuous
100
AcDbCircle
 10
103.1554189836
 20
125.3482645979
 30
0.0
 40
3.0
100
AcDbArc
 50
90.00000000000019
 51
159.2065556195003
  0
ARC
  5
174C
330
1B
100
AcDbEntity
  8
0
  6
Continuous
100
AcDbCircle
 10
63.8929600358
 20
120.3483215809
 30
0.0
 40
2.999989591799999
100
AcDbArc
 50
65.00000000000016
 51
89.9998867832002
  0
ARC
  5
174D
330
1B
100
AcDbEntity
  8
0
  6
Continuous
100
AcDbCircle
 10
55.7017718066
 20
178.1482333112
 30
0.0
 40
2.9999885642
100
AcDbArc
 50
270.0002899466006
 51
315.0000000514007
  0
ARC
  5
174E
330
1B
100
AcDbEntity
  8
0
  6
Continuous
100
AcDbCircle
 10
56.95810270079999
 20
179.4046024721
 30
0.0
 40
2.999995956899999
100
AcDbArc
 50
315.0000198529007
 51
0.0002196465
  0
ARC
  5
174F
330
1B
100
AcDbEntity
  8
0
  6
Continuous
100
AcDbCircle
 10
57.10339243319999
 20
119.5482645979
 30
0.0
 40
2.0
100
AcDbArc
 50
270.0000000000006
 51
330.0000000000007
  0
ARC
  5
1750
330
1B
100
AcDbEntity
  8
0
  6
Continuous
100
AcDbCircle
 10
115.7823927647
 20
125.3482645979
 30
0.0
 40
3.0
100
AcDbArc
 50
15.00000193690003
 51
90.00000000000019
  0
ARC
  5
1751
330
1B
100
AcDbEntity
  8
0
  6
Continuous
100
AcDbCircle
 10
118.6791526267
 20
173.2119571202
 30
0.0
 40
2.9999982412
100
AcDbArc
 50
249.9999771458006
 51
313.8539216556007
  0
ARC
  5
1752
330
1B
100
AcDbEntity
  8
0
  6
Continuous
100
AcDbCircle
 10
111.9580929715
 20
183.5056239108
 30
0.0
 40
3.0
100
AcDbArc
 50
155.3353986965003
 51
180.0000000000004
  0
ARC
  5
1753
330
1B
100
AcDbEntity
  8
0
  6
Continuous
100
AcDbCircle
 10
56.9580929715
 20
183.5056239108
 30
0.0
 40
3.0
100
AcDbArc
 50
0.0
 51
24.66460130350005
  0
ARC
  5
1754
330
1B
100
AcDbEntity
  8
0
  6
Continuous
100
AcDbCircle
 10
121.3512439159
 20
123.8835407784
 30
0.0
 40
2.0
100
AcDbArc
 50
195.0000000000004
 51
225.0000000000005
  0
ARC
  5
1755
330
1B
100
AcDbEntity
  8
0
  6
Continuous
100
AcDbCircle
 10
105.9580929715
 20
178.4803154055
 30
0.0
 40
3.0
100
AcDbArc
 50
334.2145773690008
 51
360.0000000000008
  0
ARC
  5
1756
330
1B
100
AcDbEntity
  8
0
  6
Continuous
100
AcDbCircle
 10
84.45809297149999
 20
132.4482645979
 30
0.0
 40
17.0
100
AcDbArc
 50
234.3816944242005
 51
339.2065556195008
  0
ARC
  5
1757
330
1B
100
AcDbEntity
  8
0
  6
Continuous
100
AcDbCircle
 10
63.33877534039999
 20
120.3482645979
 30
0.0
 40
3.0
100
AcDbArc
 50
90.00000000000019
 51
150.0000000000003
  0
CIRCLE
  5
1758
330
1B
100
AcDbEntity
  8
0
  6
Continuous
100
AcDbCircle
 10
84.45809297149999
 20
161.3482645979
 30
0.0
 40
7.12
  0
CIRCLE
  5
1759
330
1B
100
AcDbEntity
  8
0
  6
Continuous
100
AcDbCircle
 10
84.45809297149999
 20
161.3482645979
 30
0.0
 40
8.01
  0
SPLINE
  5
175F
330
1B
100
AcDbEntity
  8
0
  6
Continuous
100
AcDbSpline
210
0.0
220
0.0
230
1.0
 70
     8
 71
     3
 72
     9
 73
     5
 74
     3
 42
0.0000000001
 43
0.0000000001
 44
0.0000000001
 40
0.0
 40
0.0
 40
0.0
 40
0.0
 40
0.996927860912045
 40
2.030151961006279
 40
2.030151961006279
 40
2.030151961006279
 40
2.030151961006279
 10
144.8884784356
 20
115.9182063217
 30
0.0
 10
144.757605998627
 20
115.6126254729265
 30
0.0
 10
144.4910963092304
 20
114.9903381603662
 30
0.0
 10
144.1805183554594
 20
114.3888197544566
 30
0.0
 10
144.0224530318
 20
114.0826834033
 30
0.0
 11
144.8884784356
 21
115.9182063217
 31
0.0
 11
144.4852344761
 21
115.0064720024
 31
0.0
 11
144.0224530318
 21
114.0826834033
 31
0.0
  0
SPLINE
  5
1760
330
1B
100
AcDbEntity
  8
0
  6
Continuous
100
AcDbSpline
210
0.0
220
0.0
230
1.0
 70
     8
 71
     3
 72
    11
 73
     7
 74
     5
 42
0.0000000001
 43
0.0000000001
 44
0.0000000001
 40
0.0
 40
0.0
 40
0.0
 40
0.0
 40
0.4662903309223659
 40
0.9487404756224181
 40
1.454908258497408
 40
1.984794000600772
 40
1.984794000600772
 40
1.984794000600772
 40
1.984794000600772
 10
144.0224530322
 20
114.0826835946
 30
0.0
 10
143.9292541208198
 20
113.9564536962027
 30
0.0
 10
143.7396263853799
 20
113.6996192608706
 30
0.0
 10
143.3099626451058
 20
113.4515346069246
 30
0.0
 10
142.8146697049064
 20
113.3162563528787
 30
0.0
 10
142.4678049300508
 20
113.3382953956274
 30
0.0
 10
142.2904022243
 20
113.3495671825
 30
0.0
 11
144.0224530322
 21
114.0826835946
 31
0.0
 11
143.7209823197
 21
113.7269560553
 31
0.0
 11
143.3097033171
 21
113.4747503374
 31
0.0
 11
142.8202735605
 21
113.3456599126
 31
0.0
 11
142.2904022243
 21
113.3495671825
 31
0.0
  0
SPLINE
  5
1761
330
1B
100
AcDbEntity
  8
0
  6
Continuous
100
AcDbSpline
210
0.0
220
0.0
230
1.0
 70
     8
 71
     3
 72
     9
 73
     5
 74
     3
 42
0.0000000001
 43
0.0000000001
 44
0.0000000001
 40
0.0
 40
0.0
 40
0.0
 40
0.0
 40
0.9899760122852611
 40
2.020227209967163
 40
2.020227209967163
 40
2.020227209967163
 40
2.020227209967163
 10
143.156427628
 20
115.1741444192
 30
0.0
 10
143.025508063441
 20
114.8711137076193
 30
0.0
 10
142.7583427348301
 20
114.2527240886851
 30
0.0
 10
142.448441791791
 20
113.6545942505044
 30
0.0
 10
142.2904022326
 20
113.3495671827
 30
0.0
 11
143.156427628
 21
115.1741444192
 31
0.0
 11
142.7534067724
 21
114.2699172935
 31
0.0
 11
142.2904022326
 21
113.3495671827
 31
0.0
  0
SPLINE
  5
1762
330
1B
100
AcDbEntity
  8
0
  6
Continuous
100
AcDbSpline
210
0.0
220
0.0
230
1.0
 70
     8
 71
     3
 72
    15
 73
    11
 74
     9
 42
0.0000000001
 43
0.0000000001
 44
0.0000000001
 40
0.0
 40
0.0
 40
0.0
 40
0.0
 40
2.011836367817067
 40
3.901702669586431
 40
5.719340834593773
 40
7.503171099078264
 40
9.286957786423463
 40
11.10449205196003
 40
12.99381437157603
 40
15.00529075044448
 40
15.00529075044448
 40
15.00529075044448
 40
15.00529075044448
 10
122.942154492
 20
127.7318479476
 30
0.0
 10
122.6551432107127
 20
127.1252021324828
 30
0.0
 10
122.0985210617578
 20
125.9486891544891
 30
0.0
 10
121.4996598685164
 20
124.1333378711363
 30
0.0
 10
121.1266395108122
 20
122.3368054889673
 30
0.0
 10
121.0018051657494
 20
120.5401936271676
 30
0.0
 10
121.126780617491
 20
118.7436271756337
 30
0.0
 10
121.4998735405684
 20
116.9473469017365
 30
0.0
 10
122.0986939980179
 20
115.132340819629
 30
0.0
 10
122.6551920557202
 20
113.9561030783805
 30
0.0
 10
122.942154492
 20
113.3495671827
 30
0.0
 11
122.942154492
 21
127.7318479476
 31
0.0
 11
122.1204919962
 21
125.8954503017
 31
0.0
 11
121.5275279206
 21
124.101017733
 31
0.0
 11
121.1653926996
 21
122.3198196585
 31
0.0
 11
121.0431789847
 21
120.5401808692
 31
0.0
 11
121.1655296814
 21
118.7605951722
 31
0.0
 11
121.5277626017
 21
116.9795229901
 31
0.0
 11
122.1206231051
 21
115.1856291106
 31
0.0
 11
122.942154492
 21
113.3495671827
 31
0.0
  0
SPLINE
  5
1763
330
1B
100
AcDbEntity
  8
0
  6
Continuous
100
AcDbSpline
210
0.0
220
0.0
230
1.0
 70
     8
 71
     3
 72
    11
 73
     7
 74
     5
 42
0.0000000001
 43
0.0000000001
 44
0.0000000001
 40
0.0
 40
0.0
 40
0.0
 40
0.0
 40
0.4656843197733729
 40
0.9486128455633054
 40
1.453462192610708
 40
1.9784353787281
 40
1.9784353787281
 40
1.9784353787281
 40
1.9784353787281
 10
144.8884787543
 20
115.91820614
 30
0.0
 10
144.7925078865073
 20
115.7945201750692
 30
0.0
 10
144.5970123670699
 20
115.5425681763281
 30
0.0
 10
144.1683203675631
 20
115.2962481167513
 30
0.0
 10
143.6774119356478
 20
115.1548873246887
 30
0.0
 10
143.3323367770356
 20
115.167642305684
 30
0.0
 10
143.156427628
 20
115.1741444192
 30
0.0
 11
144.8884787543
 21
115.91820614
 31
0.0
 11
144.5802519741
 21
115.5691242905
 31
0.0
 11
144.1678045734
 21
115.3179130195
 31
0.0
 11
143.6813267856
 21
115.1829603419
 31
0.0
 11
143.156427628
 21
115.1741444192
 31
0.0
  0
SPLINE
  5
1764
330
1B
100
AcDbEntity
  8
0
  6
Continuous
100
AcDbSpline
210
0.0
220
0.0
230
1.0
 70
     8
 71
     3
 72
    15
 73
    11
 74
     9
 42
0.0000000001
 43
0.0000000001
 44
0.0000000001
 40
0.0
 40
0.0
 40
0.0
 40
0.0
 40
3.763582669807223
 40
7.401103716987409
 40
10.98185897829909
 40
14.54323414438792
 40
18.10450789191856
 40
21.68502254197076
 40
25.32146373928952
 40
29.0843625461309
 40
29.0843625461309
 40
29.0843625461309
 40
29.0843625461309
 10
122.942154492
 20
160.7305453628
 30
0.0
 10
122.6537839270481
 20
159.509297918601
 30
0.0
 10
122.0867018014827
 20
157.10770884999
 30
0.0
 10
121.4945741900671
 20
153.4922511814831
 30
0.0
 10
121.1251387346939
 20
149.9158560431093
 30
0.0
 10
121.0022751575233
 20
146.347244147244
 30
0.0
 10
121.1252781217364
 20
142.7787177183378
 30
0.0
 10
121.4947874751867
 20
139.2028073656468
 30
0.0
 10
122.0868798675965
 20
135.5880235843311
 30
0.0
 10
122.6538331329804
 20
133.1870085118416
 30
0.0
 10
122.942154492
 20
131.9659838331
 30
0.0
 11
122.942154492
 21
160.7305453628
 31
0.0
 11
122.1204919962
 21
157.0577500709999
 31
0.0
 11
121.5275279206
 21
153.4688849337
 31
0.0
 11
121.1653926996
 21
149.9064887846
 31
0.0
 11
121.0431789847
 21
146.347211206
 31
0.0
 11
121.1655296814
 21
142.788039812
 31
0.0
 11
121.5277626017
 21
139.2258954479
 31
0.0
 11
122.1206231051
 21
135.6381076887
 31
0.0
 11
122.942154492
 21
131.9659838331
 31
0.0
  0
SPLINE
  5
1765
330
1B
100
AcDbEntity
  8
0
  6
Continuous
100
AcDbSpline
210
0.0
220
0.0
230
1.0
 70
     8
 71
     3
 72
    10
 73
     6
 74
     4
 42
0.0000000001
 43
0.0000000001
 44
0.0000000001
 40
0.0
 40
0.0
 40
0.0
 40
0.0
 40
0.2903167474180454
 40
0.6010035097450288
 40
0.9290460447824877
 40
0.9290460447824877
 40
0.9290460447824877
 40
0.9290460447824877
 10
123.0639049161
 20
131.046988257
 30
0.0
 10
123.0610541853706
 20
131.1437629536523
 30
0.0
 10
123.0551527029762
 20
131.3441025236559
 30
0.0
 10
123.0136530141357
 20
131.6516818403024
 30
0.0
 10
122.9664151868886
 20
131.859335688182
 30
0.0
 10
122.942154492
 20
131.9659838331
 30
0.0
 11
123.0639049161
 21
131.046988257
 31
0.0
 11
123.0504654468
 21
131.3369937647
 31
0.0
 11
123.0100023917
 21
131.6450343553
 31
0.0
 11
122.942154492
 21
131.9659838331
 31
0.0
  0
SPLINE
  5
1766
330
1B
100
AcDbEntity
  8
0
  6
Continuous
100
AcDbSpline
210
0.0
220
0.0
230
1.0
 70
     8
 71
     3
 72
    10
 73
     6
 74
     4
 42
0.0000000001
 43
0.0000000001
 44
0.0000000001
 40
0.0
 40
0.0
 40
0.0
 40
0.0
 40
0.1950996455913724
 40
0.418257304984118
 40
0.6694139091767156
 40
0.6694139091767156
 40
0.6694139091767156
 40
0.6694139091767156
 10
122.942154492
 20
127.7318479476
 30
0.0
 10
122.9669774214558
 20
127.7921378183051
 30
0.0
 10
123.0201931592113
 20
127.9213880727713
 30
0.0
 10
123.056662652379
 20
128.1433492958877
 30
0.0
 10
123.0613976584779
 20
128.3013576930331
 30
0.0
 10
123.0639049161
 20
128.3850255384
 30
0.0
 11
122.942154492
 21
127.7318479476
 31
0.0
 11
123.0100023917
 21
127.9147701557
 31
0.0
 11
123.0504654468
 21
128.1342287671
 31
0.0
 11
123.0639049161
 21
128.3850255384
 31
0.0
  0
SPLINE
  5
1767
330
1B
100
AcDbEntity
  8
0
  6
Continuous
100
AcDbSpline
210
0.0
220
0.0
230
1.0
 70
     8
 71
     3
 72
    10
 73
     6
 74
     4
 42
0.0000000001
 43
0.0000000001
 44
0.0000000001
 40
0.0
 40
0.0
 40
0.0
 40
0.0
 40
0.328042535037431
 40
0.6387292973644145
 40
0.9290460447824882
 40
0.9290460447824882
 40
0.9290460447824882
 40
0.9290460447824882
 10
122.942154492
 20
160.7305453628
 30
0.0
 10
122.9664151868886
 20
160.837193507718
 30
0.0
 10
123.0136530141357
 20
161.0448473555976
 30
0.0
 10
123.0551527029762
 20
161.3524266722442
 30
0.0
 10
123.0610541853706
 20
161.5527662422477
 30
0.0
 10
123.0639049161
 20
161.6495409389
 30
0.0
 11
122.942154492
 21
160.7305453628
 31
0.0
 11
123.0100023917
 21
161.0514948406
 31
0.0
 11
123.0504654468
 21
161.3595354312
 31
0.0
 11
123.0639049161
 21
161.6495409389
 31
0.0
  0
SPLINE
  5
1768
330
1B
100
AcDbEntity
  8
0
  6
Continuous
100
AcDbSpline
210
0.0
220
0.0
230
1.0
 70
     8
 71
     3
 72
    10
 73
     6
 74
     4
 42
0.0000000001
 43
0.0000000001
 44
0.0000000001
 40
0.0
 40
0.0
 40
0.0
 40
0.0
 40
0.0414480920828482
 40
0.1388340554811502
 40
0.2926354360813862
 40
0.2926354360813862
 40
0.2926354360813862
 40
0.2926354360813862
 10
123.0639049161
 20
113.0837491975
 30
0.0
 10
123.0596159940749
 20
113.0968940512837
 30
0.0
 10
123.0452498698829
 20
113.1409239032695
 30
0.0
 10
123.0014249569152
 20
113.2283897972315
 30
0.0
 10
122.9646634626925
 20
113.3035480022869
 30
0.0
 10
122.942154492
 20
113.3495671827
 30
0.0
 11
123.0639049161
 21
113.0837491975
 31
0.0
 11
123.0504654468
 21
113.1229579338
 31
0.0
 11
123.0100023917
 21
113.211539913
 31
0.0
 11
122.942154492
 21
113.3495671827
 31
0.0
  0
SPLINE
  5
1769
330
1B
100
AcDbEntity
  8
0
  6
Continuous
100
AcDbSpline
210
0.0
220
0.0
230
1.0
 70
     8
 71
     3
 72
    10
 73
     6
 74
     4
 42
0.0000000001
 43
0.0000000001
 44
0.0000000001
 40
0.0
 40
0.0
 40
0.0
 40
0.0
 40
0.2511566041926261
 40
0.4743142635853577
 40
0.6694139091767302
 40
0.6694139091767302
 40
0.6694139091767302
 40
0.6694139091767302
 10
123.0639049161
 20
164.3115036575
 30
0.0
 10
123.0613976584779
 20
164.3951715028669
 30
0.0
 10
123.056662652379
 20
164.5531799000124
 30
0.0
 10
123.0201931592113
 20
164.7751411231288
 30
0.0
 10
122.9669774214557
 20
164.9043913775949
 30
0.0
 10
122.942154492
 20
164.9646812483
 30
0.0
 11
123.0639049161
 21
164.3115036575
 31
0.0
 11
123.0504654468
 21
164.5623004288
 31
0.0
 11
123.0100023917
 21
164.7817590402
 31
0.0
 11
122.942154492
 21
164.9646812483
 31
0.0
  0
SPLINE
  5
176A
330
1B
100
AcDbEntity
  8
0
  6
Continuous
100
AcDbSpline
210
0.0
220
0.0
230
1.0
 70
     8
 71
     3
 72
    15
 73
    11
 74
     9
 42
0.0000000001
 43
0.0000000001
 44
0.0000000001
 40
0.0
 40
0.0
 40
0.0
 40
0.0
 40
3.422869504781881
 40
6.543709172047425
 40
9.377792049747336
 40
11.98660424894866
 40
14.43170510612042
 40
16.87183602362683
 40
19.49498469014146
 40
22.35288065333134
 40
22.35288065333134
 40
22.35288065333134
 40
22.35288065333134
 10
144.8884784356
 20
157.4415629132
 30
0.0
 10
145.0465826109182
 20
156.3115843433487
 30
0.0
 10
145.3488400416275
 20
154.1513351368211
 30
0.0
 10
145.8303160377469
 20
151.0627721282745
 30
0.0
 10
146.1534079448907
 20
148.224381531662
 30
0.0
 10
146.2103816570222
 20
145.5907522427991
 30
0.0
 10
146.010732673128
 20
143.0980065861152
 30
0.0
 10
145.6759802193758
 20
140.6174064827901
 30
0.0
 10
145.2682850394322
 20
138.0086048383054
 30
0.0
 10
145.0186445817421
 20
136.1986847832076
 30
0.0
 10
144.8884784356
 20
135.2549662827
 30
0.0
 11
144.8884784356
 21
157.4415629132
 31
0.0
 11
145.372014551
 21
154.0530192036
 31
0.0
 11
145.8227718445
 21
150.9649035822
 31
0.0
 11
146.116890893
 21
148.1461237499
 31
0.0
 11
146.1659610235
 21
145.5377730808
 31
0.0
 11
145.9886419481
 21
143.0991103023
 31
0.0
 11
145.676043122
 21
140.6790853296
 31
0.0
 11
145.287802842
 21
138.0848265893
 31
0.0
 11
144.8884784356
 21
135.2549662827
 31
0.0
  0
SPLINE
  5
176B
330
1B
100
AcDbEntity
  8
0
  6
Continuous
100
AcDbSpline
210
0.0
220
0.0
230
1.0
 70
     8
 71
     3
 72
    15
 73
    11
 74
     9
 42
0.0000000001
 43
0.0000000001
 44
0.0000000001
 40
0.0
 40
0.0
 40
0.0
 40
0.0
 40
3.489024167033596
 40
6.563987591890628
 40
9.276547930289647
 40
11.72815927111978
 40
14.04472877701684
 40
16.40911883522476
 40
19.01441882947613
 40
21.93538885871953
 40
21.93538885871953
 40
21.93538885871953
 40
21.93538885871953
 10
143.156427628
 20
157.0813908899
 30
0.0
 10
143.4180981657207
 20
155.9480290946045
 30
0.0
 10
143.9103854301629
 20
153.8158074746645
 30
0.0
 10
144.7156873897138
 20
150.8307231699802
 30
0.0
 10
145.2629268061271
 20
148.1334652447933
 30
0.0
 10
145.3600866205392
 20
145.6270689532191
 30
0.0
 10
145.021553162048
 20
143.2657477851897
 30
0.0
 10
144.4615260573676
 20
140.9020042711765
 30
0.0
 10
143.7799878905985
 20
138.3612775263656
 30
0.0
 10
143.3720484493695
 20
136.5647254266143
 30
0.0
 10
143.156427628
 20
135.615138306
 30
0.0
 11
143.156427628
 21
157.0813908899
 31
0.0
 11
143.9633458619
 21
153.6869583008
 31
0.0
 11
144.7138338793
 21
150.7049844914
 31
0.0
 11
145.2041289285
 21
148.0371024936
 31
0.0
 11
145.2856406763
 21
145.5868465883
 31
0.0
 11
144.9901198506
 21
143.2892039448
 31
0.0
 11
144.4693425766
 21
140.9828797312
 31
0.0
 11
143.8226731855
 21
138.4591113665
 31
0.0
 11
143.156427628
 21
135.615138306
 31
0.0
  0
SPLINE
  5
176C
330
1B
100
AcDbEntity
  8
0
  6
Continuous
100
AcDbSpline
210
0.0
220
0.0
230
1.0
 70
     8
 71
     3
 72
    10
 73
     6
 74
     4
 42
0.0000000001
 43
0.0000000001
 44
0.0000000001
 40
0.0
 40
0.0
 40
0.0
 40
0.0
 40
0.1538013806002232
 40
0.2511873439075768
 40
0.2926354360850105
 40
0.2926354360850105
 40
0.2926354360850105
 40
0.2926354360850105
 10
122.942154492
 20
179.3469620132
 30
0.0
 10
122.9646634626798
 20
179.3929811936184
 30
0.0
 10
123.0014249568685
 20
179.4681393986553
 30
0.0
 10
123.0452498699305
 20
179.5556052925788
 30
0.0
 10
123.0596159940784
 20
179.5996351445816
 30
0.0
 10
123.0639049161
 20
179.6127799984
 30
0.0
 11
122.942154492
 21
179.3469620132
 31
0.0
 11
123.0100023917
 21
179.4849892829
 31
0.0
 11
123.0504654468
 21
179.573571262
 31
0.0
 11
123.0639049161
 21
179.6127799984
 31
0.0
  0
SPLINE
  5
176D
330
1B
100
AcDbEntity
  8
0
  6
Continuous
100
AcDbSpline
210
0.0
220
0.0
230
1.0
 70
     8
 71
     3
 72
    10
 73
     6
 74
     4
 42
0.0000000001
 43
0.0000000001
 44
0.0000000001
 40
0.0
 40
0.0
 40
0.0
 40
0.0
 40
1.376542151062275
 40
2.655854734575193
 40
3.848238297428047
 40
3.848238297428047
 40
3.848238297428047
 40
3.848238297428047
 10
144.8884784356
 20
135.2549662827
 30
0.0
 10
144.7948282940675
 20
134.8057653128909
 30
0.0
 10
144.614142819532
 20
133.9390918721085
 30
0.0
 10
144.3227386050355
 20
132.6897437715268
 30
0.0
 10
144.120173499176
 20
131.891126637222
 30
0.0
 10
144.0224530318
 20
131.5058616663
 30
0.0
 11
144.8884784356
 21
135.2549662827
 31
0.0
 11
144.6020406075
 21
133.9085556231
 31
0.0
 11
144.3120308871
 21
132.6625479793
 31
0.0
 11
144.0224530318
 21
131.5058616663
 31
0.0
  0
SPLINE
  5
176E
330
1B
100
AcDbEntity
  8
0
  6
Continuous
100
AcDbSpline
210
0.0
220
0.0
230
1.0
 70
     8
 71
     3
 72
    10
 73
     6
 74
     4
 42
0.0000000001
 43
0.0000000001
 44
0.0000000001
 40
0.0
 40
0.0
 40
0.0
 40
0.0
 40
1.341600996202321
 40
2.588972017278513
 40
3.750918830590961
 40
3.750918830590961
 40
3.750918830590961
 40
3.750918830590961
 10
143.156427628
 20
135.615138306
 30
0.0
 10
143.0626311726781
 20
135.1778730387188
 30
0.0
 10
142.8816262398883
 20
134.3340546871199
 30
0.0
 10
142.5902974487817
 20
133.1180229604998
 30
0.0
 10
142.3879761469267
 20
132.340811331184
 30
0.0
 10
142.2904022243
 20
131.9659838331
 30
0.0
 11
143.156427628
 21
135.615138306
 31
0.0
 11
142.8696469892
 21
134.304546799
 31
0.0
 11
142.5795903431
 21
133.0913684913
 31
0.0
 11
142.2904022243
 21
131.9659838331
 31
0.0
  0
SPLINE
  5
176F
330
1B
100
AcDbEntity
  8
0
  6
Continuous
100
AcDbSpline
210
0.0
220
0.0
230
1.0
 70
     8
 71
     3
 72
     9
 73
     5
 74
     3
 42
0.0000000001
 43
0.0000000001
 44
0.0000000001
 40
0.0
 40
0.0
 40
0.0
 40
0.0
 40
1.033270304673314
 40
2.030151960098117
 40
2.030151960098117
 40
2.030151960098117
 40
2.030151960098117
 10
144.0224530318
 20
178.61384579
 30
0.0
 10
144.1805252824587
 20
178.3076956674764
 30
0.0
 10
144.4911029580778
 20
177.706177102088
 30
0.0
 10
144.7576122563061
 20
177.0838896356481
 30
0.0
 10
144.8884784356
 20
176.7783228742
 30
0.0
 11
144.0224530318
 21
178.61384579
 31
0.0
 11
144.4852542069
 21
177.6900153971
 31
0.0
 11
144.8884784356
 21
176.7783228742
 31
0.0
  0
SPLINE
  5
1770
330
1B
100
AcDbEntity
  8
0
  6
Continuous
100
AcDbSpline
210
0.0
220
0.0
230
1.0
 70
     8
 71
     3
 72
     9
 73
     5
 74
     3
 42
0.0000000001
 43
0.0000000001
 44
0.0000000001
 40
0.0
 40
0.0
 40
0.0
 40
0.0
 40
1.029753837870321
 40
2.020227195612578
 40
2.020227195612578
 40
2.020227195612578
 40
2.020227195612578
 10
142.2904022325
 20
179.3469620132
 30
0.0
 10
142.4483669809731
 20
179.0420830526684
 30
0.0
 10
142.7582708328232
 20
178.4439548935057
 30
0.0
 10
143.0254402744463
 20
177.8255669204606
 30
0.0
 10
143.156427628
 20
177.5223847767
 30
0.0
 11
142.2904022325
 21
179.3469620132
 31
0.0
 11
142.7531933811
 21
178.4270613015
 31
0.0
 11
143.156427628
 21
177.5223847767
 31
0.0
  0
SPLINE
  5
1771
330
1B
100
AcDbEntity
  8
0
  6
Continuous
100
AcDbSpline
210
0.0
220
0.0
230
1.0
 70
     8
 71
     3
 72
    11
 73
     7
 74
     5
 42
0.0000000001
 43
0.0000000001
 44
0.0000000001
 40
0.0
 40
0.0
 40
0.0
 40
0.0
 40
0.4664955862209443
 40
0.948841052445262
 40
1.454873051843921
 40
1.984793705925215
 40
1.984793705925215
 40
1.984793705925215
 40
1.984793705925215
 10
144.0224530322
 20
178.6138456013
 30
0.0
 10
143.9292071708192
 20
178.7401282503221
 30
0.0
 10
143.7395472815039
 20
178.9969841888195
 30
0.0
 10
143.3098724379264
 20
179.2450188729823
 30
0.0
 10
142.8146485385038
 20
179.3802698884198
 30
0.0
 10
142.46781692853
 20
179.3582340178664
 30
0.0
 10
142.2904022243
 20
179.3469620134
 30
0.0
 11
144.0224530322
 21
178.6138456013
 31
0.0
 11
143.7208240524
 21
178.9697080614
 31
0.0
 11
143.3096094475
 21
179.2218185481
 31
0.0
 11
142.8203085054
 21
179.3508649447
 31
0.0
 11
142.2904022243
 21
179.3469620134
 31
0.0
  0
SPLINE
  5
1772
330
1B
100
AcDbEntity
  8
0
  6
Continuous
100
AcDbSpline
210
0.0
220
0.0
230
1.0
 70
     8
 71
     3
 72
    13
 73
     9
 74
     7
 42
0.0000000001
 43
0.0000000001
 44
0.0000000001
 40
0.0
 40
0.0
 40
0.0
 40
0.0
 40
0.9100793715965054
 40
1.798690113941694
 40
2.656164706133472
 40
3.473907517834167
 40
4.250742817685602
 40
4.99369579332519
 40
4.99369579332519
 40
4.99369579332519
 40
4.99369579332519
 10
144.8884784356
 20
176.7783228742
 30
0.0
 10
144.9914018633103
 20
176.4929467193184
 30
0.0
 10
145.1948207712575
 20
175.9289263881688
 30
0.0
 10
145.5101312259025
 20
175.1016014539272
 30
0.0
 10
145.7893580224305
 20
174.2934592669653
 30
0.0
 10
146.0082712682154
 20
173.5056089814227
 30
0.0
 10
146.1526653477168
 20
172.7373322685801
 30
0.0
 10
146.1702759628251
 20
172.2304214143878
 30
0.0
 10
146.1788849639
 20
171.98261655
 30
0.0
 11
144.8884784356
 21
176.7783228742
 31
0.0
 11
145.1998347788
 21
175.9231610824
 31
0.0
 11
145.509396063
 21
175.0902139876
 31
0.0
 11
145.7850683693
 21
174.2782611221
 31
0.0
 11
146.0003886669
 21
173.4893755312
 31
0.0
 11
146.1348312131
 21
172.7242622815
 31
0.0
 11
146.1788849639
 21
171.98261655
 31
0.0
  0
SPLINE
  5
1773
330
1B
100
AcDbEntity
  8
0
  6
Continuous
100
AcDbSpline
210
0.0
220
0.0
230
1.0
 70
     8
 71
     3
 72
    13
 73
     9
 74
     7
 42
0.0000000001
 43
0.0000000001
 44
0.0000000001
 40
0.0
 40
0.0
 40
0.0
 40
0.0
 40
1.243016981703101
 40
2.37746710401042
 40
3.401271954970413
 40
4.309477329532998
 40
5.108303697357272
 40
5.822813005981842
 40
5.822813005981842
 40
5.822813005981842
 40
5.822813005981842
 10
143.156427628
 20
177.5223847767
 30
0.0
 10
143.3254148053055
 20
177.1439296027575
 30
0.0
 10
143.6486295810948
 20
176.4200740644704
 30
0.0
 10
144.1761646562931
 20
175.4162756726709
 30
0.0
 10
144.6428745896751
 20
174.5063447127145
 30
0.0
 10
145.0102553665763
 20
173.6739318930731
 30
0.0
 10
145.2593252569125
 20
172.899375517956
 30
0.0
 10
145.2917813099354
 20
172.3942925195939
 30
0.0
 10
145.3071051752
 20
172.1558216307
 30
0.0
 11
143.156427628
 21
177.5223847767
 31
0.0
 11
143.6758346381
 21
176.3930896095
 31
0.0
 11
144.191595733
 21
175.3826602092
 31
0.0
 11
144.6508833052
 21
174.4676567672
 31
0.0
 11
145.009665052
 21
173.6333231046
 31
0.0
 11
145.2336701831
 21
172.8665472135
 31
0.0
 11
145.3071051752
 21
172.1558216307
 31
0.0
  0
SPLINE
  5
1774
330
1B
100
AcDbEntity
  8
0
  6
Continuous
100
AcDbSpline
210
0.0
220
0.0
230
1.0
 70
     8
 71
     3
 72
    11
 73
     7
 74
     5
 42
0.0000000001
 43
0.0000000001
 44
0.0000000001
 40
0.0
 40
0.0
 40
0.0
 40
0.0
 40
0.4656853266602162
 40
0.948614857099616
 40
1.453465392833144
 40
1.978439970669432
 40
1.978439970669432
 40
1.978439970669432
 40
1.978439970669432
 10
144.8884852177
 20
176.778326743
 30
0.0
 10
144.7925137433133
 20
176.9020126659793
 30
0.0
 10
144.5970169963707
 20
177.1539645687668
 30
0.0
 10
144.1683232381134
 20
177.4002837662905
 30
0.0
 10
143.6774132029867
 20
177.5416432759346
 30
0.0
 10
143.3323372218848
 20
177.5288873651436
 30
0.0
 10
143.156427628
 20
177.5223847767
 30
0.0
 11
144.8884852177
 21
176.778326743
 31
0.0
 11
144.5802566407
 21
177.1274083492
 31
0.0
 11
144.1678075607
 21
177.3786187944
 31
0.0
 11
143.681328201
 21
177.5135702524
 31
0.0
 11
143.156427628
 21
177.5223847767
 31
0.0
  0
SPLINE
  5
1775
330
1B
100
AcDbEntity
  8
0
  6
Continuous
100
AcDbSpline
210
0.0
220
0.0
230
1.0
 70
     8
 71
     3
 72
    13
 73
     9
 74
     7
 42
0.0000000001
 43
0.0000000001
 44
0.0000000001
 40
0.0
 40
0.0
 40
0.0
 40
0.0
 40
0.7791258607206124
 40
1.662887801889272
 40
2.663999246329983
 40
3.788456970918942
 40
5.041031200160829
 40
6.440385711545146
 40
6.440385711545146
 40
6.440385711545146
 40
6.440385711545146
 10
146.1788849639
 20
171.98261655
 30
0.0
 10
146.1693997633079
 20
171.7228247724487
 30
0.0
 10
146.1491555060468
 20
171.1683513558922
 30
0.0
 10
145.9972721448977
 20
170.2913051548113
 30
0.0
 10
145.7731355214534
 20
169.3137586320921
 30
0.0
 10
145.4908811830008
 20
168.2235261313135
 30
0.0
 10
145.1755160561598
 20
167.0047516888317
 30
0.0
 10
144.9876241541987
 20
166.1408717555667
 30
0.0
 10
144.8884784356
 20
165.685024559
 30
0.0
 11
146.1788849639
 21
171.98261655
 31
0.0
 11
146.134060839
 21
171.2047811531
 31
0.0
 11
145.9967247176
 21
170.3317554041
 31
0.0
 11
145.7780446345
 21
169.3548198149
 31
0.0
 11
145.5016087649999
 21
168.2648710159
 31
0.0
 11
145.1952628345
 21
167.0503363846
 31
0.0
 11
144.8884784356
 21
165.685024559
 31
0.0
  0
SPLINE
  5
1776
330
1B
100
AcDbEntity
  8
0
  6
Continuous
100
AcDbSpline
210
0.0
220
0.0
230
1.0
 70
     8
 71
     3
 72
    13
 73
     9
 74
     7
 42
0.0000000001
 43
0.0000000001
 44
0.0000000001
 40
0.0
 40
0.0
 40
0.0
 40
0.0
 40
0.7209668445377888
 40
1.530815131157443
 40
2.448687806600405
 40
3.473631851716246
 40
4.596968609791993
 40
5.822774999391863
 40
5.822774999391863
 40
5.822774999391863
 40
5.822774999391863
 10
145.3071051752
 20
172.1558216307
 30
0.0
 10
145.2914879794028
 20
171.9151931938227
 30
0.0
 10
145.2583282858417
 20
171.4042714295984
 30
0.0
 10
145.004276124589
 20
170.621627571224
 30
0.0
 10
144.6321635511142
 20
169.7834228593241
 30
0.0
 10
144.1648356378254
 20
168.8739344073683
 30
0.0
 10
143.6420616145453
 20
167.8778696273781
 30
0.0
 10
143.3229455711226
 20
167.1625299058965
 30
0.0
 10
143.156427628
 20
166.7892584847
 30
0.0
 11
145.3071051752
 21
172.1558216307
 31
0.0
 11
145.2323800501
 21
171.4387377119
 31
0.0
 11
145.0035517705
 21
170.6618903229
 31
0.0
 11
144.6391650285
 21
169.8194459327
 31
0.0
 11
144.1785984833
 21
168.9038102229
 31
0.0
 11
143.6681949104
 21
167.9031236262
 31
0.0
 11
143.156427628
 21
166.7892584847
 31
0.0
  0
SPLINE
  5
1777
330
1B
100
AcDbEntity
  8
0
  6
Continuous
100
AcDbSpline
210
0.0
220
0.0
230
1.0
 70
     8
 71
     3
 72
     9
 73
     5
 74
     3
 42
0.0000000001
 43
0.0000000001
 44
0.0000000001
 40
0.0
 40
0.0
 40
0.0
 40
0.0
 40
1.030829924935194
 40
2.100407128799329
 40
2.100407128799329
 40
2.100407128799329
 40
2.100407128799329
 10
144.8884784356
 20
165.685024559
 30
0.0
 10
144.7575721467085
 20
165.3672096455124
 30
0.0
 10
144.4908390069912
 20
164.7196336547687
 30
0.0
 10
144.1804900783911
 20
164.0917810733237
 30
0.0
 10
144.0224530318
 20
163.7720636246
 30
0.0
 11
144.8884784356
 21
165.685024559
 31
0.0
 11
144.4852542123
 21
164.736330425
 31
0.0
 11
144.0224530318
 21
163.7720636246
 31
0.0
  0
SPLINE
  5
1778
330
1B
100
AcDbEntity
  8
0
  6
Continuous
100
AcDbSpline
210
0.0
220
0.0
230
1.0
 70
     8
 71
     3
 72
    11
 73
     7
 74
     5
 42
0.0000000001
 43
0.0000000001
 44
0.0000000001
 40
0.0
 40
0.0
 40
0.0
 40
0.0
 40
0.5299128829685036
 40
1.077382185598636
 40
1.631069839020011
 40
2.178257150744863
 40
2.178257150744863
 40
2.178257150744863
 40
2.178257150744863
 10
144.0224530322
 20
163.7720670487
 30
0.0
 10
143.9290778153699
 20
163.9231964216806
 30
0.0
 10
143.7392337892622
 20
164.2304621995152
 30
0.0
 10
143.3182486750872
 20
164.5855823491951
 30
0.0
 10
142.8313359301245
 20
164.8535527644374
 30
0.0
 10
142.4700022700419
 20
164.9277845257584
 30
0.0
 10
142.2904022243
 20
164.9646812481
 30
0.0
 11
144.0224530322
 21
163.7720670487
 31
0.0
 11
143.7209823484
 21
164.2078687127
 31
0.0
 11
143.3097033559
 21
164.5692165059
 31
0.0
 11
142.8202735865
 21
164.8281151702
 31
0.0
 11
142.2904022243
 21
164.9646812481
 31
0.0
  0
SPLINE
  5
1779
330
1B
100
AcDbEntity
  8
0
  6
Continuous
100
AcDbSpline
210
0.0
220
0.0
230
1.0
 70
     8
 71
     3
 72
     9
 73
     5
 74
     3
 42
0.0000000001
 43
0.0000000001
 44
0.0000000001
 40
0.0
 40
0.0
 40
0.0
 40
0.0
 40
0.990473705040927
 40
2.020227195488293
 40
2.020227195488293
 40
2.020227195488293
 40
2.020227195488293
 10
143.156427628
 20
166.7892584847
 30
0.0
 10
143.0254402268734
 20
166.4860762353004
 30
0.0
 10
142.7582707819145
 20
165.8676882636572
 30
0.0
 10
142.4483669284903
 20
165.2695601054844
 30
0.0
 10
142.2904022325
 20
164.9646812483
 30
0.0
 11
143.156427628
 21
166.7892584847
 31
0.0
 11
142.7531932316
 21
165.8845816463
 31
0.0
 11
142.2904022325
 21
164.9646812483
 31
0.0
  0
SPLINE
  5
177A
330
1B
100
AcDbEntity
  8
0
  6
Continuous
100
AcDbSpline
210
0.0
220
0.0
230
1.0
 70
     8
 71
     3
 72
    11
 73
     7
 74
     5
 42
0.0000000001
 43
0.0000000001
 44
0.0000000001
 40
0.0
 40
0.0
 40
0.0
 40
0.0
 40
0.5154787304064119
 40
1.048082624674262
 40
1.58883231021014
 40
2.126824104335422
 40
2.126824104335422
 40
2.126824104335422
 40
2.126824104335422
 10
144.8884787507
 20
165.6850246732
 30
0.0
 10
144.7924565475074
 20
165.8287005059138
 30
0.0
 10
144.5972221046242
 20
166.1208253502003
 30
0.0
 10
144.174916474347
 20
166.4517975158136
 30
0.0
 10
143.690064092219
 20
166.6964788567323
 30
0.0
 10
143.334003016254
 20
166.7583846978374
 30
0.0
 10
143.156427628
 20
166.7892584847
 30
0.0
 11
144.8884787507
 21
165.6850246732
 31
0.0
 11
144.5802519716
 21
166.0982008755
 31
0.0
 11
144.1678045721
 21
166.435178695
 31
0.0
 11
143.6813267852
 21
166.6712921958
 31
0.0
 11
143.156427628
 21
166.7892584847
 31
0.0
  0
SPLINE
  5
177B
330
1B
100
AcDbEntity
  8
0
  6
Continuous
100
AcDbSpline
210
0.0
220
0.0
230
1.0
 70
     8
 71
     3
 72
     9
 73
     5
 74
     3
 42
0.0000000001
 43
0.0000000001
 44
0.0000000001
 40
0.0
 40
0.0
 40
0.0
 40
0.0
 40
1.943902159764747
 40
3.847572768120303
 40
3.847572768120303
 40
3.847572768120303
 40
3.847572768120303
 10
144.0224530318
 20
161.1900468234
 30
0.0
 10
144.181009256385
 20
160.5617013461895
 30
0.0
 10
144.4948401808814
 20
159.3180148082934
 30
0.0
 10
144.7581835538189
 20
158.0626714434516
 30
0.0
 10
144.8884784356
 20
157.4415629132
 30
0.0
 11
144.0224530318
 21
161.1900468234
 31
0.0
 11
144.48523448
 21
159.3020349225
 31
0.0
 11
144.8884784356
 21
157.4415629132
 31
0.0
  0
SPLINE
  5
177C
330
1B
100
AcDbEntity
  8
0
  6
Continuous
100
AcDbSpline
210
0.0
220
0.0
230
1.0
 70
     8
 71
     3
 72
     9
 73
     5
 74
     3
 42
0.0000000001
 43
0.0000000001
 44
0.0000000001
 40
0.0
 40
0.0
 40
0.0
 40
0.0
 40
1.898039657990543
 40
3.750856068660636
 40
3.750856068660636
 40
3.750856068660636
 40
3.750856068660636
 10
142.2904022326
 20
160.7305453628
 30
0.0
 10
142.4489664885837
 20
160.1179812596441
 30
0.0
 10
142.7623170022703
 20
158.9074481845879
 30
0.0
 10
143.0261176147605
 20
157.685164385746
 30
0.0
 10
143.156427628
 20
157.0813908899
 30
0.0
 11
142.2904022326
 21
160.7305453628
 31
0.0
 11
142.7534070184
 21
158.8898441074
 31
0.0
 11
143.156427628
 21
157.0813908899
 31
0.0
  0
SPLINE
  5
177D
330
1B
100
AcDbEntity
  8
0
  6
Continuous
100
AcDbSpline
210
0.0
220
0.0
230
1.0
 70
     8
 71
     3
 72
    10
 73
     6
 74
     4
 42
0.0000000001
 43
0.0000000001
 44
0.0000000001
 40
0.0
 40
0.0
 40
0.0
 40
0.0
 40
0.6582487050070182
 40
1.357216550810285
 40
2.101034902011104
 40
2.101034902011104
 40
2.101034902011104
 40
2.101034902011104
 10
144.0224530318
 20
128.9250544537
 30
0.0
 10
144.1199854751737
 20
128.7285014757639
 30
0.0
 10
144.3210837004809
 20
128.3232367897314
 30
0.0
 10
144.61247474226
 20
127.6861562978514
 30
0.0
 10
144.7945901226565
 20
127.2410012262562
 30
0.0
 10
144.8884784356
 20
127.0115046369
 30
0.0
 11
144.0224530318
 21
128.9250544537
 31
0.0
 11
144.3120237755
 21
128.3339198311
 31
0.0
 11
144.6020337288
 21
127.6979557783
 31
0.0
 11
144.8884784356
 21
127.0115046369
 31
0.0
  0
SPLINE
  5
177E
330
1B
100
AcDbEntity
  8
0
  6
Continuous
100
AcDbSpline
210
0.0
220
0.0
230
1.0
 70
     8
 71
     3
 72
    10
 73
     6
 74
     4
 42
0.0000000001
 43
0.0000000001
 44
0.0000000001
 40
0.0
 40
0.0
 40
0.0
 40
0.0
 40
0.6326384299113008
 40
1.305009053434454
 40
2.020327526322255
 40
2.020327526322255
 40
2.020327526322255
 40
2.020327526322255
 10
142.2904022243
 20
127.7318479476
 30
0.0
 10
142.3877949061322
 20
127.5447996556523
 30
0.0
 10
142.5886969151155
 20
127.1589556998
 30
0.0
 10
142.8799748749286
 20
126.5515221393506
 30
0.0
 10
143.0623947942434
 20
126.1264068448346
 30
0.0
 10
143.156427628
 20
125.9072707112
 30
0.0
 11
142.2904022243
 21
127.7318479476
 31
0.0
 11
142.5795829414
 21
127.1691705126
 31
0.0
 11
142.8696397361
 21
126.5625822575
 31
0.0
 11
143.156427628
 21
125.9072707112
 31
0.0
  0
SPLINE
  5
177F
330
1B
100
AcDbEntity
  8
0
  6
Continuous
100
AcDbSpline
210
0.0
220
0.0
230
1.0
 70
     8
 71
     3
 72
    11
 73
     7
 74
     5
 42
0.0000000001
 43
0.0000000001
 44
0.0000000001
 40
0.0
 40
0.0
 40
0.0
 40
0.0
 40
1.789607830861124
 40
3.610823472182363
 40
5.499445071580867
 40
7.502639496826566
 40
7.502639496826566
 40
7.502639496826566
 40
7.502639496826566
 10
121.043178974
 20
172.1558216307
 30
0.0
 10
121.0672606514423
 20
171.5587773009273
 30
0.0
 10
121.1158493336434
 20
170.3541437255148
 30
0.0
 10
121.5049925193711
 20
168.555159158503
 30
0.0
 10
122.1001444854842
 20
166.7421604733661
 30
0.0
 10
122.656029511325
 20
165.5686897576842
 30
0.0
 10
122.942154492
 20
164.9646812483
 30
0.0
 11
121.043178974
 21
172.1558216307
 31
0.0
 11
121.1662510416
 21
170.3704506736
 31
0.0
 11
121.5300970576
 21
168.5859500463
 31
0.0
 11
122.1236411385
 21
166.7930203294
 31
0.0
 11
122.942154492
 21
164.9646812483
 31
0.0
  0
SPLINE
  5
1780
330
1B
100
AcDbEntity
  8
0
  6
Continuous
100
AcDbSpline
210
0.0
220
0.0
230
1.0
 70
     8
 71
     3
 72
    11
 73
     7
 74
     5
 42
0.0000000001
 43
0.0000000001
 44
0.0000000001
 40
0.0
 40
0.0
 40
0.0
 40
0.0
 40
0.5301250240759401
 40
1.07746760245592
 40
1.631004585154238
 40
2.178216590153129
 40
2.178216590153129
 40
2.178216590153129
 40
2.178216590153129
 10
144.0224530318
 20
128.9244621468
 30
0.0
 10
143.9290204872526
 20
128.773284093503
 30
0.0
 10
143.7391208688742
 20
128.4660179822421
 30
0.0
 10
143.3181178912685
 20
128.1109614247002
 30
0.0
 10
142.8312897794272
 20
127.8430282900492
 30
0.0
 10
142.4700060892166
 20
127.7687658227061
 30
0.0
 10
142.2904022243
 20
127.7318479476
 30
0.0
 11
144.0224530318
 21
128.9244621468
 31
0.0
 11
143.7207992286
 21
128.4885292114
 31
0.0
 11
143.3095761048
 21
128.1273098313
 31
0.0
 11
142.8202836984
 21
127.8684737205
 31
0.0
 11
142.2904022243
 21
127.7318479476
 31
0.0
  0
SPLINE
  5
1781
330
1B
100
AcDbEntity
  8
0
  6
Continuous
100
AcDbSpline
210
0.0
220
0.0
230
1.0
 70
     8
 71
     3
 72
    15
 73
    11
 74
     9
 42
0.0000000001
 43
0.0000000001
 44
0.0000000001
 40
0.0
 40
0.0
 40
0.0
 40
0.0
 40
1.789151706156641
 40
3.359316189479263
 40
4.742662502688511
 40
6.040392235408763
 40
7.333276304208564
 40
8.665290356007075
 40
10.04816333985875
 40
11.43085705661305
 40
11.43085705661305
 40
11.43085705661305
 40
11.43085705661305
 10
144.8884784356
 20
127.0115046369
 30
0.0
 10
145.0174742632582
 20
126.4291631332695
 30
0.0
 10
145.2596771858702
 20
125.3357571162056
 30
0.0
 10
145.667123065616
 20
123.8079900370626
 30
0.0
 10
146.0025443033986
 20
122.4312471428757
 30
0.0
 10
146.2085878868875
 20
121.1182022052043
 30
0.0
 10
146.1570184338834
 20
119.8014460633237
 30
0.0
 10
145.8358708870272
 20
118.4985552526779
 30
0.0
 10
145.3661988044879
 20
117.2157729285565
 30
0.0
 10
145.0477116769998
 20
116.3507098325361
 30
0.0
 10
144.8884784356
 20
115.9182063217
 30
0.0
 11
144.8884784356
 21
127.0115046369
 31
0.0
 11
145.2886271731
 21
125.2676741361
 31
0.0
 11
145.6773202468
 21
123.7463805421
 31
0.0
 11
145.9899913416
 21
122.3988332113
 31
0.0
 11
146.166587215
 21
121.1131752643
 31
0.0
 11
146.1148767413
 21
119.8213257211
 31
0.0
 11
145.8174056225
 21
118.5229527517
 31
0.0
 11
145.3658049848
 21
117.2158970706
 31
0.0
 11
144.8884784356
 21
115.9182063217
 31
0.0
  0
SPLINE
  5
1782
330
1B
100
AcDbEntity
  8
0
  6
Continuous
100
AcDbSpline
210
0.0
220
0.0
230
1.0
 70
     8
 71
     3
 72
    11
 73
     7
 74
     5
 42
0.0000000001
 43
0.0000000001
 44
0.0000000001
 40
0.0
 40
0.0
 40
0.0
 40
0.0
 40
2.00342878823135
 40
3.892120259460854
 40
5.713221140142276
 40
7.502639680483215
 40
7.502639680483215
 40
7.502639680483215
 40
7.502639680483215
 10
122.942154492
 20
179.3469620132
 30
0.0
 10
122.6559975096113
 20
178.7428819842239
 30
0.0
 10
122.10007189095
 20
177.5693178760685
 30
0.0
 10
121.5049284549459
 20
175.756248752253
 30
0.0
 10
121.1158350410796
 20
173.9573346734949
 30
0.0
 10
121.0672555679221
 20
172.7528027187252
 30
0.0
 10
121.043178974
 20
172.1558216307
 30
0.0
 11
122.942154492
 21
179.3469620132
 31
0.0
 11
122.1235556886
 21
177.5184044099
 31
0.0
 11
121.5300179072
 21
175.7253990068
 31
0.0
 11
121.1662252215
 21
173.9410046279
 31
0.0
 11
121.043178974
 21
172.1558216307
 31
0.0
  0
SPLINE
  5
1783
330
1B
100
AcDbEntity
  8
0
  6
Continuous
100
AcDbSpline
210
0.0
220
0.0
230
1.0
 70
     8
 71
     3
 72
    15
 73
    11
 74
     9
 42
0.0000000001
 43
0.0000000001
 44
0.0000000001
 40
0.0
 40
0.0
 40
0.0
 40
0.0
 40
1.57339148247609
 40
2.993032217081185
 40
4.259951335440801
 40
5.449158919359092
 40
6.681926395268291
 40
8.11005495248644
 40
9.780756667238046
 40
11.63723727582374
 40
11.63723727582374
 40
11.63723727582374
 40
11.63723727582374
 10
143.156427628
 20
125.9072707112
 30
0.0
 10
143.3735247977763
 20
125.4297004874891
 30
0.0
 10
143.7865045492335
 20
124.521227878221
 30
0.0
 10
144.4584523338441
 20
123.2693604069693
 30
0.0
 10
145.012651038103
 20
122.102760440329
 30
0.0
 10
145.3630090593588
 20
120.9070883217495
 30
0.0
 10
145.2526916910983
 20
119.5987027561759
 30
0.0
 10
144.6923573700858
 20
118.2569490341667
 30
0.0
 10
143.9091144279088
 20
116.8042296902509
 30
0.0
 10
143.4159811078591
 20
115.7362564485589
 30
0.0
 10
143.156427628
 20
115.1741444192
 30
0.0
 11
143.156427628
 21
125.9072707112
 31
0.0
 11
143.8240591794
 21
124.4825500829
 31
0.0
 11
144.4714805183
 21
123.2191319315
 31
0.0
 11
144.9923856397
 21
122.0642544891
 31
0.0
 11
145.286683419
 21
120.9120377149
 31
0.0
 11
145.2007728782
 21
119.6822673995
 31
0.0
 11
144.7048461039
 21
118.3430109601
 31
0.0
 11
143.9529225617
 21
116.8510809328
 31
0.0
 11
143.156427628
 21
115.1741444192
 31
0.0
  0
SPLINE
  5
1784
330
1B
100
AcDbEntity
  8
0
  6
Continuous
100
AcDbSpline
210
0.0
220
0.0
230
1.0
 70
     8
 71
     3
 72
    11
 73
     7
 74
     5
 42
0.0000000001
 43
0.0000000001
 44
0.0000000001
 40
0.0
 40
0.0
 40
0.0
 40
0.0
 40
0.5154803832608631
 40
1.048086773867542
 40
1.588839398128778
 40
2.126834149812189
 40
2.126834149812189
 40
2.126834149812189
 40
2.126834149812189
 10
144.8884944547
 20
127.0114988306
 30
0.0
 10
144.7924708643956
 20
126.8678232651877
 30
0.0
 10
144.5972334543108
 20
126.5756987445919
 30
0.0
 10
144.1749237549234
 20
126.2447279579028
 30
0.0
 10
143.690067467995
 20
126.0000481674166
 30
0.0
 10
143.334004143327
 20
125.9381437760296
 30
0.0
 10
143.156427628
 20
125.9072707112
 30
0.0
 11
144.8884944547
 21
127.0114988306
 31
0.0
 11
144.5802636469
 21
126.5983235716
 31
0.0
 11
144.1678120787
 21
126.2613469089
 31
0.0
 11
143.6813302776
 21
126.0252349485
 31
0.0
 11
143.156427628
 21
125.9072707112
 31
0.0
  0
SPLINE
  5
1785
330
1B
100
AcDbEntity
  8
0
  6
Continuous
100
AcDbSpline
210
0.0
220
0.0
230
1.0
 70
     8
 71
     3
 72
    15
 73
    11
 74
     9
 42
0.0000000001
 43
0.0000000001
 44
0.0000000001
 40
0.0
 40
0.0
 40
0.0
 40
0.0
 40
2.048805215007011
 40
3.969504323477652
 40
5.814546792418366
 40
7.624236019073697
 40
9.43387839947933
 40
11.27880913687614
 40
13.198917657322
 40
15.24733541746184
 40
15.24733541746184
 40
15.24733541746184
 40
15.24733541746184
 10
117.5649650407
 20
186.9905377094999
 30
0.0
 10
116.9485818988285
 20
186.6952772262115
 30
0.0
 10
115.7543563430481
 20
186.1232180785772
 30
0.0
 10
113.9112175617484
 20
185.5068287896362
 30
0.0
 10
112.0881402910763
 20
185.1228943282806
 30
0.0
 10
110.2650942640404
 20
184.9943394819458
 30
0.0
 10
108.4420974870309
 20
185.1230491405563
 30
0.0
 10
106.6192939417849
 20
185.5070628013827
 30
0.0
 10
104.7765284800589
 20
186.123406930432
 30
0.0
 10
103.5826000544448
 20
186.6953303623509
 30
0.0
 10
102.966334968
 20
186.9905377094999
 30
0.0
 11
117.5649650407
 21
186.9905377094999
 31
0.0
 11
115.6987508349
 21
186.1450512536
 31
0.0
 11
113.8774422583
 21
185.5351987025
 31
0.0
 11
112.0703957014
 21
185.1626876914
 31
0.0
 11
110.2650806178
 21
185.0369397451
 31
0.0
 11
108.4598229616
 21
185.1628378773
 31
0.0
 11
106.6529125407
 21
185.5354558541
 31
0.0
 11
104.832188457
 21
186.1451939465
 31
0.0
 11
102.966334968
 21
186.9905377094999
 31
0.0
  0
SPLINE
  5
1786
330
1B
100
AcDbEntity
  8
0
  6
Continuous
100
AcDbSpline
210
0.0
220
0.0
230
1.0
 70
     8
 71
     3
 72
    10
 73
     6
 74
     4
 42
0.0000000001
 43
0.0000000001
 44
0.0000000001
 40
0.0
 40
0.0
 40
0.0
 40
0.0
 40
0.3324854197761959
 40
0.6469578200728763
 40
0.9402860903156158
 40
0.9402860903156158
 40
0.9402860903156158
 40
0.9402860903156158
 10
69.8594628988
 20
186.9905377094999
 30
0.0
 10
69.75143609770829
 20
187.0154151848467
 30
0.0
 10
69.54123504952162
 20
187.0638223517838
 30
0.0
 10
69.22999741638091
 20
187.1064063736206
 30
0.0
 10
69.02739230068015
 20
187.1124729400458
 30
0.0
 10
68.9296138496
 20
187.1154007016
 30
0.0
 11
69.8594628988
 21
186.9905377094999
 31
0.0
 11
69.5343408225
 21
187.0601235548
 31
0.0
 11
69.2226181943
 21
187.1016192608
 31
0.0
 11
68.9296138496
 21
187.1154007016
 31
0.0
  0
SPLINE
  5
1787
330
1B
100
AcDbEntity
  8
0
  6
Continuous
100
AcDbSpline
210
0.0
220
0.0
230
1.0
 70
     8
 71
     3
 72
    10
 73
     6
 74
     4
 42
0.0000000001
 43
0.0000000001
 44
0.0000000001
 40
0.0
 40
0.0
 40
0.0
 40
0.0
 40
0.2552984211278112
 40
0.4821041859912932
 40
0.6803200381086438
 40
0.6803200381086438
 40
0.6803200381086438
 40
0.6803200381086438
 10
66.61335457319999
 20
187.1154007016
 30
0.0
 10
66.52830844125801
 20
187.112829281849
 30
0.0
 10
66.36770777623835
 20
187.1079734264133
 30
0.0
 10
66.14214450312204
 20
187.0705898269909
 30
0.0
 10
66.01100844300498
 20
187.015997665727
 30
0.0
 10
65.94985097510001
 20
186.9905377094999
 30
0.0
 11
66.61335457319999
 21
187.1154007016
 31
0.0
 11
66.3584283962
 21
187.1016192608
 31
0.0
 11
66.13545090549999
 21
187.0601235548
 31
0.0
 11
65.94985097510001
 21
186.9905377094999
 31
0.0
  0
SPLINE
  5
1788
330
1B
100
AcDbEntity
  8
0
  6
Continuous
100
AcDbSpline
210
0.0
220
0.0
230
1.0
 70
     8
 71
     3
 72
    10
 73
     6
 74
     4
 42
0.0000000001
 43
0.0000000001
 44
0.0000000001
 40
0.0
 40
0.0
 40
0.0
 40
0.0
 40
0.1559122158865963
 40
0.2538795218939199
 40
0.2943748915787827
 40
0.2943748915787827
 40
0.2943748915787827
 40
0.2943748915787827
 10
51.3512209024
 20
186.9905377094999
 30
0.0
 10
51.30469302333108
 20
187.0136182017665
 30
0.0
 10
51.22892939169014
 20
187.0512013013869
 30
0.0
 10
51.14127003977859
 20
187.0958378856487
 30
0.0
 10
51.09763665297638
 20
187.1109739463661
 30
0.0
 10
51.0848754513
 20
187.1154007016
 30
0.0
 11
51.3512209024
 21
186.9905377094999
 31
0.0
 11
51.2116987565
 21
187.0601235548
 31
0.0
 11
51.122953619
 21
187.1016192608
 31
0.0
 11
51.0848754513
 21
187.1154007016
 31
0.0
  0
SPLINE
  5
1789
330
1B
100
AcDbEntity
  8
0
  6
Continuous
100
AcDbSpline
210
0.0
220
0.0
230
1.0
 70
     8
 71
     3
 72
    10
 73
     6
 74
     4
 42
0.0000000001
 43
0.0000000001
 44
0.0000000001
 40
0.0
 40
0.0
 40
0.0
 40
0.0
 40
0.2933282702427395
 40
0.6078006705394199
 40
0.9402860903156158
 40
0.9402860903156158
 40
0.9402860903156158
 40
0.9402860903156158
 10
99.9865720935
 20
187.1154007016
 30
0.0
 10
99.88879364241984
 20
187.1124729400459
 30
0.0
 10
99.68618852671908
 20
187.1064063736207
 30
0.0
 10
99.37495089357842
 20
187.0638223517837
 30
0.0
 10
99.16474984539173
 20
187.0154151848466
 30
0.0
 10
99.0567230443
 20
186.9905377094999
 30
0.0
 11
99.9865720935
 21
187.1154007016
 31
0.0
 11
99.69356774880001
 21
187.1016192608
 31
0.0
 11
99.38184512060001
 21
187.0601235548
 31
0.0
 11
99.0567230443
 21
186.9905377094999
 31
0.0
  0
SPLINE
  5
178A
330
1B
100
AcDbEntity
  8
0
  6
Continuous
100
AcDbSpline
210
0.0
220
0.0
230
1.0
 70
     8
 71
     3
 72
    10
 73
     6
 74
     4
 42
0.0000000001
 43
0.0000000001
 44
0.0000000001
 40
0.0
 40
0.0
 40
0.0
 40
0.0
 40
0.1982158522110008
 40
0.425021616976155
 40
0.6803200381039805
 40
0.6803200381039805
 40
0.6803200381039805
 40
0.6803200381039805
 10
102.966334968
 20
186.9905377094999
 30
0.0
 10
102.905177500061
 20
187.0159976657248
 30
0.0
 10
102.7740414399344
 20
187.0705898269577
 30
0.0
 10
102.5484781668318
 20
187.1079734264267
 30
0.0
 10
102.387877501843
 20
187.1128292818532
 30
0.0
 10
102.3028313699
 20
187.1154007016
 30
0.0
 11
102.966334968
 21
186.9905377094999
 31
0.0
 11
102.7807350375
 21
187.0601235548
 31
0.0
 11
102.5577575469
 21
187.1016192608
 31
0.0
 11
102.3028313699
 21
187.1154007016
 31
0.0
  0
SPLINE
  5
178B
330
1B
100
AcDbEntity
  8
0
  6
Continuous
100
AcDbSpline
210
0.0
220
0.0
230
1.0
 70
     8
 71
     3
 72
    10
 73
     6
 74
     4
 42
0.0000000001
 43
0.0000000001
 44
0.0000000001
 40
0.0
 40
0.0
 40
0.0
 40
0.0
 40
0.0404953696848561
 40
0.1384626756921796
 40
0.2943748915787759
 40
0.2943748915787759
 40
0.2943748915787759
 40
0.2943748915787759
 10
117.8313104918
 20
187.1154007016
 30
0.0
 10
117.8185492901236
 20
187.1109739463661
 30
0.0
 10
117.7749159033215
 20
187.0958378856487
 30
0.0
 10
117.6872565514098
 20
187.0512013013869
 30
0.0
 10
117.6114929197689
 20
187.0136182017665
 30
0.0
 10
117.5649650407
 20
186.9905377094999
 30
0.0
 11
117.8313104918
 21
187.1154007016
 31
0.0
 11
117.7932323241
 21
187.1016192608
 31
0.0
 11
117.7044871866
 21
187.0601235548
 31
0.0
 11
117.5649650407
 21
186.9905377094999
 31
0.0
  0
SPLINE
  5
178C
330
1B
100
AcDbEntity
  8
0
  6
Continuous
100
AcDbSpline
210
0.0
220
0.0
230
1.0
 70
     8
 71
     3
 72
    15
 73
    11
 74
     9
 42
0.0000000001
 43
0.0000000001
 44
0.0000000001
 40
0.0
 40
0.0
 40
0.0
 40
0.0
 40
2.048805215007011
 40
3.969504323382831
 40
5.814546792421488
 40
7.624236019076813
 40
9.433878399482445
 40
11.27880913687927
 40
13.1989176572303
 40
15.24733541746122
 40
15.24733541746122
 40
15.24733541746122
 40
15.24733541746122
 10
65.94985097510001
 20
186.9905377094999
 30
0.0
 10
65.33346783322732
 20
186.6952772262155
 30
0.0
 10
64.13924227747305
 20
186.1232180786026
 30
0.0
 10
62.29610349619141
 20
185.5068287896016
 30
0.0
 10
60.47302622550643
 20
185.1228943282944
 30
0.0
 10
58.64998019844076
 20
184.9943394819418
 30
0.0
 10
56.82698342143198
 20
185.1230491405607
 30
0.0
 10
55.00417987621101
 20
185.507062801362
 30
0.0
 10
53.16141441450937
 20
186.1234069304756
 30
0.0
 10
51.96748598888044
 20
186.6953303623569
 30
0.0
 10
51.3512209024
 20
186.9905377094999
 30
0.0
 11
65.94985097510001
 21
186.9905377094999
 31
0.0
 11
64.0836367693
 21
186.1450512536
 31
0.0
 11
62.26232819279999
 21
185.5351987025
 31
0.0
 11
60.4552816358
 21
185.1626876914
 31
0.0
 11
58.6499665522
 21
185.0369397451
 31
0.0
 11
56.844708896
 21
185.1628378773
 31
0.0
 11
55.03779847509999
 21
185.5354558541
 31
0.0
 11
53.21707439149999
 21
186.1451939465
 31
0.0
 11
51.3512209024
 21
186.9905377094999
 31
0.0
  0
SPLINE
  5
178D
330
1B
100
AcDbEntity
  8
0
  6
Continuous
100
AcDbSpline
210
0.0
220
0.0
230
1.0
 70
     8
 71
     3
 72
    15
 73
    11
 74
     9
 42
0.0000000001
 43
0.0000000001
 44
0.0000000001
 40
0.0
 40
0.0
 40
0.0
 40
0.0
 40
3.826992186408153
 40
7.520307750794924
 40
11.15354783222777
 40
14.76636705701824
 40
18.37907672706426
 40
22.01205694078173
 40
25.70420066719002
 40
29.53045772190934
 40
29.53045772190934
 40
29.53045772190934
 40
29.53045772190934
 10
99.0567230443
 20
186.9905377094999
 30
0.0
 10
97.81571624753539
 20
186.6938493565041
 30
0.0
 10
95.37705095168136
 20
186.1108359580109
 30
0.0
 10
91.70632775249075
 20
185.5014602493852
 30
0.0
 10
88.07742341284428
 20
185.1213083112457
 30
0.0
 10
84.45698975380142
 20
184.9948357983081
 30
0.0
 10
80.83664857639361
 20
185.1214611859469
 30
0.0
 10
77.20827001351145
 20
185.5016938564766
 30
0.0
 10
73.53827543362813
 20
186.1110305533292
 30
0.0
 10
71.1002303699791
 20
186.6939028960337
 30
0.0
 10
69.8594628988
 20
186.9905377094999
 30
0.0
 11
99.0567230443
 21
186.9905377094999
 31
0.0
 11
95.3242946327
 21
186.1450512536
 31
0.0
 11
91.6816774796
 21
185.5351987025
 31
0.0
 11
88.0675843657
 21
185.1626876914
 31
0.0
 11
84.45695419839998
 21
185.0369397451
 31
0.0
 11
80.8464388861
 21
185.1628378773
 31
0.0
 11
77.2326180443
 21
185.5354558541
 31
0.0
 11
73.591169877
 21
186.1451939465
 31
0.0
 11
69.8594628988
 21
186.9905377094999
 31
0.0
  0
SPLINE
  5
178E
330
1B
100
AcDbEntity
  8
0
  6
Continuous
100
AcDbSpline
210
0.0
220
0.0
230
1.0
 70
     8
 71
     3
 72
    11
 73
     7
 74
     5
 42
0.0000000001
 43
0.0000000001
 44
0.0000000001
 40
0.0
 40
0.0
 40
0.0
 40
0.0
 40
0.5478282412242589
 40
1.10214594143277
 40
1.650386766289065
 40
2.181456795399409
 40
2.181456795399409
 40
2.181456795399409
 40
2.181456795399409
 10
65.94985097910001
 20
194.5604025525
 30
0.0
 10
65.98705285884287
 20
194.7401622624953
 30
0.0
 10
66.06189730403003
 20
195.101811078485
 30
0.0
 10
66.33115154251371
 20
195.5888231057039
 30
0.0
 10
66.68769783615554
 20
196.0097404441991
 30
0.0
 10
66.99595274906979
 20
196.1992205417945
 30
0.0
 10
67.1476281862
 20
196.2924533677
 30
0.0
 11
65.94985097910001
 21
194.5604025525
 31
0.0
 11
66.08739010989999
 21
195.0906843355
 31
0.0
 11
66.3475008292
 21
195.5801846179
 31
0.0
 11
66.7102009505
 21
195.9913009324
 31
0.0
 11
67.1476281862
 21
196.2924533677
 31
0.0
  0
SPLINE
  5
178F
330
1B
100
AcDbEntity
  8
0
  6
Continuous
100
AcDbSpline
210
0.0
220
0.0
230
1.0
 70
     8
 71
     3
 72
    16
 73
    12
 74
    10
 42
0.0000000001
 43
0.0000000001
 44
0.0000000001
 40
0.0
 40
0.0
 40
0.0
 40
0.0
 40
1.936477906104395
 40
3.752333377071909
 40
5.480121353848248
 40
7.151513092411936
 40
8.79748789843476
 40
10.44973214407328
 40
12.1416442375661
 40
13.90414463826711
 40
15.77595344501092
 40
15.77595344501092
 40
15.77595344501092
 40
15.77595344501092
 10
67.1476442881
 20
196.2924533597
 30
0.0
 10
66.56687120600469
 20
196.5750246308048
 30
0.0
 10
65.44150116507555
 20
197.1225659214263
 30
0.0
 10
63.71865034538808
 20
197.7409732469899
 30
0.0
 10
62.02953383657565
 20
198.1647593017422
 30
0.0
 10
60.35705505497388
 20
198.378775947327
 30
0.0
 10
58.69605604323473
 20
198.3802179822341
 30
0.0
 10
57.04159306303822
 20
198.1680927764609
 30
0.0
 10
55.38951693124211
 20
197.7441056762158
 30
0.0
 10
53.72145339813389
 20
197.124269577098
 30
0.0
 10
52.64070153149964
 20
196.5752298852495
 30
0.0
 10
52.0840728171
 20
196.2924533597
 30
0.0
 11
67.1476442881
 21
196.2924533597
 31
0.0
 11
65.3908644338
 21
197.1071135492
 31
0.0
 11
63.68211294059999
 21
197.7215233684
 31
0.0
 11
62.0045855577
 21
198.1352299943
 31
0.0
 11
60.346331024
 21
198.3443764626
 31
0.0
 11
58.70035635989999
 21
198.3450599849
 31
0.0
 11
57.0613021456
 21
198.1367037279
 31
0.0
 11
55.4209172984
 21
197.7223318114
 31
0.0
 11
53.76919560160001
 21
197.1073333571
 31
0.0
 11
52.0840728171
 21
196.2924533597
 31
0.0
  0
SPLINE
  5
1790
330
1B
100
AcDbEntity
  8
0
  6
Continuous
100
AcDbSpline
210
0.0
220
0.0
230
1.0
 70
     8
 71
     3
 72
    11
 73
     7
 74
     5
 42
0.0000000001
 43
0.0000000001
 44
0.0000000001
 40
0.0
 40
0.0
 40
0.0
 40
0.0
 40
0.5302526299123677
 40
1.036551383573301
 40
1.518988094157082
 40
1.9853118882608
 40
1.9853118882608
 40
1.9853118882608
 40
1.9853118882608
 10
51.3512208989
 20
194.5604025524
 30
0.0
 10
51.33971959747291
 20
194.737918248276
 30
0.0
 10
51.31723655970067
 20
195.0849304643145
 30
0.0
 10
51.45226522176048
 20
195.5804947632566
 30
0.0
 10
51.70052741133831
 20
196.0102018942115
 30
0.0
 10
51.95768062071957
 20
196.1994408320652
 30
0.0
 10
52.0840735931
 20
196.2924533669
 30
0.0
 11
51.3512208989
 21
194.5604025524
 31
0.0
 11
51.3467132704
 21
195.0906360225
 31
0.0
 11
51.47557464110001
 21
195.5802615683
 31
0.0
 11
51.7279114329
 21
195.9914444026
 31
0.0
 11
52.0840735931
 21
196.2924533669
 31
0.0
  0
SPLINE
  5
1791
330
1B
100
AcDbEntity
  8
0
  6
Continuous
100
AcDbSpline
210
0.0
220
0.0
230
1.0
 70
     8
 71
     3
 72
     9
 73
     5
 74
     3
 42
0.0000000001
 43
0.0000000001
 44
0.0000000001
 40
0.0
 40
0.0
 40
0.0
 40
0.0
 40
2.086732688801629
 40
3.448679566332137
 40
3.448679566332137
 40
3.448679566332137
 40
3.448679566332137
 10
65.94985097510001
 20
194.5604026657
 30
0.0
 10
65.32995323895445
 20
194.8782683282198
 30
0.0
 10
64.30546712852286
 20
195.4035952285235
 30
0.0
 10
63.22131773240475
 20
195.7890032995629
 30
0.0
 10
62.7931672312
 20
195.9412080228
 30
0.0
 11
65.94985097510001
 21
194.5604026657
 31
0.0
 11
64.0683136183
 21
195.462772041
 31
0.0
 11
62.7931672312
 21
195.9412080228
 31
0.0
  0
SPLINE
  5
1792
330
1B
100
AcDbEntity
  8
0
  6
Continuous
100
AcDbSpline
210
0.0
220
0.0
230
1.0
 70
     8
 71
     3
 72
    14
 73
    10
 74
     8
 42
0.0000000001
 43
0.0000000001
 44
0.0000000001
 40
0.0
 40
0.0
 40
0.0
 40
0.0
 40
0.5770532439613713
 40
2.417426879598085
 40
4.210148132851843
 40
6.004710039042656
 40
7.850423911982888
 40
9.792786291917256
 40
11.87999231561285
 40
11.87999231561285
 40
11.87999231561285
 40
11.87999231561285
 10
62.7931672312
 20
195.9412080228
 30
0.0
 10
62.60982553180472
 20
195.9993940769892
 30
0.0
 10
61.84175922785897
 20
196.2431506677143
 30
0.0
 10
60.46601223217034
 20
196.5454212985009
 30
0.0
 10
58.65600259107482
 20
196.6841476011878
 30
0.0
 10
56.84295843116405
 20
196.5483176395728
 30
0.0
 10
55.02195982607099
 20
196.1410905287163
 30
0.0
 10
53.1712192551774
 20
195.4831182054399
 30
0.0
 10
51.97225271747936
 20
194.8752577351516
 30
0.0
 10
51.3512209024
 20
194.5604026668
 30
0.0
 11
62.7931672312
 21
195.9412080228
 31
0.0
 11
62.2418957169
 21
196.1117664113
 31
0.0
 11
60.4441856893
 21
196.5057382065
 31
0.0
 11
58.6564096815
 21
196.638803746
 31
0.0
 11
56.8666812104
 21
196.5071814269
 31
0.0
 11
55.0635444349
 21
196.1130273078
 31
0.0
 11
53.23319518049999
 21
195.4629556026
 31
0.0
 11
51.3512209024
 21
194.5604026668
 31
0.0
  0
SPLINE
  5
1793
330
1B
100
AcDbEntity
  8
0
  6
Continuous
100
AcDbSpline
210
0.0
220
0.0
230
1.0
 70
     8
 71
     3
 72
    16
 73
    12
 74
    10
 42
0.0000000001
 43
0.0000000001
 44
0.0000000001
 40
0.0
 40
0.0
 40
0.0
 40
0.0
 40
3.537830756582125
 40
6.95726028272985
 40
10.30124816999615
 40
13.60271539870193
 40
16.89027654665392
 40
20.19181949817601
 40
23.53597813946238
 40
26.955628089268
 40
30.49357431337305
 40
30.49357431337305
 40
30.49357431337305
 40
30.49357431337305
 10
99.5216643078
 20
196.2924533597
 30
0.0
 10
98.37686674073743
 20
196.5765284609021
 30
0.0
 10
96.1255847566369
 20
197.135171469822
 30
0.0
 10
92.74470777070064
 20
197.7487942951611
 30
0.0
 10
89.41451629111103
 20
198.1692815394181
 30
0.0
 10
86.10788550547886
 20
198.3794885871431
 30
0.0
 10
82.80885790649109
 20
198.3795072783034
 30
0.0
 10
79.50214275238713
 20
198.1693292272216
 30
0.0
 10
76.17179345963169
 20
197.7488470629221
 30
0.0
 10
72.79074766067703
 20
197.1352062013933
 30
0.0
 10
70.53935670857976
 20
196.5765372232158
 30
0.0
 10
69.3945216364
 20
196.2924533597
 30
0.0
 11
99.5216643078
 21
196.2924533597
 31
0.0
 11
96.0789722247
 21
197.1073875185
 31
0.0
 11
92.7153291775
 21
197.7225328146
 31
0.0
 11
89.3970472938
 21
198.1363689301
 31
0.0
 11
86.1021647111
 21
198.344778691
 31
0.0
 11
82.8146035632
 21
198.3447971783
 31
0.0
 11
79.5196432643
 21
198.1364165424
 31
0.0
 11
76.20118884820001
 21
197.7225840807
 31
0.0
 11
72.83732674620001
 21
197.1074113099
 31
0.0
 11
69.3945216364
 21
196.2924533597
 31
0.0
  0
SPLINE
  5
1794
330
1B
100
AcDbEntity
  8
0
  6
Continuous
100
AcDbSpline
210
0.0
220
0.0
230
1.0
 70
     8
 71
     3
 72
    15
 73
    11
 74
     9
 42
0.0000000001
 43
0.0000000001
 44
0.0000000001
 40
0.0
 40
0.0
 40
0.0
 40
0.0
 40
3.871170145712206
 40
7.58781948021929
 40
11.20996934793101
 40
14.78650728881426
 40
18.36304387617285
 40
21.98519106972113
 40
25.70183891506997
 40
29.57300798071467
 40
29.57300798071467
 40
29.57300798071467
 40
29.57300798071467
 10
99.0567230443
 20
194.5604026652
 30
0.0
 10
97.80541285543907
 20
194.8769772176127
 30
0.0
 10
95.35273951134634
 20
195.4974899993615
 30
0.0
 10
91.66948145636518
 20
196.147083248295
 30
0.0
 10
88.05075913508958
 20
196.549692336662
 30
0.0
 10
84.45809011907871
 20
196.6830802810399
 30
0.0
 10
80.8654220146465
 20
196.5496919265618
 30
0.0
 10
77.24670155632495
 20
196.147082779316
 30
0.0
 10
73.56344524870457
 20
195.4974897112562
 30
0.0
 10
71.11077273737362
 20
194.8769771327755
 30
0.0
 10
69.8594628988
 20
194.5604026652
 30
0.0
 11
99.0567230443
 21
194.5604026652
 31
0.0
 11
95.29226250029998
 21
195.4630626841
 31
0.0
 11
91.632866839
 21
196.1129131821
 31
0.0
 11
88.0321874448
 21
196.5067120703
 31
0.0
 11
84.4580896711
 21
196.6388057742
 31
0.0
 11
80.88399326610001
 21
196.5067116847
 31
0.0
 11
77.28331655979999
 21
196.1129128167
 31
0.0
 11
73.6239223859
 21
195.4630624598
 31
0.0
 11
69.8594628988
 21
194.5604026652
 31
0.0
  0
SPLINE
  5
1795
330
1B
100
AcDbEntity
  8
0
  6
Continuous
100
AcDbSpline
210
0.0
220
0.0
230
1.0
 70
     8
 71
     3
 72
    11
 73
     7
 74
     5
 42
0.0000000001
 43
0.0000000001
 44
0.0000000001
 40
0.0
 40
0.0
 40
0.0
 40
0.0
 40
0.5302923385857851
 40
1.036456372291231
 40
1.518790548601573
 40
1.985311648541679
 40
1.985311648541679
 40
1.985311648541679
 40
1.985311648541679
 10
117.5649650442
 20
194.5604025525
 30
0.0
 10
117.5764665995294
 20
194.7379318813671
 30
0.0
 10
117.5989463893455
 20
195.0849129534744
 30
0.0
 10
117.4639427546192
 20
195.5804104784248
 30
0.0
 10
117.2157295203377
 20
196.0101263069672
 30
0.0
 10
116.958556105366
 20
196.1993957655734
 30
0.0
 10
116.83211235
 20
196.2924533669
 30
0.0
 11
117.5649650442
 21
194.5604025525
 31
0.0
 11
117.5694678361
 21
195.0906757738
 31
0.0
 11
117.4406487372
 21
195.5801731372
 31
0.0
 11
117.1884043608
 21
195.9912923805
 31
0.0
 11
116.83211235
 21
196.2924533669
 31
0.0
  0
SPLINE
  5
1796
330
1B
100
AcDbEntity
  8
0
  6
Continuous
100
AcDbSpline
210
0.0
220
0.0
230
1.0
 70
     8
 71
     3
 72
    16
 73
    12
 74
    10
 42
0.0000000001
 43
0.0000000001
 44
0.0000000001
 40
0.0
 40
0.0
 40
0.0
 40
0.0
 40
1.871806547845023
 40
3.634306279352395
 40
5.326219122010423
 40
6.978463910091723
 40
8.624440057763398
 40
10.29583275092283
 40
12.02362166173015
 40
13.83947715499681
 40
15.77595344325737
 40
15.77595344325737
 40
15.77595344325737
 40
15.77595344325737
 10
116.8321131259
 20
196.2924533597
 30
0.0
 10
116.2754850913308
 20
196.5752295573241
 30
0.0
 10
115.1947341111466
 20
197.1242688327019
 30
0.0
 10
113.5266713603042
 20
197.744104927182
 30
0.0
 10
111.8745950999414
 20
198.1680923735914
 30
0.0
 10
110.2201312762408
 20
198.3802179343995
 30
0.0
 10
108.5591313073363
 20
198.3787760244464
 30
0.0
 10
106.8866514539221
 20
198.1647592145309
 30
0.0
 10
105.1975343539822
 20
197.7409728792189
 30
0.0
 10
103.4746837994738
 20
197.1225654760493
 30
0.0
 10
102.349314246445
 20
196.5750244027354
 30
0.0
 10
101.7685416544
 20
196.2924533597
 30
0.0
 11
116.8321131259
 21
196.2924533597
 31
0.0
 11
115.1469924193
 21
197.1073324653
 31
0.0
 11
113.4952714419
 21
197.7223309339
 31
0.0
 11
111.8548859405
 21
198.1367033195
 31
0.0
 11
110.2158312181
 21
198.345059881
 31
0.0
 11
108.5698552123
 21
198.3443764816
 31
0.0
 11
106.9115997342
 21
198.1352298724999
 31
0.0
 11
105.2340714738
 21
197.7215229039
 31
0.0
 11
103.5253200126
 21
197.1071129298
 31
0.0
 11
101.7685416544
 21
196.2924533597
 31
0.0
  0
SPLINE
  5
1797
330
1B
100
AcDbEntity
  8
0
  6
Continuous
100
AcDbSpline
210
0.0
220
0.0
230
1.0
 70
     8
 71
     3
 72
    11
 73
     7
 74
     5
 42
0.0000000001
 43
0.0000000001
 44
0.0000000001
 40
0.0
 40
0.0
 40
0.0
 40
0.0
 40
0.5478282393463879
 40
1.102145939527529
 40
1.650386764044362
 40
2.181456789728882
 40
2.181456789728882
 40
2.181456789728882
 40
2.181456789728882
 10
102.966334964
 20
194.5604025525
 30
0.0
 10
102.9291330817504
 20
194.7401622612703
 30
0.0
 10
102.8542886313931
 20
195.10181107541
 30
0.0
 10
102.5850343913222
 20
195.5888231003077
 30
0.0
 10
102.2284881008292
 20
196.0097404391884
 30
0.0
 10
101.9202331917124
 20
196.1992205403272
 30
0.0
 10
101.7685577569
 20
196.2924533677
 30
0.0
 11
102.966334964
 21
194.5604025525
 31
0.0
 11
102.8287958268
 21
195.0906843319
 31
0.0
 11
102.5686851053
 21
195.5801846131
 31
0.0
 11
102.2059849861
 21
195.991300929
 31
0.0
 11
101.7685577569
 21
196.2924533677
 31
0.0
  0
SPLINE
  5
1798
330
1B
100
AcDbEntity
  8
0
  6
Continuous
100
AcDbSpline
210
0.0
220
0.0
230
1.0
 70
     8
 71
     3
 72
    14
 73
    10
 74
     8
 42
0.0000000001
 43
0.0000000001
 44
0.0000000001
 40
0.0
 40
0.0
 40
0.0
 40
0.0
 40
2.087203615053857
 40
4.029565985272694
 40
5.875280569162142
 40
7.669843605609819
 40
9.462566227501014
 40
11.30294087951238
 40
11.87999233305893
 40
11.87999233305893
 40
11.87999233305893
 40
11.87999233305893
 10
117.5649650407
 20
194.5604026668
 30
0.0
 10
116.9439339523331
 20
194.8752573880064
 30
0.0
 10
115.7449681535815
 20
195.4831175247584
 30
0.0
 10
113.8942282190063
 20
196.1410899180851
 30
0.0
 10
112.0732290782146
 20
196.5483174503238
 30
0.0
 10
110.2601838517309
 20
196.6841476641008
 30
0.0
 10
108.4501730291982
 20
196.5454212525332
 30
0.0
 10
107.0744258671154
 20
196.2431504362903
 30
0.0
 10
106.3063598184995
 20
195.9993938957157
 30
0.0
 10
106.1230186902
 20
195.9412080154
 30
0.0
 11
117.5649650407
 21
194.5604026668
 31
0.0
 11
115.6829929879
 21
195.4629546726
 31
0.0
 11
113.8526438353
 21
196.1130266354
 31
0.0
 11
112.0495064249
 21
196.5071811792
 31
0.0
 11
110.2597768387
 21
196.6388037459
 31
0.0
 11
108.4719994672
 21
196.5057380892
 31
0.0
 11
106.6742884835
 21
196.1117659089
 31
0.0
 11
106.1230186902
 21
195.9412080154
 31
0.0
  0
SPLINE
  5
1799
330
1B
100
AcDbEntity
  8
0
  6
Continuous
100
AcDbSpline
210
0.0
220
0.0
230
1.0
 70
     8
 71
     3
 72
     9
 73
     5
 74
     3
 42
0.0000000001
 43
0.0000000001
 44
0.0000000001
 40
0.0
 40
0.0
 40
0.0
 40
0.0
 40
1.361949054639997
 40
3.448679544345811
 40
3.448679544345811
 40
3.448679544345811
 40
3.448679544345811
 10
106.1230186902
 20
195.9412080154
 30
0.0
 10
105.694867509844
 20
195.7890030320893
 30
0.0
 10
104.6107181339544
 20
195.4035949210424
 30
0.0
 10
103.586232043022
 20
194.8782680048678
 30
0.0
 10
102.966334968
 20
194.5604026657
 30
0.0
 11
106.1230186902
 21
195.9412080154
 31
0.0
 11
104.8478702954
 21
195.4627711871
 31
0.0
 11
102.966334968
 21
194.5604026657
 31
0.0
  0
SPLINE
  5
179A
330
1B
100
AcDbEntity
  8
0
  6
Continuous
100
AcDbSpline
210
0.0
220
0.0
230
1.0
 70
     8
 71
     3
 72
    14
 73
    10
 74
     8
 42
0.0000000001
 43
0.0000000001
 44
0.0000000001
 40
0.0
 40
0.0
 40
0.0
 40
0.0
 40
0.5609711003573173
 40
1.340611259491636
 40
2.120252558128757
 40
2.899895401163781
 40
3.679539986234955
 40
4.459186653508623
 40
5.000279461780696
 40
5.000279461780696
 40
5.000279461780696
 40
5.000279461780696
 10
110.3368401854
 20
173.0556520901
 30
0.0
 10
110.1644689628712
 20
173.1294232858024
 30
0.0
 10
109.7525354397588
 20
173.3057220211951
 30
0.0
 10
109.1933810766181
 20
173.7561676337087
 30
0.0
 10
108.719620580827
 20
174.3843780666734
 30
0.0
 10
108.4246002660338
 20
175.1167829746113
 30
0.0
 10
108.3305884126128
 20
175.898003606679
 30
0.0
 10
108.4206475963957
 20
176.6035028236647
 30
0.0
 10
108.5908305044741
 20
177.0107096180343
 30
0.0
 10
108.660552618
 20
177.1775378775
 30
0.0
 11
110.3368401854
 21
173.0556520901
 31
0.0
 11
109.829949766
 21
173.2959657979
 31
0.0
 11
109.2172250073
 21
173.7780520431
 31
0.0
 11
108.7494109822
 21
174.4017431465
 31
0.0
 11
108.4581018917
 21
175.1249180745
 31
0.0
 11
108.3629716921
 21
175.8987371258
 31
0.0
 11
108.4704456027
 21
176.670940651
 31
0.0
 11
108.660552618
 21
177.1775378775
 31
0.0
  0
SPLINE
  5
179B
330
1B
100
AcDbEntity
  8
0
  6
Continuous
100
AcDbSpline
210
0.0
220
0.0
230
1.0
 70
     8
 71
     3
 72
    10
 73
     6
 74
     4
 42
0.0000000001
 43
0.0000000001
 44
0.0000000001
 40
0.0
 40
0.0
 40
0.0
 40
0.0
 40
0.2905330021632734
 40
0.6013565153968499
 40
0.9293350478153972
 40
0.9293350478153972
 40
0.9293350478153972
 40
0.9293350478153972
 10
39.47881891370001
 20
133.1080940445
 30
0.0
 10
39.47599179947247
 20
133.2049407139193
 30
0.0
 10
39.47014012841327
 20
133.4053977195473
 30
0.0
 10
39.429004835167
 20
133.713111906813
 30
0.0
 10
39.38215392957385
 20
133.9208776753567
 30
0.0
 10
39.3580993866
 20
134.0275503329
 30
0.0
 11
39.47881891370001
 21
133.1080940445
 31
0.0
 11
39.4654904351
 21
133.3983211573
 31
0.0
 11
39.4253663645
 21
133.7065439912
 31
0.0
 11
39.3580993866
 21
134.0275503329
 31
0.0
  0
SPLINE
  5
179C
330
1B
100
AcDbEntity
  8
0
  6
Continuous
100
AcDbSpline
210
0.0
220
0.0
230
1.0
 70
     8
 71
     3
 72
     9
 73
     5
 74
     3
 42
0.0000000001
 43
0.0000000001
 44
0.0000000001
 40
0.0
 40
0.0
 40
0.0
 40
0.0
 40
1.194417459140848
 40
1.987677192207628
 40
1.987677192207628
 40
1.987677192207628
 40
1.987677192207628
 10
119.9370303535
 20
168.4562254791
 30
0.0
 10
120.063493883359
 20
168.8337489933694
 30
0.0
 10
120.2739468301266
 20
169.46200076003
 30
0.0
 10
120.4787196106862
 20
170.0921248962588
 30
0.0
 10
120.5604421368
 20
170.3436003904
 30
0.0
 11
119.9370303535
 21
168.4562254791
 31
0.0
 11
120.3143698677
 21
169.5894721238
 31
0.0
 11
120.5604421368
 21
170.3436003904
 31
0.0
  0
SPLINE
  5
179D
330
1B
100
AcDbEntity
  8
0
  6
Continuous
100
AcDbSpline
210
0.0
220
0.0
230
1.0
 70
     8
 71
     3
 72
    10
 73
     6
 74
     4
 42
0.0000000001
 43
0.0000000001
 44
0.0000000001
 40
0.0
 40
0.0
 40
0.0
 40
0.0
 40
0.078151478026442
 40
0.6076960560191225
 40
0.6335865137315464
 40
0.6335865137315464
 40
0.6335865137315464
 40
0.6335865137315464
 10
120.5604421368
 20
170.3436003904
 30
0.0
 10
120.5684623429265
 20
170.368385555839
 30
0.0
 10
120.6308264562432
 20
170.5611118825243
 30
0.0
 10
120.6954768854125
 20
170.7621692425055
 30
0.0
 10
120.75188476961
 20
170.9385121608518
 30
0.0
 10
120.7545141067
 20
170.946732022
 30
0.0
 11
120.5604421368
 21
170.3436003904
 31
0.0
 11
120.5844968754
 21
170.4179577913
 31
0.0
 11
120.746625513
 21
170.9220726244
 31
0.0
 11
120.7545141067
 21
170.946732022
 31
0.0
  0
SPLINE
  5
179E
330
1B
100
AcDbEntity
  8
0
  6
Continuous
100
AcDbSpline
210
0.0
220
0.0
230
1.0
 70
     8
 71
     3
 72
    11
 73
     7
 74
     5
 42
0.0000000001
 43
0.0000000001
 44
0.0000000001
 40
0.0
 40
0.0
 40
0.0
 40
0.0
 40
0.7364982641949883
 40
1.508760894487081
 40
2.310326245835149
 40
3.127220818292617
 40
3.127220818292617
 40
3.127220818292617
 40
3.127220818292617
 10
119.9370423391
 20
168.4562143825
 30
0.0
 10
119.7309650800012
 20
168.3196777755363
 30
0.0
 10
119.3088034471951
 20
168.0399743420489
 30
0.0
 10
118.5475025225726
 20
167.8584061713841
 30
0.0
 10
117.742080955285
 20
167.8393527007257
 30
0.0
 10
117.2196846886016
 20
167.9848045979545
 30
0.0
 10
116.9560126207
 20
168.0582193694
 30
0.0
 11
119.9370423391
 21
168.4562143825
 31
0.0
 11
119.3009373453
 21
168.0849999835
 31
0.0
 11
118.5543641939
 21
167.8874699864
 31
0.0
 11
117.7528511122
 21
167.8783161705
 31
0.0
 11
116.9560126207
 21
168.0582193694
 31
0.0
  0
SPLINE
  5
179F
330
1B
100
AcDbEntity
  8
0
  6
Continuous
100
AcDbSpline
210
0.0
220
0.0
230
1.0
 70
     8
 71
     3
 72
    11
 73
     7
 74
     5
 42
0.0000000001
 43
0.0000000001
 44
0.0000000001
 40
0.0
 40
0.0
 40
0.0
 40
0.0
 40
1.050138984906332
 40
1.815908892534162
 40
2.281085305043784
 40
2.436507185976954
 40
2.436507185976954
 40
2.436507185976954
 40
2.436507185976954
 10
116.9560253641
 20
168.0582543815
 30
0.0
 10
117.0584779590536
 20
168.3929740931805
 30
0.0
 10
117.2356398213531
 20
168.9717741469669
 30
0.0
 10
117.4515874348405
 20
169.7008335130676
 30
0.0
 10
117.5811799540704
 20
170.1444138127024
 30
0.0
 10
117.6386915784259
 20
170.3431246904411
 30
0.0
 10
117.6530947196
 20
170.3928896007
 30
0.0
 11
116.9560253641
 21
168.0582543815
 31
0.0
 11
117.2616267409
 21
169.0629432319
 31
0.0
 11
117.4794761542
 21
169.7970720929
 31
0.0
 11
117.6098539623
 21
170.2436039752
 31
0.0
 11
117.6530947196
 21
170.3928896007
 31
0.0
  0
SPLINE
  5
17A0
330
1B
100
AcDbEntity
  8
0
  6
Continuous
100
AcDbSpline
210
0.0
220
0.0
230
1.0
 70
     8
 71
     3
 72
    11
 73
     7
 74
     5
 42
0.0000000001
 43
0.0000000001
 44
0.0000000001
 40
0.0
 40
0.0
 40
0.0
 40
0.0
 40
1.431614058314813
 40
2.736550473150122
 40
3.902536682757709
 40
4.9135485573522
 40
4.9135485573522
 40
4.9135485573522
 40
4.9135485573522
 10
119.4193922633
 20
163.5724117867
 30
0.0
 10
119.4481869945326
 20
164.0487876311776
 30
0.0
 10
119.5032285295895
 20
164.9593867797616
 30
0.0
 10
119.6303562420315
 20
166.2542373799831
 30
0.0
 10
119.7714219864763
 20
167.4064719165098
 30
0.0
 10
119.8845110616041
 20
168.1233176993586
 30
0.0
 10
119.9370303535
 20
168.4562254791
 30
0.0
 11
119.4193922633
 21
163.5724117867
 31
0.0
 11
119.5151099184
 21
165.0008224218
 31
0.0
 11
119.6403531489
 21
166.2997347283
 31
0.0
 11
119.7848408064
 21
167.4567339322
 31
0.0
 11
119.9370303535
 21
168.4562254791
 31
0.0
  0
SPLINE
  5
17A1
330
1B
100
AcDbEntity
  8
0
  6
Continuous
100
AcDbSpline
210
0.0
220
0.0
230
1.0
 70
     8
 71
     3
 72
    12
 73
     8
 74
     6
 42
0.0000000001
 43
0.0000000001
 44
0.0000000001
 40
0.0
 40
0.0
 40
0.0
 40
0.0
 40
0.5003255358532111
 40
1.134313357359468
 40
1.898104896452827
 40
2.753574278213766
 40
3.645707720451389
 40
3.645707720451389
 40
3.645707720451389
 40
3.645707720451389
 10
119.419400071
 20
163.5724102189
 30
0.0
 10
119.3131466411021
 20
163.441119750212
 30
0.0
 10
119.0722541098167
 20
163.1434644804828
 30
0.0
 10
118.4703244453712
 20
162.8911101365808
 30
0.0
 10
117.7397587497862
 20
162.7268341847608
 30
0.0
 10
116.8973251909922
 20
162.6788252648966
 30
0.0
 10
116.3183491517408
 20
162.7483304919851
 30
0.0
 10
116.0227877806
 20
162.7838122025
 30
0.0
 11
119.419400071
 21
163.5724102189
 31
0.0
 11
119.0775224379
 21
163.2071085274
 31
0.0
 11
118.5094445104
 21
162.925633793
 31
0.0
 11
117.7654421138
 21
162.7528971465
 31
0.0
 11
116.9113606718
 21
162.7041862282
 31
0.0
 11
116.0227877806
 21
162.7838122025
 31
0.0
  0
SPLINE
  5
17A2
330
1B
100
AcDbEntity
  8
0
  6
Continuous
100
AcDbSpline
210
0.0
220
0.0
230
1.0
 70
     8
 71
     3
 72
    11
 73
     7
 74
     5
 42
0.0000000001
 43
0.0000000001
 44
0.0000000001
 40
0.0
 40
0.0
 40
0.0
 40
0.0
 40
1.52807169270279
 40
2.947550661023643
 40
4.236044061871604
 40
5.368330246336333
 40
5.368330246336333
 40
5.368330246336333
 40
5.368330246336333
 10
116.0227965957
 20
162.7838364191
 30
0.0
 10
116.0616616190045
 20
163.291915007897
 30
0.0
 10
116.1366297148596
 20
164.2719654776571
 30
0.0
 10
116.3594683130648
 20
165.6675000423119
 30
0.0
 10
116.6256076415905
 20
166.9205724456691
 30
0.0
 10
116.8507282920666
 20
167.6956994439546
 30
0.0
 10
116.9560253641
 20
168.0582543815
 30
0.0
 11
116.0227965957
 21
162.7838364191
 31
0.0
 11
116.1609163586
 21
164.3056531062
 31
0.0
 11
116.3787826609
 21
165.7083130136
 31
0.0
 11
116.6526820431
 21
166.9673580376
 31
0.0
 11
116.9560253641
 21
168.0582543815
 31
0.0
  0
SPLINE
  5
17A3
330
1B
100
AcDbEntity
  8
0
  6
Continuous
100
AcDbSpline
210
0.0
220
0.0
230
1.0
 70
     8
 71
     3
 72
    19
 73
    15
 74
    13
 42
0.0000000001
 43
0.0000000001
 44
0.0000000001
 40
0.0
 40
0.0
 40
0.0
 40
0.0
 40
0.7270566264300206
 40
1.788632302307506
 40
3.233576724821683
 40
5.040408821343034
 40
7.134204860388423
 40
9.460492336061932
 40
11.97313881945108
 40
14.61487395902948
 40
17.32058851144118
 40
20.02101259450086
 40
22.64349304542008
 40
25.12207737376331
 40
25.12207737376331
 40
25.12207737376331
 40
25.12207737376331
 10
115.7852132222
 20
138.7325223611
 30
0.0
 10
115.8473829095929
 20
138.9667762139565
 30
0.0
 10
116.000326582827
 20
139.5430642126182
 30
0.0
 10
116.2422297566249
 20
140.5936301031821
 30
0.0
 10
116.5332851902452
 20
142.0017314986857
 30
0.0
 10
116.8547602714389
 20
143.754494782847
 30
0.0
 10
117.1933245324696
 20
145.8024123489088
 30
0.0
 10
117.5377972341888
 20
148.0875692855848
 30
0.0
 10
117.8817458719092
 20
150.5573314143803
 30
0.0
 10
118.2197853635662
 20
153.1554932369383
 30
0.0
 10
118.5468228718491
 20
155.818127664111
 30
0.0
 10
118.8576176047355
 20
158.4762366510004
 30
0.0
 10
119.1482946267179
 20
161.0604461986915
 30
0.0
 10
119.3307419387343
 20
162.7509860912113
 30
0.0
 10
119.4193922633
 20
163.5724117867
 30
0.0
 11
115.7852132222
 21
138.7325223611
 31
0.0
 11
115.9685603245
 21
139.4360812983
 31
0.0
 11
116.2102535219
 21
140.4697772468
 31
0.0
 11
116.5041535336
 21
141.8845165045
 31
0.0
 11
116.8326755723
 21
143.6612313086
 31
0.0
 11
117.1760387528
 21
145.7266812788
 31
0.0
 11
117.5243888676
 21
148.0267390209
 31
0.0
 11
117.8721711884
 21
150.5152003543
 31
0.0
 11
118.213940102
 21
153.1347343887
 31
0.0
 11
118.5444301754
 21
155.8201892013
 31
0.0
 11
118.8586460853
 21
158.5022702199
 31
0.0
 11
119.1516436331
 21
161.1083316452
 31
0.0
 11
119.4193922633
 21
163.5724117867
 31
0.0
  0
SPLINE
  5
17A4
330
1B
100
AcDbEntity
  8
0
  6
Continuous
100
AcDbSpline
210
0.0
220
0.0
230
1.0
 70
     8
 71
     3
 72
    11
 73
     7
 74
     5
 42
0.0000000001
 43
0.0000000001
 44
0.0000000001
 40
0.0
 40
0.0
 40
0.0
 40
0.0
 40
0.7123996345788428
 40
1.435276281842306
 40
2.167891979231369
 40
2.907234641788284
 40
2.907234641788284
 40
2.907234641788284
 40
2.907234641788284
 10
115.7851286476
 20
138.7328844902
 30
0.0
 10
115.7063559110075
 20
138.958373209407
 30
0.0
 10
115.5476519546896
 20
139.4126668316829
 30
0.0
 10
115.100527596828
 20
139.9929359087472
 30
0.0
 10
114.5362800943171
 20
140.4722711373349
 30
0.0
 10
114.0826046218045
 20
140.6657744336307
 30
0.0
 10
113.8547302193
 20
140.7629682444
 30
0.0
 11
115.7851286476
 21
138.7328844902
 31
0.0
 11
115.5149799132
 21
139.3920755859
 31
0.0
 11
115.0842868362
 21
139.9726392091
 31
0.0
 11
114.5193648321
 21
140.4391034514
 31
0.0
 11
113.8547302193
 21
140.7629682444
 31
0.0
  0
SPLINE
  5
17A5
330
1B
100
AcDbEntity
  8
0
  6
Continuous
100
AcDbSpline
210
0.0
220
0.0
230
1.0
 70
     8
 71
     3
 72
    18
 73
    14
 74
    12
 42
0.0000000001
 43
0.0000000001
 44
0.0000000001
 40
0.0
 40
0.0
 40
0.0
 40
0.0
 40
0.7626308136500518
 40
1.884117112436246
 40
3.400146192031038
 40
5.261836519350609
 40
7.381972869678209
 40
9.708063690669903
 40
12.18492598352698
 40
14.74258903416135
 40
17.30704504466315
 40
19.79843237776218
 40
22.14298734399269
 40
22.14298734399269
 40
22.14298734399269
 40
22.14298734399269
 10
113.8547302231
 20
140.7629682431
 30
0.0
 10
113.9062740330217
 20
141.0119084418716
 30
0.0
 10
114.0336155625998
 20
141.6269275049409
 30
0.0
 10
114.2287116057148
 20
142.7435837208309
 30
0.0
 10
114.4541111761771
 20
144.2263761895005
 30
0.0
 10
114.6890703030041
 20
146.0440155316447
 30
0.0
 10
114.9219485171169
 20
148.1337976532825
 30
0.0
 10
115.1448510268197
 20
150.43076854796
 30
0.0
 10
115.3543467217247
 20
152.8753866507794
 30
0.0
 10
115.5481257868437
 20
155.4009849331893
 30
0.0
 10
115.7242020259434
 20
157.9327197115198
 30
0.0
 10
115.8822618008662
 20
160.3944635918285
 30
0.0
 10
115.9769095855153
 20
162.0036653917778
 30
0.0
 10
116.0227965957
 20
162.7838364191
 30
0.0
 11
113.8547302231
 21
140.7629682431
 31
0.0
 11
114.0062105204
 21
141.5104035095
 31
0.0
 11
114.2026011702
 21
142.6145603059
 31
0.0
 11
114.4317855359
 21
144.11316589
 31
0.0
 11
114.6729609872
 21
145.9591684026
 31
0.0
 11
114.9095718114
 21
148.0660602987
 31
0.0
 11
115.1357887329
 21
150.3811249656
 31
0.0
 11
115.3484388002
 21
152.8488418794
 31
0.0
 11
115.5449208501
 21
155.3989467958
 31
0.0
 11
115.7235914191
 21
157.957171074
 31
0.0
 11
115.8831048296
 21
160.4434466652
 31
0.0
 11
116.0227965957
 21
162.7838364191
 31
0.0
  0
SPLINE
  5
17A6
330
1B
100
AcDbEntity
  8
0
  6
Continuous
100
AcDbSpline
210
0.0
220
0.0
230
1.0
 70
     8
 71
     3
 72
    12
 73
     8
 74
     6
 42
0.0000000001
 43
0.0000000001
 44
0.0000000001
 40
0.0
 40
0.0
 40
0.0
 40
0.0
 40
2.07903850090206
 40
3.994502661339875
 40
5.772095943512548
 40
7.414173093828136
 40
8.903217193985913
 40
8.903217193985913
 40
8.903217193985913
 40
8.903217193985913
 10
117.8837586497
 20
130.080456171
 30
0.0
 10
117.7137601988951
 20
130.7522953777761
 30
0.0
 10
117.3871384148978
 20
132.0431149072342
 30
0.0
 10
116.9232776434423
 20
133.9104038073014
 30
0.0
 10
116.5028044014127
 20
135.6383614768269
 30
0.0
 10
116.1245650148352
 20
137.2303102136954
 30
0.0
 10
115.8945837200833
 20
138.2483708285206
 30
0.0
 10
115.7852132222
 20
138.7325223611
 30
0.0
 11
117.8837586497
 21
130.080456171
 31
0.0
 11
117.3752838456
 21
132.0963565807
 31
0.0
 11
116.9137383869
 21
133.9553828687
 31
0.0
 11
116.4937479983
 21
135.6826483232
 31
0.0
 11
116.1158772059
 21
137.2806567812
 31
0.0
 11
115.7852132222
 21
138.7325223611
 31
0.0
  0
SPLINE
  5
17A7
330
1B
100
AcDbEntity
  8
0
  6
Continuous
100
AcDbSpline
210
0.0
220
0.0
230
1.0
 70
     8
 71
     3
 72
    11
 73
     7
 74
     5
 42
0.0000000001
 43
0.0000000001
 44
0.0000000001
 40
0.0
 40
0.0
 40
0.0
 40
0.0
 40
2.588312867849261
 40
4.931859955901617
 40
7.081235055519365
 40
9.005192706866472
 40
9.005192706866472
 40
9.005192706866472
 40
9.005192706866472
 10
114.9859811708
 20
129.3482645979
 30
0.0
 10
114.775489081771
 20
130.1849678181814
 30
0.0
 10
114.3744102486009
 20
131.7792507807771
 30
0.0
 10
113.8142759367977
 20
134.0722437002201
 30
0.0
 10
113.3197215312408
 20
136.1533100227752
 30
0.0
 10
113.026057519639
 20
137.4789679908914
 30
0.0
 10
112.8873511687
 20
138.1051161469
 30
0.0
 11
114.9859811708
 21
129.3482645979
 31
0.0
 11
114.3575243681
 21
131.8591221305
 31
0.0
 11
113.8013986421
 21
134.135728625
 31
0.0
 11
113.3079926439
 21
136.227704686
 31
0.0
 11
112.8873511687
 21
138.1051161469
 31
0.0
  0
SPLINE
  5
17A8
330
1B
100
AcDbEntity
  8
0
  6
Continuous
100
AcDbSpline
210
0.0
220
0.0
230
1.0
 70
     8
 71
     3
 72
    14
 73
    10
 74
     8
 42
0.0000000001
 43
0.0000000001
 44
0.0000000001
 40
0.0
 40
0.0
 40
0.0
 40
0.0
 40
0.0926031712314881
 40
0.3760767681874531
 40
0.8384401280458922
 40
1.463638286254088
 40
2.230306124330877
 40
3.103794216715098
 40
4.047358836034269
 40
4.047358836034269
 40
4.047358836034269
 40
4.047358836034269
 10
118.7056302936
 20
126.1212241608
 30
0.0
 10
118.7067079153467
 20
126.1521266369054
 30
0.0
 10
118.7110843151876
 20
126.2776266947129
 30
0.0
 10
118.651856646882
 20
126.5532223377382
 30
0.0
 10
118.5787359690171
 20
127.0031584715283
 30
0.0
 10
118.4541125473642
 20
127.6091922283998
 30
0.0
 10
118.297296512676
 20
128.3476225428527
 30
0.0
 10
118.1057006431688
 20
129.1874161119748
 30
0.0
 10
117.9596172666206
 20
129.7752197320841
 30
0.0
 10
117.8837586497
 20
130.080456171
 30
0.0
 11
118.7056302936
 21
126.1212241608
 31
0.0
 11
118.7069870622
 21
126.2138173922
 31
0.0
 11
118.6663582407
 21
126.4943643206
 31
0.0
 11
118.584692398
 21
126.9494583402
 31
0.0
 11
118.4630553957
 21
127.5627096563
 31
0.0
 11
118.302923743
 21
128.3124679025
 31
0.0
 11
118.1082766732
 21
129.1639923976
 31
0.0
 11
117.8837586497
 21
130.080456171
 31
0.0
  0
SPLINE
  5
17A9
330
1B
100
AcDbEntity
  8
0
  6
Continuous
100
AcDbSpline
210
0.0
220
0.0
230
1.0
 70
     8
 71
     3
 72
    12
 73
     8
 74
     6
 42
0.0000000001
 43
0.0000000001
 44
0.0000000001
 40
0.0
 40
0.0
 40
0.0
 40
0.0
 40
0.7838384060316324
 40
1.567619090524769
 40
2.35133304425371
 40
3.134989170663278
 40
3.91861189913332
 40
3.91861189913332
 40
3.91861189913332
 40
3.91861189913332
 10
118.7056092459
 20
126.1212185466
 30
0.0
 10
118.6188646261786
 20
126.369211300266
 30
0.0
 10
118.4453817745739
 20
126.8651785455135
 30
0.0
 10
117.9520688615647
 20
127.4924444404413
 30
0.0
 10
117.3265525674521
 20
127.9731894779954
 30
0.0
 10
116.5935542297012
 20
128.2884142999596
 30
0.0
 10
116.0697495656941
 20
128.3283164722851
 30
0.0
 10
115.8078528147
 20
128.3482671333
 30
0.0
 11
118.7056092459
 21
126.1212185466
 31
0.0
 11
118.4065210771
 21
126.8457521304
 31
0.0
 11
117.9300118592
 21
127.4680471783
 31
0.0
 11
117.3086147074
 21
127.9456172161
 31
0.0
 11
116.5847547932
 21
128.2458567023
 31
0.0
 11
115.8078528147
 21
128.3482671333
 31
0.0
  0
SPLINE
  5
17AA
330
1B
100
AcDbEntity
  8
0
  6
Continuous
100
AcDbSpline
210
0.0
220
0.0
230
1.0
 70
     8
 71
     3
 72
     9
 73
     5
 74
     3
 42
0.0000000001
 43
0.0000000001
 44
0.0000000001
 40
0.0
 40
0.0
 40
0.0
 40
0.0
 40
0.0241069147693265
 40
0.1062340148267021
 40
0.1062340148267021
 40
0.1062340148267021
 40
0.1062340148267021
 10
115.8078528148
 20
128.3482645979
 30
0.0
 10
115.8088195259174
 20
128.3564044860942
 30
0.0
 10
115.8130796149484
 20
128.3922752315374
 30
0.0
 10
115.7880227665544
 20
128.4212930342629
 30
0.0
 10
115.7686518871
 20
128.4437260374
 30
0.0
 11
115.8078528148
 21
128.3482645979
 31
0.0
 11
115.8092433037
 21
128.3723313775
 31
0.0
 11
115.7686518871
 21
128.4437260374
 31
0.0
  0
SPLINE
  5
17AB
330
1B
100
AcDbEntity
  8
0
  6
Continuous
100
AcDbSpline
210
0.0
220
0.0
230
1.0
 70
     8
 71
     3
 72
    12
 73
     8
 74
     6
 42
0.0000000001
 43
0.0000000001
 44
0.0000000001
 40
0.0
 40
0.0
 40
0.0
 40
0.0
 40
0.1412650197967823
 40
0.3383104386469757
 40
0.5861716384585897
 40
0.8758392962430437
 40
1.197696233647451
 40
1.197696233647451
 40
1.197696233647451
 40
1.197696233647451
 10
115.7686518871
 20
128.4437260374
 30
0.0
 10
115.7417989755299
 20
128.4824195456602
 30
0.0
 10
115.6774899179494
 20
128.5750852159806
 30
0.0
 10
115.5554085948242
 20
128.727802642695
 30
0.0
 10
115.3972663449776
 20
128.9147356998854
 30
0.0
 10
115.2047995801813
 20
129.1270506155004
 30
0.0
 10
115.0614360846073
 20
129.2719836212577
 30
0.0
 10
114.9859811708
 20
129.3482645979
 30
0.0
 11
115.7686518871
 21
128.4437260374
 31
0.0
 11
115.6870207744
 21
128.5590176991
 31
0.0
 11
115.5653797165
 21
128.7140349566
 31
0.0
 11
115.4052752145
 21
128.9032483885
 31
0.0
 11
115.2105710004
 21
129.1177189482
 31
0.0
 11
114.9859811708
 21
129.3482645979
 31
0.0
  0
SPLINE
  5
17AC
330
1B
100
AcDbEntity
  8
0
  6
Continuous
100
AcDbSpline
210
0.0
220
0.0
230
1.0
 70
     8
 71
     3
 72
    10
 73
     6
 74
     4
 42
0.0000000001
 43
0.0000000001
 44
0.0000000001
 40
0.0
 40
0.0
 40
0.0
 40
0.0
 40
0.1949325856229238
 40
0.4181782901385766
 40
0.6695772948690648
 40
0.6695772948690648
 40
0.6695772948690648
 40
0.6695772948690648
 10
39.3580993866
 20
130.1651663128
 30
0.0
 10
39.38271202254286
 20
130.2254796219682
 30
0.0
 10
39.43551217384388
 20
130.3548664888172
 30
0.0
 10
39.47163505759707
 20
130.5769131370896
 30
0.0
 10
39.47633144050847
 20
130.7350319618401
 30
0.0
 10
39.47881891370001
 20
130.8187807415
 30
0.0
 11
39.3580993866
 21
130.1651663128
 31
0.0
 11
39.4253663645
 21
130.3481249601
 31
0.0
 11
39.4654904351
 21
130.5677353049
 31
0.0
 11
39.47881891370001
 21
130.8187807415
 31
0.0
  0
SPLINE
  5
17AD
330
1B
100
AcDbEntity
  8
0
  6
Continuous
100
AcDbSpline
210
0.0
220
0.0
230
1.0
 70
     8
 71
     3
 72
    12
 73
     8
 74
     6
 42
0.0000000001
 43
0.0000000001
 44
0.0000000001
 40
0.0
 40
0.0
 40
0.0
 40
0.0
 40
1.728943116945004
 40
3.350539073687218
 40
4.906096745770452
 40
6.431475605531517
 40
7.940042019402403
 40
7.940042019402403
 40
7.940042019402403
 40
7.940042019402403
 10
58.8354432407
 20
161.3385211077
 30
0.0
 10
59.08316930551816
 20
161.8592484877173
 30
0.0
 10
59.56324054187593
 20
162.8683721635555
 30
0.0
 10
60.09554779110226
 20
164.4190496293746
 30
0.0
 10
60.44318859108927
 20
165.9497345063243
 30
0.0
 10
60.60551950633774
 20
167.4780044073218
 30
0.0
 10
60.53938890938748
 20
168.4886964432414
 30
0.0
 10
60.5065068405
 20
168.9912421132
 30
0.0
 11
58.8354432407
 21
161.3385211077
 31
0.0
 11
59.5475894568
 21
162.9139867749
 31
0.0
 11
60.0740986523
 21
164.4477277941
 31
0.0
 11
60.4151376176
 21
165.9654405783
 31
0.0
 11
60.56227193099999
 21
167.4837067472
 31
0.0
 11
60.5065068405
 21
168.9912421132
 31
0.0
  0
SPLINE
  5
17AE
330
1B
100
AcDbEntity
  8
0
  6
Continuous
100
AcDbSpline
210
0.0
220
0.0
230
1.0
 70
     8
 71
     3
 72
    11
 73
     7
 74
     5
 42
0.0000000001
 43
0.0000000001
 44
0.0000000001
 40
0.0
 40
0.0
 40
0.0
 40
0.0
 40
0.5472723440006592
 40
1.100842582961356
 40
1.648234969999538
 40
2.178467433164216
 40
2.178467433164216
 40
2.178467433164216
 40
2.178467433164216
 10
57.1033917996
 20
162.5313630137
 30
0.0
 10
57.28302563874375
 20
162.4944835119914
 30
0.0
 10
57.64436050544778
 20
162.4203001070298
 30
0.0
 10
58.13124248698618
 20
162.1523417093413
 30
0.0
 10
58.5522370039577
 20
161.7971603061499
 30
0.0
 10
58.74204888857256
 20
161.4897750033632
 30
0.0
 10
58.835443564
 20
161.3385297289
 30
0.0
 11
57.1033917996
 21
162.5313630137
 31
0.0
 11
57.63335883029999
 21
162.3948274327
 31
0.0
 11
58.1226836125
 21
162.1359814032
 31
0.0
 11
58.5338790964
 21
161.7746550972
 31
0.0
 11
58.835443564
 21
161.3385297289
 31
0.0
  0
SPLINE
  5
17AF
330
1B
100
AcDbEntity
  8
0
  6
Continuous
100
AcDbSpline
210
0.0
220
0.0
230
1.0
 70
     8
 71
     3
 72
    14
 73
    10
 74
     8
 42
0.0000000001
 43
0.0000000001
 44
0.0000000001
 40
0.0
 40
0.0
 40
0.0
 40
0.0
 40
1.523136695055598
 40
2.952331796205565
 40
4.322777433233342
 40
5.665491814610251
 40
6.99815356986994
 40
8.343817003823132
 40
9.722884122657947
 40
9.722884122657947
 40
9.722884122657947
 40
9.722884122657947
 10
57.1033925
 20
162.5313628831
 30
0.0
 10
57.3323787826095
 20
162.9848248921543
 30
0.0
 10
57.77622829738879
 20
163.8637810042672
 30
0.0
 10
58.28534274235955
 20
165.2149327383556
 30
0.0
 10
58.64254122541642
 20
166.5512408068629
 30
0.0
 10
58.83351659098351
 20
167.8901703868596
 30
0.0
 10
58.84870011108961
 20
169.2335597014798
 30
0.0
 10
58.69764321797683
 20
170.5827293203143
 30
0.0
 10
58.46226491698594
 20
171.4610150814535
 30
0.0
 10
58.3431329628
 20
171.9055416101
 30
0.0
 11
57.1033925
 21
162.5313628831
 31
0.0
 11
57.764762693
 21
163.90341786
 31
0.0
 11
58.26924761269999
 21
165.2406140322
 31
0.0
 11
58.6179165301
 21
166.5659635069
 31
0.0
 11
58.8047264677
 21
167.8956190853
 31
0.0
 11
58.8214600509
 21
169.2281757787
 31
0.0
 11
58.6662186837
 21
170.5648545716
 31
0.0
 11
58.3431329628
 21
171.9055416101
 31
0.0
  0
SPLINE
  5
17B0
330
1B
100
AcDbEntity
  8
0
  6
Continuous
100
AcDbSpline
210
0.0
220
0.0
230
1.0
 70
     8
 71
     3
 72
    14
 73
    10
 74
     8
 42
0.0000000001
 43
0.0000000001
 44
0.0000000001
 40
0.0
 40
0.0
 40
0.0
 40
0.0
 40
3.711519964361232
 40
7.265035822573747
 40
10.7375322691836
 40
14.18889294796204
 40
17.66977549880058
 40
21.23301669058076
 40
24.94949767579372
 40
24.94949767579372
 40
24.94949767579372
 40
24.94949767579372
 10
57.10339252909999
 20
134.0275503329
 30
0.0
 10
57.40126815446677
 20
135.2287745358978
 30
0.0
 10
57.98433846251875
 20
137.5800853060188
 30
0.0
 10
58.55141873505885
 20
141.118531516042
 30
0.0
 10
58.84723860151886
 20
144.601722830846
 30
0.0
 10
58.84822287702596
 20
148.0745079251173
 30
0.0
 10
58.5534174485886
 20
151.5638711116257
 30
0.0
 10
57.98583312830339
 20
155.1100613349034
 30
0.0
 10
57.40163853865128
 20
157.4661410174269
 30
0.0
 10
57.10339252989999
 20
158.668978863
 30
0.0
 11
57.10339252909999
 21
134.0275503329
 31
0.0
 11
57.94498201959999
 21
137.6423957757
 31
0.0
 11
58.51152355279999
 21
141.1504587235
 31
0.0
 11
58.7988289405
 21
144.6110493069
 31
0.0
 11
58.79979169
 21
148.0624098514
 31
0.0
 11
58.5133172466
 21
151.53148404
 31
0.0
 11
57.9459474279
 21
155.0492644879
 31
0.0
 11
57.10339252989999
 21
158.668978863
 31
0.0
  0
SPLINE
  5
17B1
330
1B
100
AcDbEntity
  8
0
  6
Continuous
100
AcDbSpline
210
0.0
220
0.0
230
1.0
 70
     8
 71
     3
 72
    16
 73
    12
 74
    10
 42
0.0000000001
 43
0.0000000001
 44
0.0000000001
 40
0.0
 40
0.0
 40
0.0
 40
0.0
 40
2.991090282104385
 40
5.88529760175424
 40
8.718879486730337
 40
11.52097244437244
 40
14.3152587293084
 40
17.12279237816487
 40
19.96483505548853
 40
22.86636805593177
 40
25.86120961043211
 40
25.86120961043211
 40
25.86120961043211
 40
25.86120961043211
 10
58.8354432407
 20
133.5678093112
 30
0.0
 10
59.07201612327996
 20
134.5365708605633
 30
0.0
 10
59.53749917032071
 20
136.4427152712657
 30
0.0
 10
60.04819252120841
 20
139.3057671647755
 30
0.0
 10
60.39856604292608
 20
142.1287635026029
 30
0.0
 10
60.57424010507873
 20
144.9351367155947
 30
0.0
 10
60.57502680615826
 20
147.7382136766555
 30
0.0
 10
60.40043565345196
 20
150.5493092353549
 30
0.0
 10
60.05006621934659
 20
153.3794498032469
 30
0.0
 10
59.53862258924108
 20
156.2489978377488
 30
0.0
 10
59.07229618717607
 20
158.1587388481393
 30
0.0
 10
58.8354432407
 20
159.1287199243
 30
0.0
 11
58.8354432407
 21
133.5678093112
 31
0.0
 11
59.5139692555
 21
136.4809216542
 31
0.0
 11
60.02615518889999
 21
139.3294478659
 31
0.0
 11
60.37102802519999
 21
142.1419643593
 31
0.0
 11
60.545296642
 21
144.9386329833
 31
0.0
 11
60.5460751035
 21
147.7329191598
 31
0.0
 11
60.37283114680001
 21
150.5351025444
 31
0.0
 11
60.02781665
 21
153.356125688
 31
0.0
 11
59.5147297481
 21
156.2119330316
 31
0.0
 11
58.8354432407
 21
159.1287199243
 31
0.0
  0
SPLINE
  5
17B2
330
1B
100
AcDbEntity
  8
0
  6
Continuous
100
AcDbSpline
210
0.0
220
0.0
230
1.0
 70
     8
 71
     3
 72
    14
 73
    10
 74
     8
 42
0.0000000001
 43
0.0000000001
 44
0.0000000001
 40
0.0
 40
0.0
 40
0.0
 40
0.0
 40
1.993305171395757
 40
3.837466556562947
 40
5.591838493635997
 40
7.317253548204181
 40
9.074620678966094
 40
10.92283012960897
 40
12.91921312049985
 40
12.91921312049985
 40
12.91921312049985
 40
12.91921312049985
 10
57.10339252749999
 20
117.8444520478
 30
0.0
 10
57.39954156973816
 20
118.4400221567761
 30
0.0
 10
57.96968108558129
 20
119.5866004168848
 30
0.0
 10
58.54651310861647
 20
121.3669705792556
 30
0.0
 10
58.84704462643488
 20
123.1228477221024
 30
0.0
 10
58.84792675804558
 20
124.877612439097
 30
0.0
 10
58.54836200940905
 20
126.636082936826
 30
0.0
 10
57.97112791779514
 20
128.4199273457247
 30
0.0
 10
57.39997521277824
 20
129.5686622820575
 30
0.0
 10
57.10339252869999
 20
130.1651663128
 30
0.0
 11
57.10339252749999
 21
117.8444520478
 31
0.0
 11
57.9448167023
 21
119.6514580977
 31
0.0
 11
58.511633138
 21
121.4063513545
 31
0.0
 11
58.7988998828
 21
123.1370444847
 31
0.0
 11
58.799743972
 21
124.8624593328
 31
0.0
 11
58.5133389493
 21
126.596331126
 31
0.0
 11
57.94595320039999
 21
128.3552943392
 31
0.0
 11
57.10339252869999
 21
130.1651663128
 31
0.0
  0
SPLINE
  5
17B3
330
1B
100
AcDbEntity
  8
0
  6
Continuous
100
AcDbSpline
210
0.0
220
0.0
230
1.0
 70
     8
 71
     3
 72
    11
 73
     7
 74
     5
 42
0.0000000001
 43
0.0000000001
 44
0.0000000001
 40
0.0
 40
0.0
 40
0.0
 40
0.0
 40
0.547220351486723
 40
1.10094114012806
 40
1.648451017295745
 40
2.178428380001737
 40
2.178428380001737
 40
2.178428380001737
 40
2.178428380001737
 10
57.10339167229999
 20
130.1651661549
 30
0.0
 10
57.28300414874561
 20
130.2020599144844
 30
0.0
 10
57.64436272041061
 20
130.2762856950683
 30
0.0
 10
58.13129593850186
 20
130.5443017668437
 30
0.0
 10
58.55227767658589
 20
130.8995031286802
 30
0.0
 10
58.74208446761401
 20
131.2068343545676
 30
0.0
 10
58.8354436266
 20
131.3579995717
 30
0.0
 11
57.10339167229999
 21
130.1651661549
 31
0.0
 11
57.6332971717
 21
130.3017321638
 31
0.0
 11
58.1227430364
 21
130.5606712634
 31
0.0
 11
58.5340107557
 21
130.9220933555
 31
0.0
 11
58.8354436266
 21
131.3579995717
 31
0.0
  0
SPLINE
  5
17B4
330
1B
100
AcDbEntity
  8
0
  6
Continuous
100
AcDbSpline
210
0.0
220
0.0
230
1.0
 70
     8
 71
     3
 72
    16
 73
    12
 74
    10
 42
0.0000000001
 43
0.0000000001
 44
0.0000000001
 40
0.0
 40
0.0
 40
0.0
 40
0.0
 40
1.574839531015789
 40
3.061790961197161
 40
4.490168356871248
 40
5.888656492862916
 40
7.285444722310556
 40
8.707324548175446
 40
10.17897504737748
 40
11.72359445020219
 40
13.36482642766524
 40
13.36482642766524
 40
13.36482642766524
 40
13.36482642766524
 10
58.8354432407
 20
118.5775558655
 30
0.0
 10
59.07097838740572
 20
119.0470730007734
 30
0.0
 10
59.52890401666821
 20
119.9599046211353
 30
0.0
 10
60.04460639381958
 20
121.3686279053435
 30
0.0
 10
60.39752866353044
 20
122.7654510472508
 30
0.0
 10
60.57462525643929
 20
124.165961430923
 30
0.0
 10
60.57460997780397
 20
125.5753076728801
 30
0.0
 10
60.39747805442256
 20
126.9980363392813
 30
0.0
 10
60.04454508299026
 20
128.437356646967
 30
0.0
 10
59.52878453094814
 20
129.9050143801502
 30
0.0
 10
59.07118267433202
 20
130.8639850751726
 30
0.0
 10
58.8354432407
 20
131.3580110614
 30
0.0
 11
58.8354432407
 21
118.5775558655
 31
0.0
 11
59.5139328761
 21
119.9987424694
 31
0.0
 11
60.0262761876
 21
121.3946396314
 31
0.0
 11
60.3711892772
 21
122.7807481932
 31
0.0
 11
60.5453570646
 21
124.1683485133
 31
0.0
 11
60.546035059
 21
125.5651365782
 31
0.0
 11
60.3728168996
 21
126.9764259562
 31
0.0
 11
60.0279345929
 21
128.407094117
 31
0.0
 11
59.5148461769
 21
129.8640050192
 31
0.0
 11
58.8354432407
 21
131.3580110614
 31
0.0
  0
SPLINE
  5
17B5
330
1B
100
AcDbEntity
  8
0
  6
Continuous
100
AcDbSpline
210
0.0
220
0.0
230
1.0
 70
     8
 71
     3
 72
    11
 73
     7
 74
     5
 42
0.0000000001
 43
0.0000000001
 44
0.0000000001
 40
0.0
 40
0.0
 40
0.0
 40
0.0
 40
0.5299737137537803
 40
1.036030203393457
 40
1.518351626607206
 40
1.984769381750532
 40
1.984769381750532
 40
1.984769381750532
 40
1.984769381750532
 10
57.10339167909999
 20
117.8444522034
 30
0.0
 10
57.28082477302347
 20
117.8331975187298
 30
0.0
 10
57.62768356925363
 20
117.8111960629114
 30
0.0
 10
58.12291845676592
 20
117.9464532497292
 30
0.0
 10
58.55258299140975
 20
118.1944587296085
 30
0.0
 10
58.74221635209509
 20
118.4512927897653
 30
0.0
 10
58.8354436251
 20
118.5775571715
 30
0.0
 11
57.10339167909999
 21
117.8444522034
 31
0.0
 11
57.6333513619
 21
117.8405957962
 31
0.0
 11
58.1226737632
 21
117.9696568604
 31
0.0
 11
58.5338718973
 21
118.2217482125
 31
0.0
 11
58.8354436251
 21
118.5775571715
 31
0.0
  0
SPLINE
  5
17B6
330
1B
100
AcDbEntity
  8
0
  6
Continuous
100
AcDbSpline
210
0.0
220
0.0
230
1.0
 70
     8
 71
     3
 72
    10
 73
     6
 74
     4
 42
0.0000000001
 43
0.0000000001
 44
0.0000000001
 40
0.0
 40
0.0
 40
0.0
 40
0.0
 40
0.3279785324185196
 40
0.6388020456520961
 40
0.9293350478153979
 40
0.9293350478153979
 40
0.9293350478153979
 40
0.9293350478153979
 10
39.3580993866
 20
158.668978863
 30
0.0
 10
39.38215392957385
 20
158.7756515205433
 30
0.0
 10
39.42900483516701
 20
158.983417289087
 30
0.0
 10
39.47014012841326
 20
159.2911314763527
 30
0.0
 10
39.47599179947247
 20
159.4915884819807
 30
0.0
 10
39.47881891370001
 20
159.5884351514
 30
0.0
 11
39.3580993866
 21
158.668978863
 31
0.0
 11
39.4253663645
 21
158.9899852047
 31
0.0
 11
39.4654904351
 21
159.2982080386
 31
0.0
 11
39.47881891370001
 21
159.5884351514
 31
0.0
  0
SPLINE
  5
17B7
330
1B
100
AcDbEntity
  8
0
  6
Continuous
100
AcDbSpline
210
0.0
220
0.0
230
1.0
 70
     8
 71
     3
 72
    17
 73
    13
 74
    11
 42
0.0000000001
 43
0.0000000001
 44
0.0000000001
 40
0.0
 40
0.0
 40
0.0
 40
0.0
 40
0.0992439191575533
 40
0.4031482768246021
 40
0.9385618360334865
 40
1.752536971595275
 40
2.900732545104297
 40
4.452821896635959
 40
6.433300017782818
 40
8.754992768152535
 40
11.31215039102978
 40
13.94372536983521
 40
13.94372536983521
 40
13.94372536983521
 40
13.94372536983521
 10
74.07829335489998
 20
118.9088932473
 30
0.0
 10
74.06635957324276
 20
118.9397472634798
 30
0.0
 10
74.01788221007588
 20
119.0650823324855
 30
0.0
 10
73.91139852259663
 20
119.359308335201
 30
0.0
 10
73.74240752097873
 20
119.884037996675
 30
0.0
 10
73.52826744251033
 20
120.6890291455706
 30
0.0
 10
73.29613874962131
 20
121.838022611535
 30
0.0
 10
73.08652830337623
 20
123.3852310131244
 30
0.0
 10
72.94552495759442
 20
125.3327570110414
 30
0.0
 10
72.90749764182161
 20
127.6197671083235
 30
0.0
 10
72.97527924722519
 20
130.1232530556393
 30
0.0
 10
73.09848838342123
 20
131.8485924052735
 30
0.0
 10
73.1609764908
 20
132.7236345805
 30
0.0
 11
74.07829335489998
 21
118.9088932473
 31
0.0
 11
74.04265796750001
 21
119.0015187009
 31
0.0
 11
73.93890095490001
 21
119.2871624317
 31
0.0
 11
73.77438081939999
 21
119.7966727892
 31
0.0
 11
73.56357023050001
 21
120.5828753184
 31
0.0
 11
73.33320291690001
 21
121.7077237419
 31
0.0
 11
73.11982518480001
 21
123.2450757831
 31
0.0
 11
72.9706478137
 21
125.2199276004
 31
0.0
 11
72.9248990447
 21
127.5411695691
 31
0.0
 11
72.9931590306
 21
130.097415974
 31
0.0
 11
73.1609764908
 21
132.7236345805
 31
0.0
  0
SPLINE
  5
17B8
330
1B
100
AcDbEntity
  8
0
  6
Continuous
100
AcDbSpline
210
0.0
220
0.0
230
1.0
 70
     8
 71
     3
 72
     9
 73
     5
 74
     3
 42
0.0000000001
 43
0.0000000001
 44
0.0000000001
 40
0.0
 40
0.0
 40
0.0
 40
0.0
 40
1.108247952382706
 40
2.182494979687911
 40
2.182494979687911
 40
2.182494979687911
 40
2.182494979687911
 10
64.0760424841
 20
170.086993017
 30
0.0
 10
64.14138185535731
 20
170.4506371646739
 30
0.0
 10
64.27005599316057
 20
171.1667688976358
 30
0.0
 10
64.36679148771731
 20
171.8879058537389
 30
0.0
 10
64.4144057175
 20
172.2428570626
 30
0.0
 11
64.0760424841
 21
170.086993017
 31
0.0
 11
64.26382521429999
 21
171.1792160575
 31
0.0
 11
64.4144057175
 21
172.2428570626
 31
0.0
  0
SPLINE
  5
17B9
330
1B
100
AcDbEntity
  8
0
  6
Continuous
100
AcDbSpline
210
0.0
220
0.0
230
1.0
 70
     8
 71
     3
 72
    11
 73
     7
 74
     5
 42
0.0000000001
 43
0.0000000001
 44
0.0000000001
 40
0.0
 40
0.0
 40
0.0
 40
0.0
 40
0.4464328865653761
 40
1.032885511127428
 40
1.722053459861144
 40
2.468595552121818
 40
2.468595552121818
 40
2.468595552121818
 40
2.468595552121818
 10
66.87585427489999
 20
172.4181301099
 30
0.0
 10
66.72816089914804
 20
172.3997879843051
 30
0.0
 10
66.38645142277565
 20
172.3573508871727
 30
0.0
 10
65.8139447277419
 20
172.3135889795536
 30
0.0
 10
65.14119623312291
 20
172.2716711458265
 30
0.0
 10
64.66299666704278
 20
172.2523446769989
 30
0.0
 10
64.4143419287
 20
172.2422952784
 30
0.0
 11
66.87585427489999
 21
172.4181301099
 31
0.0
 11
66.43246042760001
 21
172.3661280101
 31
0.0
 11
65.84803053689998
 21
172.3174619674
 31
0.0
 11
65.1601556494
 21
172.2752648027
 31
0.0
 11
64.4143419287
 21
172.2422952784
 31
0.0
  0
SPLINE
  5
17BA
330
1B
100
AcDbEntity
  8
0
  6
Continuous
100
AcDbSpline
210
0.0
220
0.0
230
1.0
 70
     8
 71
     3
 72
     9
 73
     5
 74
     3
 42
0.0000000001
 43
0.0000000001
 44
0.0000000001
 40
0.0
 40
0.0
 40
0.0
 40
0.0
 40
1.261937361701325
 40
2.496126655620902
 40
2.496126655620902
 40
2.496126655620902
 40
2.496126655620902
 10
66.878032526
 20
169.9222312687
 30
0.0
 10
66.886140599841
 20
170.3428473427185
 30
0.0
 10
66.90217846341054
 20
171.1748307881763
 30
0.0
 10
66.88456166297499
 20
172.0067797757688
 30
0.0
 10
66.8758511809
 20
172.4181301098
 30
0.0
 11
66.878032526
 21
169.9222312687
 31
0.0
 11
66.8937549816
 21
171.1840706837
 31
0.0
 11
66.8758511809
 21
172.4181301098
 31
0.0
  0
SPLINE
  5
17BB
330
1B
100
AcDbEntity
  8
0
  6
Continuous
100
AcDbSpline
210
0.0
220
0.0
230
1.0
 70
     8
 71
     3
 72
     9
 73
     5
 74
     3
 42
0.0000000001
 43
0.0000000001
 44
0.0000000001
 40
0.0
 40
0.0
 40
0.0
 40
0.0
 40
1.014087029129083
 40
2.017632527621333
 40
2.017632527621333
 40
2.017632527621333
 40
2.017632527621333
 10
65.55717522320001
 20
175.016217525
 30
0.0
 10
65.2532950753406
 20
175.1642938415694
 30
0.0
 10
64.64869364251676
 20
175.4589072073842
 30
0.0
 10
64.03843747062996
 20
175.7416208969449
 30
0.0
 10
63.7349035883
 20
175.8822391942
 30
0.0
 11
65.55717522320001
 21
175.016217525
 31
0.0
 11
64.64410628410001
 21
175.4574403883
 31
0.0
 11
63.7349035883
 21
175.8822391942
 31
0.0
  0
SPLINE
  5
17BC
330
1B
100
AcDbEntity
  8
0
  6
Continuous
100
AcDbSpline
210
0.0
220
0.0
230
1.0
 70
     8
 71
     3
 72
    12
 73
     8
 74
     6
 42
0.0000000001
 43
0.0000000001
 44
0.0000000001
 40
0.0
 40
0.0
 40
0.0
 40
0.0
 40
0.3045658608444614
 40
0.7972437032471618
 40
1.443890970900283
 40
2.197959790934732
 40
3.00474069990942
 40
3.00474069990942
 40
3.00474069990942
 40
3.00474069990942
 10
65.5571806861
 20
175.016217525
 30
0.0
 10
65.53323058211836
 20
174.9174748367246
 30
0.0
 10
65.47053783796601
 20
174.659002051065
 30
0.0
 10
65.29485605995882
 20
174.2097347042803
 30
0.0
 10
65.05563596630834
 20
173.6261011080808
 30
0.0
 10
64.75498059858917
 20
172.9541865270084
 30
0.0
 10
64.53041610484732
 20
172.4848754593747
 30
0.0
 10
64.4143419287
 20
172.2422952784
 30
0.0
 11
65.5571806861
 21
175.016217525
 31
0.0
 11
65.4803231244
 21
174.7215087216
 31
0.0
 11
65.31259451
 21
174.258260874
 31
0.0
 11
65.0662667614
 21
173.6603684681
 31
0.0
 11
64.7593635349
 21
172.9715795346
 31
0.0
 11
64.4143419287
 21
172.2422952784
 31
0.0
  0
SPLINE
  5
17BD
330
1B
100
AcDbEntity
  8
0
  6
Continuous
100
AcDbSpline
210
0.0
220
0.0
230
1.0
 70
     8
 71
     3
 72
     9
 73
     5
 74
     3
 42
0.0000000001
 43
0.0000000001
 44
0.0000000001
 40
0.0
 40
0.0
 40
0.0
 40
0.0
 40
0.7840571172066513
 40
1.564347137337419
 40
1.564347137337419
 40
1.564347137337419
 40
1.564347137337419
 10
64.4144057175
 20
172.2428570626
 30
0.0
 10
64.16742372564589
 20
172.3283566110446
 30
0.0
 10
63.67464639673472
 20
172.4989449150313
 30
0.0
 10
63.17801098610299
 20
172.6579512502162
 30
0.0
 10
62.9302912535
 20
172.7372629666
 30
0.0
 11
64.4144057175
 21
172.2428570626
 31
0.0
 11
63.6724905706
 21
172.4964462537
 31
0.0
 11
62.9302912535
 21
172.7372629666
 31
0.0
  0
SPLINE
  5
17BE
330
1B
100
AcDbEntity
  8
0
  6
Continuous
100
AcDbSpline
210
0.0
220
0.0
230
1.0
 70
     8
 71
     3
 72
    13
 73
     9
 74
     7
 42
0.0000000001
 43
0.0000000001
 44
0.0000000001
 40
0.0
 40
0.0
 40
0.0
 40
0.0
 40
0.8141047061320378
 40
1.606812699205694
 40
2.383754067562149
 40
3.136623258252991
 40
3.829652162441745
 40
4.402503965121097
 40
4.402503965121097
 40
4.402503965121097
 40
4.402503965121097
 10
63.7349035883
 20
175.8822391942
 30
0.0
 10
63.48228065069075
 20
175.982076575461
 30
0.0
 10
62.98367433972888
 20
176.1791273612595
 30
0.0
 10
62.28845433876719
 20
176.5681280590604
 30
0.0
 10
61.64912550606731
 20
177.0067644709283
 30
0.0
 10
61.08557362216035
 20
177.4893019860336
 30
0.0
 10
60.6178571586973
 20
177.9766489621781
 30
0.0
 10
60.37653506614355
 20
178.3233995797842
 30
0.0
 10
60.2673290446
 20
178.4803154055
 30
0.0
 11
63.7349035883
 21
175.8822391942
 31
0.0
 11
62.98473088179999
 21
176.1984786335
 31
0.0
 11
62.2904116145
 21
176.5809792444
 31
0.0
 11
61.6510796787
 21
177.0224456256
 31
0.0
 11
61.078964703
 21
177.5118293941
 31
0.0
 11
60.6055887788
 21
178.0179956676
 31
0.0
 11
60.2673290446
 21
178.4803154055
 31
0.0
  0
SPLINE
  5
17BF
330
1B
100
AcDbEntity
  8
0
  6
Continuous
100
AcDbSpline
210
0.0
220
0.0
230
1.0
 70
     8
 71
     3
 72
    12
 73
     8
 74
     6
 42
0.0000000001
 43
0.0000000001
 44
0.0000000001
 40
0.0
 40
0.0
 40
0.0
 40
0.0
 40
0.3656247430546887
 40
0.9151510355461215
 40
1.621363261645387
 40
2.434225857705548
 40
3.292110152956046
 40
3.292110152956046
 40
3.292110152956046
 40
3.292110152956046
 10
63.73490884889999
 20
175.8822493071
 30
0.0
 10
63.75730244895996
 20
175.7616570771044
 30
0.0
 10
63.81335315852978
 20
175.4598172638651
 30
0.0
 10
63.71392512204001
 20
174.919364564714
 30
0.0
 10
63.54479555918525
 20
174.2536299241123
 30
0.0
 10
63.27855828428538
 20
173.5047950332737
 30
0.0
 10
63.04845619998078
 20
172.9976532373185
 30
0.0
 10
62.9303048717
 20
172.7372493518
 30
0.0
 11
63.73490884889999
 21
175.8822493071
 31
0.0
 11
63.7841849553
 21
175.5199603091
 31
0.0
 11
63.7186191005
 21
174.9743594799
 31
0.0
 11
63.5435847234
 21
174.2901821088
 31
0.0
 11
63.273430684
 21
173.5235254744
 31
0.0
 11
62.9303048717
 21
172.7372493518
 31
0.0
  0
SPLINE
  5
17C0
330
1B
100
AcDbEntity
  8
0
  6
Continuous
100
AcDbSpline
210
0.0
220
0.0
230
1.0
 70
     8
 71
     3
 72
    13
 73
     9
 74
     7
 42
0.0000000001
 43
0.0000000001
 44
0.0000000001
 40
0.0
 40
0.0
 40
0.0
 40
0.0
 40
1.009392572897234
 40
1.979127144038387
 40
2.92796290650079
 40
3.860624856206685
 40
4.749290856563396
 40
5.525317563599018
 40
5.525317563599018
 40
5.525317563599018
 40
5.525317563599018
 10
62.9302912535
 20
172.7372629666
 30
0.0
 10
62.61395592499864
 20
172.8543004578435
 30
0.0
 10
61.9937137594967
 20
173.0837771570085
 30
0.0
 10
61.16504883708213
 20
173.6120901390437
 30
0.0
 10
60.45071485164962
 20
174.2453280952868
 30
0.0
 10
59.87920972727608
 20
174.9757983749884
 30
0.0
 10
59.46442300369784
 20
175.7445215603389
 30
0.0
 10
59.3203189901192
 20
176.2818720993317
 30
0.0
 10
59.2531422898
 20
176.5323678019
 30
0.0
 11
62.9302912535
 21
172.7372629666
 31
0.0
 11
61.9969221994
 21
173.1215747867
 31
0.0
 11
61.1750553122
 21
173.6362785444
 31
0.0
 11
60.4678255869
 21
174.2688253172
 31
0.0
 11
59.8923944944
 21
175.0028126265
 31
0.0
 11
59.48112814769999
 21
175.7905862312
 31
0.0
 11
59.2531422898
 21
176.5323678019
 31
0.0
  0
SPLINE
  5
17C1
330
1B
100
AcDbEntity
  8
0
  6
Continuous
100
AcDbSpline
210
0.0
220
0.0
230
1.0
 70
     8
 71
     3
 72
    10
 73
     6
 74
     4
 42
0.0000000001
 43
0.0000000001
 44
0.0000000001
 40
0.0
 40
0.0
 40
0.0
 40
0.0
 40
0.5393547983113921
 40
0.8675875279698047
 40
0.9746850620234605
 40
0.9746850620234605
 40
0.9746850620234605
 40
0.9746850620234605
 10
60.2673290446
 20
178.4803154055
 30
0.0
 10
60.21205148463691
 20
178.6513956676257
 30
0.0
 10
60.12313390802363
 20
178.9265894772788
 30
0.0
 10
60.01784249941586
 20
179.2339623955239
 30
0.0
 10
59.96988998324426
 20
179.3709201884277
 30
0.0
 10
59.9580929715
 20
179.4046137841
 30
0.0
 11
60.2673290446
 21
178.4803154055
 31
0.0
 11
60.099639539
 21
178.9929398569
 31
0.0
 11
59.99342799299999
 21
179.3035132497
 31
0.0
 11
59.9580929715
 21
179.4046137841
 31
0.0
  0
SPLINE
  5
17C2
330
1B
100
AcDbEntity
  8
0
  6
Continuous
100
AcDbSpline
210
0.0
220
0.0
230
1.0
 70
     8
 71
     3
 72
    10
 73
     6
 74
     4
 42
0.0000000001
 43
0.0000000001
 44
0.0000000001
 40
0.0
 40
0.0
 40
0.0
 40
0.0
 40
0.7298731984586262
 40
1.479147465009382
 40
2.247613429010141
 40
2.247613429010141
 40
2.247613429010141
 40
2.247613429010141
 10
60.2673310452
 20
178.4803154056
 30
0.0
 10
60.2294731844073
 20
178.2388553798476
 30
0.0
 10
60.15275114701717
 20
177.7495169773046
 30
0.0
 10
59.79468484760149
 20
177.0718966697892
 30
0.0
 10
59.43518658170359
 20
176.7137056914525
 30
0.0
 10
59.2531645361
 20
176.5323455549
 30
0.0
 11
60.2673310452
 21
178.4803154056
 31
0.0
 11
60.1150627851
 21
177.7665022208
 31
0.0
 11
59.7690548299
 21
177.1019042811
 31
0.0
 11
59.2531645361
 21
176.5323455549
 31
0.0
  0
SPLINE
  5
17C3
330
1B
100
AcDbEntity
  8
0
  6
Continuous
100
AcDbSpline
210
0.0
220
0.0
230
1.0
 70
     8
 71
     3
 72
    10
 73
     6
 74
     4
 42
0.0000000001
 43
0.0000000001
 44
0.0000000001
 40
0.0
 40
0.0
 40
0.0
 40
0.0
 40
0.4275833634335733
 40
0.6863589347869419
 40
0.7707991928449909
 40
0.7707991928449909
 40
0.7707991928449909
 40
0.7707991928449909
 10
59.2531422898
 20
176.5323678019
 30
0.0
 10
59.22289357338013
 20
176.6716543773247
 30
0.0
 10
59.17433818382077
 20
176.8952378787289
 30
0.0
 10
59.11406559801469
 20
177.1450176083184
 30
0.0
 10
59.08625537299969
 20
177.2559910185429
 30
0.0
 10
59.0794133151
 20
177.2832934405
 30
0.0
 11
59.2531422898
 21
176.5323678019
 31
0.0
 11
59.16041126439999
 21
176.9497746653
 31
0.0
 11
59.0998806249
 21
177.2013712432
 31
0.0
 11
59.0794133151
 21
177.2832934405
 31
0.0
  0
SPLINE
  5
17C4
330
1B
100
AcDbEntity
  8
0
  6
Continuous
100
AcDbSpline
210
0.0
220
0.0
230
1.0
 70
     8
 71
     3
 72
    10
 73
     6
 74
     4
 42
0.0000000001
 43
0.0000000001
 44
0.0000000001
 40
0.0
 40
0.0
 40
0.0
 40
0.0
 40
0.0413866173011602
 40
0.1386600168819893
 40
0.2922243756133199
 40
0.2922243756133199
 40
0.2922243756133199
 40
0.2922243756133199
 10
39.47881891370001
 20
117.578610188
 30
0.0
 10
39.47456492979063
 20
117.5917446000756
 30
0.0
 10
39.46031255742594
 20
117.635749592967
 30
0.0
 10
39.41687388744704
 20
117.7232483019383
 30
0.0
 10
39.38041793576664
 20
117.7984271267507
 30
0.0
 10
39.3580993866
 20
117.8444520478
 30
0.0
 11
39.47881891370001
 21
117.578610188
 31
0.0
 11
39.4654904351
 21
117.6177918642
 31
0.0
 11
39.4253663645
 21
117.7064043533
 31
0.0
 11
39.3580993866
 21
117.8444520478
 31
0.0
  0
SPLINE
  5
17C5
330
1B
100
AcDbEntity
  8
0
  6
Continuous
100
AcDbSpline
210
0.0
220
0.0
230
1.0
 70
     8
 71
     3
 72
    10
 73
     6
 74
     4
 42
0.0000000001
 43
0.0000000001
 44
0.0000000001
 40
0.0
 40
0.0
 40
0.0
 40
0.0
 40
0.2513990047304598
 40
0.4746447092461125
 40
0.669577294869063
 40
0.669577294869063
 40
0.669577294869063
 40
0.669577294869063
 10
39.47881891370001
 20
161.8777484544
 30
0.0
 10
39.47633144050846
 20
161.96149723406
 30
0.0
 10
39.47163505759706
 20
162.1196160588104
 30
0.0
 10
39.43551217384388
 20
162.3416627070828
 30
0.0
 10
39.38271202254287
 20
162.4710495739319
 30
0.0
 10
39.3580993866
 20
162.5313628831
 30
0.0
 11
39.47881891370001
 21
161.8777484544
 31
0.0
 11
39.4654904351
 21
162.128793891
 31
0.0
 11
39.4253663645
 21
162.3484042358
 31
0.0
 11
39.3580993866
 21
162.5313628831
 31
0.0
  0
SPLINE
  5
17C6
330
1B
100
AcDbEntity
  8
0
  6
Continuous
100
AcDbSpline
210
0.0
220
0.0
230
1.0
 70
    24
 71
     3
 72
     8
 73
     4
 74
     2
 42
0.0000000001
 43
0.0000000001
 44
0.0000000001
 40
0.0
 40
0.0
 40
0.0
 40
0.0
 40
0.022830796195609
 40
0.022830796195609
 40
0.022830796195609
 40
0.022830796195609
 10
118.7056302936
 20
126.1212241608
 30
0.0
 10
118.6980907597333
 20
126.1222593267333
 30
0.0
 10
118.6905512258667
 20
126.1232944926667
 30
0.0
 10
118.683011692
 20
126.1243296586
 30
0.0
 11
118.7056302936
 21
126.1212241608
 31
0.0
 11
118.683011692
 21
126.1243296586
 31
0.0
  0
SPLINE
  5
17C7
330
1B
100
AcDbEntity
  8
0
  6
Continuous
100
AcDbSpline
210
0.0
220
0.0
230
1.0
 70
     8
 71
     3
 72
    10
 73
     6
 74
     4
 42
0.0000000001
 43
0.0000000001
 44
0.0000000001
 40
0.0
 40
0.0
 40
0.0
 40
0.0
 40
0.1535643587313434
 40
0.2508377583121725
 40
0.2922243756133327
 40
0.2922243756133327
 40
0.2922243756133327
 40
0.2922243756133327
 10
39.3580993866
 20
174.8520771481
 30
0.0
 10
39.38041793576666
 20
174.8981020691493
 30
0.0
 10
39.41687388744705
 20
174.9732808939617
 30
0.0
 10
39.46031255742593
 20
175.060779602933
 30
0.0
 10
39.47456492979062
 20
175.1047845958244
 30
0.0
 10
39.47881891370001
 20
175.1179190079
 30
0.0
 11
39.3580993866
 21
174.8520771481
 31
0.0
 11
39.4253663645
 21
174.9901248426
 31
0.0
 11
39.4654904351
 21
175.0787373317
 31
0.0
 11
39.47881891370001
 21
175.1179190079
 31
0.0
  0
SPLINE
  5
17C8
330
1B
100
AcDbEntity
  8
0
  6
Continuous
100
AcDbSpline
210
0.0
220
0.0
230
1.0
 70
     8
 71
     3
 72
     9
 73
     5
 74
     3
 42
0.0000000001
 43
0.0000000001
 44
0.0000000001
 40
0.0
 40
0.0
 40
0.0
 40
0.0
 40
0.0933431269283527
 40
0.381452236394524
 40
0.381452236394524
 40
0.381452236394524
 40
0.381452236394524
 10
74.55758673
 20
118.628714093
 30
0.0
 10
74.54929985931359
 20
118.6587053848926
 30
0.0
 10
74.51543506969206
 20
118.7812665818573
 30
0.0
 10
74.48497975989596
 20
118.9047277555036
 30
0.0
 10
74.46197700529999
 20
118.9979774088
 30
0.0
 11
74.55758673
 21
118.628714093
 31
0.0
 11
74.5329302788
 21
118.7187418596
 31
0.0
 11
74.46197700529999
 21
118.9979774088
 31
0.0
  0
SPLINE
  5
17C9
330
1B
100
AcDbEntity
  8
0
  6
Continuous
100
AcDbSpline
210
0.0
220
0.0
230
1.0
 70
     8
 71
     3
 72
    15
 73
    11
 74
     9
 42
0.0000000001
 43
0.0000000001
 44
0.0000000001
 40
0.0
 40
0.0
 40
0.0
 40
0.0
 40
0.5116031755481161
 40
1.297176200074712
 40
2.417741070400413
 40
3.949533999258379
 40
5.923963146742281
 40
8.257745531244728
 40
10.84435524411692
 40
13.51798489874529
 40
13.51798489874529
 40
13.51798489874529
 40
13.51798489874529
 10
74.46197700529999
 20
118.9979774088
 30
0.0
 10
74.42445716947921
 20
119.1643576691903
 30
0.0
 10
74.32932516017281
 20
119.5862168840189
 30
0.0
 10
74.20047427234908
 20
120.3823422788266
 30
0.0
 10
74.07750919491095
 20
121.5222309354263
 30
0.0
 10
74.00497667426885
 20
123.0637530381264
 30
0.0
 10
74.02150799488584
 20
125.0112510450581
 30
0.0
 10
74.15366902079855
 20
127.3064180101333
 30
0.0
 10
74.3948644919434
 20
129.826932328469
 30
0.0
 10
74.62793487313493
 20
131.5649034445161
 30
0.0
 10
74.746397901
 20
132.4482645979
 30
0.0
 11
74.46197700529999
 21
118.9979774088
 31
0.0
 11
74.35346184780001
 21
119.4979396772
 31
0.0
 11
74.2240016992
 21
120.2727719473
 31
0.0
 11
74.1017288151
 21
121.3866458048
 31
0.0
 11
74.0243009845
 21
122.9164806024
 31
0.0
 11
74.0352740419
 21
124.8908792578
 31
0.0
 11
74.1627624623
 21
127.2211768613
 31
0.0
 11
74.4080589172
 21
129.7961291824
 31
0.0
 11
74.746397901
 21
132.4482645979
 31
0.0
  0
SPLINE
  5
17CA
330
1B
100
AcDbEntity
  8
0
  6
Continuous
100
AcDbSpline
210
0.0
220
0.0
230
1.0
 70
     8
 71
     3
 72
     9
 73
     5
 74
     3
 42
0.0000000001
 43
0.0000000001
 44
0.0000000001
 40
0.0
 40
0.0
 40
0.0
 40
0.0
 40
0.5230873387442302
 40
1.059765423375443
 40
1.059765423375443
 40
1.059765423375443
 40
1.059765423375443
 10
74.746397901
 20
132.4482645979
 30
0.0
 10
74.76553453025484
 20
132.621609559474
 30
0.0
 10
74.80430499266544
 20
132.9728032951769
 30
0.0
 10
74.82383133269785
 20
133.3255928993107
 30
0.0
 10
74.8337197085
 20
133.5042498406
 30
0.0
 11
74.746397901
 21
132.4482645979
 31
0.0
 11
74.7991193631
 21
132.9686882824
 31
0.0
 11
74.8337197085
 21
133.5042498406
 31
0.0
  0
SPLINE
  5
17CB
330
1B
100
AcDbEntity
  8
0
  6
Continuous
100
AcDbSpline
210
0.0
220
0.0
230
1.0
 70
     8
 71
     3
 72
    10
 73
     6
 74
     4
 42
0.0000000001
 43
0.0000000001
 44
0.0000000001
 40
0.0
 40
0.0
 40
0.0
 40
0.0
 40
0.5000272120074664
 40
1.042965559737488
 40
1.609386927951034
 40
1.609386927951034
 40
1.609386927951034
 40
1.609386927951034
 10
74.74639823299999
 20
132.4482645982
 30
0.0
 10
74.58298764528279
 20
132.4811222837406
 30
0.0
 10
74.24214296524767
 20
132.5496574225662
 30
0.0
 10
73.71340492265651
 20
132.6408304633067
 30
0.0
 10
73.34769968768772
 20
132.6956463392662
 30
0.0
 10
73.16097643049999
 20
132.7236344508
 30
0.0
 11
74.74639823299999
 21
132.4482645982
 31
0.0
 11
74.2557516375
 21
132.5446654855
 31
0.0
 11
73.7208221452
 21
132.6375766673
 31
0.0
 11
73.16097643049999
 21
132.7236344508
 31
0.0
  0
SPLINE
  5
17CC
330
1B
100
AcDbEntity
  8
0
  6
Continuous
100
AcDbSpline
210
0.0
220
0.0
230
1.0
 70
     8
 71
     3
 72
     9
 73
     5
 74
     3
 42
0.0000000001
 43
0.0000000001
 44
0.0000000001
 40
0.0
 40
0.0
 40
0.0
 40
0.0
 40
0.4381739748668658
 40
0.8923830677178276
 40
0.8923830677178276
 40
0.8923830677178276
 40
0.8923830677178276
 10
73.1609764908
 20
132.7236345805
 30
0.0
 10
73.17067859012725
 20
132.869424842346
 30
0.0
 10
73.190437840237
 20
133.1663406077086
 30
0.0
 10
73.18811283545087
 20
133.4639089491272
 30
0.0
 10
73.1869294442
 20
133.6153666037
 30
0.0
 11
73.1609764908
 21
132.7236345805
 31
0.0
 11
73.18475835700001
 21
133.1611626997
 31
0.0
 11
73.1869294442
 21
133.6153666037
 31
0.0
  0
SPLINE
  5
17CD
330
1B
100
AcDbEntity
  8
0
  6
Continuous
100
AcDbSpline
210
0.0
220
0.0
230
1.0
 70
     8
 71
     3
 72
    11
 73
     7
 74
     5
 42
0.0000000001
 43
0.0000000001
 44
0.0000000001
 40
0.0
 40
0.0
 40
0.0
 40
0.0
 40
3.270722735862131
 40
6.304573691814586
 40
9.171195958896579
 40
11.93179208106753
 40
11.93179208106753
 40
11.93179208106753
 40
11.93179208106753
 10
69.03544324070001
 20
159.1748107467
 30
0.0
 10
69.30585568184061
 20
158.1183526812392
 30
0.0
 10
69.82709679581876
 20
156.0819471941645
 30
0.0
 10
70.39148098366297
 20
153.0757567598976
 30
0.0
 10
70.77527059351735
 20
150.2114175933503
 30
0.0
 10
70.86391292645409
 20
148.3370096641861
 30
0.0
 10
70.90739900849999
 20
147.4174641796
 30
0.0
 11
69.03544324070001
 21
159.1748107467
 31
0.0
 11
69.8108137111
 21
155.9973230837
 31
0.0
 11
70.37489973540001
 21
153.0163738087
 31
0.0
 11
70.73826274
 21
150.1728741078
 31
0.0
 11
70.90739900849999
 21
147.4174641796
 31
0.0
  0
SPLINE
  5
17CE
330
1B
100
AcDbEntity
  8
0
  6
Continuous
100
AcDbSpline
210
0.0
220
0.0
230
1.0
 70
     8
 71
     3
 72
    13
 73
     9
 74
     7
 42
0.0000000001
 43
0.0000000001
 44
0.0000000001
 40
0.0
 40
0.0
 40
0.0
 40
0.0
 40
0.4749442375504905
 40
1.126384427578994
 40
1.905948313449031
 40
2.752809223617355
 40
3.600069712598382
 40
4.380796884927203
 40
4.380796884927203
 40
4.380796884927203
 40
4.380796884927203
 10
69.03544410630001
 20
159.1748110381
 30
0.0
 10
69.1939044633246
 20
159.1710964238887
 30
0.0
 10
69.56971127269166
 20
159.1622867926283
 30
0.0
 10
70.20144809868702
 20
159.2459817383396
 30
0.0
 10
70.94901550507343
 20
159.3773518388276
 30
0.0
 10
71.75233348526453
 20
159.5652967810921
 30
0.0
 10
72.54810533618505
 20
159.784508198022
 30
0.0
 10
73.06054294954255
 20
159.963506516171
 30
0.0
 10
73.3062904932
 20
160.0493479842
 30
0.0
 11
69.03544410630001
 21
159.1748110381
 31
0.0
 11
69.51038769749999
 21
159.1740274818
 31
0.0
 11
70.1580117738
 21
159.2444361246
 31
0.0
 11
70.9256432041
 21
159.380310476
 31
0.0
 11
71.7508483158
 21
159.5705995319
 31
0.0
 11
72.56651080410001
 21
159.7998265839
 31
0.0
 11
73.3062904932
 21
160.0493479842
 31
0.0
  0
SPLINE
  5
17CF
330
1B
100
AcDbEntity
  8
0
  6
Continuous
100
AcDbSpline
210
0.0
220
0.0
230
1.0
 70
     8
 71
     3
 72
    11
 73
     7
 74
     5
 42
0.0000000001
 43
0.0000000001
 44
0.0000000001
 40
0.0
 40
0.0
 40
0.0
 40
0.0
 40
3.419680000122586
 40
6.62906671438803
 40
9.694212927232424
 40
12.67117528617471
 40
12.67117528617471
 40
12.67117528617471
 40
12.67117528617471
 10
73.3062899111
 20
160.0493479842
 30
0.0
 10
73.54200240125988
 20
158.9338712561402
 30
0.0
 10
73.99893223756865
 20
156.7715140623703
 30
0.0
 10
74.48744645567014
 20
153.5758993036767
 30
0.0
 10
74.81982874655283
 20
150.5079645326631
 30
0.0
 10
74.89636696108816
 20
148.4948378203409
 30
0.0
 10
74.93407753530001
 20
147.5029651363
 30
0.0
 11
73.3062899111
 21
160.0493479842
 31
0.0
 11
73.9807285943
 21
156.6968349319
 31
0.0
 11
74.4709696794
 21
153.5251119364
 31
0.0
 11
74.7868291257
 21
150.4762836178
 31
0.0
 11
74.93407753530001
 21
147.5029651363
 31
0.0
  0
SPLINE
  5
17D0
330
1B
100
AcDbEntity
  8
0
  6
Continuous
100
AcDbSpline
210
0.0
220
0.0
230
1.0
 70
     8
 71
     3
 72
    14
 73
    10
 74
     8
 42
0.0000000001
 43
0.0000000001
 44
0.0000000001
 40
0.0
 40
0.0
 40
0.0
 40
0.0
 40
0.558051973975358
 40
1.217009930822713
 40
2.00130786795894
 40
2.928969294545291
 40
3.975027773585658
 40
5.047607838423348
 40
6.046469665971065
 40
6.046469665971065
 40
6.046469665971065
 40
6.046469665971065
 10
67.3033924332
 20
164.9311631451
 30
0.0
 10
67.39112316867559
 20
164.7670942556679
 30
0.0
 10
67.58244795792697
 20
164.4092898268877
 30
0.0
 10
67.85913452216421
 20
163.8017663882833
 30
0.0
 10
68.14951285317446
 20
163.0663748928302
 30
0.0
 10
68.43476664383532
 20
162.1917155615669
 30
0.0
 10
68.68900438346255
 20
161.2080602295687
 30
0.0
 10
68.89349037723605
 20
160.1885091362359
 30
0.0
 10
68.98926171940465
 20
159.5045972168073
 30
0.0
 10
69.03544324070001
 20
159.1748107467
 30
0.0
 11
67.3033924332
 21
164.9311631451
 31
0.0
 11
67.56173396200001
 21
164.4365100746
 31
0.0
 11
67.8370589247
 21
163.8378267244
 31
0.0
 11
68.1251102697
 21
163.1083408254
 31
0.0
 11
68.41381445970001
 21
162.2267481683
 31
0.0
 11
68.6775640271
 21
161.2144860939
 31
0.0
 11
68.887574376
 21
160.1626668847
 31
0.0
 11
69.03544324070001
 21
159.1748107467
 31
0.0
  0
SPLINE
  5
17D1
330
1B
100
AcDbEntity
  8
0
  6
Continuous
100
AcDbSpline
210
0.0
220
0.0
230
1.0
 70
     8
 71
     3
 72
    11
 73
     7
 74
     5
 42
0.0000000001
 43
0.0000000001
 44
0.0000000001
 40
0.0
 40
0.0
 40
0.0
 40
0.0
 40
0.8062936904142286
 40
1.664782390349777
 40
2.53655060815459
 40
3.380014457339379
 40
3.380014457339379
 40
3.380014457339379
 40
3.380014457339379
 10
67.3033924332
 20
164.9311606717
 30
0.0
 10
67.54339877016872
 20
165.0546551311504
 30
0.0
 10
68.03894813153433
 20
165.3096384006997
 30
0.0
 10
68.66397812351728
 20
165.8907266299513
 30
0.0
 10
69.19838287706067
 20
166.5704046665313
 30
0.0
 10
69.42803128189799
 20
167.0963743509937
 30
0.0
 10
69.5409606815
 20
167.3550194773
 30
0.0
 11
67.3033924332
 21
164.9311606717
 31
0.0
 11
68.00339532690001
 21
165.33129248
 31
0.0
 11
68.6441916532
 21
165.9025918027
 31
0.0
 11
69.1715824554
 21
166.5967378733
 31
0.0
 11
69.5409606815
 21
167.3550194773
 31
0.0
  0
SPLINE
  5
17D2
330
1B
100
AcDbEntity
  8
0
  6
Continuous
100
AcDbSpline
210
0.0
220
0.0
230
1.0
 70
     8
 71
     3
 72
    14
 73
    10
 74
     8
 42
0.0000000001
 43
0.0000000001
 44
0.0000000001
 40
0.0
 40
0.0
 40
0.0
 40
0.0
 40
0.8053119707641534
 40
1.75287751962655
 40
2.870939612647551
 40
4.173111644050672
 40
5.609421073601001
 40
7.041518354725619
 40
8.334424236600052
 40
8.334424236600052
 40
8.334424236600052
 40
8.334424236600052
 10
69.5409620686
 20
167.3550194773
 30
0.0
 10
69.73157248927467
 20
167.1657744657845
 30
0.0
 10
70.14646352968741
 20
166.7538554351108
 30
0.0
 10
70.74643250102888
 20
166.0057710802989
 30
0.0
 10
71.37527508933644
 20
165.0745036104877
 30
0.0
 10
71.9931508478337
 20
163.9447762166263
 30
0.0
 10
72.54540167199218
 20
162.6672540752303
 30
0.0
 10
72.99147228343607
 20
161.3516092743703
 30
0.0
 10
73.20498608416449
 20
160.46839711224
 30
0.0
 10
73.3062899111
 20
160.0493479842
 30
0.0
 11
69.5409620686
 21
167.3550194773
 31
0.0
 11
70.1025407026
 21
166.7778221037
 31
0.0
 11
70.70112713250001
 21
166.0432645802
 31
0.0
 11
71.3272066063
 21
165.1169345438
 31
0.0
 11
71.9544470363
 21
163.9757853676
 31
0.0
 11
72.52782011780001
 21
162.6588844272
 31
0.0
 11
72.9846863658
 21
161.3016166371
 31
0.0
 11
73.3062899111
 21
160.0493479842
 31
0.0
  0
SPLINE
  5
17D3
330
1B
100
AcDbEntity
  8
0
  6
Continuous
100
AcDbSpline
210
0.0
220
0.0
230
1.0
 70
     8
 71
     3
 72
    10
 73
     6
 74
     4
 42
0.0000000001
 43
0.0000000001
 44
0.0000000001
 40
0.0
 40
0.0
 40
0.0
 40
0.0
 40
1.086983210658818
 40
2.35329013242822
 40
3.812456354194153
 40
3.812456354194153
 40
3.812456354194153
 40
3.812456354194153
 10
64.2409643732
 20
167.2018006128
 30
0.0
 10
64.53006337479458
 20
166.9833899792402
 30
0.0
 10
65.15595512829739
 20
166.5105366879163
 30
0.0
 10
66.17525781690372
 20
165.7515470602674
 30
0.0
 10
66.91001661702956
 20
165.2172275806207
 30
0.0
 10
67.3033924332
 20
164.9311631451
 30
0.0
 11
64.2409643732
 21
167.2018006128
 31
0.0
 11
65.10896257449998
 21
166.5474982188
 31
0.0
 11
66.1250057581
 21
165.7917274406
 31
0.0
 11
67.3033924332
 21
164.9311631451
 31
0.0
  0
SPLINE
  5
17D4
330
1B
100
AcDbEntity
  8
0
  6
Continuous
100
AcDbSpline
210
0.0
220
0.0
230
1.0
 70
     8
 71
     3
 72
    12
 73
     8
 74
     6
 42
0.0000000001
 43
0.0000000001
 44
0.0000000001
 40
0.0
 40
0.0
 40
0.0
 40
0.0
 40
0.7699945106172832
 40
1.572113764400817
 40
2.389758497454752
 40
3.202769842980834
 40
3.992032956329
 40
3.992032956329
 40
3.992032956329
 40
3.992032956329
 10
64.24099641479999
 20
167.2021351405
 30
0.0
 10
64.48863373564585
 20
167.274220404492
 30
0.0
 10
64.99423999038265
 20
167.4213983832564
 30
0.0
 10
65.66539673647262
 20
167.8725533851577
 30
0.0
 10
66.2316043781056
 20
168.4572509357186
 30
0.0
 10
66.66717919734647
 20
169.1497772894499
 30
0.0
 10
66.80843467972366
 20
169.6672912477857
 30
0.0
 10
66.8780156065
 20
169.9222130408
 30
0.0
 11
64.24099641479999
 21
167.2021351405
 31
0.0
 11
64.9685357585
 21
167.4542820218
 31
0.0
 11
65.6419281396
 21
167.8901007896
 31
0.0
 11
66.21105780950001
 21
168.4771564329
 31
0.0
 11
66.6335684996
 21
169.1717585958
 31
0.0
 11
66.8780156065
 21
169.9222130408
 31
0.0
  0
SPLINE
  5
17D5
330
1B
100
AcDbEntity
  8
0
  6
Continuous
100
AcDbSpline
210
0.0
220
0.0
230
1.0
 70
     8
 71
     3
 72
     9
 73
     5
 74
     3
 42
0.0000000001
 43
0.0000000001
 44
0.0000000001
 40
0.0
 40
0.0
 40
0.0
 40
0.0
 40
1.648182509920365
 40
3.698954518360896
 40
3.698954518360896
 40
3.698954518360896
 40
3.698954518360896
 10
66.878032526
 20
169.9222312687
 30
0.0
 10
67.26996251308374
 20
169.53721585785
 30
0.0
 10
68.14955636138551
 20
168.6731401350277
 30
0.0
 10
69.0446852694446
 20
167.8251574805624
 30
0.0
 10
69.5409620686
 20
167.3550194773
 30
0.0
 11
66.878032526
 21
169.9222312687
 31
0.0
 11
68.0569068507
 21
168.7703801878
 31
0.0
 11
69.5409620686
 21
167.3550194773
 31
0.0
  0
SPLINE
  5
17D6
330
1B
100
AcDbEntity
  8
0
  6
Continuous
100
AcDbSpline
210
0.0
220
0.0
230
1.0
 70
     8
 71
     3
 72
    11
 73
     7
 74
     5
 42
0.0000000001
 43
0.0000000001
 44
0.0000000001
 40
0.0
 40
0.0
 40
0.0
 40
0.0
 40
0.8413393731692807
 40
1.629622179569561
 40
2.302648092724377
 40
2.807509329472607
 40
2.807509329472607
 40
2.807509329472607
 40
2.807509329472607
 10
64.0761385614
 20
170.0870708851
 30
0.0
 10
64.3564692880659
 20
170.0786605579157
 30
0.0
 10
64.89945251737645
 20
170.0623702758321
 30
0.0
 10
65.66601634463666
 20
170.02351548897
 30
0.0
 10
66.32025848920156
 20
169.9821785239404
 30
0.0
 10
66.71067629999513
 20
169.9402039943024
 30
0.0
 10
66.8780156065
 20
169.9222130408
 30
0.0
 11
64.0761385614
 21
170.0870708851
 31
0.0
 11
64.9170045817
 21
170.058852509
 31
0.0
 11
65.70431973099998
 21
170.0198058888
 31
0.0
 11
66.37571778500001
 21
169.973024131
 31
0.0
 11
66.8780156065
 21
169.9222130408
 31
0.0
  0
SPLINE
  5
17D7
330
1B
100
AcDbEntity
  8
0
  6
Continuous
100
AcDbSpline
210
0.0
220
0.0
230
1.0
 70
     8
 71
     3
 72
     9
 73
     5
 74
     3
 42
0.0000000001
 43
0.0000000001
 44
0.0000000001
 40
0.0
 40
0.0
 40
0.0
 40
0.0
 40
0.4477876062046526
 40
0.9022811969917763
 40
0.9022811969917763
 40
0.9022811969917763
 40
0.9022811969917763
 10
63.33877534039999
 20
167.1893600638
 30
0.0
 10
63.48803425749264
 20
167.1905730840079
 30
0.0
 10
63.78878736568497
 20
167.1930172903906
 30
0.0
 10
64.0894937285005
 20
167.1988583678697
 30
0.0
 10
64.2409643732
 20
167.2018006128
 30
0.0
 11
63.33877534039999
 21
167.1893600638
 31
0.0
 11
63.7865405784
 21
167.1938357659
 31
0.0
 11
64.2409643732
 21
167.2018006128
 31
0.0
  0
SPLINE
  5
17D8
330
1B
100
AcDbEntity
  8
0
  6
Continuous
100
AcDbSpline
210
0.0
220
0.0
230
1.0
 70
     8
 71
     3
 72
    12
 73
     8
 74
     6
 42
0.0000000001
 43
0.0000000001
 44
0.0000000001
 40
0.0
 40
0.0
 40
0.0
 40
0.0
 40
0.3605271089532667
 40
0.8449136569892659
 40
1.427728381709224
 40
2.078357057536972
 40
2.762619220002564
 40
2.762619220002564
 40
2.762619220002564
 40
2.762619220002564
 10
63.33877533849999
 20
167.1893894459
 30
0.0
 10
63.33490644115496
 20
167.3095038110019
 30
0.0
 10
63.32583948301745
 20
167.5909979482107
 30
0.0
 10
63.31652916389363
 20
168.0668261146271
 30
0.0
 10
63.30746516527046
 20
168.6393626977919
 30
0.0
 10
63.30001114616798
 20
169.2785576978022
 30
0.0
 10
63.29668641812085
 20
169.7235090868581
 30
0.0
 10
63.2949821697
 20
169.9515902085
 30
0.0
 11
63.33877533849999
 21
167.1893894459
 31
0.0
 11
63.3278163278
 21
167.5497499548
 31
0.0
 11
63.3174446641
 21
168.0340254513
 31
0.0
 11
63.3082056229
 21
168.6167669407
 31
0.0
 11
63.3005846725
 21
169.2673509821
 31
0.0
 11
63.2949821697
 21
169.9515902085
 31
0.0
  0
SPLINE
  5
17D9
330
1B
100
AcDbEntity
  8
0
  6
Continuous
100
AcDbSpline
210
0.0
220
0.0
230
1.0
 70
     8
 71
     3
 72
     9
 73
     5
 74
     3
 42
0.0000000001
 43
0.0000000001
 44
0.0000000001
 40
0.0
 40
0.0
 40
0.0
 40
0.0
 40
0.3927942395363479
 40
0.7926784377600882
 40
0.7926784377600882
 40
0.7926784377600882
 40
0.7926784377600882
 10
63.2950142979
 20
169.9516309176
 30
0.0
 10
63.42416323642095
 20
169.9731707380343
 30
0.0
 10
63.68479225925491
 20
170.0166391739045
 30
0.0
 10
63.94485039594777
 20
170.0634023146844
 30
0.0
 10
64.0760424841
 20
170.086993017
 30
0.0
 11
63.2950142979
 21
169.9516309176
 31
0.0
 11
63.6823209336
 21
170.0170593866
 31
0.0
 11
64.0760424841
 21
170.086993017
 31
0.0
  0
SPLINE
  5
17DA
330
1B
100
AcDbEntity
  8
0
  6
Continuous
100
AcDbSpline
210
0.0
220
0.0
230
1.0
 70
     8
 71
     3
 72
    12
 73
     8
 74
     6
 42
0.0000000001
 43
0.0000000001
 44
0.0000000001
 40
0.0
 40
0.0
 40
0.0
 40
0.0
 40
0.3759912672085692
 40
0.8844631357344299
 40
1.497186467896505
 40
2.178539329130931
 40
2.890675106839889
 40
2.890675106839889
 40
2.890675106839889
 40
2.890675106839889
 10
64.24099641479999
 20
167.2021351405
 30
0.0
 10
64.22626822783815
 20
167.3266108332385
 30
0.0
 10
64.19162237417066
 20
167.6194212549796
 30
0.0
 10
64.15619638331584
 20
168.1173655553094
 30
0.0
 10
64.12186457509428
 20
168.7172104215071
 30
0.0
 10
64.09430951625076
 20
169.3854275869726
 30
0.0
 10
64.08228409569475
 20
169.8497705898362
 30
0.0
 10
64.0761385614
 20
170.0870708851
 30
0.0
 11
64.24099641479999
 21
167.2021351405
 31
0.0
 11
64.1992909027
 21
167.5758062302
 31
0.0
 11
64.1597274562
 21
168.0827365753
 31
0.0
 11
64.1247126227
 21
168.6944586063
 31
0.0
 11
64.0964330987
 21
169.3752243443
 31
0.0
 11
64.0761385614
 21
170.0870708851
 31
0.0
  0
SPLINE
  5
17DB
330
1B
100
AcDbEntity
  8
0
  6
Continuous
100
AcDbSpline
210
0.0
220
0.0
230
1.0
 70
     8
 71
     3
 72
     9
 73
     5
 74
     3
 42
0.0000000001
 43
0.0000000001
 44
0.0000000001
 40
0.0
 40
0.0
 40
0.0
 40
0.0
 40
0.2531238216214006
 40
0.500784291142527
 40
0.500784291142527
 40
0.500784291142527
 40
0.500784291142527
 10
60.5065068405
 20
168.9912421132
 30
0.0
 10
60.54575912373215
 20
168.9165536718305
 30
0.0
 10
60.62341648015254
 20
168.7687888430277
 30
0.0
 10
60.70189028517241
 20
168.621455993804
 30
0.0
 10
60.7406991291
 20
168.5485932398
 30
0.0
 11
60.5065068405
 21
168.9912421132
 31
0.0
 11
60.6244722802
 21
168.7672871532
 31
0.0
 11
60.7406991291
 21
168.5485932398
 31
0.0
  0
SPLINE
  5
17DC
330
1B
100
AcDbEntity
  8
0
  6
Continuous
100
AcDbSpline
210
0.0
220
0.0
230
1.0
 70
     8
 71
     3
 72
    12
 73
     8
 74
     6
 42
0.0000000001
 43
0.0000000001
 44
0.0000000001
 40
0.0
 40
0.0
 40
0.0
 40
0.0
 40
0.2784797943750091
 40
0.7542623365978183
 40
1.392136594844309
 40
2.144719299464918
 40
2.956066395409488
 40
2.956066395409488
 40
2.956066395409488
 40
2.956066395409488
 10
60.5065053391
 20
168.991245039
 30
0.0
 10
60.59156581312113
 20
169.0284335856835
 30
0.0
 10
60.82195205005188
 20
169.1291587394748
 30
0.0
 10
61.23855794799512
 20
169.333816985547
 30
0.0
 10
61.79590750456774
 20
169.6100257431115
 30
0.0
 10
62.45033328055177
 20
169.9423340964698
 30
0.0
 10
62.91344465088007
 20
170.1816872042368
 30
0.0
 10
63.15370100079999
 20
170.3058605839
 30
0.0
 11
60.5065053391
 21
168.991245039
 31
0.0
 11
60.76105039739999
 21
169.1041955112
 31
0.0
 11
61.1899273616
 21
169.3101896302
 31
0.0
 11
61.7612327397
 21
169.5939038073
 31
0.0
 11
62.43246800579999
 21
169.9342329786
 31
0.0
 11
63.15370100079999
 21
170.3058605839
 31
0.0
  0
SPLINE
  5
17DD
330
1B
100
AcDbEntity
  8
0
  6
Continuous
100
AcDbSpline
210
0.0
220
0.0
230
1.0
 70
     8
 71
     3
 72
     9
 73
     5
 74
     3
 42
0.0000000001
 43
0.0000000001
 44
0.0000000001
 40
0.0
 40
0.0
 40
0.0
 40
0.0
 40
0.1931506559986189
 40
0.3813778193295758
 40
0.3813778193295758
 40
0.3813778193295758
 40
0.3813778193295758
 10
63.15370099879999
 20
170.3058605889
 30
0.0
 10
63.17733109902592
 20
170.2459699062003
 30
0.0
 10
63.22398895813653
 20
170.1277151798673
 30
0.0
 10
63.2715438251421
 20
170.0098183320411
 30
0.0
 10
63.2950142979
 20
169.9516309176
 30
0.0
 11
63.15370099879999
 21
170.3058605889
 31
0.0
 11
63.2248213789
 21
170.1262803354
 31
0.0
 11
63.2950142979
 21
169.9516309176
 31
0.0
  0
SPLINE
  5
17DE
330
1B
100
AcDbEntity
  8
0
  6
Continuous
100
AcDbSpline
210
0.0
220
0.0
230
1.0
 70
     8
 71
     3
 72
    12
 73
     8
 74
     6
 42
0.0000000001
 43
0.0000000001
 44
0.0000000001
 40
0.0
 40
0.0
 40
0.0
 40
0.0
 40
0.2764571879200317
 40
0.7457169184975077
 40
1.373736066078529
 40
2.114977677806834
 40
2.914558694911764
 40
2.914558694911764
 40
2.914558694911764
 40
2.914558694911764
 10
60.7406991291
 20
168.5485932403
 30
0.0
 10
60.81948888568574
 20
168.5963989422482
 30
0.0
 10
61.03201674554116
 20
168.7253502674485
 30
0.0
 10
61.43257641601782
 20
168.9474228598189
 30
0.0
 10
61.96948739089337
 20
169.2428203718525
 30
0.0
 10
62.60590459904116
 20
169.5858326489965
 30
0.0
 10
63.05956408454712
 20
169.8266319339096
 30
0.0
 10
63.2949821697
 20
169.9515902085
 30
0.0
 11
60.7406991291
 21
168.5485932403
 31
0.0
 11
60.9777434103
 21
168.6908556229
 31
0.0
 11
61.38637501409999
 21
168.9215608615
 31
0.0
 11
61.9368264415
 21
169.2239038386
 31
0.0
 11
62.5891388448
 21
169.5759374385
 31
0.0
 11
63.2949821697
 21
169.9515902085
 31
0.0
  0
SPLINE
  5
17DF
330
1B
100
AcDbEntity
  8
0
  6
Continuous
100
AcDbSpline
210
0.0
220
0.0
230
1.0
 70
     8
 71
     3
 72
    12
 73
     8
 74
     6
 42
0.0000000001
 43
0.0000000001
 44
0.0000000001
 40
0.0
 40
0.0
 40
0.0
 40
0.0
 40
0.8406620789098193
 40
1.631089572169036
 40
2.357231537237884
 40
3.025214901807772
 40
3.654435035115053
 40
3.654435035115053
 40
3.654435035115053
 40
3.654435035115053
 10
58.34313279199999
 20
171.9055108763
 30
0.0
 10
58.54253248070663
 20
171.7085420892827
 30
0.0
 10
58.92941653448114
 20
171.3263745779762
 30
0.0
 10
59.44688672780895
 20
170.7338081196503
 30
0.0
 10
59.88280983611681
 20
170.1500258584431
 30
0.0
 10
60.24240043624759
 20
169.5772620140764
 30
0.0
 10
60.42021187317285
 20
169.1826380550683
 30
0.0
 10
60.50646089749999
 20
168.991222182
 30
0.0
 11
58.34313279199999
 21
171.9055108763
 31
0.0
 11
58.93367626239999
 21
171.3072039814
 31
0.0
 11
59.4527693052
 21
170.7111183877
 31
0.0
 11
59.8861598569
 21
170.1284909054
 31
0.0
 11
60.23530772019999
 21
169.55901962
 31
0.0
 11
60.50646089749999
 21
168.991222182
 31
0.0
  0
SPLINE
  5
17E0
330
1B
100
AcDbEntity
  8
0
  6
Continuous
100
AcDbSpline
210
0.0
220
0.0
230
1.0
 70
     8
 71
     3
 72
    10
 73
     6
 74
     4
 42
0.0000000001
 43
0.0000000001
 44
0.0000000001
 40
0.0
 40
0.0
 40
0.0
 40
0.0
 40
0.5612957967454835
 40
1.185085302403338
 40
1.854836734649414
 40
1.854836734649414
 40
1.854836734649414
 40
1.854836734649414
 10
58.34313279199999
 20
171.9055108763
 30
0.0
 10
58.49862175129813
 20
172.0104078629314
 30
0.0
 10
58.8269115432735
 20
172.2318808863248
 30
0.0
 10
59.25004003906427
 20
172.6908200448899
 30
0.0
 10
59.48538582800811
 20
173.0523324487571
 30
0.0
 10
59.6072398603
 20
173.2395112563
 30
0.0
 11
58.34313279199999
 21
171.9055108763
 31
0.0
 11
58.79660070509999
 21
172.2362975496
 31
0.0
 11
59.2256628498
 21
172.6890878138
 31
0.0
 11
59.6072398603
 21
173.2395112563
 31
0.0
  0
SPLINE
  5
17E1
330
1B
100
AcDbEntity
  8
0
  6
Continuous
100
AcDbSpline
210
0.0
220
0.0
230
1.0
 70
     8
 71
     3
 72
    12
 73
     8
 74
     6
 42
0.0000000001
 43
0.0000000001
 44
0.0000000001
 40
0.0
 40
0.0
 40
0.0
 40
0.0
 40
1.048603702387025
 40
2.053550055302939
 40
2.994679118848551
 40
3.886297469138973
 40
4.762258780051842
 40
4.762258780051842
 40
4.762258780051842
 40
4.762258780051842
 10
59.60726586719999
 20
173.2394852503
 30
0.0
 10
59.93909882217736
 20
173.1278002014494
 30
0.0
 10
60.58894926757814
 20
172.9090799759518
 30
0.0
 10
61.46303725541294
 20
172.4123347061131
 30
0.0
 10
62.1940822308452
 20
171.8068697474116
 30
0.0
 10
62.78009966203017
 20
171.1073845121185
 30
0.0
 10
63.0299048026496
 20
170.5714528206514
 30
0.0
 10
63.15370099879999
 20
170.3058605889
 30
0.0
 11
59.60726586719999
 21
173.2394852503
 31
0.0
 11
60.5896077752
 21
172.8726418226
 31
0.0
 11
61.4638845267
 21
172.3771044032
 31
0.0
 11
62.1868905271
 21
171.7746210112
 31
0.0
 11
62.7497463307
 21
171.0831178464
 31
0.0
 11
63.15370099879999
 21
170.3058605889
 31
0.0
  0
SPLINE
  5
17E2
330
1B
100
AcDbEntity
  8
0
  6
Continuous
100
AcDbSpline
210
0.0
220
0.0
230
1.0
 70
     8
 71
     3
 72
    13
 73
     9
 74
     7
 42
0.0000000001
 43
0.0000000001
 44
0.0000000001
 40
0.0
 40
0.0
 40
0.0
 40
0.0
 40
0.613630466171991
 40
1.195604521069205
 40
1.790507001164312
 40
2.444415192041124
 40
3.200470571294922
 40
4.088405334212706
 40
4.088405334212706
 40
4.088405334212706
 40
4.088405334212706
 10
55.9252637971
 20
174.8520771481
 30
0.0
 10
55.91822709366289
 20
174.6459726983319
 30
0.0
 10
55.90451670132316
 20
174.2443964638719
 30
0.0
 10
56.11174404425869
 20
173.6712936259333
 30
0.0
 10
56.45586092818013
 20
173.1624873092665
 30
0.0
 10
56.94315392800361
 20
172.6991286810472
 30
0.0
 10
57.57804997048804
 20
172.2645744584989
 30
0.0
 10
58.07482177235931
 20
172.0314528274832
 30
0.0
 10
58.3431329628
 20
171.9055416101
 30
0.0
 11
55.9252637971
 21
174.8520771481
 31
0.0
 11
55.94421517669999
 21
174.2387393992
 31
0.0
 11
56.1310333368
 21
173.6875654016
 31
0.0
 11
56.4603835181
 21
173.192148992
 31
0.0
 11
56.9284068584
 21
172.7354761605
 31
0.0
 11
57.5506110774
 21
172.3059628937
 31
0.0
 11
58.3431329628
 21
171.9055416101
 31
0.0
  0
SPLINE
  5
17E3
330
1B
100
AcDbEntity
  8
0
  6
Continuous
100
AcDbSpline
210
0.0
220
0.0
230
1.0
 70
     8
 71
     3
 72
    10
 73
     6
 74
     4
 42
0.0000000001
 43
0.0000000001
 44
0.0000000001
 40
0.0
 40
0.0
 40
0.0
 40
0.0
 40
0.723028734635164
 40
1.431786914655008
 40
2.119288387249451
 40
2.119288387249451
 40
2.119288387249451
 40
2.119288387249451
 10
55.9252637971
 20
174.8520802898999
 30
0.0
 10
56.16666324666372
 20
174.8601519108549
 30
0.0
 10
56.64469759928824
 20
174.8761358416585
 30
0.0
 10
57.33319468833967
 20
175.0801367964071
 30
0.0
 10
57.72700516308105
 20
175.3309882217247
 30
0.0
 10
57.920912708
 20
175.4545044488
 30
0.0
 11
55.9252637971
 21
174.8520802898999
 31
0.0
 11
56.6461758224
 21
174.9073650336
 31
0.0
 11
57.3246930316
 21
175.1121882612
 31
0.0
 11
57.920912708
 21
175.4545044488
 31
0.0
  0
SPLINE
  5
17E4
330
1B
100
AcDbEntity
  8
0
  6
Continuous
100
AcDbSpline
210
0.0
220
0.0
230
1.0
 70
     8
 71
     3
 72
    13
 73
     9
 74
     7
 42
0.0000000001
 43
0.0000000001
 44
0.0000000001
 40
0.0
 40
0.0
 40
0.0
 40
0.0
 40
0.5316243888390556
 40
0.9900896082777941
 40
1.43006819444302
 40
1.905486852899791
 40
2.463117963979953
 40
3.13680672295408
 40
3.13680672295408
 40
3.13680672295408
 40
3.13680672295408
 10
57.920907152
 20
175.4545100045
 30
0.0
 10
57.88603779038914
 20
175.2792829933833
 30
0.0
 10
57.82109759331954
 20
174.9529427305237
 30
0.0
 10
57.91441280635016
 20
174.4732082946488
 30
0.0
 10
58.14612566605583
 20
174.0702006451512
 30
0.0
 10
58.50908050043275
 20
173.7314158183605
 30
0.0
 10
59.0038448392789
 20
173.4416055097181
 30
0.0
 10
59.39387157740805
 20
173.3109632187753
 30
0.0
 10
59.60726586719999
 20
173.2394852503
 30
0.0
 11
57.920907152
 21
175.4545100045
 31
0.0
 11
57.8536485108
 21
174.9271574033
 31
0.0
 11
57.93981079729999
 21
174.4768614808
 31
0.0
 11
58.1565887929
 21
174.0939927606
 31
0.0
 11
58.49833821029999
 21
173.763492781
 31
0.0
 11
58.976985719
 21
173.4774001064
 31
0.0
 11
59.60726586719999
 21
173.2394852503
 31
0.0
  0
SPLINE
  5
17E5
330
1B
100
AcDbEntity
  8
0
  6
Continuous
100
AcDbSpline
210
0.0
220
0.0
230
1.0
 70
     8
 71
     3
 72
    10
 73
     6
 74
     4
 42
0.0000000001
 43
0.0000000001
 44
0.0000000001
 40
0.0
 40
0.0
 40
0.0
 40
0.0
 40
0.0995329221911464
 40
0.1985219215381063
 40
0.3360697840132998
 40
0.3360697840132998
 40
0.3360697840132998
 40
0.3360697840132998
 10
55.8057599921
 20
175.1179190079
 30
0.0
 10
55.83946224746415
 20
175.1089255691776
 30
0.0
 10
55.9066825836883
 20
175.090987838655
 30
0.0
 10
55.9541835104879
 20
174.9748082856245
 30
0.0
 10
55.93589733678108
 20
174.8972043733759
 30
0.0
 10
55.9252637971
 20
174.8520771481
 30
0.0
 11
55.8057599921
 21
175.1179190079
 31
0.0
 11
55.8970228468
 21
175.0781962946
 31
0.0
 11
55.9396756534
 21
174.9888679112
 31
0.0
 11
55.9252637971
 21
174.8520771481
 31
0.0
  0
SPLINE
  5
17E6
330
1B
100
AcDbEntity
  8
0
  6
Continuous
100
AcDbSpline
210
0.0
220
0.0
230
1.0
 70
     8
 71
     3
 72
    10
 73
     6
 74
     4
 42
0.0000000001
 43
0.0000000001
 44
0.0000000001
 40
0.0
 40
0.0
 40
0.0
 40
0.0
 40
0.7773040065933494
 40
1.556682574543082
 40
2.338314266028454
 40
2.338314266028454
 40
2.338314266028454
 40
2.338314266028454
 10
55.80575999229999
 20
175.117901829
 30
0.0
 10
56.06492672437094
 20
175.1401478294768
 30
0.0
 10
56.58395188350305
 20
175.1846992032016
 30
0.0
 10
57.31739986897794
 20
175.4972288802584
 30
0.0
 10
57.71116064301062
 20
175.8403730639483
 30
0.0
 10
57.9083252023
 20
176.0121927987
 30
0.0
 11
55.80575999229999
 21
175.117901829
 31
0.0
 11
56.5755936903
 21
175.2254080897
 31
0.0
 11
57.2927937992
 21
175.5304571939
 31
0.0
 11
57.9083252023
 21
176.0121927987
 31
0.0
  0
SPLINE
  5
17E7
330
1B
100
AcDbEntity
  8
0
  6
Continuous
100
AcDbSpline
210
0.0
220
0.0
230
1.0
 70
     8
 71
     3
 72
    10
 73
     6
 74
     4
 42
0.0000000001
 43
0.0000000001
 44
0.0000000001
 40
0.0
 40
0.0
 40
0.0
 40
0.0
 40
0.0981260515984001
 40
0.2854424305857595
 40
0.5884343377346675
 40
0.5884343377346675
 40
0.5884343377346675
 40
0.5884343377346675
 10
57.9083272272
 20
176.0121907739
 30
0.0
 10
57.93359652110219
 20
175.9892955913851
 30
0.0
 10
58.00710328666681
 20
175.9226949645454
 30
0.0
 10
57.97437260890371
 20
175.7050290029147
 30
0.0
 10
57.94132766984554
 20
175.5501928616948
 30
0.0
 10
57.920907152
 20
175.4545100045
 30
0.0
 11
57.9083272272
 21
176.0121907739
 31
0.0
 11
57.9735720065
 21
175.9388979313
 31
0.0
 11
57.97996437390001
 21
175.7516906572
 31
0.0
 11
57.920907152
 21
175.4545100045
 31
0.0
  0
SPLINE
  5
17E8
330
1B
100
AcDbEntity
  8
0
  6
Continuous
100
AcDbSpline
210
0.0
220
0.0
230
1.0
 70
     8
 71
     3
 72
    13
 73
     9
 74
     7
 42
0.0000000001
 43
0.0000000001
 44
0.0000000001
 40
0.0
 40
0.0
 40
0.0
 40
0.0
 40
0.970723468819746
 40
1.937307871869292
 40
2.828515937297102
 40
3.541171743709414
 40
4.004613218780009
 40
4.173264892108932
 40
4.173264892108932
 40
4.173264892108932
 40
4.173264892108932
 10
104.7018617311
 20
175.8822391942
 30
0.0
 10
105.0177455426171
 20
175.9527095517797
 30
0.0
 10
105.6481662693276
 20
176.0933497885285
 30
0.0
 10
106.5533376891091
 20
176.3595156776302
 30
0.0
 10
107.3636120033602
 20
176.6388119311624
 30
0.0
 10
108.0048891807007
 20
176.8915238169414
 30
0.0
 10
108.4169975593484
 20
177.0679746577042
 30
0.0
 10
108.6091278127789
 20
177.1544614269475
 30
0.0
 10
108.6603909673
 20
177.1775373587
 30
0.0
 11
104.7018617311
 21
175.8822391942
 31
0.0
 11
105.6468893694
 21
176.1041103635
 31
0.0
 11
106.5750506951
 21
176.37392875
 31
0.0
 11
107.41740689
 21
176.6649405312
 31
0.0
 11
108.0805794045
 21
176.9258629611
 31
0.0
 11
108.5064890647
 21
177.1085620639
 31
0.0
 11
108.6603909673
 21
177.1775373587
 31
0.0
  0
SPLINE
  5
17E9
330
1B
100
AcDbEntity
  8
0
  6
Continuous
100
AcDbSpline
210
0.0
220
0.0
230
1.0
 70
     8
 71
     3
 72
    11
 73
     7
 74
     5
 42
0.0000000001
 43
0.0000000001
 44
0.0000000001
 40
0.0
 40
0.0
 40
0.0
 40
0.0
 40
1.508496441786729
 40
2.628305058898091
 40
3.374647885662341
 40
3.745168896017709
 40
3.745168896017709
 40
3.745168896017709
 40
3.745168896017709
 10
67.3033924332
 20
124.9993083806
 30
0.0
 10
66.84141288013015
 20
124.8005459603741
 30
0.0
 10
66.03649006904098
 20
124.4542353824188
 30
0.0
 10
65.02726831263252
 20
123.956595896419
 30
0.0
 10
64.36702055287185
 20
123.6101772454825
 30
0.0
 10
64.04108749234331
 20
123.4302593534339
 30
0.0
 10
63.9329587815
 20
123.370571362
 30
0.0
 11
67.3033924332
 21
124.9993083806
 31
0.0
 11
65.92368036560001
 21
124.389426322
 31
0.0
 11
64.91817873620001
 21
123.8965391014
 31
0.0
 11
64.2577583153
 21
123.5488719003
 31
0.0
 11
63.9329587815
 21
123.370571362
 31
0.0
  0
SPLINE
  5
17EA
330
1B
100
AcDbEntity
  8
0
  6
Continuous
100
AcDbSpline
210
0.0
220
0.0
230
1.0
 70
     8
 71
     3
 72
    10
 73
     6
 74
     4
 42
0.0000000001
 43
0.0000000001
 44
0.0000000001
 40
0.0
 40
0.0
 40
0.0
 40
0.0
 40
0.378078113494849
 40
0.7745841543419381
 40
1.188554575917654
 40
1.188554575917654
 40
1.188554575917654
 40
1.188554575917654
 10
67.3033924331
 20
124.9993128008
 30
0.0
 10
67.4225348153422
 20
124.9576640591322
 30
0.0
 10
67.66662670561932
 20
124.872336572053
 30
0.0
 10
68.01249646386695
 20
124.6736351688482
 30
0.0
 10
68.22300500972159
 20
124.5040033578897
 30
0.0
 10
68.3305273321
 20
124.4173598148
 30
0.0
 11
67.3033924331
 21
124.9993128008
 31
0.0
 11
67.6563673181
 21
124.8638440204
 31
0.0
 11
68.00134931229999
 21
124.6683843977
 31
0.0
 11
68.3305273321
 21
124.4173598148
 31
0.0
  0
SPLINE
  5
17EB
330
1B
100
AcDbEntity
  8
0
  6
Continuous
100
AcDbSpline
210
0.0
220
0.0
230
1.0
 70
     8
 71
     3
 72
    11
 73
     7
 74
     5
 42
0.0000000001
 43
0.0000000001
 44
0.0000000001
 40
0.0
 40
0.0
 40
0.0
 40
0.0
 40
1.37778471951232
 40
2.395136890127787
 40
3.0710914344408
 40
3.406071575397903
 40
3.406071575397903
 40
3.406071575397903
 40
3.406071575397903
 10
68.3305202422
 20
124.4173446122
 30
0.0
 10
67.89948472921788
 20
124.258523253368
 30
0.0
 10
67.15017386556995
 20
123.9824286719057
 30
0.0
 10
66.21123118869983
 20
123.5735541177418
 30
0.0
 10
65.59917844214735
 20
123.286187964525
 30
0.0
 10
65.29765750263789
 20
123.1357084264351
 30
0.0
 10
65.1977464715
 20
123.0858459995
 30
0.0
 11
68.3305202422
 21
124.4173446122
 31
0.0
 11
67.0430495639
 21
123.9267225725
 31
0.0
 11
66.10928479339999
 21
123.5228800383
 31
0.0
 11
65.4978679367
 21
123.2346371315
 31
0.0
 11
65.1977464715
 21
123.0858459995
 31
0.0
  0
SPLINE
  5
17EC
330
1B
100
AcDbEntity
  8
0
  6
Continuous
100
AcDbSpline
210
0.0
220
0.0
230
1.0
 70
     8
 71
     3
 72
    13
 73
     9
 74
     7
 42
0.0000000001
 43
0.0000000001
 44
0.0000000001
 40
0.0
 40
0.0
 40
0.0
 40
0.0
 40
1.151302637564039
 40
2.214975426519575
 40
3.160949831484177
 40
3.96523105839479
 40
4.630368967829584
 40
5.163530196645652
 40
5.163530196645652
 40
5.163530196645652
 40
5.163530196645652
 10
69.03544324070001
 20
129.8052461948
 30
0.0
 10
68.96924439372447
 20
129.4270968396414
 30
0.0
 10
68.8418853357925
 20
128.6995804578475
 30
0.0
 10
68.58061146555136
 20
127.6779580231309
 30
0.0
 10
68.29168719833189
 20
126.7843311648312
 30
0.0
 10
67.97951667340121
 20
126.0423055847188
 30
0.0
 10
67.67066670666654
 20
125.4462270659341
 30
0.0
 10
67.41648563861115
 20
125.1369261511166
 30
0.0
 10
67.3033924332
 20
124.9993083806
 30
0.0
 11
69.03544324070001
 21
129.8052461948
 31
0.0
 11
68.8217917053
 21
128.6739412913
 31
0.0
 11
68.55961211
 21
127.6430864704
 31
0.0
 11
68.2635562209
 21
126.7446330852
 31
0.0
 11
67.95053507350001
 21
126.0037646399
 31
0.0
 11
67.6289388422
 21
125.4215410552
 31
0.0
 11
67.3033924332
 21
124.9993083806
 31
0.0
  0
SPLINE
  5
17ED
330
1B
100
AcDbEntity
  8
0
  6
Continuous
100
AcDbSpline
210
0.0
220
0.0
230
1.0
 70
     8
 71
     3
 72
    12
 73
     8
 74
     6
 42
0.0000000001
 43
0.0000000001
 44
0.0000000001
 40
0.0
 40
0.0
 40
0.0
 40
0.0
 40
0.4201799435733009
 40
0.9640661402208498
 40
1.61300176863092
 40
2.334837511329681
 40
3.090180621994833
 40
3.090180621994833
 40
3.090180621994833
 40
3.090180621994833
 10
69.03541986800001
 20
129.8052563418
 30
0.0
 10
69.16830661973842
 20
129.8514923398911
 30
0.0
 10
69.47320365205613
 20
129.9575767946603
 30
0.0
 10
70.01679747191677
 20
129.9767865787699
 30
0.0
 10
70.65284959187414
 20
129.9351573050639
 30
0.0
 10
71.35369572327655
 20
129.8161162922495
 30
0.0
 10
71.82763141941125
 20
129.68191611742
 30
0.0
 10
72.0699744926
 20
129.6132939751
 30
0.0
 11
69.03541986800001
 21
129.8052563418
 31
0.0
 11
69.43787938479998
 21
129.9259937524
 31
0.0
 11
69.98020314110001
 21
129.9671900903
 31
0.0
 11
70.6278442376
 21
129.9262210783
 31
0.0
 11
71.33954689079999
 21
129.8056965046
 31
0.0
 11
72.0699744926
 21
129.6132939751
 31
0.0
  0
SPLINE
  5
17EE
330
1B
100
AcDbEntity
  8
0
  6
Continuous
100
AcDbSpline
210
0.0
220
0.0
230
1.0
 70
     8
 71
     3
 72
    13
 73
     9
 74
     7
 42
0.0000000001
 43
0.0000000001
 44
0.0000000001
 40
0.0
 40
0.0
 40
0.0
 40
0.0
 40
1.343300315436693
 40
2.622210980496322
 40
3.800227119335221
 40
4.849999478029341
 40
5.782509120667738
 40
6.626177514962033
 40
6.626177514962033
 40
6.626177514962033
 40
6.626177514962033
 10
72.0699697097
 20
129.6132837197
 30
0.0
 10
71.94500495220245
 20
129.1827247196501
 30
0.0
 10
71.70106548794452
 20
128.342245100381
 30
0.0
 10
71.16510477177683
 20
127.1894253014589
 30
0.0
 10
70.54478110826612
 20
126.1940702162319
 30
0.0
 10
69.85665794347645
 20
125.3932210254269
 30
0.0
 10
69.13017045536273
 20
124.7772724885095
 30
0.0
 10
68.58803137082755
 20
124.5332520829007
 30
0.0
 10
68.3305202422
 20
124.4173446122
 30
0.0
 11
72.0699697097
 21
129.6132837197
 31
0.0
 11
71.66204065540001
 21
128.3334205926
 31
0.0
 11
71.12700077789999
 21
127.1718075681
 31
0.0
 11
70.4966533698
 21
126.1766270978
 31
0.0
 11
69.80925615699999
 21
125.3832122776
 31
0.0
 11
69.08375797879999
 21
124.7973568116
 31
0.0
 11
68.3305202422
 21
124.4173446122
 31
0.0
  0
SPLINE
  5
17EF
330
1B
100
AcDbEntity
  8
0
  6
Continuous
100
AcDbSpline
210
0.0
220
0.0
230
1.0
 70
     8
 71
     3
 72
    10
 73
     6
 74
     4
 42
0.0000000001
 43
0.0000000001
 44
0.0000000001
 40
0.0
 40
0.0
 40
0.0
 40
0.0
 40
1.63791434130587
 40
3.264199336136992
 40
4.860586488589604
 40
4.860586488589604
 40
4.860586488589604
 40
4.860586488589604
 10
70.53759170230001
 20
134.4275237195
 30
0.0
 10
70.35935350277791
 20
133.9114546164722
 30
0.0
 10
70.00414261177959
 20
132.8829805497754
 30
0.0
 10
69.50603000547392
 20
131.3411309282823
 30
0.0
 10
69.19133230922431
 20
130.314031520665
 30
0.0
 10
69.03544324070001
 20
129.8052461948
 30
0.0
 11
70.53759170230001
 21
134.4275237195
 31
0.0
 11
70.0080880217
 21
132.8775594484
 31
0.0
 11
69.5069289833
 21
131.330419344
 31
0.0
 11
69.03544324070001
 21
129.8052461948
 31
0.0
  0
SPLINE
  5
17F0
330
1B
100
AcDbEntity
  8
0
  6
Continuous
100
AcDbSpline
210
0.0
220
0.0
230
1.0
 70
     8
 71
     3
 72
    12
 73
     8
 74
     6
 42
0.0000000001
 43
0.0000000001
 44
0.0000000001
 40
0.0
 40
0.0
 40
0.0
 40
0.0
 40
0.3504187200411387
 40
0.8315026981255325
 40
1.417257584198502
 40
2.075891285215195
 40
2.77160844034572
 40
2.77160844034572
 40
2.77160844034572
 40
2.77160844034572
 10
70.5375625093
 20
134.4273659673
 30
0.0
 10
70.65079650927871
 20
134.3986647907599
 30
0.0
 10
70.9194875669105
 20
134.3305602507694
 30
0.0
 10
71.37270100007038
 20
134.1969107088637
 30
0.0
 10
71.92262181907854
 20
134.028467540986
 30
0.0
 10
72.5386542173373
 20
133.8315808862655
 30
0.0
 10
72.9670202957937
 20
133.6890640953038
 30
0.0
 10
73.1870678766
 20
133.6158545751
 30
0.0
 11
70.5375625093
 21
134.4273659673
 31
0.0
 11
70.8767687374
 21
134.3394318205
 31
0.0
 11
71.3389960024
 21
134.2060610986
 31
0.0
 11
71.8990688416
 21
134.0345175142
 31
0.0
 11
72.5264832964
 21
133.8341442275
 31
0.0
 11
73.1870678766
 21
133.6158545751
 31
0.0
  0
SPLINE
  5
17F1
330
1B
100
AcDbEntity
  8
0
  6
Continuous
100
AcDbSpline
210
0.0
220
0.0
230
1.0
 70
     8
 71
     3
 72
     9
 73
     5
 74
     3
 42
0.0000000001
 43
0.0000000001
 44
0.0000000001
 40
0.0
 40
0.0
 40
0.0
 40
0.0
 40
2.098917764675764
 40
4.155342948296476
 40
4.155342948296476
 40
4.155342948296476
 40
4.155342948296476
 10
73.1869294442
 20
133.6153666037
 30
0.0
 10
72.98648281253315
 20
132.9449862506533
 30
0.0
 10
72.58964759038933
 20
131.6177973919037
 30
0.0
 10
72.24201069038779
 20
130.2768842129721
 30
0.0
 10
72.0699697097
 20
129.6132837197
 30
0.0
 11
73.1869294442
 21
133.6153666037
 31
0.0
 11
72.59814196719999
 21
131.6007239332
 31
0.0
 11
72.0699697097
 21
129.6132837197
 31
0.0
  0
SPLINE
  5
17F2
330
1B
100
AcDbEntity
  8
0
  6
Continuous
100
AcDbSpline
210
0.0
220
0.0
230
1.0
 70
     8
 71
     3
 72
    10
 73
     6
 74
     4
 42
0.0000000001
 43
0.0000000001
 44
0.0000000001
 40
0.0
 40
0.0
 40
0.0
 40
0.0
 40
0.5123808062495284
 40
1.069647243308595
 40
1.650666343504818
 40
1.650666343504818
 40
1.650666343504818
 40
1.650666343504818
 10
74.83400701950001
 20
133.5055639263
 30
0.0
 10
74.66372625708456
 20
133.5188015513872
 30
0.0
 10
74.3082477811452
 20
133.5464364452198
 30
0.0
 10
73.7592238222617
 20
133.5829286231493
 30
0.0
 10
73.38042135537211
 20
133.6047276307768
 30
0.0
 10
73.1870678766
 20
133.6158545751
 30
0.0
 11
74.83400701950001
 21
133.5055639263
 31
0.0
 11
74.323097228
 21
133.5443618072
 31
0.0
 11
73.76707615429999
 21
133.5815968374
 31
0.0
 11
73.1870678766
 21
133.6158545751
 31
0.0
  0
SPLINE
  5
17F3
330
1B
100
AcDbEntity
  8
0
  6
Continuous
100
AcDbSpline
210
0.0
220
0.0
230
1.0
 70
     8
 71
     3
 72
    10
 73
     6
 74
     4
 42
0.0000000001
 43
0.0000000001
 44
0.0000000001
 40
0.0
 40
0.0
 40
0.0
 40
0.0
 40
2.736478403421829
 40
5.674650358671603
 40
8.928711753215215
 40
8.928711753215215
 40
8.928711753215215
 40
8.928711753215215
 10
72.2735531224
 20
143.1742615621
 30
0.0
 10
72.16854552747091
 20
142.2678634520371
 30
0.0
 10
71.95079069867987
 20
140.3882606918122
 30
0.0
 10
71.35883079090304
 20
137.467584042138
 30
0.0
 10
70.82049229837926
 20
135.4747642726185
 30
0.0
 10
70.53759170230001
 20
134.4275237195
 30
0.0
 11
72.2735531224
 21
143.1742615621
 31
0.0
 11
71.9216800088
 21
140.4605004517
 31
0.0
 11
71.3509997573
 21
137.5782828178
 31
0.0
 11
70.53759170230001
 21
134.4275237195
 31
0.0
  0
SPLINE
  5
17F4
330
1B
100
AcDbEntity
  8
0
  6
Continuous
100
AcDbSpline
210
0.0
220
0.0
230
1.0
 70
     8
 71
     3
 72
    13
 73
     9
 74
     7
 42
0.0000000001
 43
0.0000000001
 44
0.0000000001
 40
0.0
 40
0.0
 40
0.0
 40
0.0
 40
0.4648669985614265
 40
1.073751969343118
 40
1.785406931474607
 40
2.552527372959445
 40
3.323784883637993
 40
4.047704845926854
 40
4.047704845926854
 40
4.047704845926854
 40
4.047704845926854
 10
72.27359653089999
 20
143.1745911095
 30
0.0
 10
72.42853626221336
 20
143.1717730663415
 30
0.0
 10
72.78641677888165
 20
143.1652639370625
 30
0.0
 10
73.38079922315541
 20
143.133501300782
 30
0.0
 10
74.07521846461589
 20
143.0884319916069
 30
0.0
 10
74.82292201284602
 20
143.0293410661453
 30
0.0
 10
75.57405857082645
 20
142.9622522886618
 30
0.0
 10
76.06967379275267
 20
142.9096374872567
 30
0.0
 10
76.30963577670001
 20
142.8841629829
 30
0.0
 11
72.27359653089999
 21
143.1745911095
 31
0.0
 11
72.73833772
 21
143.1637766051
 31
0.0
 11
73.3465069958
 21
143.1342632248
 31
0.0
 11
74.056658497
 21
143.0880287088
 31
0.0
 11
74.82143855140001
 21
143.028151834
 31
0.0
 11
75.58955779759999
 21
142.9586466443
 31
0.0
 11
76.30963577670001
 21
142.8841629829
 31
0.0
  0
SPLINE
  5
17F5
330
1B
100
AcDbEntity
  8
0
  6
Continuous
100
AcDbSpline
210
0.0
220
0.0
230
1.0
 70
     8
 71
     3
 72
    10
 73
     6
 74
     4
 42
0.0000000001
 43
0.0000000001
 44
0.0000000001
 40
0.0
 40
0.0
 40
0.0
 40
0.0
 40
2.96915254452107
 40
6.117367238372523
 40
9.503684839418117
 40
9.503684839418117
 40
9.503684839418117
 40
9.503684839418117
 10
76.309635911
 20
142.8841629828
 30
0.0
 10
76.22033490562143
 20
141.8982766188234
 30
0.0
 10
76.03634737501622
 20
139.8670475548679
 30
0.0
 10
75.53527956783717
 20
136.7361862393456
 30
0.0
 10
75.07318553297863
 20
134.6074177372344
 30
0.0
 10
74.8337197085
 20
133.5042498406
 30
0.0
 11
76.309635911
 21
142.8841629828
 31
0.0
 11
76.0090954384
 21
139.9302600973
 31
0.0
 11
75.5205435558
 21
136.8201840827
 31
0.0
 11
74.8337197085
 21
133.5042498406
 31
0.0
  0
SPLINE
  5
17F6
330
1B
100
AcDbEntity
  8
0
  6
Continuous
100
AcDbSpline
210
0.0
220
0.0
230
1.0
 70
     8
 71
     3
 72
    14
 73
    10
 74
     8
 42
0.0000000001
 43
0.0000000001
 44
0.0000000001
 40
0.0
 40
0.0
 40
0.0
 40
0.0
 40
0.3988052818276688
 40
0.9361559027189794
 40
1.582966888388011
 40
2.300703598708375
 40
3.048161537197784
 40
3.775079526405226
 40
4.420378503375164
 40
4.420378503375164
 40
4.420378503375164
 40
4.420378503375164
 10
70.5375625093
 20
134.4273659673
 30
0.0
 10
70.67051533085154
 20
134.4337121832459
 30
0.0
 10
70.98260891223093
 20
134.4486092966703
 30
0.0
 10
71.50867794036256
 20
134.3893055055077
 30
0.0
 10
72.13422399774866
 20
134.288062803608
 30
0.0
 10
72.82281659447168
 20
134.139004166405
 30
0.0
 10
73.528570919768
 20
133.9495058197455
 30
0.0
 10
74.20531775398251
 20
133.7448352212873
 30
0.0
 10
74.63292184778258
 20
133.5820944352152
 30
0.0
 10
74.83400701950001
 20
133.5055639263
 30
0.0
 11
70.5375625093
 21
134.4273659673
 31
0.0
 11
70.9362431396
 21
134.4373363152
 31
0.0
 11
71.4714657406
 21
134.3895612469
 31
0.0
 11
72.1100165102
 21
134.2865206441
 31
0.0
 11
72.81168990720001
 21
134.1355225339
 31
0.0
 11
73.5341672938
 21
133.943898434
 31
0.0
 11
74.2284289397
 21
133.7284674008
 31
0.0
 11
74.83400701950001
 21
133.5055639263
 31
0.0
  0
SPLINE
  5
17F7
330
1B
100
AcDbEntity
  8
0
  6
Continuous
100
AcDbSpline
210
0.0
220
0.0
230
1.0
 70
     8
 71
     3
 72
     9
 73
     5
 74
     3
 42
0.0000000001
 43
0.0000000001
 44
0.0000000001
 40
0.0
 40
0.0
 40
0.0
 40
0.0
 40
0.1723138767028289
 40
0.3421704473148506
 40
0.3421704473148506
 40
0.3421704473148506
 40
0.3421704473148506
 10
72.0501395709
 20
143.4334266591
 30
0.0
 10
72.08777056134582
 20
143.3900326069952
 30
0.0
 10
72.1624959002456
 20
143.3038633297228
 30
0.0
 10
72.23671170927842
 20
143.2172548242189
 30
0.0
 10
72.2735531224
 20
143.1742615621
 30
0.0
 11
72.0501395709
 21
143.4334266591
 31
0.0
 11
72.16290332360001
 21
143.3031331129
 31
0.0
 11
72.2735531224
 21
143.1742615621
 31
0.0
  0
SPLINE
  5
17F8
330
1B
100
AcDbEntity
  8
0
  6
Continuous
100
AcDbSpline
210
0.0
220
0.0
230
1.0
 70
     8
 71
     3
 72
    12
 73
     8
 74
     6
 42
0.0000000001
 43
0.0000000001
 44
0.0000000001
 40
0.0
 40
0.0
 40
0.0
 40
0.0
 40
0.8413913014578404
 40
1.720278483034881
 40
2.608206941384108
 40
3.474451075356617
 40
4.293832121288977
 40
4.293832121288977
 40
4.293832121288977
 40
4.293832121288977
 10
72.05014013189999
 20
143.4334266028
 30
0.0
 10
72.16764740042791
 20
143.689621004079
 30
0.0
 10
72.40789854790054
 20
144.2134268899144
 30
0.0
 10
73.00527452569089
 20
144.8638986013052
 30
0.0
 10
73.72480387542294
 20
145.3717788496053
 30
0.0
 10
74.52852233049993
 20
145.7111385140697
 30
0.0
 10
75.09207105769478
 20
145.7513617344725
 30
0.0
 10
75.36601164130001
 20
145.7709142096
 30
0.0
 11
72.05014013189999
 21
143.4334266028
 31
0.0
 11
72.4394436147
 21
144.1793368658
 31
0.0
 11
73.0225410188
 21
144.8369386414
 31
0.0
 11
73.74827238529998
 21
145.3485350945
 31
0.0
 11
74.552963315
 21
145.6692396428
 31
0.0
 11
75.36601164130001
 21
145.7709142096
 31
0.0
  0
SPLINE
  5
17F9
330
1B
100
AcDbEntity
  8
0
  6
Continuous
100
AcDbSpline
210
0.0
220
0.0
230
1.0
 70
     8
 71
     3
 72
     9
 73
     5
 74
     3
 42
0.0000000001
 43
0.0000000001
 44
0.0000000001
 40
0.0
 40
0.0
 40
0.0
 40
0.0
 40
0.1849724185485172
 40
0.3657840488799462
 40
0.3657840488799462
 40
0.3657840488799462
 40
0.3657840488799462
 10
75.3660116742
 20
145.7709143288
 30
0.0
 10
75.40399489712839
 20
145.7223454994351
 30
0.0
 10
75.47910694454214
 20
145.6263003528458
 30
0.0
 10
75.55375486103424
 20
145.5298940402825
 30
0.0
 10
75.5906542598
 20
145.4822391942
 30
0.0
 11
75.3660116742
 21
145.7709143288
 31
0.0
 11
75.47984265549999
 21
145.6251154834
 31
0.0
 11
75.5906542598
 21
145.4822391942
 31
0.0
  0
SPLINE
  5
17FA
330
1B
100
AcDbEntity
  8
0
  6
Continuous
100
AcDbSpline
210
0.0
220
0.0
230
1.0
 70
     8
 71
     3
 72
    13
 73
     9
 74
     7
 42
0.0000000001
 43
0.0000000001
 44
0.0000000001
 40
0.0
 40
0.0
 40
0.0
 40
0.0
 40
0.6957729196857182
 40
1.419800674464665
 40
2.156921960061188
 40
2.889682116914382
 40
3.601378761685504
 40
4.279109801730308
 40
4.279109801730308
 40
4.279109801730308
 40
4.279109801730308
 10
72.27359653089999
 20
143.1745911095
 30
0.0
 10
72.36924104806933
 20
143.3868280733402
 30
0.0
 10
72.56441413708116
 20
143.8199207906346
 30
0.0
 10
73.02603427755349
 20
144.3808590638454
 30
0.0
 10
73.5848354934773
 20
144.8582333906882
 30
0.0
 10
74.22289274318118
 20
145.2143870965254
 30
0.0
 10
74.89968568103822
 20
145.4463825860202
 30
0.0
 10
75.36411584825598
 20
145.4704833787414
 30
0.0
 10
75.5906542595
 20
145.4822391941
 30
0.0
 11
72.27359653089999
 21
143.1745911095
 31
0.0
 11
72.58663180480001
 21
143.7959677047
 31
0.0
 11
73.03782954880001
 21
144.3622156941
 31
0.0
 11
73.59990790400001
 21
144.8390969291
 31
0.0
 11
74.238880806
 21
145.1977765605
 31
0.0
 11
74.9161125346
 21
145.4165670995
 31
0.0
 11
75.5906542595
 21
145.4822391941
 31
0.0
  0
SPLINE
  5
17FB
330
1B
100
AcDbEntity
  8
0
  6
Continuous
100
AcDbSpline
210
0.0
220
0.0
230
1.0
 70
     8
 71
     3
 72
    13
 73
     9
 74
     7
 42
0.0000000001
 43
0.0000000001
 44
0.0000000001
 40
0.0
 40
0.0
 40
0.0
 40
0.0
 40
0.9415032311812073
 40
1.853301859902341
 40
2.637988801560088
 40
3.277896970165425
 40
3.794661891571213
 40
4.212756128417238
 40
4.212756128417238
 40
4.212756128417238
 40
4.212756128417238
 10
70.90739900849999
 20
147.4174641796
 30
0.0
 10
70.92355916609095
 20
147.1038405669069
 30
0.0
 10
70.95536962528826
 20
146.4864882249675
 30
0.0
 10
71.09878662764412
 20
145.6171423470274
 30
0.0
 10
71.29535453279853
 20
144.862010439685
 30
0.0
 10
71.52906377074277
 20
144.257682592261
 30
0.0
 10
71.77181135672316
 20
143.7892441205916
 30
0.0
 10
71.96412964423098
 20
143.5433825752149
 30
0.0
 10
72.0501395709
 20
143.4334266591
 30
0.0
 11
70.90739900849999
 21
147.4174641796
 31
0.0
 11
70.97367299760001
 21
146.4782964136
 31
0.0
 11
71.1202847502
 21
145.5783621197
 31
0.0
 11
71.32320359950001
 21
144.8203663829
 31
0.0
 11
71.5558413063
 21
144.2242437767
 31
0.0
 11
71.80175264979999
 21
143.7697400967
 31
0.0
 11
72.0501395709
 21
143.4334266591
 31
0.0
  0
SPLINE
  5
17FC
330
1B
100
AcDbEntity
  8
0
  6
Continuous
100
AcDbSpline
210
0.0
220
0.0
230
1.0
 70
     8
 71
     3
 72
    13
 73
     9
 74
     7
 42
0.0000000001
 43
0.0000000001
 44
0.0000000001
 40
0.0
 40
0.0
 40
0.0
 40
0.0
 40
0.4669065241257069
 40
1.074262275964089
 40
1.782075514655806
 40
2.543728635371211
 40
3.309054557933798
 40
4.027644093649583
 40
4.027644093649583
 40
4.027644093649583
 40
4.027644093649583
 10
70.9074583303
 20
147.417466139
 30
0.0
 10
71.06309201128855
 20
147.4183702981189
 30
0.0
 10
71.42117523291093
 20
147.4204505946725
 30
0.0
 10
72.01513325588257
 20
147.4298836409842
 30
0.0
 10
72.70727917828509
 20
147.4431769528917
 30
0.0
 10
73.45201023350712
 20
147.4605097376218
 30
0.0
 10
74.20027772971697
 20
147.4801482232929
 30
0.0
 10
74.69467792219999
 20
147.4955208895602
 30
0.0
 10
74.9340923732
 20
147.5029651392
 30
0.0
 11
70.9074583303
 21
147.417466139
 31
0.0
 11
71.3743525209
 21
147.4208598177
 31
0.0
 11
71.98164447839999
 21
147.4296625245
 31
0.0
 11
72.68932643700001
 21
147.443294338
 31
0.0
 11
73.450777041
 21
147.4608571955
 31
0.0
 11
74.21583271199999
 21
147.481194059
 31
0.0
 11
74.9340923732
 21
147.5029651392
 31
0.0
  0
SPLINE
  5
17FD
330
1B
100
AcDbEntity
  8
0
  6
Continuous
100
AcDbSpline
210
0.0
220
0.0
230
1.0
 70
     8
 71
     3
 72
    13
 73
     9
 74
     7
 42
0.0000000001
 43
0.0000000001
 44
0.0000000001
 40
0.0
 40
0.0
 40
0.0
 40
0.0
 40
0.407844492003544
 40
0.8015020544519953
 40
1.138685144357182
 40
1.411626632469884
 40
1.629787318691619
 40
1.803944308301658
 40
1.803944308301658
 40
1.803944308301658
 40
1.803944308301658
 10
74.93407753530001
 20
147.5029651363
 30
0.0
 10
74.94375307895226
 20
147.3673165250903
 30
0.0
 10
74.96276760107344
 20
147.100737859202
 30
0.0
 10
75.01975688731604
 20
146.7250976853014
 30
0.0
 10
75.09249961425779
 20
146.3980712807252
 30
0.0
 10
75.17686538674941
 20
146.1349994407747
 30
0.0
 10
75.26374516233283
 20
145.9299702111168
 30
0.0
 10
75.33457085445774
 20
145.8198144744445
 30
0.0
 10
75.3660116742
 20
145.7709143288
 30
0.0
 11
74.93407753530001
 21
147.5029651363
 31
0.0
 11
74.96856738099999
 21
147.096581598
 31
0.0
 11
75.0273373074
 21
146.707335696
 31
0.0
 11
75.1026312326
 21
146.378666773
 31
0.0
 11
75.1868047266
 21
146.1190287965
 31
0.0
 11
75.2755498484
 21
145.9197340691
 31
0.0
 11
75.3660116742
 21
145.7709143288
 31
0.0
  0
SPLINE
  5
17FE
330
1B
100
AcDbEntity
  8
0
  6
Continuous
100
AcDbSpline
210
0.0
220
0.0
230
1.0
 70
     8
 71
     3
 72
    18
 73
    14
 74
    12
 42
0.0000000001
 43
0.0000000001
 44
0.0000000001
 40
0.0
 40
0.0
 40
0.0
 40
0.0
 40
2.248764577170789
 40
4.498915777915187
 40
6.652657345340361
 40
8.68049352707002
 40
10.69624127955417
 40
12.89851244156432
 40
15.38213801385681
 40
18.11133702927023
 40
20.93147234093143
 40
23.68731798228777
 40
26.25012583243188
 40
26.25012583243188
 40
26.25012583243188
 40
26.25012583243188
 10
100.6594168305
 20
172.418137579
 30
0.0
 10
100.254106675883
 20
171.7871506064946
 30
0.0
 10
99.4432364460389
 20
170.5247875850018
 30
0.0
 10
98.44110649729291
 20
168.5415203682439
 30
0.0
 10
97.67148774253579
 20
166.5360430179853
 30
0.0
 10
97.16465215029368
 20
164.5281215902199
 30
0.0
 10
96.90234174519802
 20
162.4577631180881
 30
0.0
 10
96.89300709587792
 20
160.2184624563259
 30
0.0
 10
97.17229874748247
 20
157.7574800347196
 30
0.0
 10
97.74208607032281
 20
155.1373585366426
 30
0.0
 10
98.54063944760668
 20
152.4847085225591
 30
0.0
 10
99.46066430312231
 20
149.9312719336463
 30
0.0
 10
100.1376641842627
 20
148.2925755211044
 30
0.0
 10
100.4638784437
 20
147.5029651363
 30
0.0
 11
100.6594168305
 21
172.418137579
 31
0.0
 11
99.476758692
 21
170.5054792585
 31
0.0
 11
98.4621974041
 21
168.4970356274
 31
0.0
 11
97.69843842050001
 21
166.4832643012
 31
0.0
 11
97.2041232935
 21
164.5165990691
 31
0.0
 11
96.94928990880001
 21
162.5170243774
 31
0.0
 11
96.933824989
 21
160.3148075154
 31
0.0
 11
97.2024130824
 21
157.8457476904
 31
0.0
 11
97.76948717809999
 21
155.1761120906
 31
0.0
 11
98.57091267580002
 21
152.4722481244
 31
0.0
 11
99.50282780530002
 21
149.8787525315
 31
0.0
 11
100.4638784437
 21
147.5029651363
 31
0.0
  0
SPLINE
  5
17FF
330
1B
100
AcDbEntity
  8
0
  6
Continuous
100
AcDbSpline
210
0.0
220
0.0
230
1.0
 70
     8
 71
     3
 72
    11
 73
     7
 74
     5
 42
0.0000000001
 43
0.0000000001
 44
0.0000000001
 40
0.0
 40
0.0
 40
0.0
 40
0.0
 40
0.6096168315106634
 40
1.257204854450811
 40
1.926069162201999
 40
2.596963837056819
 40
2.596963837056819
 40
2.596963837056819
 40
2.596963837056819
 10
100.6595068736
 20
172.4181375823
 30
0.0
 10
100.7529813433127
 20
172.2371024212888
 30
0.0
 10
100.9457525251694
 20
171.8637559658021
 30
0.0
 10
101.3586030300793
 20
171.367016996934
 30
0.0
 10
101.8437967458609
 20
170.9119468798396
 30
0.0
 10
102.2211528251077
 20
170.6714011313215
 30
0.0
 10
102.410116801
 20
170.5509459869
 30
0.0
 11
100.6595068736
 21
172.4181375823
 31
0.0
 11
100.9579666339
 21
171.8865790693
 31
0.0
 11
101.3635332665
 21
171.3817167574
 31
0.0
 11
101.8558293455
 21
170.9289209615
 31
0.0
 11
102.410116801
 21
170.5509459869
 31
0.0
  0
SPLINE
  5
1800
330
1B
100
AcDbEntity
  8
0
  6
Continuous
100
AcDbSpline
210
0.0
220
0.0
230
1.0
 70
     8
 71
     3
 72
    18
 73
    14
 74
    12
 42
0.0000000001
 43
0.0000000001
 44
0.0000000001
 40
0.0
 40
0.0
 40
0.0
 40
0.0
 40
1.986274262411057
 40
3.935334074965287
 40
5.767883346429729
 40
7.475405967804372
 40
9.174260384554724
 40
11.05438972867693
 40
13.22106232730301
 40
15.66123797897364
 40
18.2390944613693
 40
20.80114383463853
 40
23.21246406294074
 40
23.21246406294074
 40
23.21246406294074
 40
23.21246406294074
 10
102.4100693844
 20
170.5508942877
 30
0.0
 10
101.9882514239112
 20
170.0399462379644
 30
0.0
 10
101.1525186025387
 20
169.0276231621867
 30
0.0
 10
100.123960429022
 20
167.3959232913581
 30
0.0
 10
99.35868952244479
 20
165.7269314279443
 30
0.0
 10
98.89126501152285
 20
164.0361099685536
 30
0.0
 10
98.70640274929649
 20
162.2758886898405
 30
0.0
 10
98.81956959027932
 20
160.3559096125209
 30
0.0
 10
99.27155762713045
 20
158.2341997878391
 30
0.0
 10
100.0569573859039
 20
155.9668218487698
 30
0.0
 10
101.0982945246715
 20
153.6622931344615
 30
0.0
 10
102.2708090007116
 20
151.4334879753984
 30
0.0
 10
103.1148816737275
 20
150.0064794285135
 30
0.0
 10
103.5241272504
 20
149.3145995059
 30
0.0
 11
102.4100693844
 21
170.5508942877
 31
0.0
 11
101.1787429421
 21
168.9923306419
 31
0.0
 11
100.1422703174
 21
167.3417069261
 31
0.0
 11
99.38887485879999
 21
165.6711884092
 31
0.0
 11
98.93692837259999
 21
164.024562199
 31
0.0
 11
98.75682357949999
 21
162.3352817034
 31
0.0
 11
98.8575835315
 21
160.457854266
 31
0.0
 11
99.2928942164
 21
158.3353616848
 31
0.0
 11
100.0752061154
 21
156.0239886505
 31
0.0
 11
101.1236044779
 21
153.6689504517999
 31
0.0
 11
102.3132770002
 21
151.3998589418
 31
0.0
 11
103.5241272504
 21
149.3145995059
 31
0.0
  0
SPLINE
  5
1801
330
1B
100
AcDbEntity
  8
0
  6
Continuous
100
AcDbSpline
210
0.0
220
0.0
230
1.0
 70
     8
 71
     3
 72
     9
 73
     5
 74
     3
 42
0.0000000001
 43
0.0000000001
 44
0.0000000001
 40
0.0
 40
0.0
 40
0.0
 40
0.0
 40
1.411790148951222
 40
2.956938758850758
 40
2.956938758850758
 40
2.956938758850758
 40
2.956938758850758
 10
104.7018617311
 20
175.8822391942
 30
0.0
 10
104.2527785621918
 20
175.7415618723499
 30
0.0
 10
103.3121915853817
 20
175.4469187727511
 30
0.0
 10
102.3680002052673
 20
175.1640348232338
 30
0.0
 10
101.8746129161
 20
175.0162137904
 30
0.0
 11
104.7018617311
 21
175.8822391942
 31
0.0
 11
103.3537905703
 21
175.4628878259
 31
0.0
 11
101.8746129161
 21
175.0162137904
 31
0.0
  0
SPLINE
  5
1802
330
1B
100
AcDbEntity
  8
0
  6
Continuous
100
AcDbSpline
210
0.0
220
0.0
230
1.0
 70
     8
 71
     3
 72
    14
 73
    10
 74
     8
 42
0.0000000001
 43
0.0000000001
 44
0.0000000001
 40
0.0
 40
0.0
 40
0.0
 40
0.0
 40
0.5550244709888966
 40
1.203280892180241
 40
1.939903977676895
 40
2.739184916396793
 40
3.564032669519899
 40
4.373265391594033
 40
5.128167786172889
 40
5.128167786172889
 40
5.128167786172889
 40
5.128167786172889
 10
104.7018579027
 20
175.8822467283
 30
0.0
 10
104.5869373243045
 20
175.7351714063571
 30
0.0
 10
104.3377920283229
 20
175.4163153308946
 30
0.0
 10
104.1709491124231
 20
174.776520191774
 30
0.0
 10
104.1226368784695
 20
174.0491219880518
 30
0.0
 10
104.2158826826838
 20
173.2623852474657
 30
0.0
 10
104.4402162524731
 20
172.4810529132244
 30
0.0
 10
104.7689475354001
 20
171.7488234803528
 30
0.0
 10
105.0859498770778
 20
171.3330896589412
 30
0.0
 10
105.2389455002
 20
171.1324430179
 30
0.0
 11
104.7018579027
 21
175.8822467283
 31
0.0
 11
104.3880859996
 21
175.4244265057
 31
0.0
 11
104.1979352378
 21
174.8046853699
 31
0.0
 11
104.1457915128
 21
174.0699101648
 31
0.0
 11
104.2355993832
 21
173.2756906955
 31
0.0
 11
104.4605638696
 21
172.4821134808
 31
0.0
 11
104.8036649421
 21
171.7492156349
 31
0.0
 11
105.2389455002
 21
171.1324430179
 31
0.0
  0
SPLINE
  5
1803
330
1B
100
AcDbEntity
  8
0
  6
Continuous
100
AcDbSpline
210
0.0
220
0.0
230
1.0
 70
     8
 71
     3
 72
     9
 73
     5
 74
     3
 42
0.0000000001
 43
0.0000000001
 44
0.0000000001
 40
0.0
 40
0.0
 40
0.0
 40
0.0
 40
1.375981447302795
 40
2.888058949566524
 40
2.888058949566524
 40
2.888058949566524
 40
2.888058949566524
 10
105.2389454432
 20
171.1324428617
 30
0.0
 10
104.790273884823
 20
171.0372187834289
 30
0.0
 10
103.848553404415
 20
170.8373521703984
 30
0.0
 10
102.9043948099504
 20
170.6493336257788
 30
0.0
 10
102.4100693844
 20
170.5508942877
 30
0.0
 11
105.2389454432
 21
171.1324428617
 31
0.0
 11
103.8923773325
 21
170.8494600591
 31
0.0
 11
102.4100693844
 21
170.5508942877
 31
0.0
  0
SPLINE
  5
1804
330
1B
100
AcDbEntity
  8
0
  6
Continuous
100
AcDbSpline
210
0.0
220
0.0
230
1.0
 70
     8
 71
     3
 72
    14
 73
    10
 74
     8
 42
0.0000000001
 43
0.0000000001
 44
0.0000000001
 40
0.0
 40
0.0
 40
0.0
 40
0.0
 40
0.4205274621784638
 40
0.9545337220584235
 40
1.627261354795327
 40
2.380394346795246
 40
3.169605320935641
 40
3.952952212198284
 40
4.687801560615291
 40
4.687801560615291
 40
4.687801560615291
 40
4.687801560615291
 10
101.8746129161
 20
175.0162137904
 30
0.0
 10
101.8034551530651
 20
174.8944926824541
 30
0.0
 10
101.6419377956701
 20
174.6182041812972
 30
0.0
 10
101.5382284074471
 20
174.0771290681461
 30
0.0
 10
101.5135260079206
 20
173.424008538401
 30
0.0
 10
101.5961772760893
 20
172.6869872391413
 30
0.0
 10
101.7782569852331
 20
171.9324648624695
 30
0.0
 10
102.0394360464129
 20
171.205398180174
 30
0.0
 10
102.2892162242792
 20
170.7644009521872
 30
0.0
 10
102.410116801
 20
170.5509459869
 30
0.0
 11
101.8746129161
 21
175.0162137904
 31
0.0
 11
101.6806812414
 21
174.6430732646
 31
0.0
 11
101.5591515785
 21
174.1230797775
 31
0.0
 11
101.5303829849
 21
173.4509675578
 31
0.0
 11
101.6099008791
 21
172.7020441918
 31
0.0
 11
101.7925395651
 21
171.934257065
 31
0.0
 11
102.0656734845
 21
171.2000702944
 31
0.0
 11
102.410116801
 21
170.5509459869
 31
0.0
  0
SPLINE
  5
1805
330
1B
100
AcDbEntity
  8
0
  6
Continuous
100
AcDbSpline
210
0.0
220
0.0
230
1.0
 70
     8
 71
     3
 72
    15
 73
    11
 74
     9
 42
0.0000000001
 43
0.0000000001
 44
0.0000000001
 40
0.0
 40
0.0
 40
0.0
 40
0.0
 40
1.719762670846094
 40
3.33724785865803
 40
4.894224846151419
 40
6.422859040135096
 40
7.951456757969114
 40
9.50834802839487
 40
11.12538001376157
 40
12.84483636323411
 40
12.84483636323411
 40
12.84483636323411
 40
12.84483636323411
 10
39.3580993866
 20
130.1651663128
 30
0.0
 10
39.11452616180551
 20
129.6457615618289
 30
0.0
 10
38.64186546469202
 20
128.6378420259882
 30
0.0
 10
38.13390528892433
 20
127.0829561213284
 30
0.0
 10
37.81752474857086
 20
125.543733308471
 30
0.0
 10
37.71168547119324
 20
124.0043782285604
 30
0.0
 10
37.81764188984482
 20
122.4650605666428
 30
0.0
 10
38.13408324126176
 20
120.9260473835387
 30
0.0
 10
38.64201014658518
 20
119.3714510304133
 30
0.0
 10
39.11456741237705
 20
118.3637631281683
 30
0.0
 10
39.3580993866
 20
117.8444520478
 30
0.0
 11
39.3580993866
 21
130.1651663128
 31
0.0
 11
38.6609185561
 21
128.5930586404
 31
0.0
 11
38.1577210411
 21
127.0558369278
 31
0.0
 11
37.8504478585
 21
125.5294816183
 31
0.0
 11
37.7467681149
 21
124.004367521
 31
0.0
 11
37.8505616041
 21
122.4792977211
 31
0.0
 11
38.1579164425
 21
120.9530462899
 31
0.0
 11
38.6610292321
 21
119.4162737099
 31
0.0
 11
39.3580993866
 21
117.8444520478
 31
0.0
  0
SPLINE
  5
1806
330
1B
100
AcDbEntity
  8
0
  6
Continuous
100
AcDbSpline
210
0.0
220
0.0
230
1.0
 70
     8
 71
     3
 72
    15
 73
    11
 74
     9
 42
0.0000000001
 43
0.0000000001
 44
0.0000000001
 40
0.0
 40
0.0
 40
0.0
 40
0.0
 40
1.719762670846068
 40
3.337247858658018
 40
4.894224846151392
 40
6.422859040135098
 40
7.951456757969101
 40
9.508348028394858
 40
11.12538001376154
 40
12.8448363632341
 40
12.8448363632341
 40
12.8448363632341
 40
12.8448363632341
 10
39.3580993866
 20
174.8520771481
 30
0.0
 10
39.1145261618055
 20
174.3326723971289
 30
0.0
 10
38.64186546469202
 20
173.3247528612882
 30
0.0
 10
38.13390528892433
 20
171.7698669566283
 30
0.0
 10
37.81752474857086
 20
170.230644143771
 30
0.0
 10
37.71168547119324
 20
168.6912890638604
 30
0.0
 10
37.81764188984482
 20
167.1519714019428
 30
0.0
 10
38.13408324126178
 20
165.6129582188388
 30
0.0
 10
38.64201014658519
 20
164.0583618657134
 30
0.0
 10
39.11456741237706
 20
163.0506739634684
 30
0.0
 10
39.3580993866
 20
162.5313628831
 30
0.0
 11
39.3580993866
 21
174.8520771481
 31
0.0
 11
38.6609185561
 21
173.2799694757
 31
0.0
 11
38.1577210411
 21
171.7427477631
 31
0.0
 11
37.8504478585
 21
170.2163924536
 31
0.0
 11
37.7467681149
 21
168.6912783563
 31
0.0
 11
37.8505616041
 21
167.1662085564
 31
0.0
 11
38.1579164425
 21
165.6399571252
 31
0.0
 11
38.6610292321
 21
164.1031845452
 31
0.0
 11
39.3580993866
 21
162.5313628831
 31
0.0
  0
SPLINE
  5
1807
330
1B
100
AcDbEntity
  8
0
  6
Continuous
100
AcDbSpline
210
0.0
220
0.0
230
1.0
 70
     8
 71
     3
 72
    11
 73
     7
 74
     5
 42
0.0000000001
 43
0.0000000001
 44
0.0000000001
 40
0.0
 40
0.0
 40
0.0
 40
0.0
 40
0.901225112817879
 40
1.800955839461247
 40
2.699245593353226
 40
3.596658912008628
 40
3.596658912008628
 40
3.596658912008628
 40
3.596658912008628
 10
100.2596364088
 20
126.4132645979
 30
0.0
 10
100.3907936275334
 20
126.6863362955943
 30
0.0
 10
100.6528905837833
 20
127.2320268911619
 30
0.0
 10
101.3307207997626
 20
127.8505320026547
 30
0.0
 10
102.1462705974817
 20
128.2688855118917
 30
0.0
 10
102.7476174157931
 20
128.3218135134837
 30
0.0
 10
103.0481440742
 20
128.3482645979
 30
0.0
 11
100.2596364088
 21
126.4132645979
 31
0.0
 11
100.7007260361
 21
127.1991695824
 31
0.0
 11
101.3542462297
 21
127.8175761938
 31
0.0
 11
102.1610564438
 21
128.2125214563
 31
0.0
 11
103.0481440742
 21
128.3482645979
 31
0.0
  0
SPLINE
  5
1808
330
1B
100
AcDbEntity
  8
0
  6
Continuous
100
AcDbSpline
210
0.0
220
0.0
230
1.0
 70
     8
 71
     3
 72
    16
 73
    12
 74
    10
 42
0.0000000001
 43
0.0000000001
 44
0.0000000001
 40
0.0
 40
0.0
 40
0.0
 40
0.0
 40
0.5795524525176653
 40
1.19850527972786
 40
1.810823145850696
 40
2.365488432713334
 40
2.809396285295931
 40
3.112257691641177
 40
3.298932337279839
 40
3.399687822553858
 40
3.44949719810875
 40
3.44949719810875
 40
3.44949719810875
 40
3.44949719810875
 10
100.4595546235
 20
129.8132645979
 30
0.0
 10
100.4290727805534
 20
129.6225002434447
 30
0.0
 10
100.3660368128018
 20
129.2280025840779
 30
0.0
 10
100.2841427313581
 20
128.6298508908549
 30
0.0
 10
100.2159085509941
 20
128.0386601879021
 30
0.0
 10
100.1691087793112
 20
127.5028539840395
 30
0.0
 10
100.1500298222501
 20
127.0713422448465
 30
0.0
 10
100.1503992132439
 20
126.7555992139426
 30
0.0
 10
100.1764342786835
 20
126.5676650537935
 30
0.0
 10
100.1983933015114
 20
126.4452898295031
 30
0.0
 10
100.2444124908645
 20
126.4212254855717
 30
0.0
 10
100.2596364088
 20
126.4132645979
 30
0.0
 11
100.4595546235
 21
129.8132645979
 31
0.0
 11
100.3701747342
 21
129.2406458062
 31
0.0
 11
100.2860263954
 21
128.6274397565
 31
0.0
 11
100.2166469832
 21
128.0190651463
 31
0.0
 11
100.1703251692
 21
127.4663374828
 31
0.0
 11
100.1519349139
 21
127.0228107304
 31
0.0
 11
100.1586351385
 21
126.7200234479
 31
0.0
 11
100.1827708182
 21
126.5349156623
 31
0.0
 11
100.2179280475
 21
126.4404930112
 31
0.0
 11
100.2596364088
 21
126.4132645979
 31
0.0
  0
SPLINE
  5
1809
330
1B
100
AcDbEntity
  8
0
  6
Continuous
100
AcDbSpline
210
0.0
220
0.0
230
1.0
 70
     8
 71
     3
 72
    16
 73
    12
 74
    10
 42
0.0000000001
 43
0.0000000001
 44
0.0000000001
 40
0.0
 40
0.0
 40
0.0
 40
0.0
 40
0.1985842066951996
 40
0.4043750325132183
 40
0.6010431546257458
 40
0.7723936704099463
 40
0.9045762554415668
 40
0.994023677152213
 40
1.055449262638008
 40
1.105264389102161
 40
1.154971669499455
 40
1.154971669499455
 40
1.154971669499455
 40
1.154971669499455
 10
103.2833419739
 20
129.3482645979
 30
0.0
 10
103.2476826480832
 20
129.2924805986515
 30
0.0
 10
103.1750699198279
 20
129.1788881993101
 30
0.0
 10
103.0785549601825
 20
129.0031223752289
 30
0.0
 10
102.9979614765238
 20
128.8294603564914
 30
0.0
 10
102.9428126190629
 20
128.6716697016786
 30
0.0
 10
102.9180653524077
 20
128.5423791797921
 30
0.0
 10
102.9219753310692
 20
128.4466876242281
 30
0.0
 10
102.9511038704884
 20
128.3837320526505
 30
0.0
 10
102.9979131663405
 20
128.3519993439931
 30
0.0
 10
103.0314125386225
 20
128.3495086135826
 30
0.0
 10
103.0481440742
 20
128.3482645979
 30
0.0
 11
103.2833419739
 21
129.3482645979
 31
0.0
 11
103.1782158229
 21
129.1797885476
 31
0.0
 11
103.0792078272
 21
128.9993798982
 31
0.0
 11
102.9975795241
 21
128.8204520625
 31
0.0
 11
102.9430676635
 21
128.6580037436
 31
0.0
 11
102.9214276734
 21
128.5276045618
 31
0.0
 11
102.929326871
 21
128.4385066161
 31
0.0
 11
102.9577306714
 21
128.3840426218
 31
0.0
 11
102.9990856963
 21
128.3562701761
 31
0.0
 11
103.0481440742
 21
128.3482645979
 31
0.0
  0
SPLINE
  5
180A
330
1B
100
AcDbEntity
  8
0
  6
Continuous
100
AcDbSpline
210
0.0
220
0.0
230
1.0
 70
     8
 71
     3
 72
    10
 73
     6
 74
     4
 42
0.0000000001
 43
0.0000000001
 44
0.0000000001
 40
0.0
 40
0.0
 40
0.0
 40
0.0
 40
0.8849168686736686
 40
1.766232492841641
 40
2.646408052677504
 40
2.646408052677504
 40
2.646408052677504
 40
2.646408052677504
 10
100.6750593956
 20
132.4482645979
 30
0.0
 10
100.6702325036787
 20
132.1532846339902
 30
0.0
 10
100.6605983632835
 20
131.5645251522372
 30
0.0
 10
100.5884844587203
 20
130.6844699456685
 30
0.0
 10
100.5025126878203
 20
130.1035410517685
 30
0.0
 10
100.4595546235
 20
129.8132645979
 30
0.0
 11
100.6750593956
 21
132.4482645979
 31
0.0
 11
100.6509156306
 21
131.5636771556
 31
0.0
 11
100.5789481974
 21
130.6853048439
 31
0.0
 11
100.4595546235
 21
129.8132645979
 31
0.0
  0
SPLINE
  5
180B
330
1B
100
AcDbEntity
  8
0
  6
Continuous
100
AcDbSpline
210
0.0
220
0.0
230
1.0
 70
     8
 71
     3
 72
    10
 73
     6
 74
     4
 42
0.0000000001
 43
0.0000000001
 44
0.0000000001
 40
0.0
 40
0.0
 40
0.0
 40
0.0
 40
1.040958269073963
 40
2.077988721575525
 40
3.113421258478069
 40
3.113421258478069
 40
3.113421258478069
 40
3.113421258478069
 10
103.5368769999
 20
132.4482645979
 30
0.0
 10
103.5311996126377
 20
132.1012694927501
 30
0.0
 10
103.5198662604279
 20
131.4085885886588
 30
0.0
 10
103.4350276190302
 20
130.3732291270158
 30
0.0
 10
103.3338778593631
 20
129.6897437800779
 30
0.0
 10
103.2833419739
 20
129.3482645979
 30
0.0
 11
103.5368769999
 21
132.4482645979
 31
0.0
 11
103.5084793819
 21
131.4076937482
 31
0.0
 11
103.4237977137
 21
130.3741265397
 31
0.0
 11
103.2833419739
 21
129.3482645979
 31
0.0
  0
SPLINE
  5
180C
330
1B
100
AcDbEntity
  8
0
  6
Continuous
100
AcDbSpline
210
0.0
220
0.0
230
1.0
 70
     8
 71
     3
 72
     9
 73
     5
 74
     3
 42
0.0000000001
 43
0.0000000001
 44
0.0000000001
 40
0.0
 40
0.0
 40
0.0
 40
0.0
 40
0.8552888499316266
 40
1.564902446572619
 40
1.564902446572619
 40
1.564902446572619
 40
1.564902446572619
 10
99.92930250080001
 20
142.8841629828
 30
0.0
 10
100.0647856395303
 20
142.6333157524731
 30
0.0
 10
100.3126760396978
 20
142.1743463125161
 30
0.0
 10
100.5620014300113
 20
141.7161549066876
 30
0.0
 10
100.6750593956
 20
141.5083855009
 30
0.0
 11
99.92930250080001
 21
142.8841629828
 31
0.0
 11
100.3361805642
 21
142.1318536991
 31
0.0
 11
100.6750593956
 21
141.5083855009
 31
0.0
  0
SPLINE
  5
180D
330
1B
100
AcDbEntity
  8
0
  6
Continuous
100
AcDbSpline
210
0.0
220
0.0
230
1.0
 70
     8
 71
     3
 72
    13
 73
     9
 74
     7
 42
0.0000000001
 43
0.0000000001
 44
0.0000000001
 40
0.0
 40
0.0
 40
0.0
 40
0.0
 40
0.7405607281554232
 40
1.531172511900027
 40
2.351131663411146
 40
3.175944407125837
 40
3.979637018775339
 40
4.741065580033338
 40
4.741065580033338
 40
4.741065580033338
 40
4.741065580033338
 10
99.92930250080001
 20
142.8841629829
 30
0.0
 10
100.0139153085518
 20
143.1174555540638
 30
0.0
 10
100.1888595102337
 20
143.5998078563338
 30
0.0
 10
100.6784883789331
 20
144.2262225146845
 30
0.0
 10
101.2971744156814
 20
144.7589497434529
 30
0.0
 10
102.0200463125306
 20
145.1480532550368
 30
0.0
 10
102.7910052224459
 20
145.3874903480434
 30
0.0
 10
103.3152588220932
 20
145.3868520152336
 30
0.0
 10
103.5703072305
 20
145.3865414675
 30
0.0
 11
99.92930250080001
 21
142.8841629829
 31
0.0
 11
100.2168085834
 21
143.5666367513
 31
0.0
 11
100.690147188
 21
144.1998962226
 31
0.0
 11
101.312780394
 21
144.7334324453
 31
0.0
 11
102.0377077584
 21
145.1268741545
 31
0.0
 11
102.8097459437
 21
145.3502098983
 31
0.0
 11
103.5703072305
 21
145.3865414675
 31
0.0
  0
SPLINE
  5
180E
330
1B
100
AcDbEntity
  8
0
  6
Continuous
100
AcDbSpline
210
0.0
220
0.0
230
1.0
 70
     8
 71
     3
 72
     9
 73
     5
 74
     3
 42
0.0000000001
 43
0.0000000001
 44
0.0000000001
 40
0.0
 40
0.0
 40
0.0
 40
0.0
 40
0.8396942996359021
 40
1.536465327439083
 40
1.536465327439083
 40
1.536465327439083
 40
1.536465327439083
 10
103.5703659425
 20
145.386333217
 30
0.0
 10
103.7401617427008
 20
145.1638192913964
 30
0.0
 10
104.0508526213531
 20
144.756665245322
 30
0.0
 10
104.3627939197253
 20
144.3504685087701
 30
0.0
 10
104.5042560505
 20
144.1662625182
 30
0.0
 11
103.5703659425
 21
145.386333217
 31
0.0
 11
104.0801268105
 21
144.7190773633
 31
0.0
 11
104.5042560505
 21
144.1662625182
 31
0.0
  0
SPLINE
  5
180F
330
1B
100
AcDbEntity
  8
0
  6
Continuous
100
AcDbSpline
210
0.0
220
0.0
230
1.0
 70
     8
 71
     3
 72
    14
 73
    10
 74
     8
 42
0.0000000001
 43
0.0000000001
 44
0.0000000001
 40
0.0
 40
0.0
 40
0.0
 40
0.0
 40
0.7073452790306247
 40
1.441142827354007
 40
2.194036071271777
 40
2.954918386091436
 40
3.711929986897494
 40
4.453327803544704
 40
5.170917588732876
 40
5.170917588732876
 40
5.170917588732876
 40
5.170917588732876
 10
100.6750593956
 20
141.5084104207
 30
0.0
 10
100.7260909080046
 20
141.7398472056054
 30
0.0
 10
100.8300623350446
 20
142.2113757114707
 30
0.0
 10
101.2053242258094
 20
142.8518372385046
 30
0.0
 10
101.7138891162504
 20
143.4078190799312
 30
0.0
 10
102.3416828525226
 20
143.8435774300087
 30
0.0
 10
103.0436799613274
 20
144.1278088390975
 30
0.0
 10
103.7811995287308
 20
144.26000121383
 30
0.0
 10
104.2658735435289
 20
144.197166969777
 30
0.0
 10
104.5042560505
 20
144.1662625182
 30
0.0
 11
100.6750593956
 21
141.5084104207
 31
0.0
 11
100.862487395
 21
142.1904720666
 31
0.0
 11
101.2220637408
 21
142.8301311113
 31
0.0
 11
101.7308764266
 21
143.3850706463
 31
0.0
 11
102.3558164286
 21
143.8191119933
 31
0.0
 11
103.0569836434
 21
144.1044733443
 31
0.0
 11
103.7888907828
 21
144.2227216501
 31
0.0
 11
104.5042560505
 21
144.1662625182
 31
0.0
  0
SPLINE
  5
1810
330
1B
100
AcDbEntity
  8
0
  6
Continuous
100
AcDbSpline
210
0.0
220
0.0
230
1.0
 70
     8
 71
     3
 72
     9
 73
     5
 74
     3
 42
0.0000000001
 43
0.0000000001
 44
0.0000000001
 40
0.0
 40
0.0
 40
0.0
 40
0.0
 40
0.2023073327114869
 40
0.3894216887974262
 40
0.3894216887974262
 40
0.3894216887974262
 40
0.3894216887974262
 10
101.5557735793
 20
145.7709143288
 30
0.0
 10
101.5101057088187
 20
145.7212936655427
 30
0.0
 10
101.4221995562919
 20
145.6257787762606
 30
0.0
 10
101.3358834838542
 20
145.5288248616677
 30
0.0
 10
101.294409224
 20
145.4822391942
 30
0.0
 11
101.5557735793
 21
145.7709143288
 31
0.0
 11
101.4191991108
 21
145.6216639639
 31
0.0
 11
101.294409224
 21
145.4822391942
 31
0.0
  0
SPLINE
  5
1811
330
1B
100
AcDbEntity
  8
0
  6
Continuous
100
AcDbSpline
210
0.0
220
0.0
230
1.0
 70
     8
 71
     3
 72
    10
 73
     6
 74
     4
 42
0.0000000001
 43
0.0000000001
 44
0.0000000001
 40
0.0
 40
0.0
 40
0.0
 40
0.0
 40
0.7349467190801338
 40
1.502500549330206
 40
2.299472159717314
 40
2.299472159717314
 40
2.299472159717314
 40
2.299472159717314
 10
101.5557747933
 20
145.770911992
 30
0.0
 10
101.7933300251053
 20
145.8357466540652
 30
0.0
 10
102.2789800144411
 20
145.9682924738364
 30
0.0
 10
103.0613070143322
 20
145.9077796793774
 30
0.0
 10
103.5481321205614
 20
145.7168248596874
 30
0.0
 10
103.7961215612
 20
145.6195521876
 30
0.0
 11
101.5557747933
 21
145.770911992
 31
0.0
 11
102.2745492398
 21
145.9242416204
 31
0.0
 11
103.0403573128
 21
145.8725030694
 31
0.0
 11
103.7961215612
 21
145.6195521876
 31
0.0
  0
SPLINE
  5
1812
330
1B
100
AcDbEntity
  8
0
  6
Continuous
100
AcDbSpline
210
0.0
220
0.0
230
1.0
 70
     8
 71
     3
 72
     9
 73
     5
 74
     3
 42
0.0000000001
 43
0.0000000001
 44
0.0000000001
 40
0.0
 40
0.0
 40
0.0
 40
0.0
 40
0.1681219328040286
 40
0.3245967336705287
 40
0.3245967336705287
 40
0.3245967336705287
 40
0.3245967336705287
 10
103.7961211442
 20
145.6195510379
 30
0.0
 10
103.7566556751312
 20
145.5797602601359
 30
0.0
 10
103.6804588212237
 20
145.5029353255364
 30
0.0
 10
103.6061750894529
 20
145.4242595759798
 30
0.0
 10
103.5703659425
 20
145.386333217
 30
0.0
 11
103.7961211442
 21
145.6195510379
 31
0.0
 11
103.6782379565
 21
145.4996821998
 31
0.0
 11
103.5703659425
 21
145.386333217
 31
0.0
  0
SPLINE
  5
1813
330
1B
100
AcDbEntity
  8
0
  6
Continuous
100
AcDbSpline
210
0.0
220
0.0
230
1.0
 70
     8
 71
     3
 72
    10
 73
     6
 74
     4
 42
0.0000000001
 43
0.0000000001
 44
0.0000000001
 40
0.0
 40
0.0
 40
0.0
 40
0.0
 40
0.7511863090471322
 40
1.529926457104292
 40
2.33327087357104
 40
2.33327087357104
 40
2.33327087357104
 40
2.33327087357104
 10
101.294409224
 20
145.4822391942
 30
0.0
 10
101.5354666250558
 20
145.554471098683
 30
0.0
 10
102.0264235169937
 20
145.7015844051753
 30
0.0
 10
102.8217602323512
 20
145.6616826253901
 30
0.0
 10
103.318217960093
 20
145.4792011587726
 30
0.0
 10
103.5703072305
 20
145.3865414675
 30
0.0
 11
101.294409224
 21
145.4822391942
 31
0.0
 11
102.0249452535
 21
145.6571619786
 31
0.0
 11
102.8029978797
 21
145.6244460947
 31
0.0
 11
103.5703072305
 21
145.3865414675
 31
0.0
  0
SPLINE
  5
1814
330
1B
100
AcDbEntity
  8
0
  6
Continuous
100
AcDbSpline
210
0.0
220
0.0
230
1.0
 70
     8
 71
     3
 72
    13
 73
     9
 74
     7
 42
0.0000000001
 43
0.0000000001
 44
0.0000000001
 40
0.0
 40
0.0
 40
0.0
 40
0.0
 40
0.4994740160010572
 40
0.9356112985744458
 40
1.309856048211583
 40
1.626167053294446
 40
1.883594607152992
 40
2.08255944783443
 40
2.08255944783443
 40
2.08255944783443
 40
2.08255944783443
 10
100.4638784437
 20
147.5029651363
 30
0.0
 10
100.5819043624555
 20
147.385339866251
 30
0.0
 10
100.8029897033835
 20
147.1650050177302
 30
0.0
 10
101.0745380879052
 20
146.8221037459609
 30
0.0
 10
101.2829119664808
 20
146.5087438680132
 30
0.0
 10
101.4288995666653
 20
146.2286478579225
 30
0.0
 10
101.5276203093187
 20
145.9883121417349
 30
0.0
 10
101.5472263159519
 20
145.8369157687635
 30
0.0
 10
101.5557735793
 20
145.7709143288
 30
0.0
 11
100.4638784437
 21
147.5029651363
 31
0.0
 11
100.8102265382
 21
147.1430800295
 31
0.0
 11
101.0821186638
 21
146.8020662449
 31
0.0
 11
101.2873501432
 21
146.4891138963
 31
0.0
 11
101.4333919566
 21
146.2085351361
 31
0.0
 11
101.5227761907
 21
145.9671238601
 31
0.0
 11
101.5557735793
 21
145.7709143288
 31
0.0
  0
SPLINE
  5
1815
330
1B
100
AcDbEntity
  8
0
  6
Continuous
100
AcDbSpline
210
0.0
220
0.0
230
1.0
 70
     8
 71
     3
 72
    12
 73
     8
 74
     6
 42
0.0000000001
 43
0.0000000001
 44
0.0000000001
 40
0.0
 40
0.0
 40
0.0
 40
0.0
 40
0.6463910929510733
 40
1.365432544069119
 40
2.125856520362666
 40
2.891174101201837
 40
3.624314894034443
 40
3.624314894034443
 40
3.624314894034443
 40
3.624314894034443
 10
100.4638527619
 20
147.5029651367
 30
0.0
 10
100.6031491808055
 20
147.6680136427812
 30
0.0
 10
100.8973980739601
 20
148.0166610854994
 30
0.0
 10
101.4631954112501
 20
148.4513274395811
 30
0.0
 10
102.1079031166529
 20
148.8321515610036
 30
0.0
 10
102.8007936186823
 20
149.136355070493
 30
0.0
 10
103.2864812079105
 20
149.2560102157591
 30
0.0
 10
103.5241103543
 20
149.3145530953
 30
0.0
 11
100.4638527619
 21
147.5029651367
 31
0.0
 11
100.8972413825
 21
147.9825438566
 31
0.0
 11
101.4595385026
 21
148.4306984696
 31
0.0
 11
102.1139023127
 21
148.8180647404
 31
0.0
 11
102.8174586931
 21
149.1192613857
 31
0.0
 11
103.5241103543
 21
149.3145530953
 31
0.0
  0
SPLINE
  5
1816
330
1B
100
AcDbEntity
  8
0
  6
Continuous
100
AcDbSpline
210
0.0
220
0.0
230
1.0
 70
     8
 71
     3
 72
    13
 73
     9
 74
     7
 42
0.0000000001
 43
0.0000000001
 44
0.0000000001
 40
0.0
 40
0.0
 40
0.0
 40
0.0
 40
0.8811576115586975
 40
1.660531925480444
 40
2.340018369469558
 40
2.935935640888946
 40
3.46548991356139
 40
3.957896178166825
 40
3.957896178166825
 40
3.957896178166825
 40
3.957896178166825
 10
103.5241272504
 20
149.3145995059
 30
0.0
 10
103.6668202182446
 20
149.0572570568384
 30
0.0
 10
103.9357235625945
 20
148.572298013368
 30
0.0
 10
104.1852225782387
 20
147.8289572838056
 30
0.0
 10
104.2975251847952
 20
147.1489317006134
 30
0.0
 10
104.2691894998288
 20
146.5450671315864
 30
0.0
 10
104.1175420739862
 20
146.0145876947163
 30
0.0
 10
103.9006332605546
 20
145.747999789103
 30
0.0
 10
103.7961211442
 20
145.6195510379
 30
0.0
 11
103.5241272504
 21
149.3145995059
 31
0.0
 11
103.926341538
 21
148.5305954222
 31
0.0
 11
104.1742349035
 21
147.7916954286
 31
0.0
 11
104.2766244411
 21
147.1199676488
 31
0.0
 11
104.2435259513
 21
146.524970267
 31
0.0
 11
104.0815392682
 21
146.0207996191
 31
0.0
 11
103.7961211442
 21
145.6195510379
 31
0.0
  0
SPLINE
  5
1817
330
1B
100
AcDbEntity
  8
0
  6
Continuous
100
AcDbSpline
210
0.0
220
0.0
230
1.0
 70
     8
 71
     3
 72
    15
 73
    11
 74
     9
 42
0.0000000001
 43
0.0000000001
 44
0.0000000001
 40
0.0
 40
0.0
 40
0.0
 40
0.0
 40
3.220582438766715
 40
6.335933159609827
 40
9.404069227764403
 40
12.45605899310695
 40
15.50796408129014
 40
18.57590161667733
 40
21.69035218292788
 40
24.91035220633015
 40
24.91035220633015
 40
24.91035220633015
 40
24.91035220633015
 10
39.3580993866
 20
158.668978863
 30
0.0
 10
39.11338958692969
 20
157.6234498917779
 30
0.0
 10
38.63196581849904
 20
155.5665543444509
 30
0.0
 10
38.12966925308869
 20
152.4697979120555
 30
0.0
 10
37.81627559168207
 20
149.4054342285294
 30
0.0
 10
37.71207688371347
 20
146.3474087947262
 30
0.0
 10
37.81639133143361
 20
143.2894538607881
 30
0.0
 10
38.12984686063123
 20
140.2254935563386
 30
0.0
 10
38.6321147002632
 20
137.1293023348424
 30
0.0
 10
39.11343113704101
 20
135.0728895076293
 30
0.0
 10
39.3580993866
 20
134.0275503329
 30
0.0
 11
39.3580993866
 21
158.668978863
 31
0.0
 11
38.6609185561
 21
155.5247635182
 31
0.0
 11
38.1577210411
 21
152.450320093
 31
0.0
 11
37.8504478585
 21
149.3976094739
 31
0.0
 11
37.7467681149
 21
146.3473812794
 31
0.0
 11
37.8505616041
 21
143.2972416795
 31
0.0
 11
38.1579164425
 21
140.2447388172
 31
0.0
 11
38.6610292321
 21
137.1711936572
 31
0.0
 11
39.3580993866
 21
134.0275503329
 31
0.0
  0
SPLINE
  5
1818
330
1B
100
AcDbEntity
  8
0
  6
Continuous
100
AcDbSpline
210
0.0
220
0.0
230
1.0
 70
     8
 71
     3
 72
    13
 73
     9
 74
     7
 42
0.0000000001
 43
0.0000000001
 44
0.0000000001
 40
0.0
 40
0.0
 40
0.0
 40
0.0
 40
1.275981795043112
 40
2.548443653956443
 40
3.718313604681515
 40
4.649002309530915
 40
5.250877619249105
 40
5.469121613407397
 40
5.469121613407397
 40
5.469121613407397
 40
5.469121613407397
 10
105.2389454432
 20
171.1324428617
 30
0.0
 10
105.6532106718287
 20
171.2295409275393
 30
0.0
 10
106.480598332887
 20
171.4234692035232
 30
0.0
 10
107.6596589420372
 20
171.8104351665054
 30
0.0
 10
108.7044608148199
 20
172.2275588204299
 30
0.0
 10
109.519210781969
 20
172.6129139655412
 30
0.0
 10
110.035466428913
 20
172.8853860893286
 30
0.0
 10
110.2734514713758
 20
173.0199144969093
 30
0.0
 10
110.3367822648
 20
173.0557141871
 30
0.0
 11
105.2389454432
 21
171.1324428617
 31
0.0
 11
106.4769059049
 21
171.4416085722
 31
0.0
 11
107.6873223379
 21
171.8341021914
 31
0.0
 11
108.7731627711
 21
172.2694712937
 31
0.0
 11
109.6146021602
 21
172.6671661765
 31
0.0
 11
110.1465178707
 21
172.9488034705
 31
0.0
 11
110.3367822648
 21
173.0557141871
 31
0.0
  0
HATCH
  5
2A58
330
1B
100
AcDbEntity
  8
0
100
AcDbHatch
 10
0.0
 20
0.0
 30
0.0
210
0.0
220
0.0
230
1.0
  2
SOLID
 70
     1
 71
     0
 91
        4
 92
        7
 72
     0
 73
     1
 93
        4
 10
175.2845038394
 20
166.8482645979
 10
169.3948729248
 20
169.3482645979
 10
169.3948729247999
 20
146.3482645979
 10
175.2845038394
 20
146.3482645979
 97
        0
 92
        7
 72
     0
 73
     1
 93
        4
 10
169.3948729248
 20
169.3482645979
 10
167.2845038394
 20
169.3482645979
 10
167.2845038394
 20
146.3482645979
 10
169.3948729248
 20
146.3482645979
 97
        0
 92
        7
 72
     0
 73
     1
 93
        4
 10
175.2845038394
 20
146.3482645979
 10
169.3948729248
 20
146.3482645979
 10
169.3948729248
 20
123.3482645979
 10
175.2845038394
 20
125.8482645979
 97
        0
 92
        7
 72
     0
 73
     1
 93
        4
 10
169.3948729248
 20
146.3482645979
 10
167.2845038394
 20
146.3482645979
 10
167.2845038394
 20
123.3482645979
 10
169.3948729248
 20
123.3482645979
 97
        0
 75
     0
 76
     1
 47
0.18043386055308
 98
        4
 10
170.9678039086707
 20
160.9632826103283
 10
168.3565950351526
 20
159.4266503029369
 10
171.4266059274668
 20
132.9028726496102
 10
167.814828043146
 20
134.8876450659163
  0
ENDSEC
  0
SECTION
  2
OBJECTS
  0
DICTIONARY
  5
1C9C
330
0
100
AcDbDictionary
281
     1
  3
ACAD_COLOR
350
2A4B
  3
ACAD_GROUP
350
1C9D
  3
ACAD_LAYOUT
350
2A4C
  3
ACAD_MATERIAL
350
2A4A
  3
ACAD_MLINESTYLE
350
1C9E
  3
ACAD_PLOTSETTINGS
350
2A4D
  3
ACAD_PLOTSTYLENAME
350
2A48
  3
ACDBHEADERROUNDTRIPXREC
350
2BBF
  3
AcDbVariableDictionary
350
2BBC
  0
DICTIONARY
  5
2A4B
102
{ACAD_REACTORS
330
1C9C
102
}
330
1C9C
100
AcDbDictionary
281
     1
  0
DICTIONARY
  5
1C9D
102
{ACAD_REACTORS
330
1C9C
102
}
330
1C9C
100
AcDbDictionary
281
     1
  0
DICTIONARY
  5
2A4C
102
{ACAD_REACTORS
330
1C9C
102
}
330
1C9C
100
AcDbDictionary
281
     1
  3
Layout1
350
2A4F
  3
Model
350
2A4E
  0
DICTIONARY
  5
2A4A
102
{ACAD_REACTORS
330
1C9C
102
}
330
1C9C
100
AcDbDictionary
281
     1
  0
DICTIONARY
  5
1C9E
102
{ACAD_REACTORS
330
1C9C
102
}
330
1C9C
100
AcDbDictionary
281
     1
  3
STANDARD
350
1C9F
  0
DICTIONARY
  5
2A4D
102
{ACAD_REACTORS
330
1C9C
102
}
330
1C9C
100
AcDbDictionary
281
     1
  0
ACDBDICTIONARYWDFLT
  5
2A48
102
{ACAD_REACTORS
330
1C9C
102
}
330
1C9C
100
AcDbDictionary
281
     1
  3
Normal
350
2A49
100
AcDbDictionaryWithDefault
340
2A49
  0
DICTIONARY
  5
2BBF
102
{ACAD_REACTORS
330
1C9C
102
}
330
1C9C
100
AcDbDictionary
281
     1
  3
COLORDICT
350
2BC0
  3
MATERIALDICT
350
2BC1
  0
DICTIONARY
  5
2BBC
102
{ACAD_REACTORS
330
1C9C
102
}
330
1C9C
100
AcDbDictionary
281
     1
  3
DIMASSOC
350
2BBD
  3
HIDETEXT
350
2BBE
  0
LAYOUT
  5
2A4F
102
{ACAD_REACTORS
330
2A4C
102
}
330
2A4C
100
AcDbPlotSettings
  1

  2
\\alderaan\HP LaserJet 4050 Ricerca
  4

  6

 40
0.0
 41
0.0
 42
0.0
 43
0.0
 44
0.0
 45
0.0
 46
0.0
 47
0.0
 48
0.0
 49
0.0
140
0.0
141
0.0
142
1.0
143
1.0
 70
   688
 72
     0
 73
     0
 74
     5
  7

 75
    16
147
1.0
148
0.0
149
0.0
100
AcDbLayout
  1
Layout1
 70
     0
 71
     1
 10
0.0
 20
0.0
 11
12.0
 21
9.0
 12
0.0
 22
0.0
 32
0.0
 14
1.000000000000000E+20
 24
1.000000000000000E+20
 34
1.000000000000000E+20
 15
-1.000000000000000E+20
 25
-1.000000000000000E+20
 35
-1.000000000000000E+20
146
0.0
 13
0.0
 23
0.0
 33
0.0
 16
1.0
 26
0.0
 36
0.0
 17
0.0
 27
1.0
 37
0.0
 76
     0
330
1C
  0
LAYOUT
  5
2A4E
102
{ACAD_REACTORS
330
2A4C
102
}
330
2A4C
100
AcDbPlotSettings
  1

  2
\\alderaan\HP LaserJet 4050 Ricerca
  4
A4
  6

 40
5.027083396911621
 41
5.069430828094482
 42
5.365737915039062
 43
5.365753173828125
 44
209.8886566162109
 45
297.0530090332031
 46
11.176
 47
16.764
 48
-9.816660864835285
 49
59.3627811968372
140
239.0846402111586
141
233.7977305349036
142
1.0
143
25.0
 70
 11940
 72
     0
 73
     1
 74
     4
  7

 75
     0
147
0.04
148
249.3431859668163
149
-1507.814642399665
100
AcDbLayout
  1
Model
 70
     1
 71
     0
 10
0.0
 20
0.0
 11
12.0
 21
9.0
 12
0.0
 22
0.0
 32
0.0
 14
0.0
 24
0.0
 34
0.0
 15
0.0
 25
0.0
 35
0.0
146
0.0
 13
0.0
 23
0.0
 33
0.0
 16
1.0
 26
0.0
 36
0.0
 17
0.0
 27
1.0
 37
0.0
 76
     0
330
1B
  0
MLINESTYLE
  5
1C9F
102
{ACAD_REACTORS
330
1C9E
102
}
330
1C9E
100
AcDbMlineStyle
  2
STANDARD
 70
     0
  3

 62
   256
 51
90.00000000000019
 52
90.00000000000019
 71
     2
 49
0.5
 62
   256
  6
BYLAYER
 49
-0.5
 62
   256
  6
BYLAYER
  0
ACDBPLACEHOLDER
  5
2A49
102
{ACAD_REACTORS
330
2A48
102
}
330
2A48
  0
XRECORD
  5
2BC0
102
{ACAD_REACTORS
330
2BBF
102
}
330
2BBF
100
AcDbXrecord
280
     1
340
2A4B
  0
XRECORD
  5
2BC1
102
{ACAD_REACTORS
330
2BBF
102
}
330
2BBF
100
AcDbXrecord
280
     1
340
2A4A
  0
DICTIONARYVAR
  5
2BBD
102
{ACAD_REACTORS
330
2BBC
102
}
330
2BBC
100
DictionaryVariables
280
     0
  1
1
  0
DICTIONARYVAR
  5
2BBE
102
{ACAD_REACTORS
330
2BBC
102
}
330
2BBC
100
DictionaryVariables
280
     0
  1
0
  0
ENDSEC
  0
EOF
