  0
SECTION
  2
HEADER
  9
$ACADVER
  1
AC1015
  9
$ACADMAINTVER
 70
     6
  9
$DWGCODEPAGE
  3
ANSI_1252
  9
$INSBASE
 10
0.0
 20
0.0
 30
0.0
  9
$EXTMIN
 10
80.46286980856489
 20
-370.773169833776
 30
-18.8
  9
$EXTMAX
 10
1760.060663696097
 20
334.946701594559
 30
1.038894055499999
  9
$LIMMIN
 10
0.0
 20
0.0
  9
$LIMMAX
 10
420.0
 20
297.0
  9
$ORTHOMODE
 70
     0
  9
$REGENMODE
 70
     1
  9
$FILLMODE
 70
     1
  9
$QTEXTMODE
 70
     0
  9
$MIRRTEXT
 70
     1
  9
$LTSCALE
 40
23.1
  9
$ATTMODE
 70
     1
  9
$TEXTSIZE
 40
35.06651165617814
  9
$TRACEWID
 40
0.05
  9
$TEXTSTYLE
  7
STANDARD
  9
$CLAYER
  8
0
  9
$CELTYPE
  6
BYLAYER
  9
$CECOLOR
 62
   256
  9
$CELTSCALE
 40
1.0
  9
$DISPSILH
 70
     0
  9
$DIMSCALE
 40
1.0
  9
$DIMASZ
 40
0.18
  9
$DIMEXO
 40
0.0625
  9
$DIMDLI
 40
0.38
  9
$DIMRND
 40
0.0
  9
$DIMDLE
 40
0.0
  9
$DIMEXE
 40
0.18
  9
$DIMTP
 40
0.003
  9
$DIMTM
 40
0.003
  9
$DIMTXT
 40
1.5
  9
$DIMCEN
 40
0.09
  9
$DIMTSZ
 40
0.0
  9
$DIMTOL
 70
     1
  9
$DIMLIM
 70
     0
  9
$DIMTIH
 70
     1
  9
$DIMTOH
 70
     1
  9
$DIMSE1
 70
     0
  9
$DIMSE2
 70
     0
  9
$DIMTAD
 70
     0
  9
$DIMZIN
 70
     0
  9
$DIMBLK
  1

  9
$DIMASO
 70
     1
  9
$DIMSHO
 70
     1
  9
$DIMPOST
  1

  9
$DIMAPOST
  1

  9
$DIMALT
 70
     0
  9
$DIMALTD
 70
     2
  9
$DIMALTF
 40
25.4
  9
$DIMLFAC
 40
1.0
  9
$DIMTOFL
 70
     0
  9
$DIMTVP
 40
0.0
  9
$DIMTIX
 70
     0
  9
$DIMSOXD
 70
     0
  9
$DIMSAH
 70
     0
  9
$DIMBLK1
  1

  9
$DIMBLK2
  1

  9
$DIMSTYLE
  2
STANDARD
  9
$DIMCLRD
 70
     0
  9
$DIMCLRE
 70
     0
  9
$DIMCLRT
 70
     0
  9
$DIMTFAC
 40
1.0
  9
$DIMGAP
 40
0.09
  9
$DIMJUST
 70
     0
  9
$DIMSD1
 70
     0
  9
$DIMSD2
 70
     0
  9
$DIMTOLJ
 70
     1
  9
$DIMTZIN
 70
     0
  9
$DIMALTZ
 70
     0
  9
$DIMALTTZ
 70
     0
  9
$DIMUPT
 70
     0
  9
$DIMDEC
 70
     4
  9
$DIMTDEC
 70
     4
  9
$DIMALTU
 70
     2
  9
$DIMALTTD
 70
     2
  9
$DIMTXSTY
  7
STANDARD
  9
$DIMAUNIT
 70
     0
  9
$DIMADEC
 70
     0
  9
$DIMALTRND
 40
0.0
  9
$DIMAZIN
 70
     0
  9
$DIMDSEP
 70
    46
  9
$DIMATFIT
 70
     0
  9
$DIMFRAC
 70
     0
  9
$DIMLDRBLK
  1

  9
$DIMLUNIT
 70
     2
  9
$DIMLWD
 70
    -2
  9
$DIMLWE
 70
    -2
  9
$DIMTMOVE
 70
     0
  9
$LUNITS
 70
     2
  9
$LUPREC
 70
     4
  9
$SKETCHINC
 40
0.1
  9
$FILLETRAD
 40
0.0
  9
$AUNITS
 70
     0
  9
$AUPREC
 70
     0
  9
$MENU
  1
acad
  9
$ELEVATION
 40
0.0
  9
$PELEVATION
 40
0.0
  9
$THICKNESS
 40
0.0
  9
$LIMCHECK
 70
     0
  9
$CHAMFERA
 40
0.0
  9
$CHAMFERB
 40
0.0
  9
$CHAMFERC
 40
0.0
  9
$CHAMFERD
 40
0.0
  9
$SKPOLY
 70
     0
  9
$TDCREATE
 40
2444972.041666667
  9
$TDUCREATE
 40
2444972.0
  9
$TDUPDATE
 40
2453410.427404665
  9
$TDUUPDATE
 40
2453410.385737998
  9
$TDINDWG
 40
2.3157147685
  9
$TDUSRTIMER
 40
2.3157147685
  9
$USRTIMER
 70
     1
  9
$ANGBASE
 50
0.0
  9
$ANGDIR
 70
     0
  9
$PDMODE
 70
     0
  9
$PDSIZE
 40
0.0
  9
$PLINEWID
 40
0.0
  9
$SPLFRAME
 70
     0
  9
$SPLINETYPE
 70
     6
  9
$SPLINESEGS
 70
     8
  9
$HANDSEED
  5
5E37
  9
$SURFTAB1
 70
     6
  9
$SURFTAB2
 70
     6
  9
$SURFTYPE
 70
     6
  9
$SURFU
 70
     6
  9
$SURFV
 70
     6
  9
$UCSBASE
  2

  9
$UCSNAME
  2

  9
$UCSORG
 10
0.0
 20
0.0
 30
0.0
  9
$UCSXDIR
 10
1.0
 20
0.0
 30
0.0
  9
$UCSYDIR
 10
0.0
 20
1.0
 30
0.0
  9
$UCSORTHOREF
  2

  9
$UCSORTHOVIEW
 70
     0
  9
$UCSORGTOP
 10
0.0
 20
0.0
 30
0.0
  9
$UCSORGBOTTOM
 10
0.0
 20
0.0
 30
0.0
  9
$UCSORGLEFT
 10
0.0
 20
0.0
 30
0.0
  9
$UCSORGRIGHT
 10
0.0
 20
0.0
 30
0.0
  9
$UCSORGFRONT
 10
0.0
 20
0.0
 30
0.0
  9
$UCSORGBACK
 10
0.0
 20
0.0
 30
0.0
  9
$PUCSBASE
  2

  9
$PUCSNAME
  2

  9
$PUCSORG
 10
0.0
 20
0.0
 30
0.0
  9
$PUCSXDIR
 10
1.0
 20
0.0
 30
0.0
  9
$PUCSYDIR
 10
0.0
 20
1.0
 30
0.0
  9
$PUCSORTHOREF
  2

  9
$PUCSORTHOVIEW
 70
     0
  9
$PUCSORGTOP
 10
0.0
 20
0.0
 30
0.0
  9
$PUCSORGBOTTOM
 10
0.0
 20
0.0
 30
0.0
  9
$PUCSORGLEFT
 10
0.0
 20
0.0
 30
0.0
  9
$PUCSORGRIGHT
 10
0.0
 20
0.0
 30
0.0
  9
$PUCSORGFRONT
 10
0.0
 20
0.0
 30
0.0
  9
$PUCSORGBACK
 10
0.0
 20
0.0
 30
0.0
  9
$USERI1
 70
     0
  9
$USERI2
 70
     0
  9
$USERI3
 70
     0
  9
$USERI4
 70
     0
  9
$USERI5
 70
     0
  9
$USERR1
 40
0.0
  9
$USERR2
 40
0.0
  9
$USERR3
 40
0.0
  9
$USERR4
 40
0.0
  9
$USERR5
 40
0.0
  9
$WORLDVIEW
 70
     1
  9
$SHADEDGE
 70
     3
  9
$SHADEDIF
 70
    70
  9
$TILEMODE
 70
     1
  9
$MAXACTVP
 70
    16
  9
$PINSBASE
 10
0.0
 20
0.0
 30
0.0
  9
$PLIMCHECK
 70
     0
  9
$PEXTMIN
 10
1.000000000000000E+20
 20
1.000000000000000E+20
 30
1.000000000000000E+20
  9
$PEXTMAX
 10
-1.000000000000000E+20
 20
-1.000000000000000E+20
 30
-1.000000000000000E+20
  9
$PLIMMIN
 10
0.0
 20
0.0
  9
$PLIMMAX
 10
12.0
 20
9.0
  9
$UNITMODE
 70
     0
  9
$VISRETAIN
 70
     0
  9
$PLINEGEN
 70
     1
  9
$PSLTSCALE
 70
     0
  9
$TREEDEPTH
 70
  3020
  9
$CMLSTYLE
  2
STANDARD
  9
$CMLJUST
 70
     0
  9
$CMLSCALE
 40
1.0
  9
$PROXYGRAPHICS
 70
     1
  9
$MEASUREMENT
 70
     0
  9
$CELWEIGHT
370
    -1
  9
$ENDCAPS
280
     0
  9
$JOINSTYLE
280
     0
  9
$LWDISPLAY
290
     0
  9
$INSUNITS
 70
     0
  9
$HYPERLINKBASE
  1

  9
$STYLESHEET
  1

  9
$XEDIT
290
     1
  9
$CEPSNTYPE
380
     0
  9
$PSTYLEMODE
290
     1
  9
$FINGERPRINTGUID
  2
{9C19D7CE-BE25-492F-B456-B99F77E59DF7}
  9
$VERSIONGUID
  2
{0BB793FC-7607-4CFA-9458-6E06CA606DF0}
  9
$EXTNAMES
290
     1
  9
$PSVPSCALE
 40
0.0
  9
$OLESTARTUP
290
     0
  0
ENDSEC
  0
SECTION
  2
CLASSES
  0
CLASS
  1
IMAGE
  2
AcDbRasterImage
  3
ISM
 90
      127
280
     0
281
     1
  0
CLASS
  1
DICTIONARYVAR
  2
AcDbDictionaryVar
  3
ObjectDBX Classes
 90
        0
280
     0
281
     0
  0
CLASS
  1
RASTERVARIABLES
  2
AcDbRasterVariables
  3
ISM
 90
        0
280
     0
281
     0
  0
CLASS
  1
IMAGEDEF
  2
AcDbRasterImageDef
  3
ISM
 90
        0
280
     0
281
     0
  0
CLASS
  1
IMAGEDEF_REACTOR
  2
AcDbRasterImageDefReactor
  3
ISM
 90
        1
280
     0
281
     0
  0
CLASS
  1
IDBUFFER
  2
AcDbIdBuffer
  3
ObjectDBX Classes
 90
        0
280
     0
281
     0
  0
CLASS
  1
SPATIAL_FILTER
  2
AcDbSpatialFilter
  3
ObjectDBX Classes
 90
        0
280
     0
281
     0
  0
CLASS
  1
SORTENTSTABLE
  2
AcDbSortentsTable
  3
ObjectDBX Classes
 90
        0
280
     0
281
     0
  0
CLASS
  1
LAYER_INDEX
  2
AcDbLayerIndex
  3
ObjectDBX Classes
 90
        0
280
     0
281
     0
  0
CLASS
  1
SPATIAL_INDEX
  2
AcDbSpatialIndex
  3
AutoCAD 2000
 90
        0
280
     0
281
     0
  0
CLASS
  1
OBJECT_PTR
  2
CAseDLPNTableRecord
  3
ASE-LPNTableRecord
 90
        1
280
     0
281
     0
  0
CLASS
  1
PLOTSETTINGS
  2
AcDbPlotSettings
  3
ObjectDBX Classes
 90
        0
280
     0
281
     0
  0
CLASS
  1
ACDBDICTIONARYWDFLT
  2
AcDbDictionaryWithDefault
  3
ObjectDBX Classes
 90
        0
280
     0
281
     0
  0
CLASS
  1
WIPEOUT
  2
AcDbWipeout
  3
WipeOut|AutoCAD Express Tool|expresstools@autodesk.com
 90
      127
280
     0
281
     1
  0
CLASS
  1
WIPEOUTVARIABLES
  2
AcDbWipeoutVariables
  3
WipeOut|AutoCAD Express Tool|expresstools@autodesk.com
 90
        0
280
     0
281
     0
  0
CLASS
  1
RTEXT
  2
RText
  3
RText|AutoCAD Express Tool|expresstools@autodesk.com
 90
        0
280
     0
281
     1
  0
CLASS
  1
ARCALIGNEDTEXT
  2
AcDbArcAlignedText
  3
ATEXT|AutoCAD Express Tool|expresstools@autodesk.com
 90
        0
280
     0
281
     1
  0
CLASS
  1
ACDBPLACEHOLDER
  2
AcDbPlaceHolder
  3
ObjectDBX Classes
 90
        0
280
     0
281
     0
  0
CLASS
  1
LAYOUT
  2
AcDbLayout
  3
ObjectDBX Classes
 90
        0
280
     0
281
     0
  0
ENDSEC
  0
SECTION
  2
TABLES
  0
TABLE
  2
VPORT
  5
6
330
0
100
AcDbSymbolTable
 70
     1
  0
VPORT
  5
5E2D
330
6
100
AcDbSymbolTableRecord
100
AcDbViewportTableRecord
  2
*Active
 70
     0
 10
0.0
 20
0.0
 11
1.0
 21
1.0
 12
316.4742623341754
 22
-270.673164726329
 13
0.0
 23
0.0
 14
1.0
 24
1.0
 15
0.0
 25
0.0
 16
0.0
 26
0.0
 36
1.0
 17
0.0
 27
0.0
 37
0.0
 40
185.2043832467344
 41
1.888667992047713
 42
50.0
 43
0.0
 44
0.0
 50
0.0
 51
0.0
 71
     0
 72
   100
 73
     1
 74
     1
 75
     0
 76
     0
 77
     0
 78
     0
281
     0
 65
     1
110
0.0
120
0.0
130
0.0
111
1.0
121
0.0
131
0.0
112
0.0
122
1.0
132
0.0
 79
     0
146
0.0
  0
ENDTAB
  0
TABLE
  2
LTYPE
  5
3
330
0
100
AcDbSymbolTable
 70
     2
  0
LTYPE
  5
C
330
3
100
AcDbSymbolTableRecord
100
AcDbLinetypeTableRecord
  2
BYBLOCK
 70
     0
  3

 72
    65
 73
     0
 40
0.0
  0
LTYPE
  5
D
330
3
100
AcDbSymbolTableRecord
100
AcDbLinetypeTableRecord
  2
BYLAYER
 70
     0
  3

 72
    65
 73
     0
 40
0.0
  0
LTYPE
  5
E
330
3
100
AcDbSymbolTableRecord
100
AcDbLinetypeTableRecord
  2
CONTINUOUS
 70
     0
  3
Solid line
 72
    65
 73
     0
 40
0.0
  0
LTYPE
  5
F
330
3
100
AcDbSymbolTableRecord
100
AcDbLinetypeTableRecord
  2
CENTER
 70
     0
  3
____ _ ____ _ ____ _ ____ _ ____ _ ____ _ ____
 72
    65
 73
     4
 40
0.6
 49
0.375
 74
     0
 49
-0.075
 74
     0
 49
0.075
 74
     0
 49
-0.075
 74
     0
  0
ENDTAB
  0
TABLE
  2
LAYER
  5
1
330
0
100
AcDbSymbolTable
 70
     2
  0
LAYER
  5
14
330
1
100
AcDbSymbolTableRecord
100
AcDbLayerTableRecord
  2
0
 70
     0
 62
     7
  6
CONTINUOUS
370
    -3
390
273
  0
LAYER
  5
27A
330
1
100
AcDbSymbolTableRecord
100
AcDbLayerTableRecord
  2
Defpoints
 70
     0
 62
     7
  6
CONTINUOUS
290
     0
370
    -3
390
273
  0
ENDTAB
  0
TABLE
  2
STYLE
  5
2
330
0
100
AcDbSymbolTable
 70
     1
  0
STYLE
  5
1B
330
2
100
AcDbSymbolTableRecord
100
AcDbTextStyleTableRecord
  2
STANDARD
 70
     0
 40
0.0
 41
1.0
 50
0.0
 71
     0
 42
35.06651165617814
  3
VERDANA.TTF
  4

1001
ACAD
1000
Verdana
1071
       34
  0
ENDTAB
  0
TABLE
  2
VIEW
  5
4
330
0
100
AcDbSymbolTable
 70
     0
  0
ENDTAB
  0
TABLE
  2
UCS
  5
5
330
0
100
AcDbSymbolTable
 70
     0
  0
ENDTAB
  0
TABLE
  2
APPID
  5
7
330
0
100
AcDbSymbolTable
 70
     1
  0
APPID
  5
19
330
7
100
AcDbSymbolTableRecord
100
AcDbRegAppTableRecord
  2
ACAD
 70
     0
  0
ENDTAB
  0
TABLE
  2
DIMSTYLE
  5
8
330
0
100
AcDbSymbolTable
 70
     1
100
AcDbDimStyleTable
  0
DIMSTYLE
105
28
330
8
100
AcDbSymbolTableRecord
100
AcDbDimStyleTableRecord
  2
STANDARD
 70
     0
 47
0.003
 48
0.003
 71
     1
140
1.5
289
     0
340
1B
  0
ENDTAB
  0
TABLE
  2
BLOCK_RECORD
  5
23
330
0
100
AcDbSymbolTable
 70
     0
  0
BLOCK_RECORD
  5
21
330
23
100
AcDbSymbolTableRecord
100
AcDbBlockTableRecord
  2
*MODEL_SPACE
340
276
  0
BLOCK_RECORD
  5
22
330
23
100
AcDbSymbolTableRecord
100
AcDbBlockTableRecord
  2
*PAPER_SPACE
340
277
  0
ENDTAB
  0
ENDSEC
  0
SECTION
  2
BLOCKS
  0
BLOCK
  5
24
330
21
100
AcDbEntity
  8
0
100
AcDbBlockBegin
  2
*MODEL_SPACE
 70
     0
 71
     0
 10
0.0
 20
0.0
 30
0.0
  3
*MODEL_SPACE
  1

  0
ENDBLK
  5
25
330
21
100
AcDbEntity
  8
0
100
AcDbBlockEnd
  0
BLOCK
  5
26
330
22
100
AcDbEntity
 67
     1
  8
0
100
AcDbBlockBegin
  2
*PAPER_SPACE
 70
     0
 71
     0
 10
0.0
 20
0.0
 30
0.0
  3
*PAPER_SPACE
  1

  0
ENDBLK
  5
27
330
22
100
AcDbEntity
 67
     1
  8
0
100
AcDbBlockEnd
  0
ENDSEC
  0
SECTION
  2
ENTITIES
  0
MTEXT
  5
2E3E
330
21
100
AcDbEntity
  8
0
100
AcDbMText
 10
2320.303926075331
 20
185.571951966812
 30
0.0
 40
0.18
 41
14.68390410115808
 71
     9
 72
     1
  1
\A1;
 73
     1
 44
1.0
  0
LINE
  5
4A78
330
21
100
AcDbEntity
  8
0
100
AcDbLine
 10
265.8544053542414
 20
-270.9419338672042
 30
0.0
 11
265.8544053542414
 21
-270.9419338672042
 31
0.0
  0
LINE
  5
4A79
330
21
100
AcDbEntity
  8
0
100
AcDbLine
 10
265.8544053542414
 20
-242.9419338672042
 30
0.0
 11
265.8544053542414
 21
-270.9419338672042
 31
0.0
  0
LINE
  5
4A7A
330
21
100
AcDbEntity
  8
0
100
AcDbLine
 10
278.5385467641096
 20
-260.907005224315
 30
0.0
 11
304.9842463704375
 21
-260.907005224315
 31
0.0
  0
LINE
  5
4A7B
330
21
100
AcDbEntity
  8
0
100
AcDbLine
 10
278.5385467641095
 20
-243.4419539735587
 30
0.0
 11
304.9842463704375
 21
-243.4419539735587
 31
0.0
  0
LINE
  5
4A7C
330
21
100
AcDbEntity
  8
0
100
AcDbLine
 10
278.5385467641096
 20
-254.0381475572042
 30
0.0
 11
304.9842463704375
 21
-254.0381475572042
 31
0.0
  0
LINE
  5
4A7D
330
21
100
AcDbEntity
  8
0
100
AcDbLine
 10
278.5385467641096
 20
-260.907005224315
 30
0.0
 11
278.5385467641096
 21
-270.9419338672042
 31
0.0
  0
LINE
  5
4A7E
330
21
100
AcDbEntity
  8
0
100
AcDbLine
 10
304.9842463704375
 20
-270.9419338672042
 30
0.0
 11
304.9842463704375
 21
-270.9419338672042
 31
0.0
  0
LINE
  5
4A7F
330
21
100
AcDbEntity
  8
0
100
AcDbLine
 10
304.9842463704375
 20
-243.4419539735587
 30
0.0
 11
304.9842463704375
 21
-270.9419338672042
 31
0.0
  0
LINE
  5
4A80
330
21
100
AcDbEntity
  8
0
100
AcDbLine
 10
278.5385467641096
 20
-242.9419338672042
 30
0.0
 11
278.5385467641096
 21
-254.0381475572042
 31
0.0
  0
LINE
  5
4A81
330
21
100
AcDbEntity
  8
0
100
AcDbLine
 10
305.0814392647094
 20
-243.6102970045772
 30
0.0
 11
305.0814392647094
 21
-243.6102970045772
 31
0.0
  0
SPLINE
  5
4A82
330
21
100
AcDbEntity
  8
0
  6
Continuous
100
AcDbSpline
210
1.0
220
-6.000000000000000E-15
230
-4.000000000000000E-15
 70
     8
 71
     3
 72
    16
 73
    12
 74
     0
 42
0.0000000001
 43
0.0000000001
 40
0.0
 40
0.0
 40
0.0
 40
0.0
 40
3.277055927267658
 40
6.554111854606581
 40
9.831167781927309
 40
13.10822370922746
 40
16.38527963649719
 40
19.66233556387927
 40
22.93939149115162
 40
26.21644741846467
 40
29.49350334584064
 40
29.49350334636094
 40
29.49350334636094
 40
29.49350334636094
 10
288.2544053542414
 20
-289.7419338672042
 30
0.0
 10
288.2544053542414
 20
-289.6866876088669
 30
-1.093734005753526
 10
288.2544053542414
 20
-289.576195092191
 30
-3.281202017284363
 10
288.2544053542414
 20
-288.691203507432
 30
-6.462706371620625
 10
288.2544053542414
 20
-287.3079217061178
 30
-9.447844663209999
 10
288.2544053542414
 20
-285.4163784185546
 30
-12.14591497548387
 10
288.2544053542414
 20
-283.0879810071123
 30
-14.47493780742103
 10
288.2544053542415
 20
-280.3897431292579
 30
-16.36414697857242
 10
288.2544053542414
 20
-277.4046496792601
 30
-17.75613982478845
 10
288.2544053542415
 20
-274.2231335244507
 30
-18.60862134709617
 10
288.2544053542415
 20
-272.03566708612
 30
-18.80000000001723
 10
288.2544053542414
 20
-270.9419338668569
 30
-18.8
  0
ARC
  5
4A83
330
21
100
AcDbEntity
  8
0
  6
Continuous
100
AcDbCircle
 10
305.4200907791415
 20
-291.9419338672042
 30
0.0
 40
0.4
100
AcDbArc
 50
224.9999999963995
 51
270.0000000000008
  0
ARC
  5
4A84
330
21
100
AcDbEntity
  8
0
  6
Continuous
100
AcDbCircle
 10
302.4887199292415
 20
-290.1419338672042
 30
0.0
 40
0.4
100
AcDbArc
 50
44.99999999900044
 51
90.0
  0
ARC
  5
4A85
330
21
100
AcDbEntity
  8
0
  6
Continuous
100
AcDbCircle
 10
282.2544053542415
 20
-287.0419338672042
 30
0.0
 40
1.0
100
AcDbArc
 50
180.0000000002996
 51
270.0000000000008
  0
ARC
  5
4A86
330
21
100
AcDbEntity
  8
0
  6
Continuous
100
AcDbCircle
 10
280.2544053542415
 20
-285.9419338672042
 30
0.0
 40
1.0
100
AcDbArc
 50
0.0
 51
90.0
  0
ARC
  5
4A87
330
21
100
AcDbEntity
  8
0
  6
Continuous
100
AcDbCircle
 10
264.6544053542415
 20
-297.1762484423042
 30
0.0
 40
0.4
100
AcDbArc
 50
180.0000000002996
 51
225.0000000018008
  0
ARC
  5
4A88
330
21
100
AcDbEntity
  8
0
  6
Continuous
100
AcDbCircle
 10
264.6544053542415
 20
-244.7076192922042
 30
0.0
 40
0.4
100
AcDbArc
 50
134.9999999963988
 51
179.9999999997003
  0
ARC
  5
4A89
330
21
100
AcDbEntity
  8
0
  6
Continuous
100
AcDbCircle
 10
266.4200907791415
 20
-293.8419338672042
 30
0.0
 40
0.4
100
AcDbArc
 50
90.0
 51
135.0000000137994
  0
ARC
  5
4A8A
330
21
100
AcDbEntity
  8
0
  6
Continuous
100
AcDbCircle
 10
264.6544053542415
 20
-295.6076192922042
 30
0.0
 40
0.4
100
AcDbArc
 50
134.9999999971996
 51
179.9999999997003
  0
ARC
  5
4A8B
330
21
100
AcDbEntity
  8
0
  6
Continuous
100
AcDbCircle
 10
272.9544053542414
 20
-285.9419338672042
 30
0.0
 40
1.0
100
AcDbArc
 50
90.0
 51
270.0000000000008
  0
ARC
  5
4A8C
330
21
100
AcDbEntity
  8
0
  6
Continuous
100
AcDbCircle
 10
305.8544053542414
 20
-245.7491135442042
 30
0.0
 40
0.4
100
AcDbArc
 50
0.0
 51
29.99999999579955
  0
ARC
  5
4A8D
330
21
100
AcDbEntity
  8
0
  6
Continuous
100
AcDbCircle
 10
305.8544053542414
 20
-296.1347541903042
 30
0.0
 40
0.4
100
AcDbArc
 50
330.0000000057011
 51
0.0
  0
ARC
  5
4A8E
330
21
100
AcDbEntity
  8
0
  6
Continuous
100
AcDbCircle
 10
305.6544053542415
 20
-292.9419338672042
 30
0.0
 40
0.6
100
AcDbArc
 50
0.0000000055008838
 51
90.0
  0
ARC
  5
4A8F
330
21
100
AcDbEntity
  8
0
  6
Continuous
100
AcDbCircle
 10
285.2544053542414
 20
-288.7419338672042
 30
0.0
 40
1.0
100
AcDbArc
 50
180.0000000004006
 51
270.0000000000008
  0
CIRCLE
  5
4A90
330
21
100
AcDbEntity
  8
0
  6
Continuous
100
AcDbCircle
 10
274.0544053542414
 20
-288.9419338672042
 30
0.0
 40
2.0
  0
LINE
  5
4A91
330
21
100
AcDbEntity
  8
0
  6
Continuous
100
AcDbLine
 10
306.2008155157414
 20
-245.5491135442042
 30
0.0
 11
304.6955596274414
 21
-242.9419338672042
 31
0.0
  0
LINE
  5
4A92
330
21
100
AcDbEntity
  8
0
  6
Continuous
100
AcDbLine
 10
302.6902936415414
 20
-298.9419338672042
 30
0.0
 11
306.2544053542414
 21
-295.3778221546043
 31
0.0
  0
LINE
  5
4A93
330
21
100
AcDbEntity
  8
0
  6
Continuous
100
AcDbLine
 10
306.2008155157414
 20
-296.3347541903043
 30
0.0
 11
304.6955596274414
 21
-298.9419338672042
 31
0.0
  0
LINE
  5
4A94
330
21
100
AcDbEntity
  8
0
  6
Continuous
100
AcDbLine
 10
300.5901865014414
 20
-298.9419338672042
 30
0.0
 11
306.2544053542414
 21
-293.2777150145042
 31
0.0
  0
LINE
  5
4A95
330
21
100
AcDbEntity
  8
0
  6
Continuous
100
AcDbLine
 10
298.4900793613415
 20
-298.9419338672042
 30
0.0
 11
305.1768494423415
 21
-292.2551637862042
 31
0.0
  0
LINE
  5
4A96
330
21
100
AcDbEntity
  8
0
  6
Continuous
100
AcDbLine
 10
265.8544053542414
 20
-242.9419338672042
 30
0.0
 11
304.6955596274414
 21
-242.9419338672042
 31
0.0
  0
LINE
  5
4A97
330
21
100
AcDbEntity
  8
0
  6
Continuous
100
AcDbLine
 10
296.3899722211414
 20
-298.9419338672042
 30
0.0
 11
304.1221887877414
 21
-291.2097173007042
 31
0.0
  0
LINE
  5
4A98
330
21
100
AcDbEntity
  8
0
  6
Continuous
100
AcDbLine
 10
294.2898650810414
 20
-298.9419338672042
 30
0.0
 11
303.0721352176414
 21
-290.1596637307042
 31
0.0
  0
LINE
  5
4A99
330
21
100
AcDbEntity
  8
0
  6
Continuous
100
AcDbLine
 10
292.1897579409415
 20
-298.9419338672042
 30
0.0
 11
301.3897579409414
 21
-289.7419338672042
 31
0.0
  0
LINE
  5
4A9A
330
21
100
AcDbEntity
  8
0
  6
Continuous
100
AcDbLine
 10
290.0896508008415
 20
-298.9419338672042
 30
0.0
 11
299.2896508008414
 21
-289.7419338672042
 31
0.0
  0
LINE
  5
4A9B
330
21
100
AcDbEntity
  8
0
  6
Continuous
100
AcDbLine
 10
287.9895436606414
 20
-298.9419338672042
 30
0.0
 11
297.1895436606414
 21
-289.7419338672042
 31
0.0
  0
LINE
  5
4A9C
330
21
100
AcDbEntity
  8
0
  6
Continuous
100
AcDbLine
 10
285.8894365205415
 20
-298.9419338672042
 30
0.0
 11
295.0894365205414
 21
-289.7419338672042
 31
0.0
  0
LINE
  5
4A9D
330
21
100
AcDbEntity
  8
0
  6
Continuous
100
AcDbLine
 10
306.2544053542414
 20
-245.7491135442042
 30
0.0
 11
306.2544053542414
 21
-296.1347541903042
 31
0.0
  0
LINE
  5
4A9E
330
21
100
AcDbEntity
  8
0
  6
Continuous
100
AcDbLine
 10
305.6544053542415
 20
-270.9419338672042
 30
0.0
 11
305.6544053542415
 21
-292.3419338672042
 31
0.0
  0
LINE
  5
4A9F
330
21
100
AcDbEntity
  8
0
  6
Continuous
100
AcDbLine
 10
305.4200907791415
 20
-270.9419338672042
 30
0.0
 11
305.4200907791415
 21
-292.3419338672042
 31
0.0
  0
LINE
  5
4AA0
330
21
100
AcDbEntity
  8
0
  6
Continuous
100
AcDbLine
 10
305.1372480666415
 20
-270.9419338672042
 30
0.0
 11
305.1372480666415
 21
-292.2247765797042
 31
0.0
  0
LINE
  5
4AA1
330
21
100
AcDbEntity
  8
0
  6
Continuous
100
AcDbLine
 10
304.8144067275414
 20
-270.9419338672042
 30
0.0
 11
304.8144067275414
 21
-291.9019329517042
 31
0.0
  0
LINE
  5
4AA2
330
21
100
AcDbEntity
  8
0
  6
Continuous
100
AcDbLine
 10
283.7893293804415
 20
-298.9419338672042
 30
0.0
 11
292.9893293804415
 21
-289.7419338672042
 31
0.0
  0
LINE
  5
4AA3
330
21
100
AcDbEntity
  8
0
  6
Continuous
100
AcDbLine
 10
281.6892222403414
 20
-298.9419338672042
 30
0.0
 11
290.8892222403414
 21
-289.7419338672042
 31
0.0
  0
LINE
  5
4AA4
330
21
100
AcDbEntity
  8
0
  6
Continuous
100
AcDbLine
 10
302.7715626417414
 20
-289.8590911548042
 30
0.0
 11
302.7715626417414
 21
-270.9419338672042
 31
0.0
  0
LINE
  5
4AA5
330
21
100
AcDbEntity
  8
0
  6
Continuous
100
AcDbLine
 10
302.4887199292415
 20
-289.7419338672042
 30
0.0
 11
302.4887199292414
 21
-270.9419338672042
 31
0.0
  0
LINE
  5
4AA6
330
21
100
AcDbEntity
  8
0
  6
Continuous
100
AcDbLine
 10
279.5891151001415
 20
-298.9419338672042
 30
0.0
 11
288.7891151001414
 21
-289.7419338672042
 31
0.0
  0
LINE
  5
4AA7
330
21
100
AcDbEntity
  8
0
  6
Continuous
100
AcDbLine
 10
277.4890079600415
 20
-298.9419338672042
 30
0.0
 11
286.6890079600414
 21
-289.7419338672042
 31
0.0
  0
LINE
  5
4AA8
330
21
100
AcDbEntity
  8
0
  6
Continuous
100
AcDbLine
 10
275.3889008199414
 20
-298.9419338672042
 30
0.0
 11
284.7416527757415
 21
-289.5891819114043
 31
0.0
  0
LINE
  5
4AA9
330
21
100
AcDbEntity
  8
0
  6
Continuous
100
AcDbLine
 10
277.2544053542414
 20
-294.9763221928042
 30
0.0
 11
284.1887936798414
 21
-288.0419338672042
 31
0.0
  0
LINE
  5
4AAA
330
21
100
AcDbEntity
  8
0
  6
Continuous
100
AcDbLine
 10
273.2887936798414
 20
-298.9419338672042
 30
0.0
 11
276.7887936798414
 21
-295.4419338672042
 31
0.0
  0
LINE
  5
4AAB
330
21
100
AcDbEntity
  8
0
  6
Continuous
100
AcDbLine
 10
277.2544053542414
 20
-292.8762150527042
 30
0.0
 11
282.1113450656414
 21
-288.0192753413043
 31
0.0
  0
LINE
  5
4AAC
330
21
100
AcDbEntity
  8
0
  6
Continuous
100
AcDbLine
 10
271.1886865396415
 20
-298.9419338672042
 30
0.0
 11
274.6886865396415
 21
-295.4419338672042
 31
0.0
  0
LINE
  5
4AAD
330
21
100
AcDbEntity
  8
0
  6
Continuous
100
AcDbLine
 10
277.2544053542414
 20
-290.7761079126042
 30
0.0
 11
281.2544053542414
 21
-286.7761079126042
 31
0.0
  0
LINE
  5
4AAE
330
21
100
AcDbEntity
  8
0
  6
Continuous
100
AcDbLine
 10
269.0885793995414
 20
-298.9419338672042
 30
0.0
 11
272.5885793995415
 21
-295.4419338672042
 31
0.0
  0
LINE
  5
4AAF
330
21
100
AcDbEntity
  8
0
  6
Continuous
100
AcDbLine
 10
277.2544053542414
 20
-288.6760007725042
 30
0.0
 11
280.8125777548414
 21
-285.1178283718042
 31
0.0
  0
LINE
  5
4AB0
330
21
100
AcDbEntity
  8
0
  6
Continuous
100
AcDbLine
 10
266.9884722594414
 20
-298.9419338672042
 30
0.0
 11
271.1348486335414
 21
-294.7955574932042
 31
0.0
  0
LINE
  5
4AB1
330
21
100
AcDbEntity
  8
0
  6
Continuous
100
AcDbLine
 10
276.8883651193414
 20
-286.9419338672042
 30
0.0
 11
278.8883651193414
 21
-284.9419338672042
 31
0.0
  0
LINE
  5
4AB2
330
21
100
AcDbEntity
  8
0
  6
Continuous
100
AcDbLine
 10
265.3713852367415
 20
-298.4589137498042
 30
0.0
 11
269.8034340573415
 21
-294.0268649292042
 31
0.0
  0
LINE
  5
4AB3
330
21
100
AcDbEntity
  8
0
  6
Continuous
100
AcDbLine
 10
274.7882579792415
 20
-286.9419338672042
 30
0.0
 11
276.7882579792415
 21
-284.9419338672042
 31
0.0
  0
LINE
  5
4AB4
330
21
100
AcDbEntity
  8
0
  6
Continuous
100
AcDbLine
 10
264.3279446983415
 20
-297.4022471481042
 30
0.0
 11
268.2882579792415
 21
-293.4419338672043
 31
0.0
  0
LINE
  5
4AB5
330
21
100
AcDbEntity
  8
0
  6
Continuous
100
AcDbLine
 10
288.2544053542414
 20
-289.7419338672042
 30
0.0
 11
288.2544053542414
 21
-291.9019338672042
 31
0.0
  0
LINE
  5
4AB6
330
21
100
AcDbEntity
  8
0
  6
Continuous
100
AcDbLine
 10
266.1372480666415
 20
-293.5590911548042
 30
0.0
 11
264.3715626417414
 21
-295.3247765797042
 31
0.0
  0
LINE
  5
4AB7
330
21
100
AcDbEntity
  8
0
  6
Continuous
100
AcDbLine
 10
272.7245554840414
 20
-286.9055292222043
 30
0.0
 11
274.6881508390414
 21
-284.9419338672042
 31
0.0
  0
LINE
  5
4AB8
330
21
100
AcDbEntity
  8
0
  6
Continuous
100
AcDbLine
 10
272.1137654019415
 20
-285.4162121642042
 30
0.0
 11
272.4286836510414
 21
-285.1012939151042
 31
0.0
  0
LINE
  5
4AB9
330
21
100
AcDbEntity
  8
0
  6
Continuous
100
AcDbLine
 10
305.1372480666415
 20
-292.2247765797042
 30
0.0
 11
302.7715626417414
 21
-289.8590911548042
 31
0.0
  0
LINE
  5
4ABA
330
21
100
AcDbEntity
  8
0
  6
CENTER
100
AcDbLine
 10
255.7860554236916
 20
-270.9419338672042
 30
0.0
 11
316.8135793810342
 21
-270.9419338672042
 31
0.0
  0
LINE
  5
4ABB
330
21
100
AcDbEntity
  8
0
  6
Continuous
100
AcDbLine
 10
285.2544053542414
 20
-270.9419338672042
 30
0.0
 11
285.2544053542414
 21
-289.7419338672042
 31
0.0
  0
LINE
  5
4ABC
330
21
100
AcDbEntity
  8
0
  6
Continuous
100
AcDbLine
 10
284.2544053542415
 20
-288.7419338672042
 30
0.0
 11
284.2544053542414
 21
-270.9419338672043
 31
0.0
  0
LINE
  5
4ABD
330
21
100
AcDbEntity
  8
0
  6
Continuous
100
AcDbLine
 10
282.2544053542415
 20
-270.9419338672042
 30
0.0
 11
282.2544053542415
 21
-288.0419338672042
 31
0.0
  0
LINE
  5
4ABE
330
21
100
AcDbEntity
  8
0
  6
Continuous
100
AcDbLine
 10
281.2544053542414
 20
-287.0419338672042
 30
0.0
 11
281.2544053542415
 21
-270.9419338672042
 31
0.0
  0
LINE
  5
4ABF
330
21
100
AcDbEntity
  8
0
  6
Continuous
100
AcDbLine
 10
280.2544053542415
 20
-284.9419338672042
 30
0.0
 11
280.2544053542415
 21
-270.9419338672043
 31
0.0
  0
LINE
  5
4AC0
330
21
100
AcDbEntity
  8
0
  6
Continuous
100
AcDbLine
 10
277.2544053542414
 20
-295.4419338672042
 30
0.0
 11
277.2544053542414
 21
-286.9419338672042
 31
0.0
  0
LINE
  5
4AC1
330
21
100
AcDbEntity
  8
0
  6
Continuous
100
AcDbLine
 10
276.0544053542414
 20
-286.9419338672042
 30
0.0
 11
276.0544053542414
 21
-288.9419338672042
 31
0.0
  0
LINE
  5
4AC2
330
21
100
AcDbEntity
  8
0
  6
Continuous
100
AcDbLine
 10
272.9544053542414
 20
-284.9419338672042
 30
0.0
 11
272.9544053542414
 21
-270.9419338672043
 31
0.0
  0
LINE
  5
4AC3
330
21
100
AcDbEntity
  8
0
  6
Continuous
100
AcDbLine
 10
272.2544053542415
 20
-289.7845793938042
 30
0.0
 11
272.2544053542415
 21
-295.4419338672042
 31
0.0
  0
LINE
  5
4AC4
330
21
100
AcDbEntity
  8
0
  6
Continuous
100
AcDbLine
 10
272.0544053542415
 20
-286.3511549084042
 30
0.0
 11
272.0544053542415
 21
-288.9419338672042
 31
0.0
  0
LINE
  5
4AC5
330
21
100
AcDbEntity
  8
0
  6
Continuous
100
AcDbLine
 10
271.9544053542414
 20
-270.9419338672042
 30
0.0
 11
271.9544053542414
 21
-285.9419338672042
 31
0.0
  0
LINE
  5
4AC6
330
21
100
AcDbEntity
  8
0
  6
Continuous
100
AcDbLine
 10
280.2544053542415
 20
-284.9419338672042
 30
0.0
 11
272.9544053542414
 21
-284.9419338672042
 31
0.0
  0
LINE
  5
4AC7
330
21
100
AcDbEntity
  8
0
  6
Continuous
100
AcDbLine
 10
277.2544053542414
 20
-286.9419338672042
 30
0.0
 11
272.9544053542414
 21
-286.9419338672042
 31
0.0
  0
LINE
  5
4AC8
330
21
100
AcDbEntity
  8
0
  6
Continuous
100
AcDbLine
 10
271.3883799063415
 20
-294.9419338672042
 30
0.0
 11
271.3883799063415
 21
-270.9419338672042
 31
0.0
  0
LINE
  5
4AC9
330
21
100
AcDbEntity
  8
0
  6
Continuous
100
AcDbLine
 10
284.2544053542415
 20
-288.0419338672042
 30
0.0
 11
282.2544053542415
 21
-288.0419338672042
 31
0.0
  0
LINE
  5
4ACA
330
21
100
AcDbEntity
  8
0
  6
Continuous
100
AcDbLine
 10
268.7903037390415
 20
-270.9419338672042
 30
0.0
 11
268.7903037390415
 21
-293.4419338672043
 31
0.0
  0
LINE
  5
4ACB
330
21
100
AcDbEntity
  8
0
  6
Continuous
100
AcDbLine
 10
276.0398231024415
 20
-288.8077550570042
 30
0.0
 11
274.1905304975414
 21
-286.9584624521042
 31
0.0
  0
LINE
  5
4ACC
330
21
100
AcDbEntity
  8
0
  6
Continuous
100
AcDbLine
 10
275.8930199341414
 20
-289.7110054588042
 30
0.0
 11
273.2903222765415
 21
-287.1083078012042
 31
0.0
  0
LINE
  5
4ACD
330
21
100
AcDbEntity
  8
0
  6
Continuous
100
AcDbLine
 10
275.4700289956414
 20
-290.3380680903042
 30
0.0
 11
272.6570922385414
 21
-287.5251313332043
 31
0.0
  0
LINE
  5
4ACE
330
21
100
AcDbEntity
  8
0
  6
Continuous
100
AcDbLine
 10
302.4887199292415
 20
-289.7419338672042
 30
0.0
 11
285.2544053542414
 21
-289.7419338672042
 31
0.0
  0
LINE
  5
4ACF
330
21
100
AcDbEntity
  8
0
  6
Continuous
100
AcDbLine
 10
266.4200907791415
 20
-293.4419338672043
 30
0.0
 11
266.4200907791415
 21
-270.9419338672042
 31
0.0
  0
LINE
  5
4AD0
330
21
100
AcDbEntity
  8
0
  6
Continuous
100
AcDbLine
 10
266.1372480666415
 20
-293.5590911548042
 30
0.0
 11
266.1372480666415
 21
-270.9419338672042
 31
0.0
  0
LINE
  5
4AD1
330
21
100
AcDbEntity
  8
0
  6
Continuous
100
AcDbLine
 10
264.7544053542414
 20
-294.9419338672042
 30
0.0
 11
264.7544053542414
 21
-270.9419338672042
 31
0.0
  0
LINE
  5
4AD2
330
21
100
AcDbEntity
  8
0
  6
Continuous
100
AcDbLine
 10
274.8467493253414
 20
-290.7648419901042
 30
0.0
 11
272.2292070442414
 21
-288.1472997090042
 31
0.0
  0
LINE
  5
4AD3
330
21
100
AcDbEntity
  8
0
  6
Continuous
100
AcDbLine
 10
273.9626460337415
 20
-290.9307922686043
 30
0.0
 11
272.0689876060415
 21
-289.0371338409043
 31
0.0
  0
LINE
  5
4AD4
330
21
100
AcDbEntity
  8
0
  6
Continuous
100
AcDbLine
 10
304.8144053542415
 20
-291.9019338672042
 30
0.0
 11
288.2544053542414
 21
-291.9019338672042
 31
0.0
  0
LINE
  5
4AD5
330
21
100
AcDbEntity
  8
0
  6
Continuous
100
AcDbLine
 10
305.6544053542415
 20
-292.3419338672042
 30
0.0
 11
305.4200907791415
 21
-292.3419338672042
 31
0.0
  0
LINE
  5
4AD6
330
21
100
AcDbEntity
  8
0
  6
Continuous
100
AcDbLine
 10
268.7903037390415
 20
-293.4419338672043
 30
0.0
 11
266.4200907791415
 21
-293.4419338672043
 31
0.0
  0
LINE
  5
4AD7
330
21
100
AcDbEntity
  8
0
  6
Continuous
100
AcDbLine
 10
264.3715626417414
 20
-295.3247765797042
 30
0.0
 11
264.3715626417415
 21
-270.9419338672042
 31
0.0
  0
LINE
  5
4AD8
330
21
100
AcDbEntity
  8
0
  6
Continuous
100
AcDbLine
 10
264.2544053542414
 20
-244.7076192922042
 30
0.0
 11
264.2544053542414
 21
-297.1762484423042
 31
0.0
  0
LINE
  5
4AD9
330
21
100
AcDbEntity
  8
0
  6
Continuous
100
AcDbLine
 10
264.7544053542414
 20
-294.9419338672042
 30
0.0
 11
271.3883799504415
 21
-294.9419338672042
 31
0.0
  0
LINE
  5
4ADA
330
21
100
AcDbEntity
  8
0
  6
Continuous
100
AcDbLine
 10
277.2544053542414
 20
-295.4419338672042
 30
0.0
 11
272.2544053542415
 21
-295.4419338672042
 31
0.0
  0
LINE
  5
4ADB
330
21
100
AcDbEntity
  8
0
  6
Continuous
100
AcDbLine
 10
272.2544053542415
 20
-295.4419338672042
 30
0.0
 11
268.7903037390415
 21
-293.4419338672043
 31
0.0
  0
LINE
  5
4ADC
330
21
100
AcDbEntity
  8
0
  6
Continuous
100
AcDbLine
 10
265.8544053542414
 20
-298.9419338672042
 30
0.0
 11
304.6955596274414
 21
-298.9419338672042
 31
0.0
  0
LINE
  5
4ADD
330
21
100
AcDbEntity
  8
0
  6
Continuous
100
AcDbLine
 10
264.3715626417414
 20
-297.4590911548042
 30
0.0
 11
265.8544053542414
 21
-298.9419338672042
 31
0.0
  0
LINE
  5
4ADE
330
21
100
AcDbEntity
  8
0
  6
Continuous
100
AcDbLine
 10
264.3715626417414
 20
-244.4247765797042
 30
0.0
 11
265.8544053542414
 21
-242.9419338672042
 31
0.0
  0
ENDSEC
  0
SECTION
  2
OBJECTS
  0
DICTIONARY
  5
232
330
0
100
AcDbDictionary
281
     1
  3
ACAD_COLOR
350
2B7
  3
ACAD_GROUP
350
233
  3
ACAD_LAYOUT
350
274
  3
ACAD_MATERIAL
350
2B6
  3
ACAD_MLINESTYLE
350
234
  3
ACAD_PLOTSETTINGS
350
275
  3
ACAD_PLOTSTYLENAME
350
272
  3
ACDBHEADERROUNDTRIPXREC
350
5E34
  3
AcDbVariableDictionary
350
2AE
  0
DICTIONARY
  5
2B7
102
{ACAD_REACTORS
330
232
102
}
330
232
100
AcDbDictionary
281
     1
  0
DICTIONARY
  5
233
102
{ACAD_REACTORS
330
232
102
}
330
232
100
AcDbDictionary
281
     1
  0
DICTIONARY
  5
274
102
{ACAD_REACTORS
330
232
102
}
330
232
100
AcDbDictionary
281
     1
  3
Layout1
350
277
  3
Model
350
276
  0
DICTIONARY
  5
2B6
102
{ACAD_REACTORS
330
232
102
}
330
232
100
AcDbDictionary
281
     1
  0
DICTIONARY
  5
234
102
{ACAD_REACTORS
330
232
102
}
330
232
100
AcDbDictionary
281
     1
  3
STANDARD
350
235
  0
DICTIONARY
  5
275
102
{ACAD_REACTORS
330
232
102
}
330
232
100
AcDbDictionary
281
     1
  0
ACDBDICTIONARYWDFLT
  5
272
102
{ACAD_REACTORS
330
232
102
}
330
232
100
AcDbDictionary
281
     1
  3
Normal
350
273
100
AcDbDictionaryWithDefault
340
273
  0
DICTIONARY
  5
5E34
102
{ACAD_REACTORS
330
232
102
}
330
232
100
AcDbDictionary
281
     1
  3
COLORDICT
350
5E35
  3
MATERIALDICT
350
5E36
  0
DICTIONARY
  5
2AE
102
{ACAD_REACTORS
330
232
102
}
330
232
100
AcDbDictionary
281
     1
  0
LAYOUT
  5
277
102
{ACAD_REACTORS
330
274
102
}
330
274
100
AcDbPlotSettings
  1

  2
\\alderaan\HP LaserJet 5Si/5Si MX PS Tecnico
  4

  6

 40
0.0
 41
0.0
 42
0.0
 43
0.0
 44
0.0
 45
0.0
 46
0.0
 47
0.0
 48
0.0
 49
0.0
140
0.0
141
0.0
142
1.0
143
1.0
 70
   688
 72
     0
 73
     0
 74
     5
  7

 75
    16
147
1.0
148
0.0
149
0.0
100
AcDbLayout
  1
Layout1
 70
     0
 71
     1
 10
0.0
 20
0.0
 11
12.0
 21
9.0
 12
0.0
 22
0.0
 32
0.0
 14
1.000000000000000E+20
 24
1.000000000000000E+20
 34
1.000000000000000E+20
 15
-1.000000000000000E+20
 25
-1.000000000000000E+20
 35
-1.000000000000000E+20
146
0.0
 13
0.0
 23
0.0
 33
0.0
 16
1.0
 26
0.0
 36
0.0
 17
0.0
 27
1.0
 37
0.0
 76
     0
330
22
  0
LAYOUT
  5
276
102
{ACAD_REACTORS
330
274
102
}
330
274
100
AcDbPlotSettings
  1

  2
\\alderaan\HP LaserJet 4050 Ricerca
  4
A4
  6

 40
5.027083396911621
 41
5.069430828094482
 42
5.365737915039062
 43
5.365753173828125
 44
209.8886566162109
 45
297.0530090332031
 46
0.0
 47
0.0
 48
70.15568666023683
 49
-413.5017910393744
140
1567.471881557387
141
355.5977189696187
142
1.0
143
5.224086096996019
 70
 11952
 72
     1
 73
     1
 74
     4
  7

 75
     0
147
0.1914210411989621
148
-70.15568666023683
149
413.5017910393744
100
AcDbLayout
  1
Model
 70
     1
 71
     0
 10
0.0
 20
0.0
 11
12.0
 21
9.0
 12
0.0
 22
0.0
 32
0.0
 14
0.0
 24
0.0
 34
0.0
 15
0.0
 25
0.0
 35
0.0
146
0.0
 13
0.0
 23
0.0
 33
0.0
 16
1.0
 26
0.0
 36
0.0
 17
0.0
 27
1.0
 37
0.0
 76
     0
330
21
  0
MLINESTYLE
  5
235
102
{ACAD_REACTORS
330
234
102
}
330
234
100
AcDbMlineStyle
  2
STANDARD
 70
     0
  3

 62
     0
 51
90.00000000000019
 52
90.00000000000019
 71
     2
 49
0.5
 62
   256
  6
BYLAYER
 49
-0.5
 62
   256
  6
BYLAYER
  0
ACDBPLACEHOLDER
  5
273
102
{ACAD_REACTORS
330
272
102
}
330
272
  0
XRECORD
  5
5E35
102
{ACAD_REACTORS
330
5E34
102
}
330
5E34
100
AcDbXrecord
280
     1
340
2B7
  0
XRECORD
  5
5E36
102
{ACAD_REACTORS
330
5E34
102
}
330
5E34
100
AcDbXrecord
280
     1
340
2B6
  0
ENDSEC
  0
EOF
