  0
SECTION
  2
HEADER
  9
$ACADVER
  1
AC1015
  9
$ACADMAINTVER
 70
     6
  9
$DWGCODEPAGE
  3
ANSI_1252
  9
$INSBASE
 10
0.0
 20
0.0
 30
0.0
  9
$EXTMIN
 10
447.7913616418937
 20
98.43848627832335
 30
-0.0046783882661714
  9
$EXTMAX
 10
535.3278624829363
 20
158.9964343411875
 30
0.0000161602375215
  9
$LIMMIN
 10
0.0
 20
0.0
  9
$LIMMAX
 10
420.0
 20
297.0
  9
$ORTHOMODE
 70
     1
  9
$REGENMODE
 70
     1
  9
$FILLMODE
 70
     1
  9
$QTEXTMODE
 70
     0
  9
$MIRRTEXT
 70
     1
  9
$LTSCALE
 40
23.1
  9
$ATTMODE
 70
     1
  9
$TEXTSIZE
 40
0.2
  9
$TRACEWID
 40
0.05
  9
$TEXTSTYLE
  7
STANDARD
  9
$CLAYER
  8
0
  9
$CELTYPE
  6
BYLAYER
  9
$CECOLOR
 62
   256
  9
$CELTSCALE
 40
1.0
  9
$DISPSILH
 70
     0
  9
$DIMSCALE
 40
1.0
  9
$DIMASZ
 40
3.0
  9
$DIMEXO
 40
2.625
  9
$DIMDLI
 40
15.96
  9
$DIMRND
 40
0.0
  9
$DIMDLE
 40
0.0
  9
$DIMEXE
 40
7.559999999999998
  9
$DIMTP
 40
0.0
  9
$DIMTM
 40
0.0
  9
$DIMTXT
 40
0.18
  9
$DIMCEN
 40
3.779999999999998
  9
$DIMTSZ
 40
0.0
  9
$DIMTOL
 70
     0
  9
$DIMLIM
 70
     0
  9
$DIMTIH
 70
     1
  9
$DIMTOH
 70
     1
  9
$DIMSE1
 70
     0
  9
$DIMSE2
 70
     0
  9
$DIMTAD
 70
     0
  9
$DIMZIN
 70
     0
  9
$DIMBLK
  1

  9
$DIMASO
 70
     1
  9
$DIMSHO
 70
     1
  9
$DIMPOST
  1

  9
$DIMAPOST
  1

  9
$DIMALT
 70
     0
  9
$DIMALTD
 70
     2
  9
$DIMALTF
 40
25.4
  9
$DIMLFAC
 40
1.0
  9
$DIMTOFL
 70
     0
  9
$DIMTVP
 40
0.0
  9
$DIMTIX
 70
     0
  9
$DIMSOXD
 70
     0
  9
$DIMSAH
 70
     0
  9
$DIMBLK1
  1

  9
$DIMBLK2
  1

  9
$DIMSTYLE
  2
STANDARD
  9
$DIMCLRD
 70
     0
  9
$DIMCLRE
 70
     0
  9
$DIMCLRT
 70
     0
  9
$DIMTFAC
 40
1.0
  9
$DIMGAP
 40
0.09
  9
$DIMJUST
 70
     0
  9
$DIMSD1
 70
     0
  9
$DIMSD2
 70
     0
  9
$DIMTOLJ
 70
     1
  9
$DIMTZIN
 70
     0
  9
$DIMALTZ
 70
     0
  9
$DIMALTTZ
 70
     0
  9
$DIMUPT
 70
     0
  9
$DIMDEC
 70
     4
  9
$DIMTDEC
 70
     4
  9
$DIMALTU
 70
     2
  9
$DIMALTTD
 70
     2
  9
$DIMTXSTY
  7
STANDARD
  9
$DIMAUNIT
 70
     0
  9
$DIMADEC
 70
     0
  9
$DIMALTRND
 40
0.0
  9
$DIMAZIN
 70
     0
  9
$DIMDSEP
 70
    46
  9
$DIMATFIT
 70
     3
  9
$DIMFRAC
 70
     0
  9
$DIMLDRBLK
  1

  9
$DIMLUNIT
 70
     2
  9
$DIMLWD
 70
    -2
  9
$DIMLWE
 70
    -2
  9
$DIMTMOVE
 70
     0
  9
$LUNITS
 70
     2
  9
$LUPREC
 70
     4
  9
$SKETCHINC
 40
0.1
  9
$FILLETRAD
 40
0.0
  9
$AUNITS
 70
     0
  9
$AUPREC
 70
     0
  9
$MENU
  1
acad
  9
$ELEVATION
 40
0.0
  9
$PELEVATION
 40
0.0
  9
$THICKNESS
 40
0.0
  9
$LIMCHECK
 70
     0
  9
$CHAMFERA
 40
0.0
  9
$CHAMFERB
 40
0.0
  9
$CHAMFERC
 40
0.0
  9
$CHAMFERD
 40
0.0
  9
$SKPOLY
 70
     0
  9
$TDCREATE
 40
2444972.041666667
  9
$TDUCREATE
 40
2444972.0
  9
$TDUPDATE
 40
2453691.481831239
  9
$TDUUPDATE
 40
2453691.440164572
  9
$TDINDWG
 40
1.2635978009
  9
$TDUSRTIMER
 40
1.2635969907
  9
$USRTIMER
 70
     1
  9
$ANGBASE
 50
0.0
  9
$ANGDIR
 70
     0
  9
$PDMODE
 70
     0
  9
$PDSIZE
 40
0.0
  9
$PLINEWID
 40
0.0
  9
$SPLFRAME
 70
     0
  9
$SPLINETYPE
 70
     6
  9
$SPLINESEGS
 70
     8
  9
$HANDSEED
  5
5F6A
  9
$SURFTAB1
 70
     6
  9
$SURFTAB2
 70
     6
  9
$SURFTYPE
 70
     6
  9
$SURFU
 70
     6
  9
$SURFV
 70
     6
  9
$UCSBASE
  2

  9
$UCSNAME
  2

  9
$UCSORG
 10
0.0
 20
0.0
 30
0.0
  9
$UCSXDIR
 10
1.0
 20
0.0
 30
0.0
  9
$UCSYDIR
 10
0.0
 20
1.0
 30
0.0
  9
$UCSORTHOREF
  2

  9
$UCSORTHOVIEW
 70
     0
  9
$UCSORGTOP
 10
0.0
 20
0.0
 30
0.0
  9
$UCSORGBOTTOM
 10
0.0
 20
0.0
 30
0.0
  9
$UCSORGLEFT
 10
0.0
 20
0.0
 30
0.0
  9
$UCSORGRIGHT
 10
0.0
 20
0.0
 30
0.0
  9
$UCSORGFRONT
 10
0.0
 20
0.0
 30
0.0
  9
$UCSORGBACK
 10
0.0
 20
0.0
 30
0.0
  9
$PUCSBASE
  2

  9
$PUCSNAME
  2

  9
$PUCSORG
 10
0.0
 20
0.0
 30
0.0
  9
$PUCSXDIR
 10
1.0
 20
0.0
 30
0.0
  9
$PUCSYDIR
 10
0.0
 20
1.0
 30
0.0
  9
$PUCSORTHOREF
  2

  9
$PUCSORTHOVIEW
 70
     0
  9
$PUCSORGTOP
 10
0.0
 20
0.0
 30
0.0
  9
$PUCSORGBOTTOM
 10
0.0
 20
0.0
 30
0.0
  9
$PUCSORGLEFT
 10
0.0
 20
0.0
 30
0.0
  9
$PUCSORGRIGHT
 10
0.0
 20
0.0
 30
0.0
  9
$PUCSORGFRONT
 10
0.0
 20
0.0
 30
0.0
  9
$PUCSORGBACK
 10
0.0
 20
0.0
 30
0.0
  9
$USERI1
 70
     0
  9
$USERI2
 70
     0
  9
$USERI3
 70
     0
  9
$USERI4
 70
     0
  9
$USERI5
 70
     0
  9
$USERR1
 40
0.0
  9
$USERR2
 40
0.0
  9
$USERR3
 40
0.0
  9
$USERR4
 40
0.0
  9
$USERR5
 40
0.0
  9
$WORLDVIEW
 70
     1
  9
$SHADEDGE
 70
     3
  9
$SHADEDIF
 70
    70
  9
$TILEMODE
 70
     1
  9
$MAXACTVP
 70
    16
  9
$PINSBASE
 10
0.0
 20
0.0
 30
0.0
  9
$PLIMCHECK
 70
     0
  9
$PEXTMIN
 10
1.000000000000000E+20
 20
1.000000000000000E+20
 30
1.000000000000000E+20
  9
$PEXTMAX
 10
-1.000000000000000E+20
 20
-1.000000000000000E+20
 30
-1.000000000000000E+20
  9
$PLIMMIN
 10
0.0
 20
0.0
  9
$PLIMMAX
 10
12.0
 20
9.0
  9
$UNITMODE
 70
     0
  9
$VISRETAIN
 70
     0
  9
$PLINEGEN
 70
     1
  9
$PSLTSCALE
 70
     0
  9
$TREEDEPTH
 70
  3020
  9
$CMLSTYLE
  2
STANDARD
  9
$CMLJUST
 70
     0
  9
$CMLSCALE
 40
1.0
  9
$PROXYGRAPHICS
 70
     1
  9
$MEASUREMENT
 70
     0
  9
$CELWEIGHT
370
    -1
  9
$ENDCAPS
280
     0
  9
$JOINSTYLE
280
     0
  9
$LWDISPLAY
290
     0
  9
$INSUNITS
 70
     0
  9
$HYPERLINKBASE
  1

  9
$STYLESHEET
  1

  9
$XEDIT
290
     1
  9
$CEPSNTYPE
380
     0
  9
$PSTYLEMODE
290
     1
  9
$FINGERPRINTGUID
  2
{0BC36D6C-D7C2-4D71-98D4-CB92CFD2B5E3}
  9
$VERSIONGUID
  2
{957F8EE9-D957-4DB9-AD9B-9032760E50DE}
  9
$EXTNAMES
290
     1
  9
$PSVPSCALE
 40
0.0
  9
$OLESTARTUP
290
     0
  0
ENDSEC
  0
SECTION
  2
CLASSES
  0
CLASS
  1
IMAGE
  2
AcDbRasterImage
  3
ISM
 90
      127
280
     0
281
     1
  0
CLASS
  1
DICTIONARYVAR
  2
AcDbDictionaryVar
  3
ObjectDBX Classes
 90
        0
280
     0
281
     0
  0
CLASS
  1
RASTERVARIABLES
  2
AcDbRasterVariables
  3
ISM
 90
        0
280
     0
281
     0
  0
CLASS
  1
IMAGEDEF
  2
AcDbRasterImageDef
  3
ISM
 90
        0
280
     0
281
     0
  0
CLASS
  1
IMAGEDEF_REACTOR
  2
AcDbRasterImageDefReactor
  3
ISM
 90
        1
280
     0
281
     0
  0
CLASS
  1
IDBUFFER
  2
AcDbIdBuffer
  3
ObjectDBX Classes
 90
        0
280
     0
281
     0
  0
CLASS
  1
SPATIAL_FILTER
  2
AcDbSpatialFilter
  3
ObjectDBX Classes
 90
        0
280
     0
281
     0
  0
CLASS
  1
SORTENTSTABLE
  2
AcDbSortentsTable
  3
ObjectDBX Classes
 90
        0
280
     0
281
     0
  0
CLASS
  1
LAYER_INDEX
  2
AcDbLayerIndex
  3
ObjectDBX Classes
 90
        0
280
     0
281
     0
  0
CLASS
  1
SPATIAL_INDEX
  2
AcDbSpatialIndex
  3
AutoCAD 2000
 90
        0
280
     0
281
     0
  0
CLASS
  1
OBJECT_PTR
  2
CAseDLPNTableRecord
  3
ASE-LPNTableRecord
 90
        1
280
     0
281
     0
  0
CLASS
  1
PLOTSETTINGS
  2
AcDbPlotSettings
  3
ObjectDBX Classes
 90
        0
280
     0
281
     0
  0
CLASS
  1
ACDBDICTIONARYWDFLT
  2
AcDbDictionaryWithDefault
  3
ObjectDBX Classes
 90
        0
280
     0
281
     0
  0
CLASS
  1
WIPEOUT
  2
AcDbWipeout
  3
WipeOut|AutoCAD Express Tool|expresstools@autodesk.com
 90
      127
280
     0
281
     1
  0
CLASS
  1
WIPEOUTVARIABLES
  2
AcDbWipeoutVariables
  3
WipeOut|AutoCAD Express Tool|expresstools@autodesk.com
 90
        0
280
     0
281
     0
  0
CLASS
  1
RTEXT
  2
RText
  3
RText|AutoCAD Express Tool|expresstools@autodesk.com
 90
        0
280
     0
281
     1
  0
CLASS
  1
ARCALIGNEDTEXT
  2
AcDbArcAlignedText
  3
ATEXT|AutoCAD Express Tool|expresstools@autodesk.com
 90
        0
280
     0
281
     1
  0
CLASS
  1
ACDBPLACEHOLDER
  2
AcDbPlaceHolder
  3
ObjectDBX Classes
 90
        0
280
     0
281
     0
  0
CLASS
  1
LAYOUT
  2
AcDbLayout
  3
ObjectDBX Classes
 90
        0
280
     0
281
     0
  0
ENDSEC
  0
SECTION
  2
TABLES
  0
TABLE
  2
VPORT
  5
6
330
0
100
AcDbSymbolTable
 70
     1
  0
VPORT
  5
5F58
330
6
100
AcDbSymbolTableRecord
100
AcDbViewportTableRecord
  2
*Active
 70
     0
 10
0.0
 20
0.0
 11
1.0
 21
1.0
 12
491.559612062415
 22
128.7174603097554
 13
0.0
 23
0.0
 14
1.0
 24
1.0
 15
0.0
 25
0.0
 16
0.0
 26
0.0
 36
1.0
 17
0.0
 27
0.0
 37
0.0
 40
61.0292161411744
 41
1.6
 42
50.0
 43
0.0
 44
0.0
 50
0.0
 51
0.0
 71
     0
 72
   100
 73
     1
 74
     1
 75
     0
 76
     0
 77
     0
 78
     0
281
     0
 65
     1
110
0.0
120
0.0
130
0.0
111
1.0
121
0.0
131
0.0
112
0.0
122
1.0
132
0.0
 79
     0
146
0.0
  0
ENDTAB
  0
TABLE
  2
LTYPE
  5
3
330
0
100
AcDbSymbolTable
 70
     2
  0
LTYPE
  5
C
330
3
100
AcDbSymbolTableRecord
100
AcDbLinetypeTableRecord
  2
BYBLOCK
 70
     0
  3

 72
    65
 73
     0
 40
0.0
  0
LTYPE
  5
D
330
3
100
AcDbSymbolTableRecord
100
AcDbLinetypeTableRecord
  2
BYLAYER
 70
     0
  3

 72
    65
 73
     0
 40
0.0
  0
LTYPE
  5
E
330
3
100
AcDbSymbolTableRecord
100
AcDbLinetypeTableRecord
  2
CONTINUOUS
 70
     0
  3
Solid line
 72
    65
 73
     0
 40
0.0
  0
LTYPE
  5
F
330
3
100
AcDbSymbolTableRecord
100
AcDbLinetypeTableRecord
  2
CENTER
 70
     0
  3
____ _ ____ _ ____ _ ____ _ ____ _ ____ _ ____
 72
    65
 73
     4
 40
0.6
 49
0.375
 74
     0
 49
-0.075
 74
     0
 49
0.075
 74
     0
 49
-0.075
 74
     0
  0
ENDTAB
  0
TABLE
  2
LAYER
  5
1
330
0
100
AcDbSymbolTable
 70
     2
  0
LAYER
  5
14
330
1
100
AcDbSymbolTableRecord
100
AcDbLayerTableRecord
  2
0
 70
     0
 62
     7
  6
CONTINUOUS
370
    -3
390
616
  0
LAYER
  5
61F
330
1
100
AcDbSymbolTableRecord
100
AcDbLayerTableRecord
  2
Defpoints
 70
     0
 62
     7
  6
CONTINUOUS
290
     0
370
    -3
390
616
  0
ENDTAB
  0
TABLE
  2
STYLE
  5
2
330
0
100
AcDbSymbolTable
 70
     3
  0
STYLE
  5
1D
330
2
100
AcDbSymbolTableRecord
100
AcDbTextStyleTableRecord
  2
STANDARD
 70
     0
 40
0.0
 41
1.0
 50
0.0
 71
     0
 42
0.2
  3
VERDANA.TTF
  4

1001
ACAD
1000
Verdana
1071
       34
  0
STYLE
  5
1A
330
2
100
AcDbSymbolTableRecord
100
AcDbTextStyleTableRecord
  2
TEXTSTYLE_0
 70
     0
 40
0.0
 41
0.8
 50
0.0
 71
     0
 42
0.2
  3
txt
  4

  0
STYLE
  5
1B
330
2
100
AcDbSymbolTableRecord
100
AcDbTextStyleTableRecord
  2
TEXTSTYLE_1
 70
     0
 40
0.0
 41
0.8
 50
0.0
 71
     0
 42
0.2
  3
txt
  4

  0
ENDTAB
  0
TABLE
  2
VIEW
  5
4
330
0
100
AcDbSymbolTable
 70
     0
  0
ENDTAB
  0
TABLE
  2
UCS
  5
5
330
0
100
AcDbSymbolTable
 70
     0
  0
ENDTAB
  0
TABLE
  2
APPID
  5
7
330
0
100
AcDbSymbolTable
 70
     1
  0
APPID
  5
19
330
7
100
AcDbSymbolTableRecord
100
AcDbRegAppTableRecord
  2
ACAD
 70
     0
  0
ENDTAB
  0
TABLE
  2
DIMSTYLE
  5
8
330
0
100
AcDbSymbolTable
 70
     2
100
AcDbDimStyleTable
  0
DIMSTYLE
105
2D
330
8
100
AcDbSymbolTableRecord
100
AcDbDimStyleTableRecord
  2
STANDARD
 70
     0
 47
0.003
 48
0.003
 71
     1
140
1.5
289
     0
340
1D
  0
DIMSTYLE
105
784
330
8
100
AcDbSymbolTableRecord
100
AcDbDimStyleTableRecord
  2
dimensionali
 70
     0
 41
6.0
 42
5.0
 43
31.958
 44
0.0
 47
0.003
 48
0.003
 71
     1
 73
     0
 74
     0
140
8.0
141
7.568999999999999
147
5.0
340
1D
341
785
342
785
  0
ENDTAB
  0
TABLE
  2
BLOCK_RECORD
  5
28
330
0
100
AcDbSymbolTable
 70
     1
  0
BLOCK_RECORD
  5
26
330
28
100
AcDbSymbolTableRecord
100
AcDbBlockTableRecord
  2
*MODEL_SPACE
340
61B
  0
BLOCK_RECORD
  5
27
330
28
100
AcDbSymbolTableRecord
100
AcDbBlockTableRecord
  2
*PAPER_SPACE
340
61C
  0
BLOCK_RECORD
  5
785
330
28
100
AcDbSymbolTableRecord
100
AcDbBlockTableRecord
  2
_Dot
340
0
  0
ENDTAB
  0
ENDSEC
  0
SECTION
  2
BLOCKS
  0
BLOCK
  5
29
330
26
100
AcDbEntity
  8
0
100
AcDbBlockBegin
  2
*MODEL_SPACE
 70
     0
 71
     0
 10
0.0
 20
0.0
 30
0.0
  3
*MODEL_SPACE
  1

  0
ENDBLK
  5
2A
330
26
100
AcDbEntity
  8
0
100
AcDbBlockEnd
  0
BLOCK
  5
2B
330
27
100
AcDbEntity
 67
     1
  8
0
100
AcDbBlockBegin
  2
*PAPER_SPACE
 70
     0
 71
     0
 10
0.0
 20
0.0
 30
0.0
  3
*PAPER_SPACE
  1

  0
ENDBLK
  5
2C
330
27
100
AcDbEntity
 67
     1
  8
0
100
AcDbBlockEnd
  0
BLOCK
  5
786
330
785
100
AcDbEntity
  8
0
100
AcDbBlockBegin
  2
_Dot
 70
     0
 71
     0
 10
0.0
 20
0.0
 30
0.0
  3
_Dot
  1

  0
LWPOLYLINE
  5
787
330
785
100
AcDbEntity
  8
0
  6
ByBlock
 62
     0
100
AcDbPolyline
 90
        2
 70
     1
 43
0.5
 10
-0.25
 20
0.0
 42
1.0
 10
0.25
 20
0.0
 42
1.0
  0
LINE
  5
788
330
785
100
AcDbEntity
  8
0
  6
ByBlock
 62
     0
370
    -2
100
AcDbLine
 10
-0.5
 20
0.0
 30
0.0
 11
-1.0
 21
0.0
 31
0.0
  0
ENDBLK
  5
789
330
785
100
AcDbEntity
  8
0
100
AcDbBlockEnd
  0
ENDSEC
  0
SECTION
  2
ENTITIES
  0
TEXT
  5
E5
330
26
100
AcDbEntity
  8
0
  6
Continuous
 62
     2
100
AcDbText
 10
98.4898777622
 20
41.38631207849999
 30
0.0
 40
1.8
  1
 
 41
1.285714285666664
  7
TEXTSTYLE_1
 72
     5
 11
100.8041634764
 21
41.38631207849999
 31
0.0
100
AcDbText
  0
TEXT
  5
11D
330
26
100
AcDbEntity
  8
0
  6
Continuous
 62
     1
100
AcDbText
 10
328.1631333629
 20
32.0853596703
 30
0.0
 40
1.5
  1
 
 41
1.230769230800016
  7
TEXTSTYLE_0
 72
     5
 11
330.0092872091
 21
32.0853596703
 31
0.0
100
AcDbText
  0
TEXT
  5
11E
330
26
100
AcDbEntity
  8
0
  6
Continuous
 62
     1
100
AcDbText
 10
330.0092872091
 20
32.0853596703
 30
0.0
 40
1.5
  1
 
 41
1.23076923073332
  7
TEXTSTYLE_0
 72
     5
 11
331.8554410552
 21
32.0853596703
 31
0.0
100
AcDbText
  0
TEXT
  5
120
330
26
100
AcDbEntity
  8
0
  6
Continuous
 62
     1
100
AcDbText
 10
352.836210286
 20
32.0853596703
 30
0.0
 40
1.5
  1
 
 41
1.23076923073332
  7
TEXTSTYLE_0
 72
     5
 11
354.6823641321
 21
32.0853596703
 31
0.0
100
AcDbText
  0
TEXT
  5
12A
330
26
100
AcDbEntity
  8
0
  6
Continuous
 62
     1
100
AcDbText
 10
401.5862102859999
 20
20.9420904395
 30
0.0
 40
1.5
  1
 
 41
1.230769230733358
  7
TEXTSTYLE_0
 72
     5
 11
403.4323641320999
 21
20.9420904395
 31
0.0
100
AcDbText
  0
LINE
  5
965
330
26
100
AcDbEntity
  8
0
  6
Continuous
100
AcDbLine
 10
461.6361033114424
 20
154.2090177398
 30
0.0
 11
463.6568292536423
 21
157.7090177397999
 31
0.0
  0
LINE
  5
966
330
26
100
AcDbEntity
  8
0
  6
Continuous
100
AcDbLine
 10
457.9700779076425
 20
151.7090177398
 30
0.0
 11
457.9700779076425
 21
128.7090177398
 31
0.0
  0
LINE
  5
967
330
26
100
AcDbEntity
  8
0
  6
Continuous
100
AcDbLine
 10
458.9700779076425
 20
128.7090177398
 30
0.0
 11
458.9700779076425
 21
152.7090177397999
 31
0.0
  0
LINE
  5
968
330
26
100
AcDbEntity
  8
0
  6
Continuous
100
AcDbLine
 10
459.0380271000425
 20
152.7090177397999
 30
0.0
 11
459.0380271000426
 21
128.7090177398
 31
0.0
  0
LINE
  5
969
330
26
100
AcDbEntity
  8
0
  6
Continuous
100
AcDbLine
 10
461.6361033114424
 20
154.2090177398
 30
0.0
 11
461.6361033114423
 21
128.7090177397999
 31
0.0
  0
LINE
  5
96A
330
26
100
AcDbEntity
  8
0
  6
Continuous
100
AcDbLine
 10
463.6568292536423
 20
157.7090177397999
 30
0.0
 11
463.6568292536423
 21
157.6848456414999
 31
0.0
  0
LINE
  5
96B
330
26
100
AcDbEntity
  8
0
  6
Continuous
100
AcDbLine
 10
463.6568292536423
 20
144.2221379297999
 30
0.0
 11
463.6568292536423
 21
142.1717254848999
 31
0.0
  0
LINE
  5
96C
330
26
100
AcDbEntity
  8
0
  6
Continuous
100
AcDbLine
 10
465.3888800611425
 20
158.7090177398
 30
0.0
 11
465.3888800611425
 21
158.4177292849999
 31
0.0
  0
LINE
  5
96D
330
26
100
AcDbEntity
  8
0
  6
Continuous
100
AcDbLine
 10
465.3888800611425
 20
145.4192678375999
 30
0.0
 11
465.3888800611425
 21
141.7074791872999
 31
0.0
  0
LINE
  5
96E
330
26
100
AcDbEntity
  8
0
  6
Continuous
100
AcDbLine
 10
480.8338819116425
 20
158.7090177398
 30
0.0
 11
480.8338819116425
 21
158.6840113871999
 31
0.0
  0
LINE
  5
96F
330
26
100
AcDbEntity
  8
0
  6
Continuous
100
AcDbLine
 10
480.8338819116425
 20
144.7570884079
 30
0.0
 11
480.8338819116425
 21
142.6359407191999
 31
0.0
  0
LINE
  5
970
330
26
100
AcDbEntity
  8
0
  6
Continuous
100
AcDbLine
 10
482.9164880691425
 20
155.1018380628999
 30
0.0
 11
482.9164880691425
 21
128.7090177397999
 31
0.0
  0
LINE
  5
971
330
26
100
AcDbEntity
  8
0
  6
Continuous
100
AcDbLine
 10
482.9700779076425
 20
154.9018380628999
 30
0.0
 11
482.9700779076425
 21
128.7090177397999
 31
0.0
  0
LINE
  5
972
330
26
100
AcDbEntity
  8
0
  6
Continuous
100
AcDbLine
 10
483.4319581230425
 20
128.7090177398
 30
0.0
 11
483.4319581230425
 21
152.7090177397999
 31
0.0
  0
LINE
  5
973
330
26
100
AcDbEntity
  8
0
  6
Continuous
100
AcDbLine
 10
485.1319585044425
 20
151.0090169768999
 30
0.0
 11
485.1319585044425
 21
128.7090177398
 31
0.0
  0
LINE
  5
974
330
26
100
AcDbEntity
  8
0
  6
Continuous
100
AcDbLine
 10
485.3390649082423
 20
128.7090177398
 30
0.0
 11
485.3390649082423
 21
150.8019109546
 31
0.0
  0
LINE
  5
975
330
26
100
AcDbEntity
  8
0
  6
Continuous
100
AcDbLine
 10
486.0461716853424
 20
128.7090177398
 30
0.0
 11
486.0461716853424
 21
150.5090177397999
 31
0.0
  0
LINE
  5
976
330
26
100
AcDbEntity
  8
0
  6
Continuous
100
AcDbLine
 10
488.6319581230423
 20
128.7090177398
 30
0.0
 11
488.6319581230423
 21
150.5090177397999
 31
0.0
  0
LINE
  5
977
330
26
100
AcDbEntity
  8
0
  6
Continuous
100
AcDbLine
 10
489.6319581230425
 20
128.7090177398
 30
0.0
 11
489.6319581230425
 21
155.3090177397999
 31
0.0
  0
LINE
  5
979
330
26
100
AcDbEntity
  8
0
  6
CENTER
100
AcDbLine
 10
528.2460516792424
 20
128.7090177397999
 30
0.0
 11
533.2460516792424
 21
128.7090177397999
 31
0.0
  0
LINE
  5
97A
330
26
100
AcDbEntity
  8
0
  6
Continuous
100
AcDbLine
 10
465.3888800608426
 20
141.7074791936999
 30
0.0
 11
463.6568292470425
 21
142.1717099485999
 31
0.0
  0
LINE
  5
97B
330
26
100
AcDbEntity
  8
0
  6
Continuous
100
AcDbLine
 10
480.8338819116425
 20
158.7090177398
 30
0.0
 11
482.9164880691425
 21
155.1018380628999
 31
0.0
  0
LINE
  5
97C
330
26
100
AcDbEntity
  8
0
  6
Continuous
100
AcDbLine
 10
500.1271554583426
 20
155.3090177397999
 30
0.0
 11
500.1271554583426
 21
155.2857444071999
 31
0.0
  0
LINE
  5
97D
330
26
100
AcDbEntity
  8
0
  6
Continuous
100
AcDbLine
 10
500.1271554583426
 20
142.9608123038999
 30
0.0
 11
500.1271554583426
 21
141.0339498431999
 31
0.0
  0
LINE
  5
97E
330
26
100
AcDbEntity
  8
0
  6
Continuous
100
AcDbLine
 10
501.4397035860424
 20
128.7090177398
 30
0.0
 11
501.4397035860424
 21
150.4105214397999
 31
0.0
  0
LINE
  5
97F
330
26
100
AcDbEntity
  8
0
  6
Continuous
100
AcDbLine
 10
502.3744105451425
 20
128.7090177398
 30
0.0
 11
502.3744105451425
 21
149.6698279129999
 31
0.0
  0
LINE
  5
980
330
26
100
AcDbEntity
  8
0
  6
Continuous
100
AcDbLine
 10
503.6319585044426
 20
128.7090177398
 30
0.0
 11
503.6319585044425
 21
149.6305494170999
 31
0.0
  0
LINE
  5
981
330
26
100
AcDbEntity
  8
0
  6
Continuous
100
AcDbLine
 10
500.1837908295424
 20
140.1072632188999
 30
0.0
 11
489.6319581230425
 21
140.1072632188999
 31
0.0
  0
LINE
  5
982
330
26
100
AcDbEntity
  8
0
  6
Continuous
100
AcDbLine
 10
500.1271554583426
 20
141.0339498431999
 30
0.0
 11
489.6319581230425
 21
141.0339498431999
 31
0.0
  0
LINE
  5
983
330
26
100
AcDbEntity
  8
0
  6
Continuous
100
AcDbLine
 10
485.3390649123424
 20
150.8019109504999
 30
0.0
 11
483.4319581230425
 21
152.7090177397999
 31
0.0
  0
LWPOLYLINE
  5
984
330
26
100
AcDbEntity
  8
0
  6
Continuous
100
AcDbPolyline
 90
        5
 70
     0
 43
0.0
 10
465.3888800611425
 20
142.6359407191999
 10
464.8711395803424
 20
142.6042913890999
 10
464.3886706229425
 20
142.5114943967999
 10
463.9744334083425
 20
142.3638921935999
 10
463.6568292536423
 20
142.1717099531999
  0
LINE
  5
985
330
26
100
AcDbEntity
  8
0
  6
Continuous
100
AcDbLine
 10
480.9574910420424
 20
141.7074791872999
 30
0.0
 11
465.3888799588425
 21
141.7074791872999
 31
0.0
  0
LINE
  5
986
330
26
100
AcDbEntity
  8
0
  6
Continuous
100
AcDbLine
 10
480.8338819116425
 20
142.6359407191999
 30
0.0
 11
465.3888800611425
 21
142.6359407191999
 31
0.0
  0
LINE
  5
987
330
26
100
AcDbEntity
  8
0
  6
Continuous
100
AcDbLine
 10
489.6319581230425
 20
142.9608123038999
 30
0.0
 11
500.1271554583426
 21
142.9608123038999
 31
0.0
  0
LINE
  5
988
330
26
100
AcDbEntity
  8
0
  6
Continuous
100
AcDbLine
 10
489.6319581230425
 20
143.6212996103999
 30
0.0
 11
500.1837908295424
 21
143.6212996103999
 31
0.0
  0
LINE
  5
989
330
26
100
AcDbEntity
  8
0
  6
Continuous
100
AcDbLine
 10
501.4397035866425
 20
150.4105214374999
 30
0.0
 11
500.1329737914423
 21
155.2873034248999
 31
0.0
  0
LWPOLYLINE
  5
98A
330
26
100
AcDbEntity
  8
0
  6
Continuous
100
AcDbPolyline
 90
        5
 70
     0
 43
0.0
 10
465.3888800611425
 20
144.7570884079
 10
464.8712419709425
 20
144.7206334246999
 10
464.3888800611425
 20
144.6137528219999
 10
463.9746664988424
 20
144.4437303362999
 10
463.6568292536423
 20
144.2221527188999
  0
LINE
  5
98B
330
26
100
AcDbEntity
  8
0
  6
Continuous
100
AcDbLine
 10
465.3888800611425
 20
144.7570884079
 30
0.0
 11
480.8338819116425
 21
144.7570884079
 31
0.0
  0
LINE
  5
98C
330
26
100
AcDbEntity
  8
0
  6
Continuous
100
AcDbLine
 10
465.3888799595424
 20
145.4192678375999
 30
0.0
 11
480.9574910420424
 21
145.4192678375999
 31
0.0
  0
LINE
  5
98D
330
26
100
AcDbEntity
  8
0
  6
Continuous
100
AcDbLine
 10
488.6319581230423
 20
150.5090177397999
 30
0.0
 11
486.0461716853424
 21
150.5090177397999
 31
0.0
  0
LINE
  5
98E
330
26
100
AcDbEntity
  8
0
  6
Continuous
100
AcDbLine
 10
503.6319581230425
 20
147.3094181734999
 30
0.0
 11
527.7859868289424
 21
146.5549890339
 31
0.0
  0
LINE
  5
98F
330
26
100
AcDbEntity
  8
0
  6
Continuous
100
AcDbLine
 10
525.2316811803424
 20
148.9559018333999
 30
0.0
 11
502.3744105452425
 21
149.6698279129999
 31
0.0
  0
LINE
  5
990
330
26
100
AcDbEntity
  8
0
  6
Continuous
100
AcDbLine
 10
482.9700779076425
 20
151.0090177397999
 30
0.0
 11
485.1319581230425
 21
151.0090177397999
 31
0.0
  0
LINE
  5
991
330
26
100
AcDbEntity
  8
0
  6
Continuous
100
AcDbLine
 10
483.4319581230425
 20
152.7090177397999
 30
0.0
 11
482.9700779076425
 21
152.7090177397999
 31
0.0
  0
LINE
  5
992
330
26
100
AcDbEntity
  8
0
  6
Continuous
100
AcDbLine
 10
458.9700779076425
 20
152.7090177397999
 30
0.0
 11
459.0380271000425
 21
152.7090177397999
 31
0.0
  0
LINE
  5
993
330
26
100
AcDbEntity
  8
0
  6
Continuous
100
AcDbLine
 10
500.1837908295424
 20
155.0195450893999
 30
0.0
 11
489.6319581230425
 21
155.0195450893999
 31
0.0
  0
LINE
  5
994
330
26
100
AcDbEntity
  8
0
  6
Continuous
100
AcDbLine
 10
500.1271554583426
 20
155.2857444071999
 30
0.0
 11
489.6319581230425
 21
155.2857444071999
 31
0.0
  0
LINE
  5
995
330
26
100
AcDbEntity
  8
0
  6
Continuous
100
AcDbLine
 10
500.1271554583426
 20
155.3090177397999
 30
0.0
 11
489.6319581230425
 21
155.3090177397999
 31
0.0
  0
LINE
  5
996
330
26
100
AcDbEntity
  8
0
  6
Continuous
100
AcDbLine
 10
480.9574910420424
 20
158.4177292849999
 30
0.0
 11
465.3888799606424
 21
158.4177292849999
 31
0.0
  0
LINE
  5
997
330
26
100
AcDbEntity
  8
0
  6
Continuous
100
AcDbLine
 10
480.8338819116425
 20
158.6840113871999
 30
0.0
 11
465.3888800611425
 21
158.6840113871999
 31
0.0
  0
LINE
  5
998
330
26
100
AcDbEntity
  8
0
  6
Continuous
100
AcDbLine
 10
480.8338819116425
 20
158.7090177398
 30
0.0
 11
465.3888800611425
 21
158.7090177398
 31
0.0
  0
LINE
  5
999
330
26
100
AcDbEntity
  8
0
  6
Continuous
100
AcDbLine
 10
525.2316811803424
 20
148.9559018333999
 30
0.0
 11
525.2316811803424
 21
128.7090177398
 31
0.0
  0
LINE
  5
99A
330
26
100
AcDbEntity
  8
0
  6
Continuous
100
AcDbLine
 10
525.5020363469425
 20
148.8389395158999
 30
0.0
 11
525.5020363469425
 21
128.7090177397999
 31
0.0
  0
LWPOLYLINE
  5
99B
330
26
100
AcDbEntity
  8
0
  6
Continuous
100
AcDbPolyline
 90
        5
 70
     0
 43
0.0
 10
465.3888800611425
 20
158.6840113871999
 10
464.8711395803424
 20
158.6158924275
 10
464.3886706229425
 20
158.4161647108999
 10
463.9744334083425
 20
158.0984802845999
 10
463.6568292536423
 20
157.6848449322999
  0
LINE
  5
99C
330
26
100
AcDbEntity
  8
0
  6
Continuous
100
AcDbLine
 10
527.7859864433422
 20
128.7090177398
 30
0.0
 11
527.7859864433423
 21
146.5549898009999
 31
0.0
  0
LINE
  5
99D
330
26
100
AcDbEntity
  8
0
  6
Continuous
100
AcDbLine
 10
527.9148008592425
 20
146.4261750035999
 30
0.0
 11
527.9148008592425
 21
128.7090177397999
 31
0.0
  0
LINE
  5
99E
330
26
100
AcDbEntity
  8
0
  6
Continuous
100
AcDbLine
 10
528.0319581230425
 20
146.1433322696999
 30
0.0
 11
528.0319581230425
 21
128.7090177398
 31
0.0
  0
LINE
  5
99F
330
26
100
AcDbEntity
  8
0
  6
Continuous
100
AcDbLine
 10
527.9148008592425
 20
146.4261750035999
 30
0.0
 11
525.5020363469425
 21
148.8389395158999
 31
0.0
  0
ARC
  5
A43
330
26
100
AcDbEntity
  8
0
  6
Continuous
100
AcDbCircle
 10
465.3888800611425
 20
156.7090177397999
 30
0.0
 40
2.0
100
AcDbArc
 50
90.0
 51
149.9999999999987
  0
ARC
  5
A44
330
26
100
AcDbEntity
  8
0
  6
Continuous
100
AcDbCircle
 10
482.5700779076425
 20
154.9018380628999
 30
0.0
 40
0.4
100
AcDbArc
 50
0.0
 51
29.9999999972996
  0
ARC
  5
A45
330
26
100
AcDbEntity
  8
0
  6
Continuous
100
AcDbCircle
 10
459.0380271000425
 20
155.7090177397999
 30
0.0
 40
3.0
100
AcDbArc
 50
270.0
 51
329.9999999999995
  0
ARC
  5
A46
330
26
100
AcDbEntity
  8
0
  6
Continuous
100
AcDbCircle
 10
458.9700779076425
 20
151.7090177398
 30
0.0
 40
1.0
100
AcDbArc
 50
90.0
 51
180.0
  0
ARC
  5
A47
330
26
100
AcDbEntity
  8
0
  6
Continuous
100
AcDbCircle
 10
527.6319581230425
 20
146.1433323148999
 30
0.0
 40
0.4
100
AcDbArc
 50
0.0
 51
44.99999518479877
  0
ARC
  5
A48
330
26
100
AcDbEntity
  8
0
  6
Continuous
100
AcDbCircle
 10
525.2191936334424
 20
148.5560968044999
 30
0.0
 40
0.4
100
AcDbArc
 50
44.99999977570016
 51
88.21099998370084
  0
ARC
  5
A49
330
26
100
AcDbEntity
  8
0
  6
Continuous
100
AcDbCircle
 10
486.0461716853424
 20
151.5090177397999
 30
0.0
 40
1.0
100
AcDbArc
 50
225.0000006636001
 51
270.0
  0
ARC
  5
A4A
330
26
100
AcDbEntity
  8
0
  6
Continuous
100
AcDbCircle
 10
488.6319581230423
 20
151.5090177397999
 30
0.0
 40
1.0
100
AcDbArc
 50
270.0
 51
359.9999890676008
  0
ARC
  5
A4B
330
26
100
AcDbEntity
  8
0
  6
Continuous
100
AcDbCircle
 10
502.4056294121423
 20
150.6693404853999
 30
0.0
 40
1.0
100
AcDbArc
 50
195.0000001701006
 51
268.2110000053991
  0
SPLINE
  5
A63
330
26
100
AcDbEntity
  8
0
  6
Continuous
100
AcDbSpline
210
0.0
220
0.0
230
1.0
 70
     8
 71
     3
 72
    11
 73
     7
 74
     0
 42
0.0000000001
 43
0.0000000001
 40
13.14423240269015
 40
13.14423240269015
 40
13.14423240269015
 40
13.14423240269015
 40
16.36124607087087
 40
19.59696376692874
 40
22.88470104662926
 40
26.28846427198161
 40
26.28846427198161
 40
26.28846427198161
 40
26.28846427198161
 10
482.6814027730875
 20
128.7090177397999
 30
0.0
 10
482.6814028084411
 20
129.7816005257097
 30
0.0
 10
482.6069552647003
 20
131.933002223087
 30
0.0
 10
482.271606088811
 20
135.1644847197232
 30
0.0
 10
481.7340135259207
 20
138.4323676433256
 30
0.0
 10
481.2193067553183
 20
140.6032282702355
 30
0.0
 10
480.9574910420424
 20
141.7074791872999
 30
0.0
  0
SPLINE
  5
A64
330
26
100
AcDbEntity
  8
0
  6
Continuous
100
AcDbSpline
210
0.0
220
0.0
230
1.0
 70
     8
 71
     3
 72
    15
 73
    11
 74
     9
 42
0.0000000001
 43
0.0000000001
 44
0.0000000001
 40
0.0
 40
0.0
 40
0.0
 40
0.0
 40
1.820050273770426
 40
3.528213202165745
 40
5.17083114813318
 40
6.782657774172656
 40
8.394525050501585
 40
10.0372389325995
 40
11.74591186542709
 40
13.56630241286447
 40
13.56630241286447
 40
13.56630241286447
 40
13.56630241286447
 10
480.9574910420424
 20
145.4192678375999
 30
0.0
 10
481.2180176719121
 20
145.9676693699213
 30
0.0
 10
481.7230550921794
 20
147.0307595242477
 30
0.0
 10
482.266748464535
 20
148.6712812878678
 30
0.0
 10
482.6054817163105
 20
150.2945312617016
 30
0.0
 10
482.7189708478931
 20
151.9180160843819
 30
0.0
 10
482.6056148476367
 20
153.5415431013711
 30
0.0
 10
482.2669502361717
 20
155.1650291125302
 30
0.0
 10
481.7232185429961
 20
156.8058750558564
 30
0.0
 10
481.218064008448
 20
157.8692239258763
 30
0.0
 10
480.9574910420424
 20
158.4177292849999
 30
0.0
 11
480.9574910420424
 21
145.4192678375999
 31
0.0
 11
481.7033967925424
 21
147.0794508426999
 31
0.0
 11
482.2415176658425
 21
148.7006376041999
 31
0.0
 11
482.5703281473425
 21
150.3100093398999
 31
0.0
 11
482.6814027625425
 21
151.9180042099999
 31
0.0
 11
482.5704573387425
 21
153.5260487458999
 31
0.0
 11
482.2417393313426
 21
155.1355372888999
 31
0.0
 11
481.7035211769424
 21
156.7572291244999
 31
0.0
 11
480.9574910420424
 21
158.4177292849999
 31
0.0
  0
SPLINE
  5
A65
330
26
100
AcDbEntity
  8
0
  6
Continuous
100
AcDbSpline
210
0.0
220
0.0
230
1.0
 70
     8
 71
     3
 72
    12
 73
     8
 74
     0
 42
0.0000000001
 43
0.0000000001
 40
0.0
 40
0.0
 40
0.0
 40
0.0
 40
3.159206423653361
 40
6.214163034868176
 40
9.198647566540645
 40
12.15012254408508
 40
13.62476192017816
 40
13.62476192017816
 40
13.62476192017816
 40
13.62476192017816
 10
463.6568292536423
 20
142.1717254848999
 30
0.0
 10
463.4042675136968
 20
141.1491717426337
 30
0.0
 10
462.9074782514818
 20
139.1378072370472
 30
0.0
 10
462.3624092245286
 20
136.1182953446339
 30
0.0
 10
461.9888012148995
 20
133.1432186785761
 30
0.0
 10
461.8326936568335
 20
130.6762576144534
 30
0.0
 10
461.8093927282617
 20
129.2006446631725
 30
0.0
 10
461.8093927132504
 20
128.7090177397999
 30
0.0
  0
SPLINE
  5
A66
330
26
100
AcDbEntity
  8
0
  6
Continuous
100
AcDbSpline
210
0.0
220
0.0
230
1.0
 70
     8
 71
     3
 72
    12
 73
     8
 74
     0
 42
0.0000000001
 43
0.0000000001
 40
0.0
 40
0.0
 40
0.0
 40
0.0
 40
3.447212312868733
 40
6.755067647124527
 40
9.974718923116393
 40
13.16519238301848
 40
13.16519666941012
 40
13.16519666941012
 40
13.16519666941012
 40
13.16519666941012
 10
465.3888799588425
 20
141.7074791872999
 30
0.0
 10
465.107387042202
 20
140.5931047271843
 30
0.0
 10
464.5557808394174
 20
138.4094055003606
 30
0.0
 10
463.9787661076076
 20
135.1318449403881
 30
0.0
 10
463.6207587623706
 20
131.9100488942201
 30
0.0
 10
463.5414136317987
 20
129.7727867391113
 30
0.0
 10
463.5414135796422
 20
128.7090191689666
 30
0.0
 10
463.5414135796422
 20
128.7090177398
 30
0.0
  0
SPLINE
  5
A67
330
26
100
AcDbEntity
  8
0
  6
Continuous
100
AcDbSpline
210
0.0
220
0.0
230
1.0
 70
     8
 71
     3
 72
    11
 73
     7
 74
     5
 42
0.0000000001
 43
0.0000000001
 44
0.0000000001
 40
0.0
 40
0.0
 40
0.0
 40
0.0
 40
0.5302564337388134
 40
1.036409323316245
 40
1.518737043237322
 40
1.985229177847646
 40
1.985229177847646
 40
1.985229177847646
 40
1.985229177847646
 10
465.3888800608426
 20
158.4177292883999
 30
0.0
 10
465.211361148983
 20
158.429192947935
 30
0.0
 10
464.8643926944581
 20
158.451599170407
 30
0.0
 10
464.3689305878667
 20
158.3165589460086
 30
0.0
 10
463.9392240145072
 20
158.0683808700631
 30
0.0
 10
463.749907620227
 20
157.811259806401
 30
0.0
 10
463.6568292466425
 20
157.6848449202999
 30
0.0
 11
465.3888800608426
 21
158.4177292883999
 31
0.0
 11
464.8586419110424
 21
158.4221326982
 31
0.0
 11
464.3691656636424
 21
158.2932771555999
 31
0.0
 11
463.9580382957425
 21
158.0410583680999
 31
0.0
 11
463.6568292466425
 21
157.6848449202999
 31
0.0
  0
SPLINE
  5
A68
330
26
100
AcDbEntity
  8
0
  6
Continuous
100
AcDbSpline
210
0.0
220
0.0
230
1.0
 70
     8
 71
     3
 72
    16
 73
    12
 74
    10
 42
0.0000000001
 43
0.0000000001
 44
0.0000000001
 40
0.0
 40
0.0
 40
0.0
 40
0.0
 40
1.665086023059169
 40
3.233698854524322
 40
4.738542085419939
 40
6.211854389058836
 40
7.683850364089394
 40
9.182192381946251
 40
10.73305952619995
 40
12.36079910286212
 40
14.09301282048018
 40
14.09301282048018
 40
14.09301282048018
 40
14.09301282048018
 10
463.6568292536423
 20
157.6848456414999
 30
0.0
 10
463.4056866582719
 20
157.1894849541753
 30
0.0
 10
462.9179523840513
 20
156.2274642147094
 30
0.0
 10
462.3678578612038
 20
154.7429484651405
 30
0.0
 10
461.9911835477265
 20
153.271831862481
 30
0.0
 10
461.8017580544378
 20
151.7964810967459
 30
0.0
 10
461.8015873626
 20
150.3113215756128
 30
0.0
 10
461.9908933742316
 20
148.8122517376733
 30
0.0
 10
462.3677368860468
 20
147.2966337609417
 30
0.0
 10
462.9180695292261
 20
145.7514126662245
 30
0.0
 10
463.4055237238615
 20
144.7423547000377
 30
0.0
 10
463.6568292536423
 20
144.2221379297999
 30
0.0
 11
463.6568292536423
 21
157.6848456414999
 31
0.0
 11
462.9331861903424
 21
156.1852282965999
 31
0.0
 11
462.3870701547423
 21
154.7147509962999
 31
0.0
 11
462.0191985349424
 21
153.2555650516999
 31
0.0
 11
461.8330442907425
 21
151.7940604360999
 31
0.0
 11
461.8321598086425
 21
150.3220647267999
 31
0.0
 11
462.0171905127424
 21
148.8351913491999
 31
0.0
 11
462.3853712805425
 21
147.3286616211999
 31
0.0
 11
462.9323939351425
 21
145.7955920386999
 31
0.0
 11
463.6568292536423
 21
144.2221379297999
 31
0.0
  0
SPLINE
  5
A69
330
26
100
AcDbEntity
  8
0
  6
Continuous
100
AcDbSpline
210
0.0
220
0.0
230
1.0
 70
     8
 71
     3
 72
    11
 73
     7
 74
     5
 42
0.0000000001
 43
0.0000000001
 44
0.0000000001
 40
0.0
 40
0.0
 40
0.0
 40
0.0
 40
0.547702049371564
 40
1.102068671956689
 40
1.650312893880405
 40
2.181019090939698
 40
2.181019090939698
 40
2.181019090939698
 40
2.181019090939698
 10
465.3888800609425
 20
145.4192678350999
 30
0.0
 10
465.2091582073251
 20
145.3820960703569
 30
0.0
 10
464.8475276003828
 20
145.3073002256971
 30
0.0
 10
464.3604814749583
 20
145.0381629968945
 30
0.0
 10
463.9395664979525
 20
144.6817784441587
 30
0.0
 10
463.7500481431227
 20
144.3736920057395
 30
0.0
 10
463.6568292485424
 20
144.2221527141999
 30
0.0
 11
465.3888800609425
 21
145.4192678350999
 31
0.0
 11
464.8587008784423
 21
145.2818357815999
 31
0.0
 11
464.3691038143423
 21
145.0218029623999
 31
0.0
 11
463.9579055466425
 21
144.6591906191
 31
0.0
 11
463.6568292485424
 21
144.2221527141999
 31
0.0
  0
SPLINE
  5
A6A
330
26
100
AcDbEntity
  8
0
  6
Continuous
100
AcDbSpline
210
0.0
220
0.0
230
1.0
 70
     8
 71
     3
 72
    15
 73
    11
 74
     9
 42
0.0000000001
 43
0.0000000001
 44
0.0000000001
 40
0.0
 40
0.0
 40
0.0
 40
0.0
 40
1.856058265086442
 40
3.581360121084638
 40
5.220082541999537
 40
6.816741461036135
 40
8.415110048598331
 40
10.0583480788893
 40
11.78764770465462
 40
13.64579436850979
 40
13.64579436850979
 40
13.64579436850979
 40
13.64579436850979
 10
465.3888799606424
 20
158.4177292849999
 30
0.0
 10
465.1092225317399
 20
157.8653058065655
 30
0.0
 10
464.5696091034998
 20
156.7993762219014
 30
0.0
 10
463.9855857753278
 20
155.1548859577838
 30
0.0
 10
463.6232264962498
 20
153.5368419733975
 30
0.0
 10
463.5014523042175
 20
151.9241226940692
 30
0.0
 10
463.6216183194773
 20
150.3097478582043
 30
0.0
 10
463.983639236388
 20
148.688089294444
 30
0.0
 10
464.5684212671539
 20
147.0400796123489
 30
0.0
 10
465.1089228281303
 20
145.9723216588674
 30
0.0
 10
465.3888799595424
 20
145.4192678375999
 30
0.0
 11
465.3888799606424
 21
158.4177292849999
 31
0.0
 11
464.5872227974424
 21
156.7437226911999
 31
0.0
 11
464.0102615028424
 21
155.1177515478999
 31
0.0
 11
463.6598731932425
 21
153.5169270086999
 31
0.0
 11
463.5414136904424
 21
151.9246685340999
 31
0.0
 11
463.6583269730425
 21
150.3305815144999
 31
0.0
 11
464.0085733236425
 21
148.7251037917999
 31
0.0
 11
464.5864151562425
 21
147.0952031775999
 31
0.0
 11
465.3888799595424
 21
145.4192678375999
 31
0.0
  0
SPLINE
  5
A6B
330
26
100
AcDbEntity
  8
0
  6
Continuous
100
AcDbSpline
210
0.0
220
0.0
230
1.0
 70
     8
 71
     3
 72
    10
 73
     6
 74
     4
 42
0.0000000001
 43
0.0000000001
 44
0.0000000001
 40
0.0
 40
0.0
 40
0.0
 40
0.0
 40
0.2930095649124312
 40
0.6069800283564879
 40
0.9387090155588762
 40
0.9387090155588762
 40
0.9387090155588762
 40
0.9387090155588762
 10
480.8338819116425
 20
142.6359407191999
 30
0.0
 10
480.8367800046484
 20
142.5382685707412
 30
0.0
 10
480.8427835102862
 20
142.3359371435783
 30
0.0
 10
480.8849264078901
 20
142.0251822390042
 30
0.0
 10
480.9328633642895
 20
141.8153042796463
 30
0.0
 10
480.9574910420424
 20
141.7074791872999
 30
0.0
 11
480.8338819116425
 21
142.6359407191999
 31
0.0
 11
480.8475273139424
 21
142.3432490586999
 31
0.0
 11
480.8886093074424
 21
142.0319779200999
 31
0.0
 11
480.9574910420424
 21
141.7074791872999
 31
0.0
  0
SPLINE
  5
A6C
330
26
100
AcDbEntity
  8
0
  6
Continuous
100
AcDbSpline
210
0.0
220
0.0
230
1.0
 70
     8
 71
     3
 72
    10
 73
     6
 74
     4
 42
0.0000000001
 43
0.0000000001
 44
0.0000000001
 40
0.0
 40
0.0
 40
0.0
 40
0.0
 40
0.1975943167476889
 40
0.4238829328415001
 40
0.6787003532944484
 40
0.6787003532944484
 40
0.6787003532944484
 40
0.6787003532944484
 10
480.9574910420424
 20
145.4192678375999
 30
0.0
 10
480.932287205574
 20
145.358231508145
 30
0.0
 10
480.8782194758086
 20
145.2272952607616
 30
0.0
 10
480.8412367965462
 20
145.0022435134757
 30
0.0
 10
480.836428579752
 20
144.8419746702137
 30
0.0
 10
480.8338819116425
 20
144.7570884079
 30
0.0
 11
480.9574910420424
 21
145.4192678375999
 31
0.0
 11
480.8886093074424
 21
145.2340684297999
 31
0.0
 11
480.8475273139424
 21
145.0115402122999
 31
0.0
 11
480.8338819116425
 21
144.7570884079
 31
0.0
  0
SPLINE
  5
A6D
330
26
100
AcDbEntity
  8
0
  6
Continuous
100
AcDbSpline
210
0.0
220
0.0
230
1.0
 70
     8
 71
     3
 72
    10
 73
     6
 74
     4
 42
0.0000000001
 43
0.0000000001
 44
0.0000000001
 40
0.0
 40
0.0
 40
0.0
 40
0.0
 40
0.0406015220258771
 40
0.1383922998902108
 40
0.293791770078591
 40
0.293791770078591
 40
0.293791770078591
 40
0.293791770078591
 10
480.8338819116425
 20
158.6840113871999
 30
0.0
 10
480.8382608893965
 20
158.6711961285003
 30
0.0
 10
480.8531868520769
 20
158.6275146841448
 30
0.0
 10
480.8974140230481
 20
158.5398625915938
 30
0.0
 10
480.9346418696199
 20
158.4641804077025
 30
0.0
 10
480.9574910420424
 20
158.4177292849999
 30
0.0
 11
480.8338819116425
 21
158.6840113871999
 31
0.0
 11
480.8475273139424
 21
158.6457715312
 31
0.0
 11
480.8886093074424
 21
158.5570286100999
 31
0.0
 11
480.9574910420424
 21
158.4177292849999
 31
0.0
  0
SPLINE
  5
A6E
330
26
100
AcDbEntity
  8
0
  6
Continuous
100
AcDbSpline
210
0.0
220
0.0
230
1.0
 70
     8
 71
     3
 72
    14
 73
    10
 74
     8
 42
0.0000000001
 43
0.0000000001
 44
0.0000000001
 40
0.0
 40
0.0
 40
0.0
 40
0.0
 40
1.670079410160245
 40
3.307335427128653
 40
4.937757151057647
 40
6.568452977305816
 40
8.198906336259579
 40
9.835830170130009
 40
11.50561014182399
 40
11.50561014182399
 40
11.50561014182399
 40
11.50561014182399
 10
500.1837908295424
 20
143.6212996103999
 30
0.0
 10
500.3013731228586
 20
144.1655866727232
 30
0.0
 10
500.5342267715665
 20
145.2434634927105
 30
0.0
 10
500.761915873022
 20
146.8751469411174
 30
0.0
 10
500.8825596511391
 20
148.5046428479944
 30
0.0
 10
500.882537366409
 20
150.1368128301632
 30
0.0
 10
500.7618570624706
 20
151.7662055621566
 30
0.0
 10
500.5341654665481
 20
153.3976857271113
 30
0.0
 10
500.3013534656621
 20
154.475355978922
 30
0.0
 10
500.1837908295424
 20
155.0195450893999
 30
0.0
 11
500.1837908295424
 21
143.6212996103999
 31
0.0
 11
500.5160504597426
 21
145.2579940761999
 31
0.0
 11
500.7446080636425
 21
146.8792185167999
 31
0.0
 11
500.8624727570426
 21
148.5053743862999
 31
0.0
 11
500.8624507814426
 21
150.1360702124
 31
0.0
 11
500.7445403912425
 21
151.7622544871999
 31
0.0
 11
500.5159993536424
 21
153.3831457950999
 31
0.0
 11
500.1837908295424
 21
155.0195450893999
 31
0.0
  0
SPLINE
  5
A6F
330
26
100
AcDbEntity
  8
0
  6
Continuous
100
AcDbSpline
210
0.0
220
0.0
230
1.0
 70
     8
 71
     3
 72
    11
 73
     7
 74
     5
 42
0.0000000001
 43
0.0000000001
 44
0.0000000001
 40
0.0
 40
0.0
 40
0.0
 40
0.0
 40
2.860483199973738
 40
5.710005133730966
 40
8.554094410894875
 40
11.42536714516868
 40
11.42536714516868
 40
11.42536714516868
 40
11.42536714516868
 10
500.8774131971424
 20
128.7090177397999
 30
0.0
 10
500.8685801711213
 20
129.6625600126065
 30
0.0
 10
500.850947966909
 20
131.5659906193673
 30
0.0
 10
500.7088219413604
 20
134.4144444364595
 30
0.0
 10
500.4940690741886
 20
137.261736069823
 30
0.0
 10
500.2875443360409
 20
139.1557513915381
 30
0.0
 10
500.1837908295424
 20
140.1072632188999
 30
0.0
 11
500.8774131971424
 21
128.7090177397999
 31
0.0
 11
500.8315300707424
 21
131.5691329255999
 31
0.0
 11
500.6966685880426
 21
134.4154617244999
 31
0.0
 11
500.4790957045424
 21
137.2512166251999
 31
0.0
 11
500.1837908295424
 21
140.1072632188999
 31
0.0
  0
SPLINE
  5
A70
330
26
100
AcDbEntity
  8
0
  6
Continuous
100
AcDbSpline
210
0.0
220
0.0
230
1.0
 70
     8
 71
     3
 72
    10
 73
     6
 74
     4
 42
0.0000000001
 43
0.0000000001
 44
0.0000000001
 40
0.0
 40
0.0
 40
0.0
 40
0.0
 40
0.039459902543735
 40
0.1307864022276153
 40
0.2722159044959862
 40
0.2722159044959862
 40
0.2722159044959862
 40
0.2722159044959862
 10
500.1271554583426
 20
155.2857444071999
 30
0.0
 10
500.1291789832193
 20
155.2727452272409
 30
0.0
 10
500.135885779774
 20
155.2296605800636
 30
0.0
 10
500.1562794534274
 20
155.1411796505547
 30
0.0
 10
500.1733924571129
 20
155.0655188517417
 30
0.0
 10
500.1837908295424
 20
155.0195450893999
 30
0.0
 11
500.1271554583426
 21
155.2857444071999
 31
0.0
 11
500.1335074413424
 21
155.2467991093999
 31
0.0
 11
500.1524759238424
 21
155.157464199
 31
0.0
 11
500.1837908295424
 21
155.0195450893999
 31
0.0
  0
SPLINE
  5
A71
330
26
100
AcDbEntity
  8
0
  6
Continuous
100
AcDbSpline
210
0.0
220
0.0
230
1.0
 70
     8
 71
     3
 72
    10
 73
     6
 74
     4
 42
0.0000000001
 43
0.0000000001
 44
0.0000000001
 40
0.0
 40
0.0
 40
0.0
 40
0.0
 40
0.185393161832022
 40
0.4082455429969357
 40
0.6640387729385324
 40
0.6640387729385324
 40
0.6640387729385324
 40
0.6640387729385324
 10
500.1837908295424
 20
143.6212996103999
 30
0.0
 10
500.1723072488938
 20
143.5605391787107
 30
0.0
 10
500.1470197972368
 20
143.4267414960855
 30
0.0
 10
500.1306212904989
 20
143.2055769565734
 30
0.0
 10
500.1283625519116
 20
143.0460598937381
 30
0.0
 10
500.1271554583426
 20
142.9608123038999
 30
0.0
 11
500.1837908295424
 21
143.6212996103999
 31
0.0
 11
500.1524759238424
 21
143.4385702992999
 31
0.0
 11
500.1335074413424
 21
143.2165266538999
 31
0.0
 11
500.1271554583426
 21
142.9608123038999
 31
0.0
  0
SPLINE
  5
A72
330
26
100
AcDbEntity
  8
0
  6
Continuous
100
AcDbSpline
210
0.0
220
0.0
230
1.0
 70
     8
 71
     3
 72
    10
 73
     6
 74
     4
 42
0.0000000001
 43
0.0000000001
 44
0.0000000001
 40
0.0
 40
0.0
 40
0.0
 40
0.0
 40
0.2947281047502252
 40
0.6066838843131468
 40
0.9288578015570435
 40
0.9288578015570435
 40
0.9288578015570435
 40
0.9288578015570435
 10
500.1271554583426
 20
141.0339498431999
 30
0.0
 10
500.1285008869442
 20
140.9357068167941
 30
0.0
 10
500.1312703881791
 20
140.7334781867249
 30
0.0
 10
500.1505333894421
 20
140.4243083230492
 30
0.0
 10
500.1725865638707
 20
140.2140741329715
 30
0.0
 10
500.1837908295424
 20
140.1072632188999
 30
0.0
 11
500.1271554583426
 21
141.0339498431999
 31
0.0
 11
500.1335074413424
 21
140.7392901953999
 31
0.0
 11
500.1524759238424
 21
140.4279116394999
 31
0.0
 11
500.1837908295424
 21
140.1072632188999
 31
0.0
  0
LINE
  5
A76
330
26
100
AcDbEntity
  8
0
  6
CENTER
100
AcDbLine
 10
448.00001453579
 20
128.7090177397999
 30
0.0
 11
535.1646579139886
 21
128.7090177397999
 31
0.0
  0
SPLINE
  5
5EFD
330
26
100
AcDbEntity
  8
0
  6
Continuous
100
AcDbSpline
210
0.0
220
0.0
230
1.0
 70
     8
 71
     3
 72
    10
 73
     6
 74
     4
 42
0.0000000001
 43
0.0000000001
 44
0.0000000001
 40
0.0
 40
0.0
 40
0.0
 40
0.0
 40
0.294728104750211
 40
0.6066838843131468
 40
0.9288578015570435
 40
0.9288578015570435
 40
0.9288578015570435
 40
0.9288578015570435
 10
500.1271554583426
 20
116.3840856363999
 30
0.0
 10
500.1285008869442
 20
116.4823286628057
 30
0.0
 10
500.1312703881791
 20
116.684557292875
 30
0.0
 10
500.1505333894422
 20
116.9937271565506
 30
0.0
 10
500.1725865638707
 20
117.2039613466282
 30
0.0
 10
500.1837908295424
 20
117.3107722606999
 30
0.0
 11
500.1271554583426
 21
116.3840856363999
 31
0.0
 11
500.1335074413424
 21
116.6787452841999
 31
0.0
 11
500.1524759238424
 21
116.9901238400999
 31
0.0
 11
500.1837908295424
 21
117.3107722606999
 31
0.0
  0
SPLINE
  5
5EFE
330
26
100
AcDbEntity
  8
0
  6
Continuous
100
AcDbSpline
210
0.0
220
0.0
230
1.0
 70
     8
 71
     3
 72
    10
 73
     6
 74
     4
 42
0.0000000001
 43
0.0000000001
 44
0.0000000001
 40
0.0
 40
0.0
 40
0.0
 40
0.0
 40
0.185393161832022
 40
0.4082455429969498
 40
0.6640387729385323
 40
0.6640387729385323
 40
0.6640387729385323
 40
0.6640387729385323
 10
500.1837908295424
 20
113.7967358691999
 30
0.0
 10
500.1723072488938
 20
113.8574963008891
 30
0.0
 10
500.1470197972366
 20
113.9912939835143
 30
0.0
 10
500.1306212904989
 20
114.2124585230264
 30
0.0
 10
500.1283625519115
 20
114.3719755858618
 30
0.0
 10
500.1271554583426
 20
114.4572231756999
 30
0.0
 11
500.1837908295424
 21
113.7967358691999
 31
0.0
 11
500.1524759238424
 21
113.9794651802999
 31
0.0
 11
500.1335074413424
 21
114.2015088256999
 31
0.0
 11
500.1271554583426
 21
114.4572231756999
 31
0.0
  0
SPLINE
  5
5EFF
330
26
100
AcDbEntity
  8
0
  6
Continuous
100
AcDbSpline
210
0.0
220
0.0
230
1.0
 70
     8
 71
     3
 72
    10
 73
     6
 74
     4
 42
0.0000000001
 43
0.0000000001
 44
0.0000000001
 40
0.0
 40
0.0
 40
0.0
 40
0.0
 40
0.039459902543735
 40
0.1307864022277265
 40
0.2722159044960004
 40
0.2722159044960004
 40
0.2722159044960004
 40
0.2722159044960004
 10
500.1271554583426
 20
102.1322910723999
 30
0.0
 10
500.1291789832193
 20
102.1452902523589
 30
0.0
 10
500.135885779774
 20
102.1883748995363
 30
0.0
 10
500.1562794534272
 20
102.2768558290451
 30
0.0
 10
500.1733924571125
 20
102.3525166278582
 30
0.0
 10
500.1837908295424
 20
102.3984903901999
 30
0.0
 11
500.1271554583426
 21
102.1322910723999
 31
0.0
 11
500.1335074413424
 21
102.1712363701999
 31
0.0
 11
500.1524759238424
 21
102.2605712805999
 31
0.0
 11
500.1837908295424
 21
102.3984903901999
 31
0.0
  0
SPLINE
  5
5F00
330
26
100
AcDbEntity
  8
0
  6
Continuous
100
AcDbSpline
210
0.0
220
0.0
230
1.0
 70
     8
 71
     3
 72
    11
 73
     7
 74
     5
 42
0.0000000001
 43
0.0000000001
 44
0.0000000001
 40
0.0
 40
0.0
 40
0.0
 40
0.0
 40
2.860483199973723
 40
5.710005133730951
 40
8.554094410894845
 40
11.42536714516864
 40
11.42536714516864
 40
11.42536714516864
 40
11.42536714516864
 10
500.8774131971424
 20
128.7090177397999
 30
0.0
 10
500.8685801711212
 20
127.7554754669933
 30
0.0
 10
500.850947966909
 20
125.8520448602325
 30
0.0
 10
500.7088219413604
 20
123.0035910431403
 30
0.0
 10
500.4940690741886
 20
120.1562994097768
 30
0.0
 10
500.287544336041
 20
118.2622840880617
 30
0.0
 10
500.1837908295424
 20
117.3107722606999
 30
0.0
 11
500.8774131971424
 21
128.7090177397999
 31
0.0
 11
500.8315300707424
 21
125.8489025539999
 31
0.0
 11
500.6966685880426
 21
123.0025737550999
 31
0.0
 11
500.4790957045424
 21
120.1668188543999
 31
0.0
 11
500.1837908295424
 21
117.3107722606999
 31
0.0
  0
SPLINE
  5
5F01
330
26
100
AcDbEntity
  8
0
  6
Continuous
100
AcDbSpline
210
0.0
220
0.0
230
1.0
 70
     8
 71
     3
 72
    14
 73
    10
 74
     8
 42
0.0000000001
 43
0.0000000001
 44
0.0000000001
 40
0.0
 40
0.0
 40
0.0
 40
0.0
 40
1.670079410160231
 40
3.307335427128639
 40
4.937757151057634
 40
6.568452977305716
 40
8.198906336259578
 40
9.835830170130008
 40
11.50561014182397
 40
11.50561014182397
 40
11.50561014182397
 40
11.50561014182397
 10
500.1837908295424
 20
113.7967358691999
 30
0.0
 10
500.3013731228585
 20
113.2524488068766
 30
0.0
 10
500.5342267715664
 20
112.1745719868894
 30
0.0
 10
500.7619158730219
 20
110.5428885384824
 30
0.0
 10
500.8825596511392
 20
108.9133926316056
 30
0.0
 10
500.8825373664092
 20
107.2812226494366
 30
0.0
 10
500.7618570624705
 20
105.6518299174433
 30
0.0
 10
500.534165466548
 20
104.0203497524886
 30
0.0
 10
500.3013534656622
 20
102.9426795006778
 30
0.0
 10
500.1837908295424
 20
102.3984903901999
 30
0.0
 11
500.1837908295424
 21
113.7967358691999
 31
0.0
 11
500.5160504597426
 21
112.1600414033999
 31
0.0
 11
500.7446080636425
 21
110.5388169627999
 31
0.0
 11
500.8624727570426
 21
108.9126610932999
 31
0.0
 11
500.8624507814426
 21
107.2819652671999
 31
0.0
 11
500.7445403912425
 21
105.6557809923999
 31
0.0
 11
500.5159993536424
 21
104.0348896844999
 31
0.0
 11
500.1837908295424
 21
102.3984903901999
 31
0.0
  0
SPLINE
  5
5F02
330
26
100
AcDbEntity
  8
0
  6
Continuous
100
AcDbSpline
210
0.0
220
0.0
230
1.0
 70
     8
 71
     3
 72
    10
 73
     6
 74
     4
 42
0.0000000001
 43
0.0000000001
 44
0.0000000001
 40
0.0
 40
0.0
 40
0.0
 40
0.0
 40
0.040601522025944
 40
0.1383922998902648
 40
0.2937917700785941
 40
0.2937917700785941
 40
0.2937917700785941
 40
0.2937917700785941
 10
480.8338819116425
 20
98.73402409239998
 30
0.0
 10
480.8382608893964
 20
98.74683935109957
 30
0.0
 10
480.853186852077
 20
98.79052079545514
 30
0.0
 10
480.8974140230482
 20
98.87817288800611
 30
0.0
 10
480.9346418696198
 20
98.95385507189738
 30
0.0
 10
480.9574910420424
 20
99.00030619459997
 30
0.0
 11
480.8338819116425
 21
98.73402409239998
 31
0.0
 11
480.8475273139424
 21
98.77226394839993
 31
0.0
 11
480.8886093074424
 21
98.86100686950002
 31
0.0
 11
480.9574910420424
 21
99.00030619459997
 31
0.0
  0
SPLINE
  5
5F03
330
26
100
AcDbEntity
  8
0
  6
Continuous
100
AcDbSpline
210
0.0
220
0.0
230
1.0
 70
     8
 71
     3
 72
    10
 73
     6
 74
     4
 42
0.0000000001
 43
0.0000000001
 44
0.0000000001
 40
0.0
 40
0.0
 40
0.0
 40
0.0
 40
0.1975943167477688
 40
0.4238829328414961
 40
0.6787003532945296
 40
0.6787003532945296
 40
0.6787003532945296
 40
0.6787003532945296
 10
480.9574910420424
 20
111.9987676419999
 30
0.0
 10
480.932287205574
 20
112.0598039714548
 30
0.0
 10
480.8782194758088
 20
112.1907402188383
 30
0.0
 10
480.8412367965461
 20
112.4157919661242
 30
0.0
 10
480.8364285797519
 20
112.5760608093862
 30
0.0
 10
480.8338819116425
 20
112.6609470716999
 30
0.0
 11
480.9574910420424
 21
111.9987676419999
 31
0.0
 11
480.8886093074424
 21
112.1839670498
 31
0.0
 11
480.8475273139424
 21
112.4064952672999
 31
0.0
 11
480.8338819116425
 21
112.6609470716999
 31
0.0
  0
SPLINE
  5
5F04
330
26
100
AcDbEntity
  8
0
  6
Continuous
100
AcDbSpline
210
0.0
220
0.0
230
1.0
 70
     8
 71
     3
 72
    10
 73
     6
 74
     4
 42
0.0000000001
 43
0.0000000001
 44
0.0000000001
 40
0.0
 40
0.0
 40
0.0
 40
0.0
 40
0.2930095649124312
 40
0.6069800283564879
 40
0.9387090155589595
 40
0.9387090155589595
 40
0.9387090155589595
 40
0.9387090155589595
 10
480.8338819116425
 20
114.7820947603999
 30
0.0
 10
480.8367800046484
 20
114.8797669088586
 30
0.0
 10
480.8427835102862
 20
115.0820983360215
 30
0.0
 10
480.8849264078901
 20
115.3928532405957
 30
0.0
 10
480.9328633642893
 20
115.6027311999537
 30
0.0
 10
480.9574910420424
 20
115.7105562923
 30
0.0
 11
480.8338819116425
 21
114.7820947603999
 31
0.0
 11
480.8475273139424
 21
115.0747864208999
 31
0.0
 11
480.8886093074424
 21
115.3860575594999
 31
0.0
 11
480.9574910420424
 21
115.7105562923
 31
0.0
  0
SPLINE
  5
5F05
330
26
100
AcDbEntity
  8
0
  6
Continuous
100
AcDbSpline
210
0.0
220
0.0
230
1.0
 70
     8
 71
     3
 72
    15
 73
    11
 74
     9
 42
0.0000000001
 43
0.0000000001
 44
0.0000000001
 40
0.0
 40
0.0
 40
0.0
 40
0.0
 40
1.856058265086391
 40
3.581360121084573
 40
5.220082541999473
 40
6.816741461036085
 40
8.415110048598267
 40
10.05834807888926
 40
11.78764770465456
 40
13.64579436850974
 40
13.64579436850974
 40
13.64579436850974
 40
13.64579436850974
 10
465.3888799606424
 20
99.00030619459997
 30
0.0
 10
465.1092225317398
 20
99.55272967303438
 30
0.0
 10
464.5696091034999
 20
100.6186592576984
 30
0.0
 10
463.9855857753277
 20
102.2631495218161
 30
0.0
 10
463.62322649625
 20
103.8811935062023
 30
0.0
 10
463.5014523042175
 20
105.4939127855306
 30
0.0
 10
463.6216183194773
 20
107.1082876213955
 30
0.0
 10
463.983639236388
 20
108.7299461851558
 30
0.0
 10
464.5684212671539
 20
110.377955867251
 30
0.0
 10
465.1089228281304
 20
111.4457138207324
 30
0.0
 10
465.3888799595424
 20
111.9987676419999
 30
0.0
 11
465.3888799606424
 21
99.00030619459997
 31
0.0
 11
464.5872227974424
 21
100.6743127883999
 31
0.0
 11
464.0102615028424
 21
102.3002839316999
 31
0.0
 11
463.6598731932425
 21
103.9011084708999
 31
0.0
 11
463.5414136904424
 21
105.4933669454999
 31
0.0
 11
463.6583269730425
 21
107.0874539650999
 31
0.0
 11
464.0085733236425
 21
108.6929316877999
 31
0.0
 11
464.5864151562425
 21
110.3228323019999
 31
0.0
 11
465.3888799595424
 21
111.9987676419999
 31
0.0
  0
SPLINE
  5
5F06
330
26
100
AcDbEntity
  8
0
  6
Continuous
100
AcDbSpline
210
0.0
220
0.0
230
1.0
 70
     8
 71
     3
 72
    11
 73
     7
 74
     5
 42
0.0000000001
 43
0.0000000001
 44
0.0000000001
 40
0.0
 40
0.0
 40
0.0
 40
0.0
 40
0.547702049371564
 40
1.102068671956689
 40
1.650312893880471
 40
2.181019090939751
 40
2.181019090939751
 40
2.181019090939751
 40
2.181019090939751
 10
465.3888800609425
 20
111.9987676444999
 30
0.0
 10
465.2091582073251
 20
112.035939409243
 30
0.0
 10
464.8475276003829
 20
112.1107352539028
 30
0.0
 10
464.3604814749583
 20
112.3798724827052
 30
0.0
 10
463.9395664979525
 20
112.7362570354413
 30
0.0
 10
463.7500481431229
 20
113.0443434738605
 30
0.0
 10
463.6568292485424
 20
113.1958827654
 30
0.0
 11
465.3888800609425
 21
111.9987676444999
 31
0.0
 11
464.8587008784423
 21
112.1361996979999
 31
0.0
 11
464.3691038143423
 21
112.3962325171999
 31
0.0
 11
463.9579055466425
 21
112.7588448604999
 31
0.0
 11
463.6568292485424
 21
113.1958827654
 31
0.0
  0
SPLINE
  5
5F07
330
26
100
AcDbEntity
  8
0
  6
Continuous
100
AcDbSpline
210
0.0
220
0.0
230
1.0
 70
     8
 71
     3
 72
    16
 73
    12
 74
    10
 42
0.0000000001
 43
0.0000000001
 44
0.0000000001
 40
0.0
 40
0.0
 40
0.0
 40
0.0
 40
1.665086023059118
 40
3.233698854524271
 40
4.738542085419902
 40
6.211854389058784
 40
7.683850364089357
 40
9.182192381946214
 40
10.7330595261999
 40
12.36079910286209
 40
14.09301282048014
 40
14.09301282048014
 40
14.09301282048014
 40
14.09301282048014
 10
463.6568292536423
 20
99.73318983809996
 30
0.0
 10
463.4056866582718
 20
100.2285505254245
 30
0.0
 10
462.9179523840512
 20
101.1905712648904
 30
0.0
 10
462.3678578612039
 20
102.6750870144593
 30
0.0
 10
461.9911835477263
 20
104.1462036171188
 30
0.0
 10
461.8017580544378
 20
105.6215543828539
 30
0.0
 10
461.8015873626001
 20
107.106713903987
 30
0.0
 10
461.9908933742316
 20
108.6057837419265
 30
0.0
 10
462.3677368860468
 20
110.1214017186581
 30
0.0
 10
462.9180695292259
 20
111.6666228133754
 30
0.0
 10
463.4055237238614
 20
112.6756807795621
 30
0.0
 10
463.6568292536423
 20
113.1958975497999
 30
0.0
 11
463.6568292536423
 21
99.73318983809996
 31
0.0
 11
462.9331861903424
 21
101.2328071829999
 31
0.0
 11
462.3870701547423
 21
102.7032844832999
 31
0.0
 11
462.0191985349424
 21
104.1624704278999
 31
0.0
 11
461.8330442907425
 21
105.6239750434999
 31
0.0
 11
461.8321598086425
 21
107.0959707527999
 31
0.0
 11
462.0171905127424
 21
108.5828441303999
 31
0.0
 11
462.3853712805425
 21
110.0893738583999
 31
0.0
 11
462.9323939351425
 21
111.6224434408999
 31
0.0
 11
463.6568292536423
 21
113.1958975497999
 31
0.0
  0
SPLINE
  5
5F08
330
26
100
AcDbEntity
  8
0
  6
Continuous
100
AcDbSpline
210
0.0
220
0.0
230
1.0
 70
     8
 71
     3
 72
    11
 73
     7
 74
     5
 42
0.0000000001
 43
0.0000000001
 44
0.0000000001
 40
0.0
 40
0.0
 40
0.0
 40
0.0
 40
0.5302564337388127
 40
1.036409323316234
 40
1.518737043237295
 40
1.985229177847641
 40
1.985229177847641
 40
1.985229177847641
 40
1.985229177847641
 10
465.3888800608426
 20
99.00030619119995
 30
0.0
 10
465.211361148983
 20
98.98884253166484
 30
0.0
 10
464.8643926944582
 20
98.96643630919293
 30
0.0
 10
464.3689305878667
 20
99.1014765335913
 30
0.0
 10
463.9392240145072
 20
99.34965460953671
 30
0.0
 10
463.7499076202271
 20
99.6067756731989
 30
0.0
 10
463.6568292466425
 20
99.73319055929999
 30
0.0
 11
465.3888800608426
 21
99.00030619119995
 31
0.0
 11
464.8586419110424
 21
98.99590278139993
 31
0.0
 11
464.3691656636424
 21
99.12475832399998
 31
0.0
 11
463.9580382957425
 21
99.37697711149995
 31
0.0
 11
463.6568292466425
 21
99.73319055929999
 31
0.0
  0
SPLINE
  5
5F09
330
26
100
AcDbEntity
  8
0
  6
Continuous
100
AcDbSpline
210
0.0
220
0.0
230
1.0
 70
     8
 71
     3
 72
    12
 73
     8
 74
     0
 42
0.0000000001
 43
0.0000000001
 40
0.0
 40
0.0
 40
0.0
 40
0.0
 40
3.447212312868733
 40
6.755067647124527
 40
9.974718923116393
 40
13.16519238301848
 40
13.16519666941012
 40
13.16519666941012
 40
13.16519666941012
 40
13.16519666941012
 10
465.3888799588425
 20
115.7105562923
 30
0.0
 10
465.107387042202
 20
116.8249307524156
 30
0.0
 10
464.5557808394174
 20
119.0086299792393
 30
0.0
 10
463.9787661076076
 20
122.2861905392118
 30
0.0
 10
463.6207587623706
 20
125.5079865853798
 30
0.0
 10
463.5414136317987
 20
127.6452487404886
 30
0.0
 10
463.5414135796422
 20
128.7090163106332
 30
0.0
 10
463.5414135796422
 20
128.7090177397999
 30
0.0
  0
SPLINE
  5
5F0A
330
26
100
AcDbEntity
  8
0
  6
Continuous
100
AcDbSpline
210
0.0
220
0.0
230
1.0
 70
     8
 71
     3
 72
    12
 73
     8
 74
     0
 42
0.0000000001
 43
0.0000000001
 40
0.0
 40
0.0
 40
0.0
 40
0.0
 40
3.159206423653361
 40
6.214163034868176
 40
9.198647566540645
 40
12.15012254408508
 40
13.62476192017816
 40
13.62476192017816
 40
13.62476192017816
 40
13.62476192017816
 10
463.6568292536423
 20
115.2463099947
 30
0.0
 10
463.4042675136968
 20
116.2688637369662
 30
0.0
 10
462.9074782514818
 20
118.2802282425525
 30
0.0
 10
462.3624092245286
 20
121.299740134966
 30
0.0
 10
461.9888012148995
 20
124.2748168010237
 30
0.0
 10
461.8326936568335
 20
126.7417778651465
 30
0.0
 10
461.8093927282617
 20
128.2173908164274
 30
0.0
 10
461.8093927132504
 20
128.7090177397999
 30
0.0
  0
SPLINE
  5
5F0B
330
26
100
AcDbEntity
  8
0
  6
Continuous
100
AcDbSpline
210
0.0
220
0.0
230
1.0
 70
     8
 71
     3
 72
    15
 73
    11
 74
     9
 42
0.0000000001
 43
0.0000000001
 44
0.0000000001
 40
0.0
 40
0.0
 40
0.0
 40
0.0
 40
1.820050273770426
 40
3.528213202165664
 40
5.170831148133099
 40
6.782657774172661
 40
8.39452505050159
 40
10.0372389325995
 40
11.74591186542711
 40
13.56630241286442
 40
13.56630241286442
 40
13.56630241286442
 40
13.56630241286442
 10
480.9574910420424
 20
111.9987676419999
 30
0.0
 10
481.218017671912
 20
111.4503661096785
 30
0.0
 10
481.7230550921793
 20
110.3872759553522
 30
0.0
 10
482.2667484645351
 20
108.7467541917321
 30
0.0
 10
482.6054817163103
 20
107.1235042178983
 30
0.0
 10
482.7189708478929
 20
105.500019395218
 30
0.0
 10
482.6056148476368
 20
103.8764923782286
 30
0.0
 10
482.2669502361717
 20
102.2530063670697
 30
0.0
 10
481.7232185429962
 20
100.6121604237434
 30
0.0
 10
481.218064008448
 20
99.54881155372345
 30
0.0
 10
480.9574910420424
 20
99.00030619459997
 30
0.0
 11
480.9574910420424
 21
111.9987676419999
 31
0.0
 11
481.7033967925424
 21
110.3385846368999
 31
0.0
 11
482.2415176658425
 21
108.7173978754
 31
0.0
 11
482.5703281473425
 21
107.1080261397
 31
0.0
 11
482.6814027625425
 21
105.5000312695999
 31
0.0
 11
482.5704573387425
 21
103.8919867336999
 31
0.0
 11
482.2417393313426
 21
102.2824981906999
 31
0.0
 11
481.7035211769424
 21
100.6608063550999
 31
0.0
 11
480.9574910420424
 21
99.00030619459997
 31
0.0
  0
SPLINE
  5
5F0C
330
26
100
AcDbEntity
  8
0
  6
Continuous
100
AcDbSpline
210
0.0
220
0.0
230
1.0
 70
     8
 71
     3
 72
    11
 73
     7
 74
     0
 42
0.0000000001
 43
0.0000000001
 40
13.14423240269015
 40
13.14423240269015
 40
13.14423240269015
 40
13.14423240269015
 40
16.36124607087087
 40
19.59696376692874
 40
22.88470104662926
 40
26.28846427198161
 40
26.28846427198161
 40
26.28846427198161
 40
26.28846427198161
 10
482.6814027730875
 20
128.7090177397999
 30
0.0
 10
482.6814028084411
 20
127.6364349538902
 30
0.0
 10
482.6069552647003
 20
125.4850332565129
 30
0.0
 10
482.271606088811
 20
122.2535507598767
 30
0.0
 10
481.7340135259207
 20
118.9856678362743
 30
0.0
 10
481.2193067553183
 20
116.8148072093643
 30
0.0
 10
480.9574910420424
 20
115.7105562923
 30
0.0
  0
ARC
  5
5F0D
330
26
100
AcDbEntity
  8
0
  6
Continuous
100
AcDbCircle
 10
502.4056294121423
 20
106.7486949941999
 30
0.0
 40
1.0
100
AcDbArc
 50
91.78899999460096
 51
164.9999998298993
  0
ARC
  5
5F0E
330
26
100
AcDbEntity
  8
0
  6
Continuous
100
AcDbCircle
 10
488.6319581230423
 20
105.9090177397999
 30
0.0
 40
1.0
100
AcDbArc
 50
0.0000109323991998
 51
90.00000000000006
  0
ARC
  5
5F0F
330
26
100
AcDbEntity
  8
0
  6
Continuous
100
AcDbCircle
 10
486.0461716853424
 20
105.9090177397999
 30
0.0
 40
1.0
100
AcDbArc
 50
90.00000000000006
 51
134.9999993363999
  0
ARC
  5
5F10
330
26
100
AcDbEntity
  8
0
  6
Continuous
100
AcDbCircle
 10
525.2191936334424
 20
108.8619386750999
 30
0.0
 40
0.4
100
AcDbArc
 50
271.7890000162991
 51
315.0000002242999
  0
ARC
  5
5F11
330
26
100
AcDbEntity
  8
0
  6
Continuous
100
AcDbCircle
 10
527.6319581230425
 20
111.2747031646999
 30
0.0
 40
0.4
100
AcDbArc
 50
315.0000048152012
 51
0.0
  0
ARC
  5
5F12
330
26
100
AcDbEntity
  8
0
  6
Continuous
100
AcDbCircle
 10
458.9700779076425
 20
105.7090177397999
 30
0.0
 40
1.0
100
AcDbArc
 50
180.0
 51
270.0
  0
ARC
  5
5F13
330
26
100
AcDbEntity
  8
0
  6
Continuous
100
AcDbCircle
 10
459.0380271000425
 20
101.7090177397999
 30
0.0
 40
3.0
100
AcDbArc
 50
30.00000000000053
 51
90.00000000000006
  0
ARC
  5
5F14
330
26
100
AcDbEntity
  8
0
  6
Continuous
100
AcDbCircle
 10
482.5700779076425
 20
102.5161974166999
 30
0.0
 40
0.4
100
AcDbArc
 50
330.0000000027004
 51
0.0
  0
ARC
  5
5F15
330
26
100
AcDbEntity
  8
0
  6
Continuous
100
AcDbCircle
 10
465.3888800611425
 20
100.7090177397999
 30
0.0
 40
2.0
100
AcDbArc
 50
210.0000000000012
 51
270.0
  0
LINE
  5
5F16
330
26
100
AcDbEntity
  8
0
  6
Continuous
100
AcDbLine
 10
527.9148008592425
 20
110.991860476
 30
0.0
 11
525.5020363469425
 21
108.5790959636999
 31
0.0
  0
LINE
  5
5F17
330
26
100
AcDbEntity
  8
0
  6
Continuous
100
AcDbLine
 10
528.0319581230425
 20
111.2747032098999
 30
0.0
 11
528.0319581230425
 21
128.7090177397999
 31
0.0
  0
LINE
  5
5F18
330
26
100
AcDbEntity
  8
0
  6
Continuous
100
AcDbLine
 10
527.9148008592425
 20
110.991860476
 30
0.0
 11
527.9148008592425
 21
128.7090177397999
 31
0.0
  0
LINE
  5
5F19
330
26
100
AcDbEntity
  8
0
  6
Continuous
100
AcDbLine
 10
527.7859864433422
 20
128.7090177397999
 30
0.0
 11
527.7859864433423
 21
110.8630456785999
 31
0.0
  0
LWPOLYLINE
  5
5F1A
330
26
100
AcDbEntity
  8
0
  6
Continuous
100
AcDbPolyline
 90
        5
 70
     0
 43
0.0
 10
465.3888800611425
 20
98.73402409239998
 10
464.8711395803424
 20
98.80214305209996
 10
464.3886706229425
 20
99.00187076869995
 10
463.9744334083425
 20
99.31955519499996
 10
463.6568292536423
 20
99.73319054729996
  0
LINE
  5
5F1B
330
26
100
AcDbEntity
  8
0
  6
Continuous
100
AcDbLine
 10
525.5020363469425
 20
108.5790959636999
 30
0.0
 11
525.5020363469425
 21
128.7090177397999
 31
0.0
  0
LINE
  5
5F1C
330
26
100
AcDbEntity
  8
0
  6
Continuous
100
AcDbLine
 10
525.2316811803424
 20
108.4621336461999
 30
0.0
 11
525.2316811803424
 21
128.7090177397999
 31
0.0
  0
LINE
  5
5F1D
330
26
100
AcDbEntity
  8
0
  6
Continuous
100
AcDbLine
 10
480.8338819116425
 20
98.70901773979995
 30
0.0
 11
465.3888800611425
 21
98.70901773979995
 31
0.0
  0
LINE
  5
5F1E
330
26
100
AcDbEntity
  8
0
  6
Continuous
100
AcDbLine
 10
480.8338819116425
 20
98.73402409239998
 30
0.0
 11
465.3888800611425
 21
98.73402409239998
 31
0.0
  0
LINE
  5
5F1F
330
26
100
AcDbEntity
  8
0
  6
Continuous
100
AcDbLine
 10
480.9574910420424
 20
99.00030619459997
 30
0.0
 11
465.3888799606424
 21
99.00030619459997
 31
0.0
  0
LINE
  5
5F20
330
26
100
AcDbEntity
  8
0
  6
Continuous
100
AcDbLine
 10
500.1271554583426
 20
102.1090177397999
 30
0.0
 11
489.6319581230425
 21
102.1090177397999
 31
0.0
  0
LINE
  5
5F21
330
26
100
AcDbEntity
  8
0
  6
Continuous
100
AcDbLine
 10
500.1271554583426
 20
102.1322910723999
 30
0.0
 11
489.6319581230425
 21
102.1322910723999
 31
0.0
  0
LINE
  5
5F22
330
26
100
AcDbEntity
  8
0
  6
Continuous
100
AcDbLine
 10
500.1837908295424
 20
102.3984903901999
 30
0.0
 11
489.6319581230425
 21
102.3984903901999
 31
0.0
  0
LINE
  5
5F23
330
26
100
AcDbEntity
  8
0
  6
Continuous
100
AcDbLine
 10
458.9700779076425
 20
104.7090177397999
 30
0.0
 11
459.0380271000425
 21
104.7090177397999
 31
0.0
  0
LINE
  5
5F24
330
26
100
AcDbEntity
  8
0
  6
Continuous
100
AcDbLine
 10
483.4319581230425
 20
104.7090177397999
 30
0.0
 11
482.9700779076425
 21
104.7090177397999
 31
0.0
  0
LINE
  5
5F25
330
26
100
AcDbEntity
  8
0
  6
Continuous
100
AcDbLine
 10
482.9700779076425
 20
106.4090177397999
 30
0.0
 11
485.1319581230425
 21
106.4090177397999
 31
0.0
  0
LINE
  5
5F26
330
26
100
AcDbEntity
  8
0
  6
Continuous
100
AcDbLine
 10
525.2316811803424
 20
108.4621336461999
 30
0.0
 11
502.3744105452425
 21
107.7482075665999
 31
0.0
  0
LINE
  5
5F27
330
26
100
AcDbEntity
  8
0
  6
Continuous
100
AcDbLine
 10
503.6319581230425
 20
110.1086173060999
 30
0.0
 11
527.7859868289424
 21
110.8630464456999
 31
0.0
  0
LINE
  5
5F28
330
26
100
AcDbEntity
  8
0
  6
Continuous
100
AcDbLine
 10
488.6319581230423
 20
106.9090177397999
 30
0.0
 11
486.0461716853424
 21
106.9090177397999
 31
0.0
  0
LINE
  5
5F29
330
26
100
AcDbEntity
  8
0
  6
Continuous
100
AcDbLine
 10
465.3888799595424
 20
111.9987676419999
 30
0.0
 11
480.9574910420424
 21
111.9987676419999
 31
0.0
  0
LINE
  5
5F2A
330
26
100
AcDbEntity
  8
0
  6
Continuous
100
AcDbLine
 10
465.3888800611425
 20
112.6609470716999
 30
0.0
 11
480.8338819116425
 21
112.6609470716999
 31
0.0
  0
LWPOLYLINE
  5
5F2B
330
26
100
AcDbEntity
  8
0
  6
Continuous
100
AcDbPolyline
 90
        5
 70
     0
 43
0.0
 10
465.3888800611425
 20
112.6609470716999
 10
464.8712419709425
 20
112.6974020548999
 10
464.3888800611425
 20
112.8042826575999
 10
463.9746664988424
 20
112.9743051433
 10
463.6568292536423
 20
113.1958827606999
  0
LINE
  5
5F2C
330
26
100
AcDbEntity
  8
0
  6
Continuous
100
AcDbLine
 10
501.4397035866425
 20
107.0075140420999
 30
0.0
 11
500.1329737914423
 21
102.1307320546999
 31
0.0
  0
LINE
  5
5F2D
330
26
100
AcDbEntity
  8
0
  6
Continuous
100
AcDbLine
 10
489.6319581230425
 20
113.7967358691999
 30
0.0
 11
500.1837908295424
 21
113.7967358691999
 31
0.0
  0
LINE
  5
5F2E
330
26
100
AcDbEntity
  8
0
  6
Continuous
100
AcDbLine
 10
489.6319581230425
 20
114.4572231756999
 30
0.0
 11
500.1271554583426
 21
114.4572231756999
 31
0.0
  0
LINE
  5
5F2F
330
26
100
AcDbEntity
  8
0
  6
Continuous
100
AcDbLine
 10
480.8338819116425
 20
114.7820947603999
 30
0.0
 11
465.3888800611425
 21
114.7820947603999
 31
0.0
  0
LINE
  5
5F30
330
26
100
AcDbEntity
  8
0
  6
Continuous
100
AcDbLine
 10
480.9574910420424
 20
115.7105562923
 30
0.0
 11
465.3888799588425
 21
115.7105562923
 31
0.0
  0
LWPOLYLINE
  5
5F31
330
26
100
AcDbEntity
  8
0
  6
Continuous
100
AcDbPolyline
 90
        5
 70
     0
 43
0.0
 10
465.3888800611425
 20
114.7820947603999
 10
464.8711395803424
 20
114.8137440904999
 10
464.3886706229425
 20
114.9065410827999
 10
463.9744334083425
 20
115.0541432859999
 10
463.6568292536423
 20
115.2463255263999
  0
LINE
  5
5F32
330
26
100
AcDbEntity
  8
0
  6
Continuous
100
AcDbLine
 10
485.3390649123424
 20
106.6161245290999
 30
0.0
 11
483.4319581230425
 21
104.7090177397999
 31
0.0
  0
LINE
  5
5F33
330
26
100
AcDbEntity
  8
0
  6
Continuous
100
AcDbLine
 10
500.1271554583426
 20
116.3840856363999
 30
0.0
 11
489.6319581230425
 21
116.3840856363999
 31
0.0
  0
LINE
  5
5F34
330
26
100
AcDbEntity
  8
0
  6
Continuous
100
AcDbLine
 10
500.1837908295424
 20
117.3107722606999
 30
0.0
 11
489.6319581230425
 21
117.3107722606999
 31
0.0
  0
LINE
  5
5F35
330
26
100
AcDbEntity
  8
0
  6
Continuous
100
AcDbLine
 10
503.6319585044426
 20
128.7090177397999
 30
0.0
 11
503.6319585044425
 21
107.7874860624999
 31
0.0
  0
LINE
  5
5F36
330
26
100
AcDbEntity
  8
0
  6
Continuous
100
AcDbLine
 10
502.3744105451425
 20
128.7090177397999
 30
0.0
 11
502.3744105451425
 21
107.7482075665999
 31
0.0
  0
LINE
  5
5F37
330
26
100
AcDbEntity
  8
0
  6
Continuous
100
AcDbLine
 10
501.4397035860424
 20
128.7090177397999
 30
0.0
 11
501.4397035860424
 21
107.0075140397999
 31
0.0
  0
LINE
  5
5F38
330
26
100
AcDbEntity
  8
0
  6
Continuous
100
AcDbLine
 10
500.1271554583426
 20
114.4572231756999
 30
0.0
 11
500.1271554583426
 21
116.3840856363999
 31
0.0
  0
LINE
  5
5F39
330
26
100
AcDbEntity
  8
0
  6
Continuous
100
AcDbLine
 10
500.1271554583426
 20
102.1090177397999
 30
0.0
 11
500.1271554583426
 21
102.1322910723999
 31
0.0
  0
LINE
  5
5F3A
330
26
100
AcDbEntity
  8
0
  6
Continuous
100
AcDbLine
 10
480.8338819116425
 20
98.70901773979995
 30
0.0
 11
482.9164880691425
 21
102.3161974166999
 31
0.0
  0
LINE
  5
5F3B
330
26
100
AcDbEntity
  8
0
  6
Continuous
100
AcDbLine
 10
465.3888800608426
 20
115.7105562858999
 30
0.0
 11
463.6568292470425
 21
115.2463255309999
 31
0.0
  0
LINE
  5
5F3C
330
26
100
AcDbEntity
  8
0
  6
Continuous
100
AcDbLine
 10
489.6319581230425
 20
128.7090177397999
 30
0.0
 11
489.6319581230425
 21
102.1090177397999
 31
0.0
  0
LINE
  5
5F3D
330
26
100
AcDbEntity
  8
0
  6
Continuous
100
AcDbLine
 10
488.6319581230423
 20
128.7090177397999
 30
0.0
 11
488.6319581230423
 21
106.9090177397999
 31
0.0
  0
LINE
  5
5F3E
330
26
100
AcDbEntity
  8
0
  6
Continuous
100
AcDbLine
 10
486.0461716853424
 20
128.7090177397999
 30
0.0
 11
486.0461716853424
 21
106.9090177397999
 31
0.0
  0
LINE
  5
5F3F
330
26
100
AcDbEntity
  8
0
  6
Continuous
100
AcDbLine
 10
485.3390649082423
 20
128.7090177397999
 30
0.0
 11
485.3390649082423
 21
106.6161245249999
 31
0.0
  0
LINE
  5
5F40
330
26
100
AcDbEntity
  8
0
  6
Continuous
100
AcDbLine
 10
485.1319585044425
 20
106.4090185026999
 30
0.0
 11
485.1319585044425
 21
128.7090177397999
 31
0.0
  0
LINE
  5
5F41
330
26
100
AcDbEntity
  8
0
  6
Continuous
100
AcDbLine
 10
483.4319581230425
 20
128.7090177397999
 30
0.0
 11
483.4319581230425
 21
104.7090177397999
 31
0.0
  0
LINE
  5
5F42
330
26
100
AcDbEntity
  8
0
  6
Continuous
100
AcDbLine
 10
482.9700779076425
 20
102.5161974166999
 30
0.0
 11
482.9700779076425
 21
128.7090177397999
 31
0.0
  0
LINE
  5
5F43
330
26
100
AcDbEntity
  8
0
  6
Continuous
100
AcDbLine
 10
482.9164880691425
 20
102.3161974166999
 30
0.0
 11
482.9164880691425
 21
128.7090177397999
 31
0.0
  0
LINE
  5
5F44
330
26
100
AcDbEntity
  8
0
  6
Continuous
100
AcDbLine
 10
480.8338819116425
 20
112.6609470716999
 30
0.0
 11
480.8338819116425
 21
114.7820947603999
 31
0.0
  0
LINE
  5
5F45
330
26
100
AcDbEntity
  8
0
  6
Continuous
100
AcDbLine
 10
480.8338819116425
 20
98.70901773979995
 30
0.0
 11
480.8338819116425
 21
98.73402409239998
 31
0.0
  0
LINE
  5
5F46
330
26
100
AcDbEntity
  8
0
  6
Continuous
100
AcDbLine
 10
465.3888800611425
 20
111.9987676419999
 30
0.0
 11
465.3888800611425
 21
115.7105562923
 31
0.0
  0
LINE
  5
5F47
330
26
100
AcDbEntity
  8
0
  6
Continuous
100
AcDbLine
 10
465.3888800611425
 20
98.70901773979995
 30
0.0
 11
465.3888800611425
 21
99.00030619459997
 31
0.0
  0
LINE
  5
5F48
330
26
100
AcDbEntity
  8
0
  6
Continuous
100
AcDbLine
 10
463.6568292536423
 20
113.1958975497999
 30
0.0
 11
463.6568292536423
 21
115.2463099947
 31
0.0
  0
LINE
  5
5F49
330
26
100
AcDbEntity
  8
0
  6
Continuous
100
AcDbLine
 10
463.6568292536423
 20
99.70901773979996
 30
0.0
 11
463.6568292536423
 21
99.73318983809996
 31
0.0
  0
LINE
  5
5F4A
330
26
100
AcDbEntity
  8
0
  6
Continuous
100
AcDbLine
 10
461.6361033114424
 20
103.2090177397999
 30
0.0
 11
461.6361033114423
 21
128.7090177397999
 31
0.0
  0
LINE
  5
5F4B
330
26
100
AcDbEntity
  8
0
  6
Continuous
100
AcDbLine
 10
459.0380271000425
 20
104.7090177397999
 30
0.0
 11
459.0380271000426
 21
128.7090177397999
 31
0.0
  0
LINE
  5
5F4C
330
26
100
AcDbEntity
  8
0
  6
Continuous
100
AcDbLine
 10
458.9700779076425
 20
128.7090177397999
 30
0.0
 11
458.9700779076425
 21
104.7090177397999
 31
0.0
  0
LINE
  5
5F4D
330
26
100
AcDbEntity
  8
0
  6
Continuous
100
AcDbLine
 10
457.9700779076425
 20
105.7090177397999
 30
0.0
 11
457.9700779076425
 21
128.7090177397999
 31
0.0
  0
LINE
  5
5F4E
330
26
100
AcDbEntity
  8
0
  6
Continuous
100
AcDbLine
 10
461.6361033114424
 20
103.2090177397999
 30
0.0
 11
463.6568292536423
 21
99.70901773979996
 31
0.0
  0
ENDSEC
  0
SECTION
  2
OBJECTS
  0
DICTIONARY
  5
593
330
0
100
AcDbDictionary
281
     1
  3
ACAD_COLOR
350
618
  3
ACAD_GROUP
350
594
  3
ACAD_LAYOUT
350
619
  3
ACAD_MATERIAL
350
617
  3
ACAD_MLINESTYLE
350
595
  3
ACAD_PLOTSETTINGS
350
61A
  3
ACAD_PLOTSTYLENAME
350
615
  3
AcadDim
350
3268
  3
ACDBHEADERROUNDTRIPXREC
350
5F66
  3
AcDbVariableDictionary
350
5F55
  3
DWGPROPS
350
5F69
  0
DICTIONARY
  5
618
102
{ACAD_REACTORS
330
593
102
}
330
593
100
AcDbDictionary
281
     1
  0
DICTIONARY
  5
594
102
{ACAD_REACTORS
330
593
102
}
330
593
100
AcDbDictionary
281
     1
  0
DICTIONARY
  5
619
102
{ACAD_REACTORS
330
593
102
}
330
593
100
AcDbDictionary
281
     1
  3
Layout1
350
61C
  3
Model
350
61B
  0
DICTIONARY
  5
617
102
{ACAD_REACTORS
330
593
102
}
330
593
100
AcDbDictionary
281
     1
  0
DICTIONARY
  5
595
102
{ACAD_REACTORS
330
593
102
}
330
593
100
AcDbDictionary
281
     1
  3
STANDARD
350
596
  0
DICTIONARY
  5
61A
102
{ACAD_REACTORS
330
593
102
}
330
593
100
AcDbDictionary
281
     1
  0
ACDBDICTIONARYWDFLT
  5
615
102
{ACAD_REACTORS
330
593
102
}
330
593
100
AcDbDictionary
281
     1
  3
Normal
350
616
100
AcDbDictionaryWithDefault
340
616
  0
XRECORD
  5
3268
102
{ACAD_REACTORS
330
593
102
}
330
593
100
AcDbXrecord
280
     1
 90
   990106
  3

 60
     0
 61
     0
 62
     1
 63
     3
 64
     0
 65
     0
 66
     0
 67
     3
 68
     1
 69
     0
 70
     0
 71
     0
 72
     0
 40
25.0445657995416
170
     0
  0
DICTIONARY
  5
5F66
102
{ACAD_REACTORS
330
593
102
}
330
593
100
AcDbDictionary
281
     1
  3
COLORDICT
350
5F67
  3
MATERIALDICT
350
5F68
  0
DICTIONARY
  5
5F55
102
{ACAD_REACTORS
330
593
102
}
330
593
100
AcDbDictionary
281
     1
  0
XRECORD
  5
5F69
102
{ACAD_REACTORS
330
593
102
}
330
593
100
AcDbXrecord
280
     1
  1
DWGPROPS COOKIE
  2

  3

  4

  6

  7

  8

  9

300
=
301
=
302
=
303
=
304
=
305
=
306
=
307
=
308
=
309
=
 40
0.0
 41
2444972.0
 42
2453691.440164572
  1

 90
        0
  0
LAYOUT
  5
61C
102
{ACAD_REACTORS
330
619
102
}
330
619
100
AcDbPlotSettings
  1

  2
\\alderaan\HP LaserJet 4050 Ricerca
  4

  6

 40
0.0
 41
0.0
 42
0.0
 43
0.0
 44
0.0
 45
0.0
 46
0.0
 47
0.0
 48
0.0
 49
0.0
140
0.0
141
0.0
142
1.0
143
1.0
 70
   688
 72
     0
 73
     0
 74
     5
  7

 75
    16
147
1.0
148
0.0
149
0.0
100
AcDbLayout
  1
Layout1
 70
     0
 71
     1
 10
0.0
 20
0.0
 11
12.0
 21
9.0
 12
0.0
 22
0.0
 32
0.0
 14
1.000000000000000E+20
 24
1.000000000000000E+20
 34
1.000000000000000E+20
 15
-1.000000000000000E+20
 25
-1.000000000000000E+20
 35
-1.000000000000000E+20
146
0.0
 13
0.0
 23
0.0
 33
0.0
 16
1.0
 26
0.0
 36
0.0
 17
0.0
 27
1.0
 37
0.0
 76
     0
330
27
  0
LAYOUT
  5
61B
102
{ACAD_REACTORS
330
619
102
}
330
619
100
AcDbPlotSettings
  1

  2
\\alderaan\HP LaserJet 4050 Ricerca
  4
A4
  6

 40
5.027083396911621
 41
5.069430828094481
 42
5.365737915039061
 43
5.365753173828125
 44
209.8886566162109
 45
297.0530090332031
 46
0.254
 47
0.0
 48
259.215225634116
 49
-488.3976836719121
140
1317.037973125747
141
245.6809236204426
142
1.0
143
93.74398742770123
 70
 11956
 72
     0
 73
     1
 74
     4
  7

 75
     0
147
0.0106673508076583
148
-6584.066731106545
149
12405.30116526656
100
AcDbLayout
  1
Model
 70
     1
 71
     0
 10
0.0
 20
0.0
 11
12.0
 21
9.0
 12
0.0
 22
0.0
 32
0.0
 14
0.0
 24
0.0
 34
0.0
 15
0.0
 25
0.0
 35
0.0
146
0.0
 13
0.0
 23
0.0
 33
0.0
 16
1.0
 26
0.0
 36
0.0
 17
0.0
 27
1.0
 37
0.0
 76
     0
330
26
  0
MLINESTYLE
  5
596
102
{ACAD_REACTORS
330
595
102
}
330
595
100
AcDbMlineStyle
  2
STANDARD
 70
     0
  3

 62
     0
 51
90.00000000000019
 52
90.00000000000019
 71
     2
 49
0.5
 62
   256
  6
BYLAYER
 49
-0.5
 62
   256
  6
BYLAYER
  0
ACDBPLACEHOLDER
  5
616
102
{ACAD_REACTORS
330
615
102
}
330
615
  0
XRECORD
  5
5F67
102
{ACAD_REACTORS
330
5F66
102
}
330
5F66
100
AcDbXrecord
280
     1
340
618
  0
XRECORD
  5
5F68
102
{ACAD_REACTORS
330
5F66
102
}
330
5F66
100
AcDbXrecord
280
     1
340
617
  0
ENDSEC
  0
EOF
