  0
SECTION
  2
HEADER
  9
$ACADVER
  1
AC1015
  9
$ACADMAINTVER
 70
     6
  9
$DWGCODEPAGE
  3
ANSI_1252
  9
$INSBASE
 10
0.0
 20
0.0
 30
0.0
  9
$EXTMIN
 10
0.0
 20
0.0
 30
0.0
  9
$EXTMAX
 10
297.0
 20
210.0
 30
0.0
  9
$LIMMIN
 10
0.0
 20
0.0
  9
$LIMMAX
 10
297.0
 20
210.0
  9
$ORTHOMODE
 70
     0
  9
$REGENMODE
 70
     1
  9
$FILLMODE
 70
     1
  9
$QTEXTMODE
 70
     0
  9
$MIRRTEXT
 70
     1
  9
$LTSCALE
 40
16.335
  9
$ATTMODE
 70
     1
  9
$TEXTSIZE
 40
0.2
  9
$TRACEWID
 40
0.05
  9
$TEXTSTYLE
  7
STANDARD
  9
$CLAYER
  8
0
  9
$CELTYPE
  6
BYLAYER
  9
$CECOLOR
 62
   256
  9
$CELTSCALE
 40
1.0
  9
$DISPSILH
 70
     0
  9
$DIMSCALE
 40
1.0
  9
$DIMASZ
 40
3.0
  9
$DIMEXO
 40
1.85625
  9
$DIMDLI
 40
11.286
  9
$DIMRND
 40
0.0
  9
$DIMDLE
 40
0.0
  9
$DIMEXE
 40
5.346
  9
$DIMTP
 40
0.003
  9
$DIMTM
 40
0.003
  9
$DIMTXT
 40
1.5
  9
$DIMCEN
 40
2.673
  9
$DIMTSZ
 40
0.0
  9
$DIMTOL
 70
     1
  9
$DIMLIM
 70
     0
  9
$DIMTIH
 70
     1
  9
$DIMTOH
 70
     1
  9
$DIMSE1
 70
     0
  9
$DIMSE2
 70
     0
  9
$DIMTAD
 70
     0
  9
$DIMZIN
 70
     0
  9
$DIMBLK
  1

  9
$DIMASO
 70
     1
  9
$DIMSHO
 70
     1
  9
$DIMPOST
  1

  9
$DIMAPOST
  1

  9
$DIMALT
 70
     0
  9
$DIMALTD
 70
     2
  9
$DIMALTF
 40
25.4
  9
$DIMLFAC
 40
1.0
  9
$DIMTOFL
 70
     0
  9
$DIMTVP
 40
0.0
  9
$DIMTIX
 70
     0
  9
$DIMSOXD
 70
     0
  9
$DIMSAH
 70
     0
  9
$DIMBLK1
  1

  9
$DIMBLK2
  1

  9
$DIMSTYLE
  2
STANDARD
  9
$DIMCLRD
 70
     0
  9
$DIMCLRE
 70
     0
  9
$DIMCLRT
 70
     0
  9
$DIMTFAC
 40
1.0
  9
$DIMGAP
 40
0.09
  9
$DIMJUST
 70
     0
  9
$DIMSD1
 70
     0
  9
$DIMSD2
 70
     0
  9
$DIMTOLJ
 70
     1
  9
$DIMTZIN
 70
     0
  9
$DIMALTZ
 70
     0
  9
$DIMALTTZ
 70
     0
  9
$DIMUPT
 70
     0
  9
$DIMDEC
 70
     4
  9
$DIMTDEC
 70
     4
  9
$DIMALTU
 70
     2
  9
$DIMALTTD
 70
     2
  9
$DIMTXSTY
  7
STANDARD
  9
$DIMAUNIT
 70
     0
  9
$DIMADEC
 70
     0
  9
$DIMALTRND
 40
0.0
  9
$DIMAZIN
 70
     0
  9
$DIMDSEP
 70
    46
  9
$DIMATFIT
 70
     3
  9
$DIMFRAC
 70
     0
  9
$DIMLDRBLK
  1

  9
$DIMLUNIT
 70
     2
  9
$DIMLWD
 70
    -2
  9
$DIMLWE
 70
    -2
  9
$DIMTMOVE
 70
     0
  9
$LUNITS
 70
     2
  9
$LUPREC
 70
     4
  9
$SKETCHINC
 40
0.1
  9
$FILLETRAD
 40
0.0
  9
$AUNITS
 70
     0
  9
$AUPREC
 70
     0
  9
$MENU
  1
acad
  9
$ELEVATION
 40
0.0
  9
$PELEVATION
 40
0.0
  9
$THICKNESS
 40
0.0
  9
$LIMCHECK
 70
     0
  9
$CHAMFERA
 40
0.0
  9
$CHAMFERB
 40
0.0
  9
$CHAMFERC
 40
0.0
  9
$CHAMFERD
 40
0.0
  9
$SKPOLY
 70
     0
  9
$TDCREATE
 40
2444972.041666667
  9
$TDUCREATE
 40
2444972.0
  9
$TDUPDATE
 40
2453410.658606655
  9
$TDUUPDATE
 40
2453410.616939989
  9
$TDINDWG
 40
0.0006713079
  9
$TDUSRTIMER
 40
0.0006713079
  9
$USRTIMER
 70
     1
  9
$ANGBASE
 50
0.0
  9
$ANGDIR
 70
     0
  9
$PDMODE
 70
     3
  9
$PDSIZE
 40
0.3125
  9
$PLINEWID
 40
0.0
  9
$SPLFRAME
 70
     0
  9
$SPLINETYPE
 70
     6
  9
$SPLINESEGS
 70
     8
  9
$HANDSEED
  5
262
  9
$SURFTAB1
 70
     6
  9
$SURFTAB2
 70
     6
  9
$SURFTYPE
 70
     6
  9
$SURFU
 70
     6
  9
$SURFV
 70
     6
  9
$UCSBASE
  2

  9
$UCSNAME
  2

  9
$UCSORG
 10
0.0
 20
0.0
 30
0.0
  9
$UCSXDIR
 10
1.0
 20
0.0
 30
0.0
  9
$UCSYDIR
 10
0.0
 20
1.0
 30
0.0
  9
$UCSORTHOREF
  2

  9
$UCSORTHOVIEW
 70
     0
  9
$UCSORGTOP
 10
0.0
 20
0.0
 30
0.0
  9
$UCSORGBOTTOM
 10
0.0
 20
0.0
 30
0.0
  9
$UCSORGLEFT
 10
0.0
 20
0.0
 30
0.0
  9
$UCSORGRIGHT
 10
0.0
 20
0.0
 30
0.0
  9
$UCSORGFRONT
 10
0.0
 20
0.0
 30
0.0
  9
$UCSORGBACK
 10
0.0
 20
0.0
 30
0.0
  9
$PUCSBASE
  2

  9
$PUCSNAME
  2

  9
$PUCSORG
 10
0.0
 20
0.0
 30
0.0
  9
$PUCSXDIR
 10
1.0
 20
0.0
 30
0.0
  9
$PUCSYDIR
 10
0.0
 20
1.0
 30
0.0
  9
$PUCSORTHOREF
  2

  9
$PUCSORTHOVIEW
 70
     0
  9
$PUCSORGTOP
 10
0.0
 20
0.0
 30
0.0
  9
$PUCSORGBOTTOM
 10
0.0
 20
0.0
 30
0.0
  9
$PUCSORGLEFT
 10
0.0
 20
0.0
 30
0.0
  9
$PUCSORGRIGHT
 10
0.0
 20
0.0
 30
0.0
  9
$PUCSORGFRONT
 10
0.0
 20
0.0
 30
0.0
  9
$PUCSORGBACK
 10
0.0
 20
0.0
 30
0.0
  9
$USERI1
 70
     0
  9
$USERI2
 70
     0
  9
$USERI3
 70
     0
  9
$USERI4
 70
     0
  9
$USERI5
 70
     0
  9
$USERR1
 40
0.0
  9
$USERR2
 40
0.0
  9
$USERR3
 40
0.0
  9
$USERR4
 40
0.0
  9
$USERR5
 40
0.0
  9
$WORLDVIEW
 70
     1
  9
$SHADEDGE
 70
     3
  9
$SHADEDIF
 70
    70
  9
$TILEMODE
 70
     1
  9
$MAXACTVP
 70
    16
  9
$PINSBASE
 10
0.0
 20
0.0
 30
0.0
  9
$PLIMCHECK
 70
     0
  9
$PEXTMIN
 10
1.000000000000000E+20
 20
1.000000000000000E+20
 30
1.000000000000000E+20
  9
$PEXTMAX
 10
-1.000000000000000E+20
 20
-1.000000000000000E+20
 30
-1.000000000000000E+20
  9
$PLIMMIN
 10
0.0
 20
0.0
  9
$PLIMMAX
 10
12.0
 20
9.0
  9
$UNITMODE
 70
     0
  9
$VISRETAIN
 70
     0
  9
$PLINEGEN
 70
     1
  9
$PSLTSCALE
 70
     0
  9
$TREEDEPTH
 70
  3020
  9
$CMLSTYLE
  2
STANDARD
  9
$CMLJUST
 70
     0
  9
$CMLSCALE
 40
1.0
  9
$PROXYGRAPHICS
 70
     1
  9
$MEASUREMENT
 70
     0
  9
$CELWEIGHT
370
    -1
  9
$ENDCAPS
280
     0
  9
$JOINSTYLE
280
     0
  9
$LWDISPLAY
290
     0
  9
$INSUNITS
 70
     0
  9
$HYPERLINKBASE
  1

  9
$STYLESHEET
  1

  9
$XEDIT
290
     1
  9
$CEPSNTYPE
380
     0
  9
$PSTYLEMODE
290
     1
  9
$FINGERPRINTGUID
  2
{3F0F2FCC-E56F-437B-9EC6-A9EA96381595}
  9
$VERSIONGUID
  2
{034B84BC-1C41-4F07-B412-041B34107644}
  9
$EXTNAMES
290
     1
  9
$PSVPSCALE
 40
0.0
  9
$OLESTARTUP
290
     0
  0
ENDSEC
  0
SECTION
  2
CLASSES
  0
CLASS
  1
IMAGE
  2
AcDbRasterImage
  3
ISM
 90
      127
280
     0
281
     1
  0
CLASS
  1
DICTIONARYVAR
  2
AcDbDictionaryVar
  3
ObjectDBX Classes
 90
        0
280
     0
281
     0
  0
CLASS
  1
RASTERVARIABLES
  2
AcDbRasterVariables
  3
ISM
 90
        0
280
     0
281
     0
  0
CLASS
  1
IMAGEDEF
  2
AcDbRasterImageDef
  3
ISM
 90
        0
280
     0
281
     0
  0
CLASS
  1
IMAGEDEF_REACTOR
  2
AcDbRasterImageDefReactor
  3
ISM
 90
        1
280
     0
281
     0
  0
CLASS
  1
IDBUFFER
  2
AcDbIdBuffer
  3
ObjectDBX Classes
 90
        0
280
     0
281
     0
  0
CLASS
  1
SPATIAL_FILTER
  2
AcDbSpatialFilter
  3
ObjectDBX Classes
 90
        0
280
     0
281
     0
  0
CLASS
  1
SORTENTSTABLE
  2
AcDbSortentsTable
  3
ObjectDBX Classes
 90
        0
280
     0
281
     0
  0
CLASS
  1
LAYER_INDEX
  2
AcDbLayerIndex
  3
ObjectDBX Classes
 90
        0
280
     0
281
     0
  0
CLASS
  1
SPATIAL_INDEX
  2
AcDbSpatialIndex
  3
AutoCAD 2000
 90
        0
280
     0
281
     0
  0
CLASS
  1
OBJECT_PTR
  2
CAseDLPNTableRecord
  3
ASE-LPNTableRecord
 90
        1
280
     0
281
     0
  0
CLASS
  1
PLOTSETTINGS
  2
AcDbPlotSettings
  3
ObjectDBX Classes
 90
        0
280
     0
281
     0
  0
CLASS
  1
ACDBDICTIONARYWDFLT
  2
AcDbDictionaryWithDefault
  3
ObjectDBX Classes
 90
        0
280
     0
281
     0
  0
CLASS
  1
WIPEOUT
  2
AcDbWipeout
  3
WipeOut|AutoCAD Express Tool|expresstools@autodesk.com
 90
      127
280
     0
281
     1
  0
CLASS
  1
WIPEOUTVARIABLES
  2
AcDbWipeoutVariables
  3
WipeOut|AutoCAD Express Tool|expresstools@autodesk.com
 90
        0
280
     0
281
     0
  0
CLASS
  1
RTEXT
  2
RText
  3
RText|AutoCAD Express Tool|expresstools@autodesk.com
 90
        0
280
     0
281
     1
  0
CLASS
  1
ARCALIGNEDTEXT
  2
AcDbArcAlignedText
  3
ATEXT|AutoCAD Express Tool|expresstools@autodesk.com
 90
        0
280
     0
281
     1
  0
CLASS
  1
ACDBPLACEHOLDER
  2
AcDbPlaceHolder
  3
ObjectDBX Classes
 90
        0
280
     0
281
     0
  0
CLASS
  1
LAYOUT
  2
AcDbLayout
  3
ObjectDBX Classes
 90
        0
280
     0
281
     0
  0
ENDSEC
  0
SECTION
  2
TABLES
  0
TABLE
  2
VPORT
  5
8
330
0
100
AcDbSymbolTable
 70
     1
  0
VPORT
  5
25B
330
8
100
AcDbSymbolTableRecord
100
AcDbViewportTableRecord
  2
*Active
 70
     0
 10
0.0
 20
0.0
 11
1.0
 21
1.0
 12
152.4013575576998
 22
100.1619697107579
 13
0.0
 23
0.0
 14
1.0
 24
1.0
 15
0.0
 25
0.0
 16
0.0
 26
0.0
 36
1.0
 17
0.0
 27
0.0
 37
0.0
 40
114.6391855689135
 41
1.888667992047713
 42
50.0
 43
0.0
 44
0.0
 50
0.0
 51
0.0
 71
     0
 72
   100
 73
     1
 74
     1
 75
     0
 76
     0
 77
     0
 78
     0
281
     0
 65
     1
110
0.0
120
0.0
130
0.0
111
1.0
121
0.0
131
0.0
112
0.0
122
1.0
132
0.0
 79
     0
146
0.0
  0
ENDTAB
  0
TABLE
  2
LTYPE
  5
5
330
0
100
AcDbSymbolTable
 70
     1
  0
LTYPE
  5
14
330
5
100
AcDbSymbolTableRecord
100
AcDbLinetypeTableRecord
  2
BYBLOCK
 70
     0
  3

 72
    65
 73
     0
 40
0.0
  0
LTYPE
  5
15
330
5
100
AcDbSymbolTableRecord
100
AcDbLinetypeTableRecord
  2
BYLAYER
 70
     0
  3

 72
    65
 73
     0
 40
0.0
  0
LTYPE
  5
16
330
5
100
AcDbSymbolTableRecord
100
AcDbLinetypeTableRecord
  2
CONTINUOUS
 70
     0
  3
Solid line
 72
    65
 73
     0
 40
0.0
  0
ENDTAB
  0
TABLE
  2
LAYER
  5
2
330
0
100
AcDbSymbolTable
 70
     1
  0
LAYER
  5
10
330
2
100
AcDbSymbolTableRecord
100
AcDbLayerTableRecord
  2
0
 70
     0
 62
     7
  6
CONTINUOUS
370
    -3
390
252
  0
ENDTAB
  0
TABLE
  2
STYLE
  5
3
330
0
100
AcDbSymbolTable
 70
     1
  0
STYLE
  5
11
330
3
100
AcDbSymbolTableRecord
100
AcDbTextStyleTableRecord
  2
STANDARD
 70
     0
 40
0.0
 41
1.0
 50
0.0
 71
     0
 42
0.2
  3
txt
  4

  0
ENDTAB
  0
TABLE
  2
VIEW
  5
6
330
0
100
AcDbSymbolTable
 70
     0
  0
ENDTAB
  0
TABLE
  2
UCS
  5
7
330
0
100
AcDbSymbolTable
 70
     0
  0
ENDTAB
  0
TABLE
  2
APPID
  5
9
330
0
100
AcDbSymbolTable
 70
     1
  0
APPID
  5
203
330
9
100
AcDbSymbolTableRecord
100
AcDbRegAppTableRecord
  2
ACAD
 70
     0
  0
ENDTAB
  0
TABLE
  2
DIMSTYLE
  5
A
330
0
100
AcDbSymbolTable
 70
     1
100
AcDbDimStyleTable
  0
DIMSTYLE
105
204
330
A
100
AcDbSymbolTableRecord
100
AcDbDimStyleTableRecord
  2
STANDARD
 70
     0
 41
3.0
 47
0.003
 48
0.003
 71
     1
 73
     0
 74
     0
 77
     1
 78
     8
140
1.5
271
     3
272
     3
284
     8
340
11
  0
ENDTAB
  0
TABLE
  2
BLOCK_RECORD
  5
1
330
0
100
AcDbSymbolTable
 70
     0
  0
BLOCK_RECORD
  5
1B
330
1
100
AcDbSymbolTableRecord
100
AcDbBlockTableRecord
  2
*MODEL_SPACE
340
257
  0
BLOCK_RECORD
  5
1C
330
1
100
AcDbSymbolTableRecord
100
AcDbBlockTableRecord
  2
*PAPER_SPACE
340
258
  0
ENDTAB
  0
ENDSEC
  0
SECTION
  2
BLOCKS
  0
BLOCK
  5
1E
330
1B
100
AcDbEntity
  8
0
100
AcDbBlockBegin
  2
*MODEL_SPACE
 70
     0
 71
     0
 10
0.0
 20
0.0
 30
0.0
  3
*MODEL_SPACE
  1

  0
ENDBLK
  5
1F
330
1B
100
AcDbEntity
  8
0
100
AcDbBlockEnd
  0
BLOCK
  5
20
330
1C
100
AcDbEntity
 67
     1
  8
0
100
AcDbBlockBegin
  2
*PAPER_SPACE
 70
     0
 71
     0
 10
0.0
 20
0.0
 30
0.0
  3
*PAPER_SPACE
  1

  0
ENDBLK
  5
21
330
1C
100
AcDbEntity
 67
     1
  8
0
100
AcDbBlockEnd
  0
ENDSEC
  0
SECTION
  2
ENTITIES
  0
LINE
  5
209
330
1B
100
AcDbEntity
  8
0
  6
Continuous
100
AcDbLine
 10
114.4606406461
 20
129.65
 30
0.0
 11
113.1285898385
 21
127.342820323
 31
0.0
  0
LINE
  5
20A
330
1B
100
AcDbEntity
  8
0
  6
Continuous
100
AcDbLine
 10
114.4606406461
 20
88.45
 30
0.0
 11
113.1285898385
 21
90.757179677
 31
0.0
  0
LINE
  5
20B
330
1B
100
AcDbEntity
  8
0
  6
Continuous
100
AcDbLine
 10
113.075
 20
127.142820323
 30
0.0
 11
113.075
 21
90.957179677
 31
0.0
  0
LINE
  5
20C
330
1B
100
AcDbEntity
  8
0
  6
Continuous
100
AcDbLine
 10
113.1285898385
 20
127.342820323
 30
0.0
 11
113.1285898385
 21
90.757179677
 31
0.0
  0
LINE
  5
20D
330
1B
100
AcDbEntity
  8
0
  6
Continuous
100
AcDbLine
 10
113.323260498
 20
127.68
 30
0.0
 11
113.323260498
 21
90.41999999999999
 31
0.0
  0
LINE
  5
20E
330
1B
100
AcDbEntity
  8
0
  6
Continuous
100
AcDbLine
 10
114.4606406461
 20
129.65
 30
0.0
 11
114.4606406461
 21
88.45
 31
0.0
  0
LINE
  5
20F
330
1B
100
AcDbEntity
  8
0
  6
Continuous
100
AcDbLine
 10
114.8070508076
 20
129.85
 30
0.0
 11
114.8070508076
 21
88.25000000000001
 31
0.0
  0
LINE
  5
210
330
1B
100
AcDbEntity
  8
0
  6
Continuous
100
AcDbLine
 10
147.075
 20
82.34999999999999
 30
0.0
 11
135.075
 21
82.34999999999999
 31
0.0
  0
LINE
  5
211
330
1B
100
AcDbEntity
  8
0
  6
Continuous
100
AcDbLine
 10
135.075
 20
82.35750619069999
 30
0.0
 11
147.075
 21
82.35750619069999
 31
0.0
  0
LINE
  5
212
330
1B
100
AcDbEntity
  8
0
  6
Continuous
100
AcDbLine
 10
135.075
 20
82.75858658709998
 30
0.0
 11
147.075
 21
82.75858658709998
 31
0.0
  0
LINE
  5
213
330
1B
100
AcDbEntity
  8
0
  6
Continuous
100
AcDbLine
 10
130.075
 20
131.05
 30
0.0
 11
123.0074429025
 21
128.05
 31
0.0
  0
LINE
  5
214
330
1B
100
AcDbEntity
  8
0
  6
Continuous
100
AcDbLine
 10
130.075
 20
87.05
 30
0.0
 11
123.0074429025
 21
90.05
 31
0.0
  0
LINE
  5
215
330
1B
100
AcDbEntity
  8
0
  6
Continuous
100
AcDbLine
 10
135.075
 20
87.05
 30
0.0
 11
130.075
 21
87.05
 31
0.0
  0
LINE
  5
216
330
1B
100
AcDbEntity
  8
0
  6
Continuous
100
AcDbLine
 10
147.075
 20
87.05
 30
0.0
 11
152.075
 21
87.05
 31
0.0
  0
LINE
  5
217
330
1B
100
AcDbEntity
  8
0
  6
Continuous
100
AcDbLine
 10
167.3429491924
 20
88.25000000000001
 30
0.0
 11
160.2297005384
 21
88.25000000000001
 31
0.0
  0
LINE
  5
218
330
1B
100
AcDbEntity
  8
0
  6
Continuous
100
AcDbLine
 10
121.9202994616
 20
88.25000000000001
 30
0.0
 11
114.8070508076
 21
88.25000000000001
 31
0.0
  0
LINE
  5
219
330
1B
100
AcDbEntity
  8
0
  6
Continuous
100
AcDbLine
 10
121.9202994616
 20
129.85
 30
0.0
 11
121.9202994616
 21
88.25000000000001
 31
0.0
  0
LINE
  5
21A
330
1B
100
AcDbEntity
  8
0
  6
Continuous
100
AcDbLine
 10
123.0074429025
 20
90.05
 30
0.0
 11
123.0074429025
 21
128.05
 31
0.0
  0
LINE
  5
21B
330
1B
100
AcDbEntity
  8
0
  6
Continuous
100
AcDbLine
 10
168.8267393842
 20
90.41999999999999
 30
0.0
 11
159.1425570975
 21
90.41999999999999
 31
0.0
  0
LINE
  5
21C
330
1B
100
AcDbEntity
  8
0
  6
Continuous
100
AcDbLine
 10
113.3232606158
 20
90.41999999999999
 30
0.0
 11
123.0074429025
 21
90.41999999999999
 31
0.0
  0
LINE
  5
21D
330
1B
100
AcDbEntity
  8
0
  6
Continuous
100
AcDbLine
 10
147.075
 20
94.11860419270001
 30
0.0
 11
135.075
 21
94.11860419270001
 31
0.0
  0
LINE
  5
21E
330
1B
100
AcDbEntity
  8
0
  6
Continuous
100
AcDbLine
 10
147.075
 20
95.15550070839998
 30
0.0
 11
135.075
 21
95.15550070839998
 31
0.0
  0
LINE
  5
21F
330
1B
100
AcDbEntity
  8
0
  6
Continuous
100
AcDbLine
 10
135.075
 20
96.25200548230001
 30
0.0
 11
147.075
 21
96.25200548230001
 31
0.0
  0
LINE
  5
220
330
1B
100
AcDbEntity
  8
0
  6
Continuous
100
AcDbLine
 10
130.075
 20
87.05
 30
0.0
 11
130.075
 21
131.05
 31
0.0
  0
LINE
  5
221
330
1B
100
AcDbEntity
  8
0
  6
Continuous
100
AcDbLine
 10
135.075
 20
97.68998239440001
 30
0.0
 11
147.075
 21
97.68998239440001
 31
0.0
  0
LINE
  5
222
330
1B
100
AcDbEntity
  8
0
  6
Continuous
100
AcDbLine
 10
135.075
 20
82.34999999999999
 30
0.0
 11
135.075
 21
135.75
 31
0.0
  0
LINE
  5
223
330
1B
100
AcDbEntity
  8
0
  6
Continuous
100
AcDbLine
 10
123.0074429025
 20
90.13298767480001
 30
0.0
 11
121.9202994616
 21
88.25000000000001
 31
0.0
  0
LINE
  5
224
330
1B
100
AcDbEntity
  8
0
  6
Continuous
100
AcDbLine
 10
123.0074429025
 20
127.9670123252
 30
0.0
 11
121.9202994616
 21
129.85
 31
0.0
  0
LINE
  5
225
330
1B
100
AcDbEntity
  8
0
  6
Continuous
100
AcDbLine
 10
147.075
 20
82.34999999999999
 30
0.0
 11
147.075
 21
135.75
 31
0.0
  0
LINE
  5
226
330
1B
100
AcDbEntity
  8
0
  6
Continuous
100
AcDbLine
 10
160.2297005384
 20
129.85
 30
0.0
 11
159.1425570975
 21
127.9670123252
 31
0.0
  0
LINE
  5
227
330
1B
100
AcDbEntity
  8
0
  6
Continuous
100
AcDbLine
 10
160.2297005384
 20
88.25000000000001
 30
0.0
 11
159.1425570975
 21
90.13298767480001
 31
0.0
  0
LINE
  5
228
330
1B
100
AcDbEntity
  8
0
  6
Continuous
100
AcDbLine
 10
152.075
 20
131.05
 30
0.0
 11
152.075
 21
87.05
 31
0.0
  0
LINE
  5
229
330
1B
100
AcDbEntity
  8
0
  6
Continuous
100
AcDbLine
 10
147.075
 20
120.4100176056
 30
0.0
 11
135.075
 21
120.4100176056
 31
0.0
  0
LINE
  5
22A
330
1B
100
AcDbEntity
  8
0
  6
Continuous
100
AcDbLine
 10
147.075
 20
121.8479945177
 30
0.0
 11
135.075
 21
121.8479945177
 31
0.0
  0
LINE
  5
22B
330
1B
100
AcDbEntity
  8
0
  6
Continuous
100
AcDbLine
 10
135.075
 20
122.9444992916
 30
0.0
 11
147.075
 21
122.9444992916
 31
0.0
  0
LINE
  5
22C
330
1B
100
AcDbEntity
  8
0
  6
Continuous
100
AcDbLine
 10
135.075
 20
123.9813958073
 30
0.0
 11
147.075
 21
123.9813958073
 31
0.0
  0
LINE
  5
22D
330
1B
100
AcDbEntity
  8
0
  6
Continuous
100
AcDbLine
 10
159.1425570975
 20
128.05
 30
0.0
 11
159.1425570975
 21
90.05
 31
0.0
  0
LINE
  5
22E
330
1B
100
AcDbEntity
  8
0
  6
Continuous
100
AcDbLine
 10
160.2297005384
 20
129.85
 30
0.0
 11
160.2297005384
 21
88.25000000000001
 31
0.0
  0
LINE
  5
22F
330
1B
100
AcDbEntity
  8
0
  6
Continuous
100
AcDbLine
 10
168.8267393842
 20
127.68
 30
0.0
 11
159.1425570975
 21
127.68
 31
0.0
  0
LINE
  5
230
330
1B
100
AcDbEntity
  8
0
  6
Continuous
100
AcDbLine
 10
113.3232606158
 20
127.68
 30
0.0
 11
123.0074429025
 21
127.68
 31
0.0
  0
LINE
  5
231
330
1B
100
AcDbEntity
  8
0
  6
Continuous
100
AcDbLine
 10
167.3429491924
 20
129.85
 30
0.0
 11
160.2297005384
 21
129.85
 31
0.0
  0
LINE
  5
232
330
1B
100
AcDbEntity
  8
0
  6
Continuous
100
AcDbLine
 10
121.9202994616
 20
129.85
 30
0.0
 11
114.8070508076
 21
129.85
 31
0.0
  0
LINE
  5
233
330
1B
100
AcDbEntity
  8
0
  6
Continuous
100
AcDbLine
 10
135.075
 20
131.05
 30
0.0
 11
130.075
 21
131.05
 31
0.0
  0
LINE
  5
234
330
1B
100
AcDbEntity
  8
0
  6
Continuous
100
AcDbLine
 10
147.075
 20
131.05
 30
0.0
 11
152.075
 21
131.05
 31
0.0
  0
LINE
  5
235
330
1B
100
AcDbEntity
  8
0
  6
Continuous
100
AcDbLine
 10
152.075
 20
87.05
 30
0.0
 11
159.1425570975
 21
90.05
 31
0.0
  0
LINE
  5
236
330
1B
100
AcDbEntity
  8
0
  6
Continuous
100
AcDbLine
 10
152.075
 20
131.05
 30
0.0
 11
159.1425570975
 21
128.05
 31
0.0
  0
LINE
  5
237
330
1B
100
AcDbEntity
  8
0
  6
Continuous
100
AcDbLine
 10
167.3429491924
 20
129.85
 30
0.0
 11
167.3429491924
 21
88.25000000000001
 31
0.0
  0
LINE
  5
238
330
1B
100
AcDbEntity
  8
0
  6
Continuous
100
AcDbLine
 10
167.6893593539
 20
129.65
 30
0.0
 11
167.6893593539
 21
88.45
 31
0.0
  0
LINE
  5
239
330
1B
100
AcDbEntity
  8
0
  6
Continuous
100
AcDbLine
 10
168.8267393827
 20
90.41999999999999
 30
0.0
 11
168.8267393827
 21
127.68
 31
0.0
  0
LINE
  5
23A
330
1B
100
AcDbEntity
  8
0
  6
Continuous
100
AcDbLine
 10
169.075
 20
127.142820323
 30
0.0
 11
169.075
 21
90.957179677
 31
0.0
  0
LINE
  5
23B
330
1B
100
AcDbEntity
  8
0
  6
Continuous
100
AcDbLine
 10
169.0214101615
 20
127.342820323
 30
0.0
 11
169.0214101615
 21
90.757179677
 31
0.0
  0
LINE
  5
23C
330
1B
100
AcDbEntity
  8
0
  6
Continuous
100
AcDbLine
 10
147.075
 20
135.3414134129
 30
0.0
 11
135.075
 21
135.3414134129
 31
0.0
  0
LINE
  5
23D
330
1B
100
AcDbEntity
  8
0
  6
Continuous
100
AcDbLine
 10
147.075
 20
135.7424938093
 30
0.0
 11
135.075
 21
135.7424938093
 31
0.0
  0
LINE
  5
23E
330
1B
100
AcDbEntity
  8
0
  6
Continuous
100
AcDbLine
 10
147.075
 20
135.75
 30
0.0
 11
135.075
 21
135.75
 31
0.0
  0
LINE
  5
23F
330
1B
100
AcDbEntity
  8
0
  6
Continuous
100
AcDbLine
 10
169.0214101615
 20
90.757179677
 30
0.0
 11
167.6893593539
 21
88.45
 31
0.0
  0
LINE
  5
240
330
1B
100
AcDbEntity
  8
0
  6
Continuous
100
AcDbLine
 10
169.0214101615
 20
127.342820323
 30
0.0
 11
167.6893593539
 21
129.65
 31
0.0
  0
ARC
  5
241
330
1B
100
AcDbEntity
  8
0
  6
Continuous
100
AcDbCircle
 10
113.475
 20
90.957179677
 30
0.0
 40
0.4
100
AcDbArc
 50
180.0000000000004
 51
209.9999999953004
  0
ARC
  5
242
330
1B
100
AcDbEntity
  8
0
  6
Continuous
100
AcDbCircle
 10
113.475
 20
127.142820323
 30
0.0
 40
0.4
100
AcDbArc
 50
150.0000000037003
 51
180.0000000000004
  0
ARC
  5
243
330
1B
100
AcDbEntity
  8
0
  6
Continuous
100
AcDbCircle
 10
114.8070508076
 20
88.65000000000001
 30
0.0
 40
0.4
100
AcDbArc
 50
209.9999999955005
 51
270.0000000000006
  0
ARC
  5
244
330
1B
100
AcDbEntity
  8
0
  6
Continuous
100
AcDbCircle
 10
114.8070508076
 20
129.45
 30
0.0
 40
0.4
100
AcDbArc
 50
90.00000000000019
 51
150.0000000039003
  0
ARC
  5
245
330
1B
100
AcDbEntity
  8
0
  6
Continuous
100
AcDbCircle
 10
168.675
 20
90.957179677
 30
0.0
 40
0.4
100
AcDbArc
 50
330.0000000079007
 51
360.0000000000008
  0
ARC
  5
246
330
1B
100
AcDbEntity
  8
0
  6
Continuous
100
AcDbCircle
 10
168.675
 20
127.142820323
 30
0.0
 40
0.4
100
AcDbArc
 50
0.0
 51
29.99999998970007
  0
ARC
  5
247
330
1B
100
AcDbEntity
  8
0
  6
Continuous
100
AcDbCircle
 10
167.3429491924
 20
88.65000000000001
 30
0.0
 40
0.4
100
AcDbArc
 50
270.0000000000006
 51
330.0000000043007
  0
ARC
  5
248
330
1B
100
AcDbEntity
  8
0
  6
Continuous
100
AcDbCircle
 10
167.3429491924
 20
129.45
 30
0.0
 40
0.4
100
AcDbArc
 50
29.99999999540007
 51
90.00000000000019
  0
ENDSEC
  0
SECTION
  2
OBJECTS
  0
DICTIONARY
  5
249
330
0
100
AcDbDictionary
281
     1
  3
ACAD_COLOR
350
254
  3
ACAD_GROUP
350
24A
  3
ACAD_LAYOUT
350
255
  3
ACAD_MATERIAL
350
253
  3
ACAD_MLINESTYLE
350
24B
  3
ACAD_PLOTSETTINGS
350
256
  3
ACAD_PLOTSTYLENAME
350
251
  3
ACDBHEADERROUNDTRIPXREC
350
25F
  3
AcDbVariableDictionary
350
25C
  0
DICTIONARY
  5
254
102
{ACAD_REACTORS
330
249
102
}
330
249
100
AcDbDictionary
281
     1
  0
DICTIONARY
  5
24A
102
{ACAD_REACTORS
330
249
102
}
330
249
100
AcDbDictionary
281
     1
  0
DICTIONARY
  5
255
102
{ACAD_REACTORS
330
249
102
}
330
249
100
AcDbDictionary
281
     1
  3
Layout1
350
258
  3
Model
350
257
  0
DICTIONARY
  5
253
102
{ACAD_REACTORS
330
249
102
}
330
249
100
AcDbDictionary
281
     1
  0
DICTIONARY
  5
24B
102
{ACAD_REACTORS
330
249
102
}
330
249
100
AcDbDictionary
281
     1
  3
STANDARD
350
24C
  0
DICTIONARY
  5
256
102
{ACAD_REACTORS
330
249
102
}
330
249
100
AcDbDictionary
281
     1
  0
ACDBDICTIONARYWDFLT
  5
251
102
{ACAD_REACTORS
330
249
102
}
330
249
100
AcDbDictionary
281
     1
  3
Normal
350
252
100
AcDbDictionaryWithDefault
340
252
  0
DICTIONARY
  5
25F
102
{ACAD_REACTORS
330
249
102
}
330
249
100
AcDbDictionary
281
     1
  3
COLORDICT
350
260
  3
MATERIALDICT
350
261
  0
DICTIONARY
  5
25C
102
{ACAD_REACTORS
330
249
102
}
330
249
100
AcDbDictionary
281
     1
  3
DIMASSOC
350
25D
  3
HIDETEXT
350
25E
  0
LAYOUT
  5
258
102
{ACAD_REACTORS
330
255
102
}
330
255
100
AcDbPlotSettings
  1

  2
Microsoft Office Document Image Writer
  4

  6

 40
0.0
 41
0.0
 42
0.0
 43
0.0
 44
0.0
 45
0.0
 46
0.0
 47
0.0
 48
0.0
 49
0.0
140
0.0
141
0.0
142
1.0
143
1.0
 70
   688
 72
     0
 73
     0
 74
     5
  7

 75
    16
147
1.0
148
0.0
149
0.0
100
AcDbLayout
  1
Layout1
 70
     0
 71
     1
 10
0.0
 20
0.0
 11
12.0
 21
9.0
 12
0.0
 22
0.0
 32
0.0
 14
1.000000000000000E+20
 24
1.000000000000000E+20
 34
1.000000000000000E+20
 15
-1.000000000000000E+20
 25
-1.000000000000000E+20
 35
-1.000000000000000E+20
146
0.0
 13
0.0
 23
0.0
 33
0.0
 16
1.0
 26
0.0
 36
0.0
 17
0.0
 27
1.0
 37
0.0
 76
     0
330
1C
  0
LAYOUT
  5
257
102
{ACAD_REACTORS
330
255
102
}
330
255
100
AcDbPlotSettings
  1

  2
Microsoft Office Document Image Writer
  4

  6

 40
0.0
 41
0.0
 42
0.0
 43
0.0
 44
0.0
 45
0.0
 46
0.0
 47
0.0
 48
0.0
 49
0.0
140
0.0
141
0.0
142
1.0
143
1.0
 70
  1712
 72
     0
 73
     0
 74
     0
  7

 75
     0
147
1.0
148
0.0
149
0.0
100
AcDbLayout
  1
Model
 70
     1
 71
     0
 10
0.0
 20
0.0
 11
12.0
 21
9.0
 12
0.0
 22
0.0
 32
0.0
 14
0.0
 24
0.0
 34
0.0
 15
0.0
 25
0.0
 35
0.0
146
0.0
 13
0.0
 23
0.0
 33
0.0
 16
1.0
 26
0.0
 36
0.0
 17
0.0
 27
1.0
 37
0.0
 76
     0
330
1B
  0
MLINESTYLE
  5
24C
102
{ACAD_REACTORS
330
24B
102
}
330
24B
100
AcDbMlineStyle
  2
STANDARD
 70
     0
  3

 62
   256
 51
90.00000000000019
 52
90.00000000000019
 71
     2
 49
0.5
 62
   256
  6
BYLAYER
 49
-0.5
 62
   256
  6
BYLAYER
  0
ACDBPLACEHOLDER
  5
252
102
{ACAD_REACTORS
330
251
102
}
330
251
  0
XRECORD
  5
260
102
{ACAD_REACTORS
330
25F
102
}
330
25F
100
AcDbXrecord
280
     1
340
254
  0
XRECORD
  5
261
102
{ACAD_REACTORS
330
25F
102
}
330
25F
100
AcDbXrecord
280
     1
340
253
  0
DICTIONARYVAR
  5
25D
102
{ACAD_REACTORS
330
25C
102
}
330
25C
100
DictionaryVariables
280
     0
  1
1
  0
DICTIONARYVAR
  5
25E
102
{ACAD_REACTORS
330
25C
102
}
330
25C
100
DictionaryVariables
280
     0
  1
0
  0
ENDSEC
  0
EOF
