  0
SECTION
  2
HEADER
  9
$ACADVER
  1
AC1015
  9
$ACADMAINTVER
 70
     6
  9
$DWGCODEPAGE
  3
ANSI_1252
  9
$INSBASE
 10
0.0
 20
0.0
 30
0.0
  9
$EXTMIN
 10
10.33827094410006
 20
75.78789520079998
 30
-5.266664999999999
  9
$EXTMAX
 10
249.164681812
 20
230.1052107062
 30
2.857612557599999
  9
$LIMMIN
 10
0.0
 20
0.0
  9
$LIMMAX
 10
420.0
 20
297.0
  9
$ORTHOMODE
 70
     0
  9
$REGENMODE
 70
     1
  9
$FILLMODE
 70
     1
  9
$QTEXTMODE
 70
     0
  9
$MIRRTEXT
 70
     1
  9
$LTSCALE
 40
23.1
  9
$ATTMODE
 70
     1
  9
$TEXTSIZE
 40
0.2
  9
$TRACEWID
 40
0.05
  9
$TEXTSTYLE
  7
STANDARD
  9
$CLAYER
  8
0
  9
$CELTYPE
  6
BYLAYER
  9
$CECOLOR
 62
   256
  9
$CELTSCALE
 40
1.0
  9
$DISPSILH
 70
     0
  9
$DIMSCALE
 40
1.0
  9
$DIMASZ
 40
3.0
  9
$DIMEXO
 40
2.625
  9
$DIMDLI
 40
15.96
  9
$DIMRND
 40
0.0
  9
$DIMDLE
 40
0.0
  9
$DIMEXE
 40
7.559999999999999
  9
$DIMTP
 40
0.003
  9
$DIMTM
 40
0.003
  9
$DIMTXT
 40
1.5
  9
$DIMCEN
 40
3.779999999999999
  9
$DIMTSZ
 40
0.0
  9
$DIMTOL
 70
     1
  9
$DIMLIM
 70
     0
  9
$DIMTIH
 70
     1
  9
$DIMTOH
 70
     1
  9
$DIMSE1
 70
     0
  9
$DIMSE2
 70
     0
  9
$DIMTAD
 70
     0
  9
$DIMZIN
 70
     0
  9
$DIMBLK
  1

  9
$DIMASO
 70
     1
  9
$DIMSHO
 70
     1
  9
$DIMPOST
  1

  9
$DIMAPOST
  1

  9
$DIMALT
 70
     0
  9
$DIMALTD
 70
     2
  9
$DIMALTF
 40
25.4
  9
$DIMLFAC
 40
1.0
  9
$DIMTOFL
 70
     0
  9
$DIMTVP
 40
0.0
  9
$DIMTIX
 70
     0
  9
$DIMSOXD
 70
     0
  9
$DIMSAH
 70
     0
  9
$DIMBLK1
  1

  9
$DIMBLK2
  1

  9
$DIMSTYLE
  2
STANDARD
  9
$DIMCLRD
 70
     0
  9
$DIMCLRE
 70
     0
  9
$DIMCLRT
 70
     0
  9
$DIMTFAC
 40
1.0
  9
$DIMGAP
 40
0.09
  9
$DIMJUST
 70
     0
  9
$DIMSD1
 70
     0
  9
$DIMSD2
 70
     0
  9
$DIMTOLJ
 70
     1
  9
$DIMTZIN
 70
     0
  9
$DIMALTZ
 70
     0
  9
$DIMALTTZ
 70
     0
  9
$DIMUPT
 70
     0
  9
$DIMDEC
 70
     4
  9
$DIMTDEC
 70
     4
  9
$DIMALTU
 70
     2
  9
$DIMALTTD
 70
     2
  9
$DIMTXSTY
  7
STANDARD
  9
$DIMAUNIT
 70
     0
  9
$DIMADEC
 70
     0
  9
$DIMALTRND
 40
0.0
  9
$DIMAZIN
 70
     0
  9
$DIMDSEP
 70
    46
  9
$DIMATFIT
 70
     3
  9
$DIMFRAC
 70
     0
  9
$DIMLDRBLK
  1

  9
$DIMLUNIT
 70
     2
  9
$DIMLWD
 70
    -2
  9
$DIMLWE
 70
    -2
  9
$DIMTMOVE
 70
     0
  9
$LUNITS
 70
     2
  9
$LUPREC
 70
     4
  9
$SKETCHINC
 40
0.1
  9
$FILLETRAD
 40
0.0
  9
$AUNITS
 70
     0
  9
$AUPREC
 70
     0
  9
$MENU
  1
acad
  9
$ELEVATION
 40
0.0
  9
$PELEVATION
 40
0.0
  9
$THICKNESS
 40
0.0
  9
$LIMCHECK
 70
     0
  9
$CHAMFERA
 40
0.0
  9
$CHAMFERB
 40
0.0
  9
$CHAMFERC
 40
0.0
  9
$CHAMFERD
 40
0.0
  9
$SKPOLY
 70
     0
  9
$TDCREATE
 40
2444972.041666667
  9
$TDUCREATE
 40
2444972.0
  9
$TDUPDATE
 40
2453410.613131065
  9
$TDUUPDATE
 40
2453410.571464398
  9
$TDINDWG
 40
0.0387650347
  9
$TDUSRTIMER
 40
0.0387650347
  9
$USRTIMER
 70
     1
  9
$ANGBASE
 50
0.0
  9
$ANGDIR
 70
     0
  9
$PDMODE
 70
     0
  9
$PDSIZE
 40
0.0
  9
$PLINEWID
 40
0.0
  9
$SPLFRAME
 70
     0
  9
$SPLINETYPE
 70
     6
  9
$SPLINESEGS
 70
     8
  9
$HANDSEED
  5
2C0F
  9
$SURFTAB1
 70
     6
  9
$SURFTAB2
 70
     6
  9
$SURFTYPE
 70
     6
  9
$SURFU
 70
     6
  9
$SURFV
 70
     6
  9
$UCSBASE
  2

  9
$UCSNAME
  2

  9
$UCSORG
 10
0.0
 20
0.0
 30
0.0
  9
$UCSXDIR
 10
1.0
 20
0.0
 30
0.0
  9
$UCSYDIR
 10
0.0
 20
1.0
 30
0.0
  9
$UCSORTHOREF
  2

  9
$UCSORTHOVIEW
 70
     0
  9
$UCSORGTOP
 10
0.0
 20
0.0
 30
0.0
  9
$UCSORGBOTTOM
 10
0.0
 20
0.0
 30
0.0
  9
$UCSORGLEFT
 10
0.0
 20
0.0
 30
0.0
  9
$UCSORGRIGHT
 10
0.0
 20
0.0
 30
0.0
  9
$UCSORGFRONT
 10
0.0
 20
0.0
 30
0.0
  9
$UCSORGBACK
 10
0.0
 20
0.0
 30
0.0
  9
$PUCSBASE
  2

  9
$PUCSNAME
  2

  9
$PUCSORG
 10
0.0
 20
0.0
 30
0.0
  9
$PUCSXDIR
 10
1.0
 20
0.0
 30
0.0
  9
$PUCSYDIR
 10
0.0
 20
1.0
 30
0.0
  9
$PUCSORTHOREF
  2

  9
$PUCSORTHOVIEW
 70
     0
  9
$PUCSORGTOP
 10
0.0
 20
0.0
 30
0.0
  9
$PUCSORGBOTTOM
 10
0.0
 20
0.0
 30
0.0
  9
$PUCSORGLEFT
 10
0.0
 20
0.0
 30
0.0
  9
$PUCSORGRIGHT
 10
0.0
 20
0.0
 30
0.0
  9
$PUCSORGFRONT
 10
0.0
 20
0.0
 30
0.0
  9
$PUCSORGBACK
 10
0.0
 20
0.0
 30
0.0
  9
$USERI1
 70
     0
  9
$USERI2
 70
     0
  9
$USERI3
 70
     0
  9
$USERI4
 70
     0
  9
$USERI5
 70
     0
  9
$USERR1
 40
0.0
  9
$USERR2
 40
0.0
  9
$USERR3
 40
0.0
  9
$USERR4
 40
0.0
  9
$USERR5
 40
0.0
  9
$WORLDVIEW
 70
     1
  9
$SHADEDGE
 70
     3
  9
$SHADEDIF
 70
    70
  9
$TILEMODE
 70
     1
  9
$MAXACTVP
 70
    16
  9
$PINSBASE
 10
0.0
 20
0.0
 30
0.0
  9
$PLIMCHECK
 70
     0
  9
$PEXTMIN
 10
1.000000000000000E+20
 20
1.000000000000000E+20
 30
1.000000000000000E+20
  9
$PEXTMAX
 10
-1.000000000000000E+20
 20
-1.000000000000000E+20
 30
-1.000000000000000E+20
  9
$PLIMMIN
 10
0.0
 20
0.0
  9
$PLIMMAX
 10
12.0
 20
9.0
  9
$UNITMODE
 70
     0
  9
$VISRETAIN
 70
     0
  9
$PLINEGEN
 70
     1
  9
$PSLTSCALE
 70
     0
  9
$TREEDEPTH
 70
  3020
  9
$CMLSTYLE
  2
STANDARD
  9
$CMLJUST
 70
     0
  9
$CMLSCALE
 40
1.0
  9
$PROXYGRAPHICS
 70
     1
  9
$MEASUREMENT
 70
     0
  9
$CELWEIGHT
370
    -1
  9
$ENDCAPS
280
     0
  9
$JOINSTYLE
280
     0
  9
$LWDISPLAY
290
     0
  9
$INSUNITS
 70
     0
  9
$HYPERLINKBASE
  1

  9
$STYLESHEET
  1

  9
$XEDIT
290
     1
  9
$CEPSNTYPE
380
     0
  9
$PSTYLEMODE
290
     1
  9
$FINGERPRINTGUID
  2
{993D62F7-DFBA-4E8E-9DFB-229AD73CEC80}
  9
$VERSIONGUID
  2
{3E4BF541-F6A7-4BD7-A0F7-87BC6B6533ED}
  9
$EXTNAMES
290
     1
  9
$PSVPSCALE
 40
0.0
  9
$OLESTARTUP
290
     0
  0
ENDSEC
  0
SECTION
  2
CLASSES
  0
CLASS
  1
IMAGE
  2
AcDbRasterImage
  3
ISM
 90
      127
280
     0
281
     1
  0
CLASS
  1
DICTIONARYVAR
  2
AcDbDictionaryVar
  3
ObjectDBX Classes
 90
        0
280
     0
281
     0
  0
CLASS
  1
RASTERVARIABLES
  2
AcDbRasterVariables
  3
ISM
 90
        0
280
     0
281
     0
  0
CLASS
  1
IMAGEDEF
  2
AcDbRasterImageDef
  3
ISM
 90
        0
280
     0
281
     0
  0
CLASS
  1
IMAGEDEF_REACTOR
  2
AcDbRasterImageDefReactor
  3
ISM
 90
        1
280
     0
281
     0
  0
CLASS
  1
IDBUFFER
  2
AcDbIdBuffer
  3
ObjectDBX Classes
 90
        0
280
     0
281
     0
  0
CLASS
  1
SPATIAL_FILTER
  2
AcDbSpatialFilter
  3
ObjectDBX Classes
 90
        0
280
     0
281
     0
  0
CLASS
  1
SORTENTSTABLE
  2
AcDbSortentsTable
  3
ObjectDBX Classes
 90
        0
280
     0
281
     0
  0
CLASS
  1
LAYER_INDEX
  2
AcDbLayerIndex
  3
ObjectDBX Classes
 90
        0
280
     0
281
     0
  0
CLASS
  1
SPATIAL_INDEX
  2
AcDbSpatialIndex
  3
AutoCAD 2000
 90
        0
280
     0
281
     0
  0
CLASS
  1
OBJECT_PTR
  2
CAseDLPNTableRecord
  3
ASE-LPNTableRecord
 90
        1
280
     0
281
     0
  0
CLASS
  1
PLOTSETTINGS
  2
AcDbPlotSettings
  3
ObjectDBX Classes
 90
        0
280
     0
281
     0
  0
CLASS
  1
ACDBDICTIONARYWDFLT
  2
AcDbDictionaryWithDefault
  3
ObjectDBX Classes
 90
        0
280
     0
281
     0
  0
CLASS
  1
WIPEOUT
  2
AcDbWipeout
  3
WipeOut|AutoCAD Express Tool|expresstools@autodesk.com
 90
      127
280
     0
281
     1
  0
CLASS
  1
WIPEOUTVARIABLES
  2
AcDbWipeoutVariables
  3
WipeOut|AutoCAD Express Tool|expresstools@autodesk.com
 90
        0
280
     0
281
     0
  0
CLASS
  1
RTEXT
  2
RText
  3
RText|AutoCAD Express Tool|expresstools@autodesk.com
 90
        0
280
     0
281
     1
  0
CLASS
  1
ARCALIGNEDTEXT
  2
AcDbArcAlignedText
  3
ATEXT|AutoCAD Express Tool|expresstools@autodesk.com
 90
        0
280
     0
281
     1
  0
CLASS
  1
ACDBPLACEHOLDER
  2
AcDbPlaceHolder
  3
ObjectDBX Classes
 90
        0
280
     0
281
     0
  0
CLASS
  1
LAYOUT
  2
AcDbLayout
  3
ObjectDBX Classes
 90
        0
280
     0
281
     0
  0
ENDSEC
  0
SECTION
  2
TABLES
  0
TABLE
  2
VPORT
  5
8
330
0
100
AcDbSymbolTable
 70
     1
  0
VPORT
  5
2C08
330
8
100
AcDbSymbolTableRecord
100
AcDbViewportTableRecord
  2
*Active
 70
     0
 10
0.0
 20
0.0
 11
1.0
 21
1.0
 12
145.2698019094633
 22
152.9013130270264
 13
0.0
 23
0.0
 14
1.0
 24
1.0
 15
0.0
 25
0.0
 16
0.0
 26
0.0
 36
1.0
 17
0.0
 27
0.0
 37
0.0
 40
246.5247130671456
 41
1.888667992047713
 42
50.0
 43
0.0
 44
0.0
 50
0.0
 51
0.0
 71
     0
 72
   100
 73
     1
 74
     1
 75
     0
 76
     0
 77
     0
 78
     0
281
     0
 65
     1
110
0.0
120
0.0
130
0.0
111
1.0
121
0.0
131
0.0
112
0.0
122
1.0
132
0.0
 79
     0
146
0.0
  0
ENDTAB
  0
TABLE
  2
LTYPE
  5
5
330
0
100
AcDbSymbolTable
 70
     2
  0
LTYPE
  5
14
330
5
100
AcDbSymbolTableRecord
100
AcDbLinetypeTableRecord
  2
BYBLOCK
 70
     0
  3

 72
    65
 73
     0
 40
0.0
  0
LTYPE
  5
15
330
5
100
AcDbSymbolTableRecord
100
AcDbLinetypeTableRecord
  2
BYLAYER
 70
     0
  3

 72
    65
 73
     0
 40
0.0
  0
LTYPE
  5
16
330
5
100
AcDbSymbolTableRecord
100
AcDbLinetypeTableRecord
  2
CONTINUOUS
 70
     0
  3
Solid line
 72
    65
 73
     0
 40
0.0
  0
LTYPE
  5
1F5
330
5
100
AcDbSymbolTableRecord
100
AcDbLinetypeTableRecord
  2
CENTER
 70
     0
  3
____ _ ____ _ ____ _ ____ _ ____ _ ____ _ ____
 72
    65
 73
     4
 40
0.6
 49
0.375
 74
     0
 49
-0.075
 74
     0
 49
0.075
 74
     0
 49
-0.075
 74
     0
  0
ENDTAB
  0
TABLE
  2
LAYER
  5
2
330
0
100
AcDbSymbolTable
 70
     3
  0
LAYER
  5
10
330
2
100
AcDbSymbolTableRecord
100
AcDbLayerTableRecord
  2
0
 70
     0
 62
     7
  6
CONTINUOUS
370
    -3
390
2947
  0
LAYER
  5
1FA
330
2
100
AcDbSymbolTableRecord
100
AcDbLayerTableRecord
  2
DEFAULT_1
 70
     0
 62
     7
  6
CENTER
370
    -3
390
2947
  0
LAYER
  5
2AEF
330
2
100
AcDbSymbolTableRecord
100
AcDbLayerTableRecord
  2
Defpoints
 70
     0
 62
     7
  6
CONTINUOUS
290
     0
370
    -3
390
2947
  0
ENDTAB
  0
TABLE
  2
STYLE
  5
3
330
0
100
AcDbSymbolTable
 70
     1
  0
STYLE
  5
11
330
3
100
AcDbSymbolTableRecord
100
AcDbTextStyleTableRecord
  2
STANDARD
 70
     0
 40
0.0
 41
1.0
 50
0.0
 71
     0
 42
0.2
  3
txt
  4

  0
ENDTAB
  0
TABLE
  2
VIEW
  5
6
330
0
100
AcDbSymbolTable
 70
     0
  0
ENDTAB
  0
TABLE
  2
UCS
  5
7
330
0
100
AcDbSymbolTable
 70
     0
  0
ENDTAB
  0
TABLE
  2
APPID
  5
9
330
0
100
AcDbSymbolTable
 70
     1
  0
APPID
  5
219
330
9
100
AcDbSymbolTableRecord
100
AcDbRegAppTableRecord
  2
ACAD
 70
     0
  0
ENDTAB
  0
TABLE
  2
DIMSTYLE
  5
A
330
0
100
AcDbSymbolTable
 70
     1
100
AcDbDimStyleTable
  0
DIMSTYLE
105
21A
330
A
100
AcDbSymbolTableRecord
100
AcDbDimStyleTableRecord
  2
STANDARD
 70
     0
 41
3.0
 47
0.003
 48
0.003
 71
     1
 73
     0
 74
     0
 77
     1
 78
     8
140
1.5
271
     3
272
     3
284
     8
340
11
  0
ENDTAB
  0
TABLE
  2
BLOCK_RECORD
  5
1
330
0
100
AcDbSymbolTable
 70
     0
  0
BLOCK_RECORD
  5
1B
330
1
100
AcDbSymbolTableRecord
100
AcDbBlockTableRecord
  2
*MODEL_SPACE
340
294C
  0
BLOCK_RECORD
  5
1C
330
1
100
AcDbSymbolTableRecord
100
AcDbBlockTableRecord
  2
*PAPER_SPACE
340
294D
  0
ENDTAB
  0
ENDSEC
  0
SECTION
  2
BLOCKS
  0
BLOCK
  5
1E
330
1B
100
AcDbEntity
  8
0
100
AcDbBlockBegin
  2
*MODEL_SPACE
 70
     0
 71
     0
 10
0.0
 20
0.0
 30
0.0
  3
*MODEL_SPACE
  1

  0
ENDBLK
  5
1F
330
1B
100
AcDbEntity
  8
0
100
AcDbBlockEnd
  0
BLOCK
  5
20
330
1C
100
AcDbEntity
 67
     1
  8
0
100
AcDbBlockBegin
  2
*PAPER_SPACE
 70
     0
 71
     0
 10
0.0
 20
0.0
 30
0.0
  3
*PAPER_SPACE
  1

  0
ENDBLK
  5
21
330
1C
100
AcDbEntity
 67
     1
  8
0
100
AcDbBlockEnd
  0
ENDSEC
  0
SECTION
  2
ENTITIES
  0
TEXT
  5
2F5
330
1B
100
AcDbEntity
  8
0
  6
Continuous
 62
     1
100
AcDbText
 10
328.0620514055
 20
31.790927071
 30
0.0
 40
1.5
  1
 
 41
1.285714285699999
 72
     5
 11
329.990622834
 21
31.790927071
 31
0.0
100
AcDbText
  0
TEXT
  5
2F6
330
1B
100
AcDbEntity
  8
0
  6
Continuous
 62
     1
100
AcDbText
 10
329.990622834
 20
31.790927071
 30
0.0
 40
1.5
  1
 
 41
1.285714285699999
 72
     5
 11
331.9191942626
 21
31.790927071
 31
0.0
100
AcDbText
  0
TEXT
  5
2F8
330
1B
100
AcDbEntity
  8
0
  6
Continuous
 62
     1
100
AcDbText
 10
352.7763371197
 20
31.790927071
 30
0.0
 40
1.5
  1
 
 41
1.285714285699999
 72
     5
 11
354.7049085483
 21
31.790927071
 31
0.0
100
AcDbText
  0
TEXT
  5
302
330
1B
100
AcDbEntity
  8
0
  6
Continuous
 62
     1
100
AcDbText
 10
401.7191942625999
 20
20.9052127852
 30
0.0
 40
1.5
  1
 
 41
1.0285714286
 72
     5
 11
403.2620514054999
 21
20.9052127852
 31
0.0
100
AcDbText
  0
LINE
  5
3E5
330
1B
100
AcDbEntity
  8
0
  6
Continuous
100
AcDbLine
 10
53.9554282316
 20
130.6707379133
 30
0.0
 11
55.9211136565
 21
128.7050524883
 31
0.0
  0
LINE
  5
3E6
330
1B
100
AcDbEntity
  8
0
  6
Continuous
100
AcDbLine
 10
53.838270944
 20
130.9535806257
 30
0.0
 11
53.838270944
 21
174.2222097758
 31
0.0
  0
LINE
  5
3E7
330
1B
100
AcDbEntity
  8
0
  6
Continuous
100
AcDbLine
 10
53.9554282316
 20
130.6707379133
 30
0.0
 11
53.9554282316
 21
174.5050524883
 31
0.0
  0
LINE
  5
3E8
330
1B
100
AcDbEntity
  8
0
  6
Continuous
100
AcDbLine
 10
54.338270944
 20
174.8878944378
 30
0.0
 11
54.338270944
 21
130.2878959637
 31
0.0
  0
LINE
  5
3E9
330
1B
100
AcDbEntity
  8
0
  6
Continuous
100
AcDbLine
 10
55.9211136565
 20
128.7050524883
 30
0.0
 11
55.9211136565
 21
176.4707379133
 31
0.0
  0
LINE
  5
3EA
330
1B
100
AcDbEntity
  8
0
  6
Continuous
100
AcDbLine
 10
56.20395636899999
 20
128.5878952008
 30
0.0
 11
56.20395636899999
 21
176.5878952008
 31
0.0
  0
LINE
  5
3EB
330
1B
100
AcDbEntity
  8
0
  6
Continuous
100
AcDbLine
 10
66.438270944
 20
176.5878952008
 30
0.0
 11
66.438270944
 21
128.5878952008
 31
0.0
  0
LINE
  5
3EC
330
1B
100
AcDbEntity
  8
0
  6
Continuous
100
AcDbLine
 10
67.438270944
 20
200.8000331549
 30
0.0
 11
67.438270944
 21
193.3550313045
 31
0.0
  0
LINE
  5
3ED
330
1B
100
AcDbEntity
  8
0
  6
Continuous
100
AcDbLine
 10
67.4650534238
 20
200.8000331549
 30
0.0
 11
67.4650534238
 21
193.3550313045
 31
0.0
  0
LINE
  5
3EE
330
1B
100
AcDbEntity
  8
0
  6
Continuous
100
AcDbLine
 10
67.7313988749
 20
200.8000332696
 30
0.0
 11
67.7313988749
 21
193.2301683123
 31
0.0
  0
LINE
  5
3EF
330
1B
100
AcDbEntity
  8
0
  6
Continuous
100
AcDbLine
 10
68.1382701811
 20
174.8878944378
 30
0.0
 11
68.1382701811
 21
131.8204665943
 31
0.0
  0
LWPOLYLINE
  5
3F0
330
1B
100
AcDbEntity
  8
0
  6
Continuous
100
AcDbPolyline
 90
        5
 70
     0
 43
0.0
 10
67.4650534238
 20
200.8000331549
 10
67.53314712499999
 20
201.3176712452
 10
67.7327877556
 20
201.8000331549
 10
68.05037013640001
 20
202.2142467173
 10
68.4642515531
 20
202.5320839625
  0
LINE
  5
3F7
330
1B
100
AcDbEntity
  8
0
  6
Continuous
100
AcDbLine
 10
69.55959128759999
 20
173.4665748572
 30
0.0
 11
69.55959128759999
 21
136.5178316406
 31
0.0
  0
LINE
  5
3F8
330
1B
100
AcDbEntity
  8
0
  6
Continuous
100
AcDbLine
 10
71.6809116312
 20
172.5878952008
 30
0.0
 11
71.6809116312
 21
137.1941323063
 31
0.0
  0
LINE
  5
3F9
330
1B
100
AcDbEntity
  8
0
  6
Continuous
100
AcDbLine
 10
53.9554282316
 20
174.5050524883
 30
0.0
 11
55.9211136565
 21
176.4707379133
 31
0.0
  0
LINE
  5
3FA
330
1B
100
AcDbEntity
  8
0
  6
Continuous
100
AcDbLine
 10
72.5741693289
 20
204.9199460084
 30
0.0
 11
68.438270944
 21
202.5320839625
 31
0.0
  0
LINE
  5
3FB
330
1B
100
AcDbEntity
  8
0
  6
Continuous
100
AcDbLine
 10
95.62287756089999
 20
123.7190073562
 30
0.0
 11
70.4387658405
 21
130.4670697537
 31
0.0
  0
LINE
  5
3FC
330
1B
100
AcDbEntity
  8
0
  6
Continuous
100
AcDbLine
 10
95.6228777903
 20
123.7190077661
 30
0.0
 11
95.75888512549999
 21
123.6790978952
 31
0.0
  0
LINE
  5
3FD
330
1B
100
AcDbEntity
  8
0
  6
Continuous
100
AcDbLine
 10
76.338270944
 20
189.7452545137
 30
0.0
 11
76.338270944
 21
184.7199460084
 31
0.0
  0
LINE
  5
3FE
330
1B
100
AcDbEntity
  8
0
  6
Continuous
100
AcDbLine
 10
80.838270944
 20
178.6577681819
 30
0.0
 11
80.838270944
 21
175.5878802288
 31
0.0
  0
LWPOLYLINE
  5
3FF
330
1B
100
AcDbEntity
  8
0
  6
Continuous
100
AcDbPolyline
 90
        5
 70
     0
 43
0.0
 10
82.99353254570001
 20
200.8000331549
 10
83.02995710410001
 20
201.3177738842
 10
83.1367553435
 20
201.8002426058
 10
83.30662729590001
 20
202.2144797403
 10
83.5278061504
 20
202.5320839625
  0
LINE
  5
406
330
1B
100
AcDbEntity
  8
0
  6
Continuous
100
AcDbLine
 10
81.2226291699
 20
221.2316338876
 30
0.0
 11
79.5761684212
 21
207.8222871706
 31
0.0
  0
LINE
  5
407
330
1B
100
AcDbEntity
  8
0
  6
Continuous
100
AcDbLine
 10
139.4440828886
 20
119.2878952008
 30
0.0
 11
158.6705801967
 21
119.2878952008
 31
0.0
  0
LINE
  5
408
330
1B
100
AcDbEntity
  8
0
  6
Continuous
100
AcDbLine
 10
139.4440828886
 20
119.3233798003
 30
0.0
 11
158.6705801967
 21
119.3233798003
 31
0.0
  0
LINE
  5
409
330
1B
100
AcDbEntity
  8
0
  6
Continuous
100
AcDbLine
 10
139.3223324645
 20
119.5891977856
 30
0.0
 11
158.6705802051
 21
119.5891977856
 31
0.0
  0
LINE
  5
40A
330
1B
100
AcDbEntity
  8
0
  6
Continuous
100
AcDbLine
 10
82.3300289476
 20
193.2301683123
 30
0.0
 11
82.3300289476
 21
200.8000332686
 31
0.0
  0
LINE
  5
40B
330
1B
100
AcDbEntity
  8
0
  6
Continuous
100
AcDbLine
 10
82.99353254570001
 20
193.3550313045
 30
0.0
 11
82.99353254570001
 21
200.8000331549
 31
0.0
  0
LINE
  5
40C
330
1B
100
AcDbEntity
  8
0
  6
Continuous
100
AcDbLine
 10
83.1062201365
 20
139.3988818044
 30
0.0
 11
83.1062201365
 21
168.0070698161
 31
0.0
  0
LINE
  5
40D
330
1B
100
AcDbEntity
  8
0
  6
Continuous
100
AcDbLine
 10
85.3097918221
 20
200.8000331549
 30
0.0
 11
85.3097918221
 21
193.3550313045
 31
0.0
  0
LINE
  5
40E
330
1B
100
AcDbEntity
  8
0
  6
Continuous
100
AcDbLine
 10
85.7042963478
 20
144.2514737075
 30
0.0
 11
85.7042963478
 21
157.495519145
 31
0.0
  0
LINE
  5
40F
330
1B
100
AcDbEntity
  8
0
  6
Continuous
100
AcDbLine
 10
86.2396408713
 20
200.800033268
 30
0.0
 11
86.2396408713
 21
193.2301683123
 31
0.0
  0
LWPOLYLINE
  5
410
330
1B
100
AcDbEntity
  8
0
  6
Continuous
100
AcDbPolyline
 90
        5
 70
     0
 43
0.0
 10
85.3097918221
 20
200.8000331549
 10
85.3414756601
 20
201.3176712452
 10
85.43436797299999
 20
201.8000331549
 10
85.5821383031
 20
202.2142467173
 10
85.7747163467
 20
202.5320839625
  0
LINE
  5
417
330
1B
100
AcDbEntity
  8
0
  6
Continuous
100
AcDbLine
 10
179.0646818119
 20
127.7878952008
 30
0.0
 11
183.2646818119
 21
127.7878952008
 31
0.0
  0
LINE
  5
418
330
1B
100
AcDbEntity
  8
0
  6
Continuous
100
AcDbLine
 10
56.20395636899999
 20
128.5878952008
 30
0.0
 11
66.438270944
 21
128.5878952008
 31
0.0
  0
LWPOLYLINE
  5
419
330
1B
100
AcDbEntity
  8
0
  6
Continuous
100
AcDbPolyline
 90
        5
 70
     0
 43
0.0
 10
90.872365808
 20
151.1486647162
 10
91.2125866653
 20
150.6719088485
 10
91.47364731090001
 20
150.0505885049
 10
91.6377568934
 20
149.3270456402
 10
91.6937316161
 20
148.5505885031
  0
LINE
  5
420
330
1B
100
AcDbEntity
  8
0
  6
Continuous
100
AcDbLine
 10
164.1346818119
 20
131.067088987
 30
0.0
 11
176.6646818119
 21
131.1035373823
 31
0.0
  0
LINE
  5
421
102
{ACAD_REACTORS
330
2A8A
102
}
330
1B
100
AcDbEntity
  8
0
  6
Continuous
100
AcDbLine
 10
185.7750508973
 20
129.5878952008
 30
0.0
 11
183.6646818119
 21
129.5878952008
 31
0.0
  0
LINE
  5
422
330
1B
100
AcDbEntity
  8
0
  6
Continuous
100
AcDbLine
 10
54.338270944
 20
130.2878952008
 30
0.0
 11
68.3937284392
 21
130.2878952008
 31
0.0
  0
LINE
  5
423
330
1B
100
AcDbEntity
  8
0
  6
Continuous
100
AcDbLine
 10
202.7989963869
 20
131.8878952008
 30
0.0
 11
192.334554793
 21
131.8878952008
 31
0.0
  0
LINE
  5
424
330
1B
100
AcDbEntity
  8
0
  6
Continuous
100
AcDbLine
 10
116.0992733349
 20
132.8061693125
 30
0.0
 11
116.0983315303
 21
132.8061693125
 31
0.0
  0
LINE
  5
425
330
1B
100
AcDbEntity
  8
0
  6
Continuous
100
AcDbLine
 10
205.0346818119
 20
133.9578952008
 30
0.0
 11
191.7798999646
 21
133.9578952008
 31
0.0
  0
LINE
  5
426
330
1B
100
AcDbEntity
  8
0
  6
Continuous
100
AcDbLine
 10
158.6705801967999
 20
133.9714785505
 30
0.0
 11
139.3223324645
 21
133.9714785505
 31
0.0
  0
LINE
  5
427
330
1B
100
AcDbEntity
  8
0
  6
Continuous
100
AcDbLine
 10
118.8396597793
 20
134.5878952008
 30
0.0
 11
131.0092347672
 21
134.5878952008
 31
0.0
  0
LINE
  5
428
330
1B
100
AcDbEntity
  8
0
  6
Continuous
100
AcDbLine
 10
158.6705801967
 20
134.6246561412
 30
0.0
 11
139.4440828886
 21
134.6246561412
 31
0.0
  0
LINE
  5
429
330
1B
100
AcDbEntity
  8
0
  6
Continuous
100
AcDbLine
 10
133.907012246
 20
132.364317125
 30
0.0
 11
133.9067570622
 21
132.3643523359
 31
0.0
  0
LINE
  5
42A
330
1B
100
AcDbEntity
  8
0
  6
Continuous
100
AcDbLine
 10
66.438270944
 20
176.5878952008
 30
0.0
 11
69.55959128759999
 21
173.4665748572
 31
0.0
  0
LINE
  5
42B
330
1B
100
AcDbEntity
  8
0
  6
Continuous
100
AcDbLine
 10
129.760700375
 20
137.3878952008
 30
0.0
 11
132.6584775757
 21
138.11012079
 31
0.0
  0
LINE
  5
42C
330
1B
100
AcDbEntity
  8
0
  6
Continuous
100
AcDbLine
 10
139.4440828886
 20
137.2866188599
 30
0.0
 11
158.6705801967
 21
137.2866188599
 31
0.0
  0
LINE
  5
42D
330
1B
100
AcDbEntity
  8
0
  6
Continuous
100
AcDbLine
 10
119.4729160976
 20
137.3878952008
 30
0.0
 11
129.760700375
 21
137.3878952008
 31
0.0
  0
LINE
  5
42E
330
1B
100
AcDbEntity
  8
0
  6
Continuous
100
AcDbLine
 10
139.3223324645
 20
138.2056144359
 30
0.0
 11
158.6705801967999
 21
138.2056144359
 31
0.0
  0
LINE
  5
42F
330
1B
100
AcDbEntity
  8
0
  6
Continuous
100
AcDbLine
 10
119.6023323381
 20
139.5878952008
 30
0.0
 11
94.043458305
 21
139.5878952008
 31
0.0
  0
LINE
  5
430
330
1B
100
AcDbEntity
  8
0
  6
Continuous
100
AcDbLine
 10
119.4729160976
 20
137.3878952008
 30
0.0
 11
116.6351527575
 21
137.7229205955
 31
0.0
  0
LINE
  5
431
330
1B
100
AcDbEntity
  8
0
  6
Continuous
100
AcDbLine
 10
86.2396408648
 20
200.8000331552
 30
0.0
 11
85.77471635210002
 21
202.5320839692
 31
0.0
  0
LINE
  5
432
330
1B
100
AcDbEntity
  8
DEFAULT_1
  6
CENTER
100
AcDbLine
 10
100.838270944
 20
116.7339123007
 30
0.0
 11
100.838270944
 21
230.1052107062
 31
0.0
  0
LINE
  5
433
330
1B
100
AcDbEntity
  8
0
  6
Continuous
100
AcDbLine
 10
128.0498806954
 20
144.6423464461
 30
0.0
 11
130.9476581743
 21
145.2619801132
 31
0.0
  0
LINE
  5
434
330
1B
100
AcDbEntity
  8
0
  6
Continuous
100
AcDbLine
 10
160.4026310043
 20
137.7461166479
 30
0.0
 11
158.6705801967
 21
138.2056144359
 31
0.0
  0
LINE
  5
435
330
1B
100
AcDbEntity
  8
0
  6
Continuous
100
AcDbLine
 10
119.6023323381
 20
147.7170026007
 30
0.0
 11
128.0498682385
 21
144.6423509801
 31
0.0
  0
LINE
  5
436
330
1B
100
AcDbEntity
  8
0
  6
Continuous
100
AcDbLine
 10
104.363769022
 20
163.2009117376
 30
0.0
 11
103.9628263648
 21
161.3522102248
 31
0.0
  0
LINE
  5
437
330
1B
100
AcDbEntity
  8
0
  6
Continuous
100
AcDbLine
 10
115.436901025
 20
200.8000331554
 30
0.0
 11
115.9018255354
 21
202.5320839709
 31
0.0
  0
LINE
  5
438
330
1B
100
AcDbEntity
  8
0
  6
Continuous
100
AcDbLine
 10
119.6023323381
 20
147.7170005186
 30
0.0
 11
116.7448583539
 21
147.7170005186
 31
0.0
  0
LINE
  5
439
330
1B
100
AcDbEntity
  8
0
  6
Continuous
100
AcDbLine
 10
116.2873432205
 20
148.5505885049
 30
0.0
 11
91.69373162940001
 21
148.5505885049
 31
0.0
  0
LINE
  5
43A
330
1B
100
AcDbEntity
  8
0
  6
Continuous
100
AcDbLine
 10
90.872365808
 20
151.1486647162
 30
0.0
 11
117.6749844429
 21
151.1486647162
 31
0.0
  0
LINE
  5
43B
330
1B
100
AcDbEntity
  8
0
  6
Continuous
100
AcDbLine
 10
117.824035826
 20
151.321869797
 30
0.0
 11
90.73949522179998
 21
151.321869797
 31
0.0
  0
LINE
  5
43C
102
{ACAD_REACTORS
330
2A8A
102
}
330
1B
100
AcDbEntity
  8
DEFAULT_1
  6
CENTER
100
AcDbLine
 10
49.7494305239
 20
152.5878952008
 30
0.0
 11
210.6646818119
 21
152.5878952008
 31
0.0
  0
LINE
  5
43D
330
1B
100
AcDbEntity
  8
0
  6
Continuous
100
AcDbLine
 10
161.2686563036
 20
141.4945969066
 30
0.0
 11
159.5366056005
 21
141.8547689088
 31
0.0
  0
LINE
  5
43E
330
1B
100
AcDbEntity
  8
0
  6
Continuous
100
AcDbLine
 10
120.5697117254
 20
150.3748494394
 30
0.0
 11
129.0172602114
 21
147.3001998225
 31
0.0
  0
LINE
  5
43F
330
1B
100
AcDbEntity
  8
0
  6
Continuous
100
AcDbLine
 10
137.1882714473
 20
123.1950752295
 30
0.0
 11
139.4440828886
 21
119.2878952008
 31
0.0
  0
LWPOLYLINE
  5
440
330
1B
100
AcDbEntity
  8
0
  6
Continuous
100
AcDbPolyline
 90
        5
 70
     0
 43
0.0
 10
116.366750066
 20
200.8000331549
 10
116.3350534402
 20
201.3177738842
 10
116.2421176855
 20
201.8002426058
 10
116.094295229
 20
202.2144797403
 10
115.9018255414
 20
202.5320839625
  0
LINE
  5
447
330
1B
100
AcDbEntity
  8
0
  6
Continuous
100
AcDbLine
 10
115.4369010167
 20
193.2301683123
 30
0.0
 11
115.4369010167
 21
200.800033268
 31
0.0
  0
LINE
  5
448
330
1B
100
AcDbEntity
  8
0
  6
Continuous
100
AcDbLine
 10
116.366750066
 20
193.3550313045
 30
0.0
 11
116.366750066
 21
200.8000331549
 31
0.0
  0
LINE
  5
449
330
1B
100
AcDbEntity
  8
0
  6
Continuous
100
AcDbLine
 10
116.7448610598
 20
139.5878952008
 30
0.0
 11
116.7448583539
 21
147.7170005186
 31
0.0
  0
LWPOLYLINE
  5
44A
330
1B
100
AcDbEntity
  8
0
  6
Continuous
100
AcDbPolyline
 90
        5
 70
     0
 43
0.0
 10
117.1376748289
 20
178.6577681833
 10
117.2209831368
 20
179.4342253172
 10
117.465230737
 20
180.1577681819
 10
117.8537725592
 20
180.7790885254
 10
118.3601301202
 20
181.2558443932
  0
LINE
  5
451
330
1B
100
AcDbEntity
  8
0
  6
Continuous
100
AcDbLine
 10
66.438270944
 20
128.5878952008
 30
0.0
 11
67.5409883617
 21
129.6906126184
 31
0.0
  0
LINE
  5
452
330
1B
100
AcDbEntity
  8
0
  6
Continuous
100
AcDbLine
 10
134.238270944
 20
193.3550313045
 30
0.0
 11
130.138270944
 21
190.9878952008
 31
0.0
  0
LINE
  5
453
330
1B
100
AcDbEntity
  8
0
  6
Continuous
100
AcDbLine
 10
160.4026310047
 20
167.4296737534
 30
0.0
 11
158.6705801967999
 21
166.9701759661
 31
0.0
  0
LINE
  5
454
330
1B
100
AcDbEntity
  8
0
  6
Continuous
100
AcDbLine
 10
161.2686530357
 20
163.6811928146
 30
0.0
 11
159.5366056005
 21
163.3210214928
 31
0.0
  0
LINE
  5
455
330
1B
100
AcDbEntity
  8
0
  6
Continuous
100
AcDbLine
 10
116.7083040051
 20
153.9199460084
 30
0.0
 11
90.1835069285
 21
153.9199460084
 31
0.0
  0
LINE
  5
456
330
1B
100
AcDbEntity
  8
0
  6
Continuous
100
AcDbLine
 10
77.838270944
 20
182.121869797
 30
0.0
 11
79.338270944
 21
181.2558443932
 31
0.0
  0
LINE
  5
457
330
1B
100
AcDbEntity
  8
0
  6
Continuous
100
AcDbLine
 10
67.4583578038
 20
193.3434341506
 30
0.0
 11
71.538270944
 21
190.9878952008
 31
0.0
  0
LWPOLYLINE
  5
458
330
1B
100
AcDbEntity
  8
0
  6
Continuous
100
AcDbPolyline
 90
        5
 70
     0
 43
0.0
 10
118.6830093424
 20
200.8000331549
 10
118.6465847839
 20
201.3177738842
 10
118.5397865446
 20
201.8002426058
 10
118.3699145922
 20
202.2144797403
 10
118.1487357376
 20
202.5320839625
  0
LINE
  5
45F
330
1B
100
AcDbEntity
  8
0
  6
Continuous
100
AcDbLine
 10
118.6830093424
 20
200.8000331549
 30
0.0
 11
118.6830093424
 21
193.3550313045
 31
0.0
  0
LINE
  5
460
330
1B
100
AcDbEntity
  8
0
  6
Continuous
100
AcDbLine
 10
119.3465129404
 20
200.8000332686
 30
0.0
 11
119.3465129404
 21
193.2301683123
 31
0.0
  0
LINE
  5
461
330
1B
100
AcDbEntity
  8
0
  6
Continuous
100
AcDbLine
 10
119.6023323381
 20
139.5878952008
 30
0.0
 11
119.6023323381
 21
147.7170026007
 31
0.0
  0
LWPOLYLINE
  5
462
330
1B
100
AcDbEntity
  8
0
  6
Continuous
100
AcDbPolyline
 90
        5
 70
     0
 43
0.0
 10
116.2873432205
 20
148.5505885049
 10
116.3819086766
 20
149.3270456402
 10
116.6591605654
 20
150.0505885049
 10
117.1002046289
 20
150.6719088485
 10
117.6749844429
 20
151.1486647162
  0
LINE
  5
469
330
1B
100
AcDbEntity
  8
0
  6
Continuous
100
AcDbLine
 10
133.9067570622
 20
132.3643523356
 30
0.0
 11
134.2424744291
 21
131.1114380655
 31
0.0
  0
LINE
  5
46A
330
1B
100
AcDbEntity
  8
0
  6
Continuous
100
AcDbLine
 10
125.338270944
 20
189.7452545137
 30
0.0
 11
125.338270944
 21
184.7199460084
 31
0.0
  0
LINE
  5
46B
330
1B
100
AcDbEntity
  8
0
  6
Continuous
100
AcDbLine
 10
119.6023343256
 20
147.7170018773
 30
0.0
 11
120.5697117254
 21
150.3748494394
 31
0.0
  0
LWPOLYLINE
  5
46C
330
1B
100
AcDbEntity
  8
0
  6
Continuous
100
AcDbPolyline
 90
        4
 70
     0
 43
0.0
 10
69.55959128759999
 20
136.5178302512
 10
70.1809116312
 20
136.8847834248
 10
70.9044544958
 20
137.1154598332
 10
71.68091163059999
 20
137.1941392603
  0
LINE
  5
472
330
1B
100
AcDbEntity
  8
0
  6
Continuous
100
AcDbLine
 10
158.6705802051
 20
166.9701759657
 30
0.0
 11
139.3223324645
 21
166.9701759657
 31
0.0
  0
LINE
  5
473
330
1B
100
AcDbEntity
  8
0
  6
Continuous
100
AcDbLine
 10
158.6705801967
 20
167.8891715417
 30
0.0
 11
139.4440828886
 21
167.8891715417
 31
0.0
  0
LINE
  5
474
330
1B
100
AcDbEntity
  8
0
  6
Continuous
100
AcDbLine
 10
139.4440828886
 20
170.5511342603
 30
0.0
 11
158.6705801967
 21
170.5511342603
 31
0.0
  0
LINE
  5
475
330
1B
100
AcDbEntity
  8
0
  6
Continuous
100
AcDbLine
 10
139.3223324645
 20
171.2043118511
 30
0.0
 11
158.6705802049
 21
171.2043118511
 31
0.0
  0
LINE
  5
476
330
1B
100
AcDbEntity
  8
0
  6
Continuous
100
AcDbLine
 10
205.0346818119
 20
171.2178952008
 30
0.0
 11
191.7798999646
 21
171.2178952008
 31
0.0
  0
LINE
  5
477
330
1B
100
AcDbEntity
  8
0
  6
Continuous
100
AcDbLine
 10
120.4539127182
 20
221.2316338876
 30
0.0
 11
122.1003734668
 21
207.8222871706
 31
0.0
  0
LINE
  5
478
330
1B
100
AcDbEntity
  8
0
  6
Continuous
100
AcDbLine
 10
133.9451430132
 20
193.2301683123
 30
0.0
 11
133.9451430132
 21
200.8000332696
 31
0.0
  0
LINE
  5
479
330
1B
100
AcDbEntity
  8
0
  6
Continuous
100
AcDbLine
 10
134.2114884643
 20
193.3550313045
 30
0.0
 11
134.2114884643
 21
200.8000331549
 31
0.0
  0
LINE
  5
47A
330
1B
100
AcDbEntity
  8
0
  6
Continuous
100
AcDbLine
 10
134.238270944
 20
200.8000331549
 30
0.0
 11
134.238270944
 21
193.3550313045
 31
0.0
  0
LINE
  5
47B
330
1B
100
AcDbEntity
  8
0
  6
Continuous
100
AcDbLine
 10
134.2424744291
 20
165.9991362194
 30
0.0
 11
134.2424744291
 21
131.1114380655
 31
0.0
  0
LINE
  5
47C
330
1B
100
AcDbEntity
  8
0
  6
Continuous
100
AcDbLine
 10
137.1882714473
 20
181.980715172
 30
0.0
 11
139.4440828886
 21
185.8878952008
 31
0.0
  0
LINE
  5
47D
330
1B
100
AcDbEntity
  8
0
  6
Continuous
100
AcDbLine
 10
136.3880052996
 20
176.1920517118
 30
0.0
 11
136.8542799884
 21
176.2742341067
 31
0.0
  0
LINE
  5
47E
330
1B
100
AcDbEntity
  8
0
  6
Continuous
100
AcDbLine
 10
71.6809116312
 20
172.5878952008
 30
0.0
 11
77.83828591610001
 21
172.5878952008
 31
0.0
  0
LINE
  5
47F
330
1B
100
AcDbEntity
  8
0
  6
Continuous
100
AcDbLine
 10
202.7989963869
 20
173.2878952008
 30
0.0
 11
192.334554793
 21
173.2878952008
 31
0.0
  0
LINE
  5
480
330
1B
100
AcDbEntity
  8
0
  6
Continuous
100
AcDbLine
 10
54.338270944
 20
174.8878952008
 30
0.0
 11
68.138270944
 21
174.8878952008
 31
0.0
  0
LINE
  5
481
102
{ACAD_REACTORS
330
2A8A
102
}
330
1B
100
AcDbEntity
  8
0
  6
Continuous
100
AcDbLine
 10
185.7750508973
 20
175.5878952008
 30
0.0
 11
183.6646818119
 21
175.5878952008
 31
0.0
  0
LINE
  5
482
330
1B
100
AcDbEntity
  8
0
  6
Continuous
100
AcDbLine
 10
56.20395636899999
 20
176.5878952008
 30
0.0
 11
66.438270944
 21
176.5878952008
 31
0.0
  0
LINE
  5
483
330
1B
100
AcDbEntity
  8
0
  6
Continuous
100
AcDbLine
 10
179.0646818119
 20
177.3878952008
 30
0.0
 11
183.2646818119
 21
177.3878952008
 31
0.0
  0
LINE
  5
484
330
1B
100
AcDbEntity
  8
0
  6
Continuous
100
AcDbLine
 10
164.1346818119
 20
174.1087014146
 30
0.0
 11
176.6646818119
 21
174.0722530192
 31
0.0
  0
LINE
  5
485
330
1B
100
AcDbEntity
  8
0
  6
Continuous
100
AcDbLine
 10
126.6557956155
 20
179.1721141697
 30
0.0
 11
134.6096982613
 21
176.2771303604
 31
0.0
  0
LINE
  5
486
330
1B
100
AcDbEntity
  8
0
  6
Continuous
100
AcDbLine
 10
176.6646818119
 20
130.1878952008
 30
0.0
 11
179.0646818119
 21
127.7878952008
 31
0.0
  0
LINE
  5
487
330
1B
100
AcDbEntity
  8
0
  6
Continuous
100
AcDbLine
 10
136.8542799884
 20
128.9015562948
 30
0.0
 11
136.8542799884
 21
176.2742341067
 31
0.0
  0
LINE
  5
488
330
1B
100
AcDbEntity
  8
0
  6
Continuous
100
AcDbLine
 10
137.1346818119
 20
123.3952768209
 30
0.0
 11
137.1346818119
 21
181.7805135807
 31
0.0
  0
LINE
  5
489
330
1B
100
AcDbEntity
  8
0
  6
Continuous
100
AcDbLine
 10
137.1882714726
 20
123.1950751935
 30
0.0
 11
137.1882714726
 21
181.9807152081
 31
0.0
  0
LINE
  5
48A
330
1B
100
AcDbEntity
  8
0
  6
Continuous
100
AcDbLine
 10
139.4440828886
 20
170.5511342603
 30
0.0
 11
139.4440828886
 21
167.8891715417
 31
0.0
  0
LINE
  5
48B
330
1B
100
AcDbEntity
  8
0
  6
Continuous
100
AcDbLine
 10
139.4440828886
 20
137.2866188599
 30
0.0
 11
139.4440828886
 21
134.6246561412
 31
0.0
  0
LINE
  5
48C
330
1B
100
AcDbEntity
  8
0
  6
Continuous
100
AcDbLine
 10
139.4440828886
 20
119.3233798003
 30
0.0
 11
139.4440828886
 21
119.2878952008
 31
0.0
  0
LINE
  5
48D
330
1B
100
AcDbEntity
  8
0
  6
Continuous
100
AcDbLine
 10
139.4440828886
 20
185.8524106013
 30
0.0
 11
139.4440828886
 21
185.8878952008
 31
0.0
  0
LINE
  5
48E
330
1B
100
AcDbEntity
  8
0
  6
Continuous
100
AcDbLine
 10
128.0498806954
 20
144.6423464461
 30
0.0
 11
129.0172602114
 21
147.3001998225
 31
0.0
  0
LINE
  5
48F
330
1B
100
AcDbEntity
  8
0
  6
Continuous
100
AcDbLine
 10
117.1376705445
 20
178.6577681819
 30
0.0
 11
80.838270944
 21
178.6577681819
 31
0.0
  0
LINE
  5
490
330
1B
100
AcDbEntity
  8
0
  6
Continuous
100
AcDbLine
 10
79.338270944
 20
181.2558443932
 30
0.0
 11
118.3601301202
 21
181.2558443932
 31
0.0
  0
LINE
  5
491
330
1B
100
AcDbEntity
  8
0
  6
Continuous
100
AcDbLine
 10
121.1871695078
 20
182.121869797
 30
0.0
 11
77.838270944
 21
182.121869797
 31
0.0
  0
LWPOLYLINE
  5
492
330
1B
100
AcDbEntity
  8
0
  6
Continuous
100
AcDbPolyline
 90
        5
 70
     0
 43
0.0
 10
160.4026310043
 20
167.4296737537
 10
160.0850253081
 20
167.6198973438
 10
159.670786888
 20
167.7659947175
 10
159.1883176072
 20
167.8578452646
 10
158.6705801967
 20
167.8891715417
  0
LWPOLYLINE
  5
499
330
1B
100
AcDbEntity
  8
0
  6
Continuous
100
AcDbPolyline
 90
        5
 70
     0
 43
0.0
 10
134.2114884643
 20
200.8000331549
 10
134.1433672801
 20
201.3177738842
 10
133.943633286
 20
201.8002426058
 10
133.6259388772
 20
202.2144797403
 10
133.2122903349
 20
202.5320839625
  0
LINE
  5
4A0
330
1B
100
AcDbEntity
  8
0
  6
Continuous
100
AcDbLine
 10
125.338270944
 20
184.7199460084
 30
0.0
 11
76.338270944
 21
184.7199460084
 31
0.0
  0
LINE
  5
4A1
330
1B
100
AcDbEntity
  8
0
  6
Continuous
100
AcDbLine
 10
158.670580205
 20
185.586592616
 30
0.0
 11
139.3223324645
 21
185.586592616
 31
0.0
  0
LINE
  5
4A2
330
1B
100
AcDbEntity
  8
0
  6
Continuous
100
AcDbLine
 10
158.6705801967
 20
185.8524106013
 30
0.0
 11
139.4440828886
 21
185.8524106013
 31
0.0
  0
LINE
  5
4A3
330
1B
100
AcDbEntity
  8
0
  6
Continuous
100
AcDbLine
 10
139.4440828886
 20
185.8878952008
 30
0.0
 11
158.6705801967
 21
185.8878952008
 31
0.0
  0
LINE
  5
4A4
330
1B
100
AcDbEntity
  8
0
  6
Continuous
100
AcDbLine
 10
125.338270944
 20
189.7452545137
 30
0.0
 11
76.338270944
 21
189.7452545137
 31
0.0
  0
LWPOLYLINE
  5
4A5
330
1B
100
AcDbEntity
  8
0
  6
Continuous
100
AcDbPolyline
 90
        5
 70
     0
 43
0.0
 10
160.4026310043
 20
170.0116976519
 10
160.0847937591
 20
170.2351396112
 10
159.6705801967
 20
170.4065926568
 10
159.1882182869
 20
170.5143725469
 10
158.6705801967
 20
170.5511342603
  0
LINE
  5
4AC
330
1B
100
AcDbEntity
  8
0
  6
Continuous
100
AcDbLine
 10
130.138270944
 20
190.9878952008
 30
0.0
 11
71.538270944
 21
190.9878952008
 31
0.0
  0
LINE
  5
4AD
330
1B
100
AcDbEntity
  8
0
  6
Continuous
100
AcDbLine
 10
134.238270944
 20
193.3550313045
 30
0.0
 11
134.2114884643
 21
193.3550313045
 31
0.0
  0
LINE
  5
4AE
330
1B
100
AcDbEntity
  8
0
  6
Continuous
100
AcDbLine
 10
118.6830093424
 20
193.3550313045
 30
0.0
 11
116.366750066
 21
193.3550313045
 31
0.0
  0
LINE
  5
4AF
330
1B
100
AcDbEntity
  8
0
  6
Continuous
100
AcDbLine
 10
85.3097918221
 20
193.3550313045
 30
0.0
 11
82.99353254570001
 21
193.3550313045
 31
0.0
  0
LINE
  5
4B0
330
1B
100
AcDbEntity
  8
0
  6
Continuous
100
AcDbLine
 10
67.4650534238
 20
193.3550313045
 30
0.0
 11
67.438270944
 21
193.3550313045
 31
0.0
  0
LINE
  5
4B1
330
1B
100
AcDbEntity
  8
0
  6
Continuous
100
AcDbLine
 10
158.6705801967
 20
119.2878952008
 30
0.0
 11
158.6705801967
 21
119.5891977856
 31
0.0
  0
LINE
  5
4B2
330
1B
100
AcDbEntity
  8
0
  6
Continuous
100
AcDbLine
 10
158.6705801967
 20
133.9714785505
 30
0.0
 11
158.6705801967
 21
138.2056144359
 31
0.0
  0
LINE
  5
4B3
330
1B
100
AcDbEntity
  8
0
  6
Continuous
100
AcDbLine
 10
158.6705801967
 20
166.9701759657
 30
0.0
 11
158.6705801967
 21
171.2043118511
 31
0.0
  0
LINE
  5
4B4
330
1B
100
AcDbEntity
  8
0
  6
Continuous
100
AcDbLine
 10
158.6705801967
 20
185.586592616
 30
0.0
 11
158.6705801967
 21
185.8878952008
 31
0.0
  0
LINE
  5
4B5
330
1B
100
AcDbEntity
  8
0
  6
Continuous
100
AcDbLine
 10
160.4026310043
 20
184.8878952008
 30
0.0
 11
160.4026310043
 21
184.8534763928
 31
0.0
  0
LINE
  5
4B6
330
1B
100
AcDbEntity
  8
0
  6
Continuous
100
AcDbLine
 10
160.4026310043
 20
170.0116942274
 30
0.0
 11
160.4026310043
 21
167.4296774263
 31
0.0
  0
LINE
  5
4B7
330
1B
100
AcDbEntity
  8
0
  6
Continuous
100
AcDbLine
 10
160.4026310043
 20
137.7454922692
 30
0.0
 11
160.4026310043
 21
135.1646850566
 31
0.0
  0
LINE
  5
4B8
330
1B
100
AcDbEntity
  8
0
  6
Continuous
100
AcDbLine
 10
160.4026310043
 20
120.3223140061
 30
0.0
 11
160.4026310043
 21
120.2878952008
 31
0.0
  0
LINE
  5
4B9
330
1B
100
AcDbEntity
  8
0
  6
Continuous
100
AcDbLine
 10
176.6646818119
 20
174.9878952008
 30
0.0
 11
179.0646818119
 21
177.3878952008
 31
0.0
  0
LINE
  5
4BA
330
1B
100
AcDbEntity
  8
0
  6
Continuous
100
AcDbLine
 10
134.238270944
 20
200.8000331549
 30
0.0
 11
133.9451430132
 21
200.8000331549
 31
0.0
  0
LINE
  5
4BB
330
1B
100
AcDbEntity
  8
0
  6
Continuous
100
AcDbLine
 10
119.3465129404
 20
200.8000331549
 30
0.0
 11
115.4369010167
 21
200.8000331549
 31
0.0
  0
LINE
  5
4BC
330
1B
100
AcDbEntity
  8
0
  6
Continuous
100
AcDbLine
 10
86.2396408713
 20
200.8000331549
 30
0.0
 11
82.3300289476
 21
200.8000331549
 31
0.0
  0
LINE
  5
4BD
330
1B
100
AcDbEntity
  8
0
  6
Continuous
100
AcDbLine
 10
67.7313988749
 20
200.8000331549
 30
0.0
 11
67.438270944
 21
200.8000331549
 31
0.0
  0
LINE
  5
4BE
330
1B
100
AcDbEntity
  8
0
  6
Continuous
100
AcDbLine
 10
133.238270944
 20
202.5320839625
 30
0.0
 11
133.2122910984
 21
202.5320839625
 31
0.0
  0
LINE
  5
4BF
330
1B
100
AcDbEntity
  8
0
  6
Continuous
100
AcDbLine
 10
118.1487196269
 20
202.5320839625
 30
0.0
 11
115.9018422803
 21
202.5320839625
 31
0.0
  0
LINE
  5
4C0
330
1B
100
AcDbEntity
  8
0
  6
Continuous
100
AcDbLine
 10
85.77469960889999
 20
202.5320839625
 30
0.0
 11
83.5278222606
 21
202.5320839625
 31
0.0
  0
LINE
  5
4C1
330
1B
100
AcDbEntity
  8
0
  6
Continuous
100
AcDbLine
 10
68.4642507896
 20
202.5320839625
 30
0.0
 11
68.438270944
 21
202.5320839625
 31
0.0
  0
LINE
  5
4C2
102
{ACAD_REACTORS
330
2A8A
102
}
330
1B
100
AcDbEntity
  8
0
  6
Continuous
100
AcDbLine
 10
191.6646818119
 20
173.0878952008
 30
0.0
 11
185.7750508973
 21
175.5878952008
 31
0.0
  0
LINE
  5
4C3
330
1B
100
AcDbEntity
  8
0
  6
Continuous
100
AcDbLine
 10
129.1023725592
 20
204.9199460084
 30
0.0
 11
133.238270944
 21
202.5320839625
 31
0.0
  0
LINE
  5
4C4
330
1B
100
AcDbEntity
  8
0
  6
Continuous
100
AcDbLine
 10
161.2686564081
 20
183.3878917716
 30
0.0
 11
161.2686564081
 21
183.0179534771
 31
0.0
  0
LINE
  5
4C5
330
1B
100
AcDbEntity
  8
0
  6
Continuous
100
AcDbLine
 10
161.2686564081
 20
171.9246551618
 30
0.0
 11
161.2686564081
 21
163.681193516
 31
0.0
  0
LINE
  5
4C6
330
1B
100
AcDbEntity
  8
0
  6
Continuous
100
AcDbLine
 10
161.2686564081
 20
141.4945968856
 30
0.0
 11
161.2686564081
 21
133.2511352397
 31
0.0
  0
LINE
  5
4C7
330
1B
100
AcDbEntity
  8
0
  6
Continuous
100
AcDbLine
 10
161.2686564081
 20
122.1578369245
 30
0.0
 11
161.2686564081
 21
121.7878986298
 31
0.0
  0
LINE
  5
4C8
330
1B
100
AcDbEntity
  8
0
  6
Continuous
100
AcDbLine
 10
163.5900236569
 20
123.2751350936
 30
0.0
 11
163.5900236569
 21
181.9006553079
 31
0.0
  0
LINE
  5
4C9
330
1B
100
AcDbEntity
  8
0
  6
Continuous
100
AcDbLine
 10
164.1346818119
 20
123.8707487872
 30
0.0
 11
164.1346818119
 21
181.3050416144
 31
0.0
  0
LINE
  5
4CA
330
1B
100
AcDbEntity
  8
0
  6
Continuous
100
AcDbLine
 10
72.5741693289
 20
204.9199460084
 30
0.0
 11
129.1023725592
 21
204.9199460084
 31
0.0
  0
LINE
  5
4CB
330
1B
100
AcDbEntity
  8
0
  6
Continuous
100
AcDbLine
 10
73.5741693289
 20
205.1878952008
 30
0.0
 11
128.1023725592
 21
205.1878952008
 31
0.0
  0
LINE
  5
4CC
330
1B
100
AcDbEntity
  8
0
  6
Continuous
100
AcDbLine
 10
122.1003734668
 20
207.8222871706
 30
0.0
 11
79.5761684212
 21
207.8222871706
 31
0.0
  0
LWPOLYLINE
  5
4CD
330
1B
100
AcDbEntity
  8
0
  6
Continuous
100
AcDbPolyline
 90
        5
 70
     0
 43
0.0
 10
160.4026310043
 20
184.8534762048
 10
160.0850253081
 20
185.2670170286
 10
159.670786888
 20
185.584627718
 10
159.1883176072
 20
185.7843082841
 10
158.6705801967
 20
185.8524106013
  0
LINE
  5
4D4
330
1B
100
AcDbEntity
  8
0
  6
Continuous
100
AcDbLine
 10
160.4026310043
 20
184.8878952008
 30
0.0
 11
161.2686564081
 21
183.3878952008
 31
0.0
  0
LINE
  5
4D5
330
1B
100
AcDbEntity
  8
0
  6
Continuous
100
AcDbLine
 10
183.2646818119
 20
177.3878952008
 30
0.0
 11
183.6646818119
 21
176.9878952008
 31
0.0
  0
LINE
  5
4D6
330
1B
100
AcDbEntity
  8
0
  6
Continuous
100
AcDbLine
 10
176.6646818119
 20
130.1878952008
 30
0.0
 11
176.6646818119
 21
174.9878952008
 31
0.0
  0
LINE
  5
4D7
330
1B
100
AcDbEntity
  8
0
  6
Continuous
100
AcDbLine
 10
179.0646818119
 20
127.7878952008
 30
0.0
 11
179.0646818119
 21
177.3878952008
 31
0.0
  0
LWPOLYLINE
  5
4D8
330
1B
100
AcDbEntity
  8
0
  6
Continuous
100
AcDbPolyline
 90
        5
 70
     0
 43
0.0
 10
160.4026310043
 20
135.1640927496
 10
160.0850253081
 20
134.940775516
 10
159.670786888
 20
134.7692622003
 10
159.1883176072
 20
134.6614321813
 10
158.6705801967
 20
134.6246561412
  0
LWPOLYLINE
  5
4DF
330
1B
100
AcDbEntity
  8
0
  6
Continuous
100
AcDbPolyline
 90
        5
 70
     0
 43
0.0
 10
160.4026310043
 20
137.7461166479
 10
160.0850253081
 20
137.5558930577
 10
159.670786888
 20
137.409795684
 10
159.1883176072
 20
137.3179451369
 10
158.6705801967
 20
137.2866188599
  0
LINE
  5
4E6
330
1B
100
AcDbEntity
  8
0
  6
Continuous
100
AcDbLine
 10
183.2646818119
 20
127.7878952008
 30
0.0
 11
183.2646818119
 21
177.3878952008
 31
0.0
  0
LINE
  5
4E7
102
{ACAD_REACTORS
330
2A8A
102
}
330
1B
100
AcDbEntity
  8
0
  6
Continuous
100
AcDbLine
 10
183.6646818119
 20
128.1878952008
 30
0.0
 11
183.6646818119
 21
176.9878952008
 31
0.0
  0
LINE
  5
4E8
102
{ACAD_REACTORS
330
2A8A
102
}
330
1B
100
AcDbEntity
  8
0
  6
Continuous
100
AcDbLine
 10
185.7750508973
 20
129.5878952008
 30
0.0
 11
185.7750508973
 21
175.5878952008
 31
0.0
  0
LINE
  5
4E9
330
1B
100
AcDbEntity
  8
0
  6
Continuous
100
AcDbLine
 10
160.4026310043
 20
120.2878952008
 30
0.0
 11
161.2686564081
 21
121.7878952008
 31
0.0
  0
LWPOLYLINE
  5
4EA
330
1B
100
AcDbEntity
  8
0
  6
Continuous
100
AcDbPolyline
 90
        5
 70
     0
 43
0.0
 10
160.4026310043
 20
120.3223141967
 10
160.0847937591
 20
119.9085420218
 10
159.6705801967
 20
119.5910434651
 10
159.1882182869
 20
119.3914555286
 10
158.6705801967
 20
119.3233798003
  0
LINE
  5
4F1
330
1B
100
AcDbEntity
  8
0
  6
Continuous
100
AcDbLine
 10
81.2226291699
 20
221.2316338876
 30
0.0
 11
120.4539127182
 21
221.2316338876
 31
0.0
  0
LINE
  5
4F2
330
1B
100
AcDbEntity
  8
0
  6
Continuous
100
AcDbLine
 10
118.4688204149
 20
222.9878952008
 30
0.0
 11
83.20772147309999
 21
222.9878952008
 31
0.0
  0
LINE
  5
4F3
330
1B
100
AcDbEntity
  8
0
  6
Continuous
100
AcDbLine
 10
205.5475244737
 20
170.705052539
 30
0.0
 11
203.0818399082
 21
173.1707371045
 31
0.0
  0
LINE
  5
4F4
330
1B
100
AcDbEntity
  8
0
  6
Continuous
100
AcDbLine
 10
192.334554793
 20
131.8878952008
 30
0.0
 11
191.7441213555
 21
134.091422788
 31
0.0
  0
LINE
  5
4F5
102
{ACAD_REACTORS
330
2A8A
102
}
330
1B
100
AcDbEntity
  8
0
  6
Continuous
100
AcDbLine
 10
191.6646818119
 20
132.0884575399
 30
0.0
 11
191.6646818119
 21
173.0873328617
 31
0.0
  0
LINE
  5
4F6
330
1B
100
AcDbEntity
  8
0
  6
Continuous
100
AcDbLine
 10
191.7441214207
 20
134.091422546
 30
0.0
 11
191.7441214207
 21
171.0843678556
 31
0.0
  0
LINE
  5
4F7
330
1B
100
AcDbEntity
  8
0
  6
Continuous
100
AcDbLine
 10
191.7799009281
 20
133.95789604
 30
0.0
 11
191.7799009281
 21
171.2178943616
 31
0.0
  0
LINE
  5
4F8
330
1B
100
AcDbEntity
  8
0
  6
Continuous
100
AcDbLine
 10
192.334554793
 20
173.2878952008
 30
0.0
 11
191.7441213555
 21
171.0843676136
 31
0.0
  0
LINE
  5
4F9
102
{ACAD_REACTORS
330
2A8A
102
}
330
1B
100
AcDbEntity
  8
0
  6
Continuous
100
AcDbLine
 10
191.6646818119
 20
132.0878952008
 30
0.0
 11
185.7750508973
 21
129.5878952008
 31
0.0
  0
LINE
  5
4FA
330
1B
100
AcDbEntity
  8
0
  6
Continuous
100
AcDbLine
 10
192.334554793
 20
131.8878952008
 30
0.0
 11
192.334554793
 21
173.2878952008
 31
0.0
  0
LINE
  5
4FB
330
1B
100
AcDbEntity
  8
0
  6
Continuous
100
AcDbLine
 10
202.7989963869
 20
173.2878835586
 30
0.0
 11
202.7989963869
 21
131.887906843
 31
0.0
  0
LINE
  5
4FC
330
1B
100
AcDbEntity
  8
0
  6
Continuous
100
AcDbLine
 10
203.0818399437
 20
173.1707254927
 30
0.0
 11
203.0818399437
 21
132.0050649089
 31
0.0
  0
LINE
  5
4FD
330
1B
100
AcDbEntity
  8
0
  6
Continuous
100
AcDbLine
 10
183.2646818119
 20
127.7878952008
 30
0.0
 11
183.6646818119
 21
128.1878952008
 31
0.0
  0
LINE
  5
4FE
330
1B
100
AcDbEntity
  8
0
  6
Continuous
100
AcDbLine
 10
205.0346807438
 20
133.95789604
 30
0.0
 11
205.0346807438
 21
171.2178943616
 31
0.0
  0
LINE
  5
4FF
330
1B
100
AcDbEntity
  8
0
  6
Continuous
100
AcDbLine
 10
205.5475243712
 20
170.7050526414
 30
0.0
 11
205.5475243712
 21
134.4707377602
 31
0.0
  0
LINE
  5
500
330
1B
100
AcDbEntity
  8
0
  6
Continuous
100
AcDbLine
 10
205.6646818119
 20
170.422120419
 30
0.0
 11
205.6646818119
 21
134.7536699826
 31
0.0
  0
LINE
  5
501
330
1B
100
AcDbEntity
  8
0
  6
Continuous
100
AcDbLine
 10
205.5475244737
 20
134.4707378626
 30
0.0
 11
203.0818399082
 21
132.0050532971
 31
0.0
  0
ARC
  5
1682
330
1B
100
AcDbEntity
  8
0
  6
Continuous
100
AcDbCircle
 10
137.5346818119
 20
181.7807155238
 30
0.0
 40
0.4
100
AcDbArc
 50
150.0000581819003
 51
180.0000000000004
  0
ARC
  5
1683
330
1B
100
AcDbEntity
  8
0
  6
Continuous
100
AcDbCircle
 10
137.5346818119
 20
123.3950748778
 30
0.0
 40
0.4
100
AcDbArc
 50
180.0000000000004
 51
209.9999418181005
  0
ARC
  5
1684
330
1B
100
AcDbEntity
  8
0
  6
Continuous
100
AcDbCircle
 10
163.5346818119
 20
123.8725489164
 30
0.0
 40
0.6
100
AcDbArc
 50
275.2922790981006
 51
360.0000000000008
  0
ARC
  5
1685
330
1B
100
AcDbEntity
  8
0
  6
Continuous
100
AcDbCircle
 10
163.5346818119
 20
181.3032414851
 30
0.0
 40
0.6
100
AcDbArc
 50
0.0
 51
84.7077209019002
  0
ARC
  5
1686
330
1B
100
AcDbEntity
  8
0
  6
Continuous
100
AcDbCircle
 10
158.6705801967
 20
183.8878952008
 30
0.0
 40
2.0
100
AcDbArc
 50
30.00000000000008
 51
90.00000000000019
  0
ARC
  5
1687
330
1B
100
AcDbEntity
  8
0
  6
Continuous
100
AcDbCircle
 10
158.6705801967
 20
121.2878952008
 30
0.0
 40
2.0
100
AcDbArc
 50
270.0000000000006
 51
330.0000000000007
  0
ARC
  5
1688
330
1B
100
AcDbEntity
  8
0
  6
Continuous
100
AcDbCircle
 10
163.8667326194
 20
120.2878952008
 30
0.0
 40
3.0
100
AcDbArc
 50
95.29227411740023
 51
150.0000000000003
  0
ARC
  5
1689
330
1B
100
AcDbEntity
  8
0
  6
Continuous
100
AcDbCircle
 10
163.8667326194
 20
184.8878952008
 30
0.0
 40
3.0
100
AcDbArc
 50
210.0000000000005
 51
264.7077258826006
  0
ARC
  5
168A
330
1B
100
AcDbEntity
  8
0
  6
Continuous
100
AcDbCircle
 10
132.238270944
 20
200.8000331549
 30
0.0
 40
2.0
100
AcDbArc
 50
0.0
 51
60.00000000000015
  0
ARC
  5
168B
330
1B
100
AcDbEntity
  8
0
  6
Continuous
100
AcDbCircle
 10
69.438270944
 20
200.8000331549
 30
0.0
 40
2.0
100
AcDbArc
 50
120.0000000000002
 51
180.0000000000004
  0
ARC
  5
168C
330
1B
100
AcDbEntity
  8
0
  6
Continuous
100
AcDbCircle
 10
128.1023725592
 20
203.1878952008
 30
0.0
 40
2.0
100
AcDbArc
 50
60.00000000000015
 51
90.00000000000019
  0
ARC
  5
168D
330
1B
100
AcDbEntity
  8
0
  6
Continuous
100
AcDbCircle
 10
73.5741693289
 20
203.1878952008
 30
0.0
 40
2.0
100
AcDbArc
 50
90.00000000000019
 51
120.0000000000002
  0
ARC
  5
168E
330
1B
100
AcDbEntity
  8
0
  6
Continuous
100
AcDbCircle
 10
125.0780119218
 20
208.1878952008
 30
0.0
 40
3.0
100
AcDbArc
 50
187.0000000000004
 51
270.0000000000006
  0
ARC
  5
168F
330
1B
100
AcDbEntity
  8
0
  6
Continuous
100
AcDbCircle
 10
76.59852996630001
 20
208.1878952008
 30
0.0
 40
3.0
100
AcDbArc
 50
270.0000000000006
 51
353.0000000000008
  0
ARC
  5
1690
330
1B
100
AcDbEntity
  8
0
  6
Continuous
100
AcDbCircle
 10
118.4688204149
 20
220.9878952008
 30
0.0
 40
2.0
100
AcDbArc
 50
7.000000000100015
 51
90.00000000000019
  0
ARC
  5
1691
330
1B
100
AcDbEntity
  8
0
  6
Continuous
100
AcDbCircle
 10
83.20772147309999
 20
220.9878952008
 30
0.0
 40
2.0
100
AcDbArc
 50
90.00000000000019
 51
172.9999999999004
  0
ARC
  5
1692
330
1B
100
AcDbEntity
  8
0
  6
Continuous
100
AcDbCircle
 10
202.7989963869
 20
172.8878952008
 30
0.0
 40
0.4
100
AcDbArc
 50
44.9998361657001
 51
90.00000000000019
  0
ARC
  5
1693
330
1B
100
AcDbEntity
  8
0
  6
Continuous
100
AcDbCircle
 10
202.7989963869
 20
132.2878952008
 30
0.0
 40
0.4
100
AcDbArc
 50
270.0000000000006
 51
315.0001638343007
  0
ARC
  5
1694
330
1B
100
AcDbEntity
  8
0
  6
Continuous
100
AcDbCircle
 10
205.2646818119
 20
134.7535806257
 30
0.0
 40
0.4
100
AcDbArc
 50
314.9999897340007
 51
359.9999851026008
  0
ARC
  5
1695
330
1B
100
AcDbEntity
  8
0
  6
Continuous
100
AcDbCircle
 10
205.2646818119
 20
170.4222097758
 30
0.0
 40
0.4
100
AcDbArc
 50
0.0000148974
 51
45.00001026600009
  0
ARC
  5
1696
330
1B
100
AcDbEntity
  8
0
  6
Continuous
100
AcDbCircle
 10
191.3577510167
 20
133.9878952008
 30
0.0
 40
0.4
100
AcDbArc
 50
14.99999542420003
 51
39.1501734162001
  0
ARC
  5
1697
330
1B
100
AcDbEntity
  8
0
  6
Continuous
100
AcDbCircle
 10
191.3577510167
 20
171.1878952008
 30
0.0
 40
0.4
100
AcDbArc
 50
320.8498265838007
 51
345.0000045758009
  0
CIRCLE
  5
1698
330
1B
100
AcDbEntity
  8
0
  6
Continuous
100
AcDbCircle
 10
100.838270944
 20
166.1878952008
 30
0.0
 40
9.9999
  0
CIRCLE
  5
1699
330
1B
100
AcDbEntity
  8
0
  6
Continuous
100
AcDbCircle
 10
100.838270944
 20
166.1878952008
 30
0.0
 40
9.66657
  0
CIRCLE
  5
169A
330
1B
100
AcDbEntity
  8
0
  6
Continuous
100
AcDbCircle
 10
103.4135990572
 20
171.6850612952
 30
0.0
 40
0.298559681
  0
ARC
  5
169B
330
1B
100
AcDbEntity
  8
0
  6
Continuous
100
AcDbCircle
 10
54.23827094399999
 20
174.2222097758
 30
0.0
 40
0.4
100
AcDbArc
 50
135.0000000067003
 51
180.0000000000004
  0
ARC
  5
169C
330
1B
100
AcDbEntity
  8
0
  6
Continuous
100
AcDbCircle
 10
54.23827094399999
 20
130.9535806257
 30
0.0
 40
0.4
100
AcDbArc
 50
180.0000000000004
 51
224.9999999949005
  0
ARC
  5
169D
330
1B
100
AcDbEntity
  8
0
  6
Continuous
100
AcDbCircle
 10
56.20395636899999
 20
176.1878952008
 30
0.0
 40
0.4
100
AcDbArc
 50
90.00000000000019
 51
135.0000000003003
  0
ARC
  5
169E
330
1B
100
AcDbEntity
  8
0
  6
Continuous
100
AcDbCircle
 10
56.20395636899999
 20
128.9878952008
 30
0.0
 40
0.4
100
AcDbArc
 50
224.9999999997005
 51
270.0000000000006
  0
ARC
  5
169F
330
1B
100
AcDbEntity
  8
0
  6
Continuous
100
AcDbCircle
 10
131.008979584
 20
131.5878952008
 30
0.0
 40
2.999999999899999
100
AcDbArc
 50
15.00000000000003
 51
89.99999999890019
  0
ARC
  5
16A0
330
1B
100
AcDbEntity
  8
0
  6
Continuous
100
AcDbCircle
 10
118.8407707704
 20
131.5878952008
 30
0.0
 40
3.0
100
AcDbArc
 50
90.00000000000019
 51
156.0404638686003
  0
ARC
  5
16A1
330
1B
100
AcDbEntity
  8
0
  6
Continuous
100
AcDbCircle
 10
136.5683080688
 20
179.2605730127
 30
0.0
 40
3.0
100
AcDbArc
 50
275.4699667325006
 51
280.9581609910006
  0
ARC
  5
16A2
330
1B
100
AcDbEntity
  8
0
  6
Continuous
100
AcDbCircle
 10
136.5683080688
 20
125.9152173889
 30
0.0
 40
3.0
100
AcDbArc
 50
79.04183900900019
 51
84.53003326750019
  0
ARC
  5
16A3
330
1B
100
AcDbEntity
  8
0
  6
Continuous
100
AcDbCircle
 10
69.6623096564
 20
127.569316995
 30
0.0
 40
2.999995979299999
100
AcDbArc
 50
74.99989535190015
 51
135.0003466871003
  0
ARC
  5
16A4
330
1B
100
AcDbEntity
  8
0
  6
Continuous
100
AcDbCircle
 10
77.8382709441
 20
175.5878952008
 30
0.0
 40
3.0
100
AcDbArc
 50
270.0000000000006
 51
360.0000000000008
  0
ARC
  5
16A5
330
1B
100
AcDbEntity
  8
0
  6
Continuous
100
AcDbCircle
 10
128.338270944
 20
189.7452545137
 30
0.0
 40
3.0
100
AcDbArc
 50
155.4482883833003
 51
180.0000000000004
  0
ARC
  5
16A6
330
1B
100
AcDbEntity
  8
0
  6
Continuous
100
AcDbCircle
 10
73.338270944
 20
189.7452545137
 30
0.0
 40
3.0
100
AcDbArc
 50
0.0
 51
24.55171161670006
  0
ARC
  5
16A7
330
1B
100
AcDbEntity
  8
0
  6
Continuous
100
AcDbCircle
 10
137.140251908
 20
131.8878952008
 30
0.0
 40
3.0
100
AcDbArc
 50
195.0000000000004
 51
264.5300332675006
  0
ARC
  5
16A8
330
1B
100
AcDbEntity
  8
0
  6
Continuous
100
AcDbCircle
 10
122.338270944
 20
184.7199460084
 30
0.0
 40
3.0
100
AcDbArc
 50
332.9484268667008
 51
360.0000000000008
  0
ARC
  5
16A9
330
1B
100
AcDbEntity
  8
0
  6
Continuous
100
AcDbCircle
 10
79.338270944
 20
184.7199460084
 30
0.0
 40
3.0
100
AcDbArc
 50
180.0000000000004
 51
240.0000000000005
  0
ARC
  5
16AA
330
1B
100
AcDbEntity
  8
0
  6
Continuous
100
AcDbCircle
 10
77.838270944
 20
178.6577681819
 30
0.0
 40
3.0
100
AcDbArc
 50
0.0
 51
60.00000000000015
  0
ARC
  5
16AB
330
1B
100
AcDbEntity
  8
0
  6
Continuous
100
AcDbCircle
 10
100.838270944
 20
139.5878952008
 30
0.0
 40
16.7
100
AcDbArc
 50
252.2926751891006
 51
336.0404638686008
  0
ARC
  5
16AC
330
1B
100
AcDbEntity
  8
0
  6
Continuous
100
AcDbCircle
 10
71.6809116312
 20
175.5878952008
 30
0.0
 40
3.0
100
AcDbArc
 50
225.0000000000005
 51
270.0000000000006
  0
SPLINE
  5
16B2
330
1B
100
AcDbEntity
  8
0
  6
Continuous
100
AcDbSpline
 70
     0
 71
     3
 72
    11
 73
     7
 74
     5
 42
0.0000000001
 43
0.0000000001
 44
0.0000000001
 40
0.0
 40
0.0
 40
0.0
 40
0.0
 40
2.078239623466394
 40
4.163216886419585
 40
6.245374527262563
 40
8.317210135046391
 40
8.317210135046391
 40
8.317210135046391
 40
8.317210135046391
 10
68.3937284398
 20
130.2878952008
 30
-5.266664999999999
 10
68.38453042958292
 20
130.3063980818262
 30
-4.573589427374327
 10
68.36610458925884
 20
130.3434638300997
 30
-3.185191335576143
 10
68.25877763583512
 20
130.6476591121933
 30
-1.12435032597719
 10
68.16177136319499
 20
131.1155004703857
 30
0.9039024726305849
 10
68.14609117471434
 20
131.5858671094655
 30
2.207455572131617
 10
68.1382705619
 20
131.8204660347
 30
2.857612557599999
 11
68.3937284398
 21
130.2878952008
 31
-5.266664999999999
 11
68.3528975652
 21
130.3846981777
 31
-3.191082682699999
 11
68.26043645990001
 21
130.6752112281
 31
-1.128515520499999
 11
68.1738986954
 21
131.1561899595
 31
0.8954783323999999
 11
68.1382705619
 21
131.8204660347
 31
2.857612557599999
  0
SPLINE
  5
16B3
330
1B
100
AcDbEntity
  8
0
  6
Continuous
100
AcDbSpline
210
0.0
220
0.0
230
1.0
 70
     8
 71
     3
 72
    10
 73
     6
 74
     4
 42
0.0000000001
 43
0.0000000001
 44
0.0000000001
 40
0.0
 40
0.0
 40
0.0
 40
0.0
 40
0.0414480921774517
 40
0.1388340555757479
 40
0.2926354361759901
 40
0.2926354361759901
 40
0.2926354361759901
 40
0.2926354361759901
 10
139.4440828886
 20
119.3233798003
 30
0.0
 10
139.4397939665773
 20
119.3365246541179
 30
0.0
 10
139.4254278424161
 20
119.3805545061477
 30
0.0
 10
139.3816029294048
 20
119.468020400128
 30
0.0
 10
139.3448414351885
 20
119.5431786051856
 30
0.0
 10
139.3223324645
 20
119.5891977856
 30
0.0
 11
139.4440828886
 21
119.3233798003
 31
0.0
 11
139.4306434193
 21
119.3625885367
 31
0.0
 11
139.3901803642
 21
119.4511705159
 31
0.0
 11
139.3223324645
 21
119.5891977856
 31
0.0
  0
SPLINE
  5
16B4
330
1B
100
AcDbEntity
  8
0
  6
Continuous
100
AcDbSpline
210
0.0
220
0.0
230
1.0
 70
     8
 71
     3
 72
    15
 73
    11
 74
     9
 42
0.0000000001
 43
0.0000000001
 44
0.0000000001
 40
0.0
 40
0.0
 40
0.0
 40
0.0
 40
3.422869504781913
 40
6.543709172047453
 40
9.377792049747368
 40
11.98660424894869
 40
14.4317051060207
 40
16.87183602362631
 40
19.49498469004205
 40
22.3528806532319
 40
22.3528806532319
 40
22.3528806532319
 40
22.3528806532319
 10
161.2686564081
 20
163.681193516
 30
0.0
 10
161.4267605834181
 20
162.5512149461488
 30
0.0
 10
161.7290180141274
 20
160.3909657396211
 30
0.0
 10
162.2104940102473
 20
157.3024027310744
 30
0.0
 10
162.5335859173891
 20
154.4640121344622
 30
0.0
 10
162.5905596295272
 20
151.8303828456319
 30
0.0
 10
162.3909106456126
 20
149.3376371889502
 30
0.0
 10
162.0561581918954
 20
146.857037085654
 30
0.0
 10
161.6484630119206
 20
144.2482354411738
 30
0.0
 10
161.3988225542396
 20
142.438315386108
 30
0.0
 10
161.2686564081
 20
141.4945968856
 30
0.0
 11
161.2686564081
 21
163.681193516
 31
0.0
 11
161.7521925235
 21
160.2926498064
 31
0.0
 11
162.202949817
 21
157.204534185
 31
0.0
 11
162.4970688655
 21
154.3857543527
 31
0.0
 11
162.546138996
 21
151.7774036836
 31
0.0
 11
162.3688199206
 21
149.3387409052
 31
0.0
 11
162.0562210945
 21
146.9187159324
 31
0.0
 11
161.6679808145
 21
144.3244571922
 31
0.0
 11
161.2686564081
 21
141.4945968856
 31
0.0
  0
SPLINE
  5
16B5
330
1B
100
AcDbEntity
  8
0
  6
Continuous
100
AcDbSpline
210
0.0
220
0.0
230
1.0
 70
     8
 71
     3
 72
    15
 73
    11
 74
     9
 42
0.0000000001
 43
0.0000000001
 44
0.0000000001
 40
0.0
 40
0.0
 40
0.0
 40
0.0
 40
3.489024167033596
 40
6.563987591890649
 40
9.27654793028964
 40
11.72815927111977
 40
14.04472877701683
 40
16.40911883522476
 40
19.01441882957301
 40
21.93538885881641
 40
21.93538885881641
 40
21.93538885881641
 40
21.93538885881641
 10
159.5366056005
 20
163.3210214928
 30
0.0
 10
159.7982761382207
 20
162.1876596975045
 30
0.0
 10
160.290563402663
 20
160.0554380775645
 30
0.0
 10
161.0958653622137
 20
157.0703537728802
 30
0.0
 10
161.6431047786271
 20
154.3730958476932
 30
0.0
 10
161.7402645930387
 20
151.8666995561193
 30
0.0
 10
161.4017311345499
 20
149.5053783880892
 30
0.0
 10
160.8417040298523
 20
147.141634874047
 30
0.0
 10
160.1601658631153
 20
144.6009081291946
 30
0.0
 10
159.7522264218729
 20
142.8043560294135
 30
0.0
 10
159.5366056005
 20
141.8547689088
 30
0.0
 11
159.5366056005
 21
163.3210214928
 31
0.0
 11
160.3435238344
 21
159.9265889037
 31
0.0
 11
161.0940118518
 21
156.9446150943
 31
0.0
 11
161.584306901
 21
154.2767330965
 31
0.0
 11
161.6658186488
 21
151.8264771912
 31
0.0
 11
161.3702978231
 21
149.5288345477
 31
0.0
 11
160.8495205491
 21
147.2225103341
 31
0.0
 11
160.202851158
 21
144.6987419693
 31
0.0
 11
159.5366056005
 21
141.8547689088
 31
0.0
  0
SPLINE
  5
16B6
330
1B
100
AcDbEntity
  8
0
  6
Continuous
100
AcDbSpline
210
0.0
220
0.0
230
1.0
 70
     8
 71
     3
 72
    10
 73
     6
 74
     4
 42
0.0000000001
 43
0.0000000001
 44
0.0000000001
 40
0.0
 40
0.0
 40
0.0
 40
0.0
 40
1.376542151160096
 40
2.655854734575609
 40
3.848238297428463
 40
3.848238297428463
 40
3.848238297428463
 40
3.848238297428463
 10
161.2686564081
 20
141.4945968856
 30
0.0
 10
161.1750062665724
 20
141.0453959157565
 30
0.0
 10
160.9943207920592
 20
140.178722474969
 30
0.0
 10
160.7029165775199
 20
138.9293743743971
 30
0.0
 10
160.5003514716736
 20
138.1307572401226
 30
0.0
 10
160.4026310043
 20
137.7454922692
 30
0.0
 11
161.2686564081
 21
141.4945968856
 31
0.0
 11
160.98221858
 21
140.1481862259
 31
0.0
 11
160.6922088596
 21
138.9021785822
 31
0.0
 11
160.4026310043
 21
137.7454922692
 31
0.0
  0
SPLINE
  5
16B7
330
1B
100
AcDbEntity
  8
0
  6
Continuous
100
AcDbSpline
210
0.0
220
0.0
230
1.0
 70
     8
 71
     3
 72
    10
 73
     6
 74
     4
 42
0.0000000001
 43
0.0000000001
 44
0.0000000001
 40
0.0
 40
0.0
 40
0.0
 40
0.0
 40
1.341600996202321
 40
2.588972017181239
 40
3.750918830590583
 40
3.750918830590583
 40
3.750918830590583
 40
3.750918830590583
 10
159.5366056005
 20
141.8547689088
 30
0.0
 10
159.4428091451817
 20
141.4175036415179
 30
0.0
 10
159.2618042124055
 20
140.5736852899491
 30
0.0
 10
158.9704754212522
 20
139.3576535633404
 30
0.0
 10
158.7681541194226
 20
138.5804419340183
 30
0.0
 10
158.6705801967999
 20
138.2056144359
 30
0.0
 11
159.5366056005
 21
141.8547689088
 31
0.0
 11
159.2498249617
 21
140.5441774018
 31
0.0
 11
158.9597683156
 21
139.3309990942
 31
0.0
 11
158.6705801967999
 21
138.2056144359
 31
0.0
  0
SPLINE
  5
16B8
330
1B
100
AcDbEntity
  8
0
  6
Continuous
100
AcDbSpline
210
0.0
220
0.0
230
1.0
 70
     8
 71
     3
 72
    10
 73
     6
 74
     4
 42
0.0000000001
 43
0.0000000001
 44
0.0000000001
 40
0.0
 40
0.0
 40
0.0
 40
0.0
 40
0.6582487050968237
 40
1.357216550900103
 40
2.101034902100912
 40
2.101034902100912
 40
2.101034902100912
 40
2.101034902100912
 10
160.4026310043
 20
135.1646850566
 30
0.0
 10
160.5001634476705
 20
134.968132078629
 30
0.0
 10
160.701261672957
 20
134.562867392553
 30
0.0
 10
160.9926527147632
 20
133.925786900653
 30
0.0
 10
161.1747680951576
 20
133.4806318290568
 30
0.0
 10
161.2686564081
 20
133.2511352397
 30
0.0
 11
160.4026310043
 21
135.1646850566
 31
0.0
 11
160.692201748
 21
134.5735504339
 31
0.0
 11
160.9822117013
 21
133.9375863811
 31
0.0
 11
161.2686564081
 21
133.2511352397
 31
0.0
  0
SPLINE
  5
16B9
330
1B
100
AcDbEntity
  8
0
  6
Continuous
100
AcDbSpline
210
0.0
220
0.0
230
1.0
 70
     8
 71
     3
 72
    10
 73
     6
 74
     4
 42
0.0000000001
 43
0.0000000001
 44
0.0000000001
 40
0.0
 40
0.0
 40
0.0
 40
0.0
 40
0.6326384299113402
 40
1.305009053524724
 40
2.020327526412525
 40
2.020327526412525
 40
2.020327526412525
 40
2.020327526412525
 10
158.6705801967999
 20
133.9714785505
 30
0.0
 10
158.767972878636
 20
133.7844302585542
 30
0.0
 10
158.9688748876412
 20
133.398586302679
 30
0.0
 10
159.2601528474023
 20
132.7911527421713
 30
0.0
 10
159.4425727667385
 20
132.3660374476322
 30
0.0
 10
159.5366056005
 20
132.146901314
 30
0.0
 11
158.6705801967999
 21
133.9714785505
 31
0.0
 11
158.9597609139
 21
133.4088011155
 31
0.0
 11
159.2498177086
 21
132.8022128603
 31
0.0
 11
159.5366056005
 21
132.146901314
 31
0.0
  0
SPLINE
  5
16BA
330
1B
100
AcDbEntity
  8
0
  6
Continuous
100
AcDbSpline
210
0.0
220
0.0
230
1.0
 70
     8
 71
     3
 72
    11
 73
     7
 74
     5
 42
0.0000000001
 43
0.0000000001
 44
0.0000000001
 40
0.0
 40
0.0
 40
0.0
 40
0.0
 40
0.5301250240759006
 40
1.077467602455899
 40
1.631004585154211
 40
2.178216590224986
 40
2.178216590224986
 40
2.178216590224986
 40
2.178216590224986
 10
160.4026310043
 20
135.1640927496
 30
0.0
 10
160.3091984597527
 20
135.0129146963024
 30
0.0
 10
160.1192988413746
 20
134.7056485850402
 30
0.0
 10
159.6982958637665
 20
134.3505920275081
 30
0.0
 10
159.2114677519136
 20
134.0826588928073
 30
0.0
 10
158.8501840616532
 20
134.0083964255606
 30
0.0
 10
158.6705801967
 20
133.9714785505
 30
0.0
 11
160.4026310043
 21
135.1640927496
 31
0.0
 11
160.1009772011
 21
134.7281598142
 31
0.0
 11
159.6897540773
 21
134.3669404341
 31
0.0
 11
159.2004616709
 21
134.1081043233
 31
0.0
 11
158.6705801967
 21
133.9714785505
 31
0.0
  0
SPLINE
  5
16BB
330
1B
100
AcDbEntity
  8
0
  6
Continuous
100
AcDbSpline
210
0.0
220
0.0
230
1.0
 70
     8
 71
     3
 72
    15
 73
    11
 74
     9
 42
0.0000000001
 43
0.0000000001
 44
0.0000000001
 40
0.0
 40
0.0
 40
0.0
 40
0.0
 40
1.789151706059179
 40
3.359316189381808
 40
4.742662502688475
 40
6.040392235309641
 40
7.333276304209365
 40
8.665290356007883
 40
10.04816333976504
 40
11.43085705661319
 40
11.43085705661319
 40
11.43085705661319
 40
11.43085705661319
 10
161.2686564081
 20
133.2511352397
 30
0.0
 10
161.3976522357595
 20
132.6687937361031
 30
0.0
 10
161.6398551583802
 20
131.5753877190747
 30
0.0
 10
162.0473010381332
 20
130.0476206399331
 30
0.0
 10
162.3827222758745
 20
128.6708777457377
 30
0.0
 10
162.5887658593974
 20
127.357832808039
 30
0.0
 10
162.5371964063848
 20
126.0410766661572
 30
0.0
 10
162.2160488595494
 20
124.7381858555039
 30
0.0
 10
161.746376776947
 20
123.4554035314043
 30
0.0
 10
161.4278896494934
 20
122.5903404353716
 30
0.0
 10
161.2686564081
 20
122.1578369245
 30
0.0
 11
161.2686564081
 21
133.2511352397
 31
0.0
 11
161.6688051456
 21
131.507304739
 31
0.0
 11
162.0574982193
 21
129.986011145
 31
0.0
 11
162.3701693141
 21
128.6384638141
 31
0.0
 11
162.5467651875
 21
127.3528058672
 31
0.0
 11
162.4950547138
 21
126.0609563239
 31
0.0
 11
162.197583595
 21
124.7625833545
 31
0.0
 11
161.7459829573
 21
123.4555276735
 31
0.0
 11
161.2686564081
 21
122.1578369245
 31
0.0
  0
SPLINE
  5
16BC
330
1B
100
AcDbEntity
  8
0
  6
Continuous
100
AcDbSpline
210
0.0
220
0.0
230
1.0
 70
     8
 71
     3
 72
    15
 73
    11
 74
     9
 42
0.0000000001
 43
0.0000000001
 44
0.0000000001
 40
0.0
 40
0.0
 40
0.0
 40
0.0
 40
1.573391482476078
 40
2.993032216992174
 40
4.259951335442935
 40
5.449158919336488
 40
6.681926395238733
 40
8.110054952456872
 40
9.780756667208479
 40
11.63723727579417
 40
11.63723727579417
 40
11.63723727579417
 40
11.63723727579417
 10
159.5366056005
 20
132.146901314
 30
0.0
 10
159.7537027702708
 20
131.6693310902859
 30
0.0
 10
160.1666825217051
 20
130.7608584810387
 30
0.0
 10
160.8386303063845
 20
129.5089910098263
 30
0.0
 10
161.3928290106205
 20
128.3423910431669
 30
0.0
 10
161.7431870316937
 20
127.146718924539
 30
0.0
 10
161.6328696636496
 20
125.8383333589728
 30
0.0
 10
161.0725353425683
 20
124.4965796369669
 30
0.0
 10
160.2892924004141
 20
123.0438602930509
 30
0.0
 10
159.796159080361
 20
121.9758870513589
 30
0.0
 10
159.5366056005
 20
121.413775022
 30
0.0
 11
159.5366056005
 21
132.146901314
 31
0.0
 11
160.2042371519
 21
130.7221806857
 31
0.0
 11
160.8516584908
 21
129.4587625344
 31
0.0
 11
161.3725636122
 21
128.3038850919
 31
0.0
 11
161.6668613914
 21
127.1516683177
 31
0.0
 11
161.5809508507
 21
125.9218980023
 31
0.0
 11
161.0850240764
 21
124.5826415629
 31
0.0
 11
160.3331005342
 21
123.0907115356
 31
0.0
 11
159.5366056005
 21
121.413775022
 31
0.0
  0
SPLINE
  5
16BD
330
1B
100
AcDbEntity
  8
0
  6
Continuous
100
AcDbSpline
210
0.0
220
0.0
230
1.0
 70
     8
 71
     3
 72
    11
 73
     7
 74
     5
 42
0.0000000001
 43
0.0000000001
 44
0.0000000001
 40
0.0
 40
0.0
 40
0.0
 40
0.0
 40
0.5154803833206222
 40
1.048086773786609
 40
1.588839398091529
 40
2.126834149774915
 40
2.126834149774915
 40
2.126834149774915
 40
2.126834149774915
 10
161.2686724272
 20
133.2511294334
 30
0.0
 10
161.1726488368608
 20
133.1074538679865
 30
0.0
 10
160.9774114267429
 20
132.8153293474447
 30
0.0
 10
160.5551017273593
 20
132.4843585607991
 30
0.0
 10
160.0702454405213
 20
132.2396787701935
 30
0.0
 10
159.7141821158309
 20
132.1777743788211
 30
0.0
 10
159.5366056005
 20
132.146901314
 30
0.0
 11
161.2686724272
 21
133.2511294334
 31
0.0
 11
160.9604416193
 21
132.8379541744
 31
0.0
 11
160.5479900512
 21
132.5009775118
 31
0.0
 11
160.0615082501
 21
132.2648655513
 31
0.0
 11
159.5366056005
 21
132.146901314
 31
0.0
  0
SPLINE
  5
16BE
330
1B
100
AcDbEntity
  8
0
  6
Continuous
100
AcDbSpline
210
0.0
220
0.0
230
1.0
 70
     8
 71
     3
 72
     9
 73
     5
 74
     3
 42
0.0000000001
 43
0.0000000001
 44
0.0000000001
 40
0.0
 40
0.0
 40
0.0
 40
0.0
 40
0.9969278608205905
 40
2.030151961004235
 40
2.030151961004235
 40
2.030151961004235
 40
2.030151961004235
 10
161.2686564081
 20
122.1578369245
 30
0.0
 10
161.1377839711201
 20
121.8522560757631
 30
0.0
 10
160.8712742816855
 20
121.2299687632207
 30
0.0
 10
160.5606963279534
 20
120.6284503572928
 30
0.0
 10
160.4026310043
 20
120.3223140061
 30
0.0
 11
161.2686564081
 21
122.1578369245
 31
0.0
 11
160.8654124486
 21
121.2461026053
 31
0.0
 11
160.4026310043
 21
120.3223140061
 31
0.0
  0
SPLINE
  5
16BF
330
1B
100
AcDbEntity
  8
0
  6
Continuous
100
AcDbSpline
210
0.0
220
0.0
230
1.0
 70
     8
 71
     3
 72
    11
 73
     7
 74
     5
 42
0.0000000001
 43
0.0000000001
 44
0.0000000001
 40
0.0
 40
0.0
 40
0.0
 40
0.0
 40
0.4662903308460757
 40
0.948740475546128
 40
1.454908258446621
 40
1.984794000550836
 40
1.984794000550836
 40
1.984794000550836
 40
1.984794000550836
 10
160.4026310047
 20
120.3223141974
 30
0.0
 10
160.3094320933144
 20
120.1960842990385
 30
0.0
 10
160.1198043578477
 20
119.939249863758
 30
0.0
 10
159.6901406175931
 20
119.691165209856
 30
0.0
 10
159.1948476774223
 20
119.5558869556206
 30
0.0
 10
158.8479829025534
 20
119.5779259984741
 30
0.0
 10
158.6705801967999
 20
119.5891977854
 30
0.0
 11
160.4026310047
 21
120.3223141974
 31
0.0
 11
160.1011602922
 21
119.9665866582
 31
0.0
 11
159.6898812896
 21
119.7143809403
 31
0.0
 11
159.200451533
 21
119.5852905154
 31
0.0
 11
158.6705801967999
 21
119.5891977854
 31
0.0
  0
SPLINE
  5
16C0
330
1B
100
AcDbEntity
  8
0
  6
Continuous
100
AcDbSpline
210
0.0
220
0.0
230
1.0
 70
     8
 71
     3
 72
     9
 73
     5
 74
     3
 42
0.0000000001
 43
0.0000000001
 44
0.0000000001
 40
0.0
 40
0.0
 40
0.0
 40
0.0
 40
0.9899760122852598
 40
2.020227209877815
 40
2.020227209877815
 40
2.020227209877815
 40
2.020227209877815
 10
159.5366056005
 20
121.413775022
 30
0.0
 10
159.4056860359443
 20
121.1107443104176
 30
0.0
 10
159.1385207073519
 20
120.4923546915074
 30
0.0
 10
158.8286197642939
 20
119.8942248533695
 30
0.0
 10
158.6705802051
 20
119.5891977856
 30
0.0
 11
159.5366056005
 21
121.413775022
 31
0.0
 11
159.1335847449
 21
120.5095478963
 31
0.0
 11
158.6705802051
 21
119.5891977856
 31
0.0
  0
SPLINE
  5
16C1
330
1B
100
AcDbEntity
  8
0
  6
Continuous
100
AcDbSpline
210
0.0
220
0.0
230
1.0
 70
     8
 71
     3
 72
    11
 73
     7
 74
     5
 42
0.0000000001
 43
0.0000000001
 44
0.0000000001
 40
0.0
 40
0.0
 40
0.0
 40
0.0
 40
0.4656843197733918
 40
0.9486128455632999
 40
1.453462192610703
 40
1.978435378728095
 40
1.978435378728095
 40
1.978435378728095
 40
1.978435378728095
 10
161.2686567268
 20
122.1578367428
 30
0.0
 10
161.1726858590073
 20
122.0341507778692
 30
0.0
 10
160.9771903395698
 20
121.7821987791281
 30
0.0
 10
160.5484983400631
 20
121.5358787195513
 30
0.0
 10
160.0575899081478
 20
121.3945179274887
 30
0.0
 10
159.7125147495355
 20
121.407272908484
 30
0.0
 10
159.5366056005
 20
121.413775022
 30
0.0
 11
161.2686567268
 21
122.1578367428
 31
0.0
 11
160.9604299466
 21
121.8087548933
 31
0.0
 11
160.5479825459
 21
121.5575436223
 31
0.0
 11
160.0615047581
 21
121.4225909447
 31
0.0
 11
159.5366056005
 21
121.413775022
 31
0.0
  0
SPLINE
  5
16C2
330
1B
100
AcDbEntity
  8
0
  6
Continuous
100
AcDbSpline
210
0.0
220
0.0
230
1.0
 70
     8
 71
     3
 72
    11
 73
     7
 74
     5
 42
0.0000000001
 43
0.0000000001
 44
0.0000000001
 40
0.0
 40
0.0
 40
0.0
 40
0.0
 40
1.789607830960903
 40
3.610823472282141
 40
5.499445071649217
 40
7.502639496935776
 40
7.502639496935776
 40
7.502639496935776
 40
7.502639496935776
 10
137.4233569465
 20
178.3954522336
 30
0.0
 10
137.4474386239375
 20
177.7984079037928
 30
0.0
 10
137.4960273061274
 20
176.5937743283445
 30
0.0
 10
137.8851704919045
 20
174.7947897613256
 30
0.0
 10
138.4803224578392
 20
172.9817910761234
 30
0.0
 10
139.0362074837723
 20
171.8083203604769
 30
0.0
 10
139.3223324645
 20
171.2043118511
 30
0.0
 11
137.4233569465
 21
178.3954522336
 31
0.0
 11
137.5464290141
 21
176.6100812764
 31
0.0
 11
137.9102750301
 21
174.8255806491
 31
0.0
 11
138.5038191109
 21
173.0326509322
 31
0.0
 11
139.3223324645
 21
171.2043118511
 31
0.0
  0
SPLINE
  5
16C3
330
1B
100
AcDbEntity
  8
0
  6
Continuous
100
AcDbSpline
210
0.0
220
0.0
230
1.0
 70
     8
 71
     3
 72
    11
 73
     7
 74
     5
 42
0.0000000001
 43
0.0000000001
 44
0.0000000001
 40
0.0
 40
0.0
 40
0.0
 40
0.0
 40
2.00342878823135
 40
3.892120259365901
 40
5.713221140067327
 40
7.50263968040136
 40
7.50263968040136
 40
7.50263968040136
 40
7.50263968040136
 10
139.3223324645
 20
185.586592616
 30
0.0
 10
139.0361754821106
 20
184.9825125870236
 30
0.0
 10
138.4802498634616
 20
183.8089484788962
 30
0.0
 10
137.8851064274694
 20
181.9958793551113
 30
0.0
 10
137.4960130134243
 20
180.1969652764113
 30
0.0
 10
137.4474335403706
 20
178.9924333216276
 30
0.0
 10
137.4233569465
 20
178.3954522336
 30
0.0
 11
139.3223324645
 21
185.586592616
 31
0.0
 11
138.5037336611
 21
183.7580350127
 31
0.0
 11
137.9101958797
 21
181.9650296097
 31
0.0
 11
137.5464031939
 21
180.1806352308
 31
0.0
 11
137.4233569465
 21
178.3954522336
 31
0.0
  0
SPLINE
  5
16C4
330
1B
100
AcDbEntity
  8
0
  6
Continuous
100
AcDbSpline
210
0.0
220
0.0
230
1.0
 70
     8
 71
     3
 72
    15
 73
    11
 74
     9
 42
0.0000000001
 43
0.0000000001
 44
0.0000000001
 40
0.0
 40
0.0
 40
0.0
 40
0.0
 40
2.01183636790833
 40
3.901702669582756
 40
5.719340834688095
 40
7.503171099172572
 40
9.286957786517769
 40
11.10449205193641
 40
12.99381437167876
 40
15.00529075045592
 40
15.00529075045592
 40
15.00529075045592
 40
15.00529075045592
 10
139.3223324645
 20
133.9714785505
 30
0.0
 10
139.0353211832193
 20
133.3648327353471
 30
0.0
 10
138.4786990343029
 20
132.1883197573386
 30
0.0
 10
137.879837840979
 20
130.37296847398
 30
0.0
 10
137.5068174833285
 20
128.5764360917976
 30
0.0
 10
137.3819831382382
 20
126.7798242299666
 30
0.0
 10
137.506958590019
 20
124.9832577784795
 30
0.0
 10
137.880051512942
 20
123.1869775045463
 30
0.0
 10
138.4788719705121
 20
121.3719714225011
 30
0.0
 10
139.0353700282284
 20
120.1957336812493
 30
0.0
 10
139.3223324645
 20
119.5891977856
 30
0.0
 11
139.3223324645
 21
133.9714785505
 31
0.0
 11
138.5006699687
 21
132.1350809045
 31
0.0
 11
137.9077058931
 21
130.3406483359
 31
0.0
 11
137.5455706721
 21
128.5594502613
 31
0.0
 11
137.4233569572
 21
126.779811472
 31
0.0
 11
137.5457076539
 21
125.000225775
 31
0.0
 11
137.9079405741
 21
123.219153593
 31
0.0
 11
138.5008010776
 21
121.4252597134
 31
0.0
 11
139.3223324645
 21
119.5891977856
 31
0.0
  0
SPLINE
  5
16C5
330
1B
100
AcDbEntity
  8
0
  6
Continuous
100
AcDbSpline
210
0.0
220
0.0
230
1.0
 70
     8
 71
     3
 72
    15
 73
    11
 74
     9
 42
0.0000000001
 43
0.0000000001
 44
0.0000000001
 40
0.0
 40
0.0
 40
0.0
 40
0.0
 40
3.763582669904712
 40
7.40110371708501
 40
10.98185897829719
 40
14.54323414448598
 40
18.10450789201659
 40
21.68502254205869
 40
25.32146373939374
 40
29.08436254623515
 40
29.08436254623515
 40
29.08436254623515
 40
29.08436254623515
 10
139.3223324645
 20
166.9701759657
 30
0.0
 10
139.0339618995492
 20
165.7489285214674
 30
0.0
 10
138.4668797739934
 20
163.347339452821
 30
0.0
 10
137.8747521625733
 20
159.7318817843159
 30
0.0
 10
137.5053167071881
 20
156.1554866459437
 30
0.0
 10
137.3824531300133
 20
152.5868747500759
 30
0.0
 10
137.5054560942803
 20
149.0183483211463
 30
0.0
 10
137.8749654475172
 20
145.4424379684287
 30
0.0
 10
138.4670578401393
 20
141.8276541871431
 30
0.0
 10
139.0340111054952
 20
139.4266391146438
 30
0.0
 10
139.3223324645
 20
138.2056144359
 30
0.0
 11
139.3223324645
 21
166.9701759657
 31
0.0
 11
138.5006699687
 21
163.2973806738
 31
0.0
 11
137.9077058931
 21
159.7085155365
 31
0.0
 11
137.5455706721
 21
156.1461193875
 31
0.0
 11
137.4233569572
 21
152.5868418088
 31
0.0
 11
137.5457076539
 21
149.0276704148
 31
0.0
 11
137.9079405741
 21
145.4655260507
 31
0.0
 11
138.5008010776
 21
141.8777382915
 31
0.0
 11
139.3223324645
 21
138.2056144359
 31
0.0
  0
SPLINE
  5
16C6
330
1B
100
AcDbEntity
  8
0
  6
Continuous
100
AcDbSpline
210
0.0
220
0.0
230
1.0
 70
     8
 71
     3
 72
    10
 73
     6
 74
     4
 42
0.0000000001
 43
0.0000000001
 44
0.0000000001
 40
0.0
 40
0.0
 40
0.0
 40
0.0
 40
0.2903167473181657
 40
0.6010035096451472
 40
0.929046044682609
 40
0.929046044682609
 40
0.929046044682609
 40
0.929046044682609
 10
139.4440828886
 20
137.2866188599
 30
0.0
 10
139.4412321578694
 20
137.3833935565189
 30
0.0
 10
139.4353306754714
 20
137.5837331264889
 30
0.0
 10
139.3938309866359
 20
137.8913124431024
 30
0.0
 10
139.3465931593887
 20
138.098966290982
 30
0.0
 10
139.3223324645
 20
138.2056144359
 30
0.0
 11
139.4440828886
 21
137.2866188599
 31
0.0
 11
139.4306434193
 21
137.5766243675
 31
0.0
 11
139.3901803642
 21
137.8846649581
 31
0.0
 11
139.3223324645
 21
138.2056144359
 31
0.0
  0
SPLINE
  5
16C7
330
1B
100
AcDbEntity
  8
0
  6
Continuous
100
AcDbSpline
210
0.0
220
0.0
230
1.0
 70
     8
 71
     3
 72
    10
 73
     6
 74
     4
 42
0.0000000001
 43
0.0000000001
 44
0.0000000001
 40
0.0
 40
0.0
 40
0.0
 40
0.0
 40
0.1950996455913773
 40
0.4182573049841064
 40
0.6694139090768889
 40
0.6694139090768889
 40
0.6694139090768889
 40
0.6694139090768889
 10
139.3223324645
 20
133.9714785505
 30
0.0
 10
139.3471553939558
 20
134.0317684212051
 30
0.0
 10
139.4003711317113
 20
134.1610186756712
 30
0.0
 10
139.4368406248734
 20
134.3829798987545
 30
0.0
 10
139.4415756309763
 20
134.5409882958665
 30
0.0
 10
139.4440828886
 20
134.6246561412
 30
0.0
 11
139.3223324645
 21
133.9714785505
 31
0.0
 11
139.3901803642
 21
134.1544007586
 31
0.0
 11
139.4306434193
 21
134.37385937
 31
0.0
 11
139.4440828886
 21
134.6246561412
 31
0.0
  0
SPLINE
  5
16C8
330
1B
100
AcDbEntity
  8
0
  6
Continuous
100
AcDbSpline
210
0.0
220
0.0
230
1.0
 70
     8
 71
     3
 72
    10
 73
     6
 74
     4
 42
0.0000000001
 43
0.0000000001
 44
0.0000000001
 40
0.0
 40
0.0
 40
0.0
 40
0.0
 40
0.328042535037434
 40
0.6387292973644155
 40
0.9290460446825812
 40
0.9290460446825812
 40
0.9290460446825812
 40
0.9290460446825812
 10
139.3223324645
 20
166.9701759657
 30
0.0
 10
139.3465931593887
 20
167.076824110618
 30
0.0
 10
139.3938309866359
 20
167.2844779584976
 30
0.0
 10
139.4353306754714
 20
167.5920572751111
 30
0.0
 10
139.4412321578694
 20
167.792396845081
 30
0.0
 10
139.4440828886
 20
167.8891715417
 30
0.0
 11
139.3223324645
 21
166.9701759657
 31
0.0
 11
139.3901803642
 21
167.2911254435
 31
0.0
 11
139.4306434193
 21
167.5991660341
 31
0.0
 11
139.4440828886
 21
167.8891715417
 31
0.0
  0
SPLINE
  5
16C9
330
1B
100
AcDbEntity
  8
0
  6
Continuous
100
AcDbSpline
210
0.0
220
0.0
230
1.0
 70
     8
 71
     3
 72
    10
 73
     6
 74
     4
 42
0.0000000001
 43
0.0000000001
 44
0.0000000001
 40
0.0
 40
0.0
 40
0.0
 40
0.0
 40
0.2511566041926269
 40
0.4743142635853559
 40
0.6694139091767333
 40
0.6694139091767333
 40
0.6694139091767333
 40
0.6694139091767333
 10
139.4440828886
 20
170.5511342603
 30
0.0
 10
139.4415756309779
 20
170.6348021056669
 30
0.0
 10
139.436840624879
 20
170.7928105028124
 30
0.0
 10
139.4003711317113
 20
171.0147717259288
 30
0.0
 10
139.3471553939558
 20
171.1440219803949
 30
0.0
 10
139.3223324645
 20
171.2043118511
 30
0.0
 11
139.4440828886
 21
170.5511342603
 31
0.0
 11
139.4306434193
 21
170.8019310316
 31
0.0
 11
139.3901803642
 21
171.021389643
 31
0.0
 11
139.3223324645
 21
171.2043118511
 31
0.0
  0
SPLINE
  5
16CA
330
1B
100
AcDbEntity
  8
0
  6
Continuous
100
AcDbSpline
210
0.0
220
0.0
230
1.0
 70
     8
 71
     3
 72
    10
 73
     6
 74
     4
 42
0.0000000001
 43
0.0000000001
 44
0.0000000001
 40
0.0
 40
0.0
 40
0.0
 40
0.0
 40
0.153801380600255
 40
0.2511873439985511
 40
0.2926354361759894
 40
0.2926354361759894
 40
0.2926354361759894
 40
0.2926354361759894
 10
139.3223324645
 20
185.586592616
 30
0.0
 10
139.3448414351885
 20
185.6326117964144
 30
0.0
 10
139.3816029294047
 20
185.707770001472
 30
0.0
 10
139.4254278424162
 20
185.7952358954523
 30
0.0
 10
139.4397939665773
 20
185.8392657474821
 30
0.0
 10
139.4440828886
 20
185.8524106013
 30
0.0
 11
139.3223324645
 21
185.586592616
 31
0.0
 11
139.3901803642
 21
185.7246198857
 31
0.0
 11
139.4306434193
 21
185.8132018649
 31
0.0
 11
139.4440828886
 21
185.8524106013
 31
0.0
  0
SPLINE
  5
16CB
330
1B
100
AcDbEntity
  8
0
  6
Continuous
100
AcDbSpline
210
0.0
220
0.0
230
1.0
 70
     8
 71
     3
 72
     9
 73
     5
 74
     3
 42
0.0000000001
 43
0.0000000001
 44
0.0000000001
 40
0.0
 40
0.0
 40
0.0
 40
0.0
 40
1.033270304628529
 40
2.030151960002307
 40
2.030151960002307
 40
2.030151960002307
 40
2.030151960002307
 10
160.4026310043
 20
184.8534763928
 30
0.0
 10
160.5607032549077
 20
184.5473262702683
 30
0.0
 10
160.8712809304257
 20
183.9458077048661
 30
0.0
 10
161.1377902287564
 20
183.3235202385072
 30
0.0
 10
161.2686564081
 20
183.0179534771
 30
0.0
 11
160.4026310043
 21
184.8534763928
 31
0.0
 11
160.8654321793
 21
183.9296459999
 31
0.0
 11
161.2686564081
 21
183.0179534771
 31
0.0
  0
SPLINE
  5
16CC
330
1B
100
AcDbEntity
  8
0
  6
Continuous
100
AcDbSpline
210
0.0
220
0.0
230
1.0
 70
     8
 71
     3
 72
     9
 73
     5
 74
     3
 42
0.0000000001
 43
0.0000000001
 44
0.0000000001
 40
0.0
 40
0.0
 40
0.0
 40
0.0
 40
1.029753837780988
 40
2.020227195523245
 40
2.020227195523245
 40
2.020227195523245
 40
2.020227195523245
 10
158.670580205
 20
185.586592616
 30
0.0
 10
158.828544953476
 20
185.2817136555032
 30
0.0
 10
159.138448805345
 20
184.6835854963833
 30
0.0
 10
159.4056182469495
 20
184.0651975233623
 30
0.0
 10
159.5366056005
 20
183.7620153796
 30
0.0
 11
158.670580205
 21
185.586592616
 31
0.0
 11
159.1333713536
 21
184.6666919044
 31
0.0
 11
159.5366056005
 21
183.7620153796
 31
0.0
  0
SPLINE
  5
16CD
330
1B
100
AcDbEntity
  8
0
  6
Continuous
100
AcDbSpline
210
0.0
220
0.0
230
1.0
 70
     8
 71
     3
 72
    11
 73
     7
 74
     5
 42
0.0000000001
 43
0.0000000001
 44
0.0000000001
 40
0.0
 40
0.0
 40
0.0
 40
0.0
 40
0.4664955862209227
 40
0.9488410523930033
 40
1.454873051817141
 40
1.984793705899285
 40
1.984793705899285
 40
1.984793705899285
 40
1.984793705899285
 10
160.4026310047
 20
184.8534762042
 30
0.0
 10
160.309385143325
 20
184.9797588532333
 30
0.0
 10
160.119725254032
 20
185.2366147917394
 30
0.0
 10
159.6900504103773
 20
185.4846494757268
 30
0.0
 10
159.194826511025
 20
185.6199004913858
 30
0.0
 10
158.8479949010343
 20
185.5978646207223
 30
0.0
 10
158.6705801967999
 20
185.5865926162
 30
0.0
 11
160.4026310047
 21
184.8534762042
 31
0.0
 11
160.1010020249
 21
185.2093386643
 31
0.0
 11
159.68978742
 21
185.4614491509
 31
0.0
 11
159.2004864779
 21
185.5904955476
 31
0.0
 11
158.6705801967999
 21
185.5865926162
 31
0.0
  0
SPLINE
  5
16CE
330
1B
100
AcDbEntity
  8
0
  6
Continuous
100
AcDbSpline
210
0.0
220
0.0
230
1.0
 70
     8
 71
     3
 72
    13
 73
     9
 74
     7
 42
0.0000000001
 43
0.0000000001
 44
0.0000000001
 40
0.0
 40
0.0
 40
0.0
 40
0.0
 40
0.9100793715965054
 40
1.798690114035454
 40
2.656164706227206
 40
3.473907517831469
 40
4.250742817781354
 40
4.993695793420943
 40
4.993695793420943
 40
4.993695793420943
 40
4.993695793420943
 10
161.2686564081
 20
183.0179534771
 30
0.0
 10
161.3715798358138
 20
182.7325773222198
 30
0.0
 10
161.5749987437788
 20
182.1685569910435
 30
0.0
 10
161.8903091983839
 20
181.3412320567533
 30
0.0
 10
162.1695359949122
 20
180.5330898697941
 30
0.0
 10
162.3884492407443
 20
179.7452395842626
 30
0.0
 10
162.5328433202069
 20
178.9769628714113
 30
0.0
 10
162.5504539353221
 20
178.4700520171873
 30
0.0
 10
162.5590629364
 20
178.2222471528
 30
0.0
 11
161.2686564081
 21
183.0179534771
 31
0.0
 11
161.5800127513
 21
182.1627916853
 31
0.0
 11
161.8895740355
 21
181.3298445904
 31
0.0
 11
162.1652463418
 21
180.5178917249
 31
0.0
 11
162.3805666394
 21
179.7290061341
 31
0.0
 11
162.5150091856
 21
178.9638928843
 31
0.0
 11
162.5590629364
 21
178.2222471528
 31
0.0
  0
SPLINE
  5
16CF
330
1B
100
AcDbEntity
  8
0
  6
Continuous
100
AcDbSpline
210
0.0
220
0.0
230
1.0
 70
     8
 71
     3
 72
    13
 73
     9
 74
     7
 42
0.0000000001
 43
0.0000000001
 44
0.0000000001
 40
0.0
 40
0.0
 40
0.0
 40
0.0
 40
1.243016981793955
 40
2.377467104101274
 40
3.401271955016412
 40
4.309477329526652
 40
5.108303697446902
 40
5.822813005971983
 40
5.822813005971983
 40
5.822813005971983
 40
5.822813005971983
 10
159.5366056005
 20
183.7620153796
 30
0.0
 10
159.7055927777966
 20
183.38356020562
 30
0.0
 10
160.0288075535574
 20
182.6597046672862
 30
0.0
 10
160.5563426288379
 20
181.6559062755086
 30
0.0
 10
161.0230525619937
 20
180.7459753154808
 30
0.0
 10
161.3904333391485
 20
179.9135624959491
 30
0.0
 10
161.6395032293806
 20
179.1390061208132
 30
0.0
 10
161.6719592824265
 20
178.633923122458
 30
0.0
 10
161.6872831477
 20
178.3954522336
 30
0.0
 11
159.5366056005
 21
183.7620153796
 31
0.0
 11
160.0560126106
 21
182.6327202123
 31
0.0
 11
160.5717737055
 21
181.622290812
 31
0.0
 11
161.0310612776
 21
180.70728737
 31
0.0
 11
161.3898430245
 21
179.8729537075
 31
0.0
 11
161.6138481556
 21
179.1061778163
 31
0.0
 11
161.6872831477
 21
178.3954522336
 31
0.0
  0
SPLINE
  5
16D0
330
1B
100
AcDbEntity
  8
0
  6
Continuous
100
AcDbSpline
210
0.0
220
0.0
230
1.0
 70
     8
 71
     3
 72
    11
 73
     7
 74
     5
 42
0.0000000001
 43
0.0000000001
 44
0.0000000001
 40
0.0
 40
0.0
 40
0.0
 40
0.0
 40
0.4656853266601974
 40
0.9486148571516088
 40
1.453465392858436
 40
1.978439970696376
 40
1.978439970696376
 40
1.978439970696376
 40
1.978439970696376
 10
161.2686631902
 20
183.0179573458
 30
0.0
 10
161.1726917158075
 20
183.1416432687681
 30
0.0
 10
160.9771949688424
 20
183.3935951715465
 30
0.0
 10
160.5485012106631
 20
183.6399143692457
 30
0.0
 10
160.0575911754635
 20
183.7812738786693
 30
0.0
 10
159.7125151943801
 20
183.7685179679879
 30
0.0
 10
159.5366056005
 20
183.7620153796
 30
0.0
 11
161.2686631902
 21
183.0179573458
 31
0.0
 11
160.9604346132
 21
183.367038952
 31
0.0
 11
160.5479855332
 21
183.6182493973
 31
0.0
 11
160.0615061735
 21
183.7532008552
 31
0.0
 11
159.5366056005
 21
183.7620153796
 31
0.0
  0
SPLINE
  5
16D1
330
1B
100
AcDbEntity
  8
0
  6
Continuous
100
AcDbSpline
210
0.0
220
0.0
230
1.0
 70
     8
 71
     3
 72
    13
 73
     9
 74
     7
 42
0.0000000001
 43
0.0000000001
 44
0.0000000001
 40
0.0
 40
0.0
 40
0.0
 40
0.0
 40
0.7791258606265445
 40
1.662887801893973
 40
2.66399924631287
 40
3.788456970804889
 40
5.041031200143747
 40
6.440385711528071
 40
6.440385711528071
 40
6.440385711528071
 40
6.440385711528071
 10
162.5590629364
 20
178.2222471528
 30
0.0
 10
162.549577735765
 20
177.9624553752824
 30
0.0
 10
162.5293334784101
 20
177.4079819587294
 30
0.0
 10
162.37745011729
 20
176.5309357576563
 30
0.0
 10
162.1533134940034
 20
175.5533892349057
 30
0.0
 10
161.8710591554566
 20
174.4631567341579
 30
0.0
 10
161.5556940286824
 20
173.2443822916594
 30
0.0
 10
161.3678021267041
 20
172.3805023583653
 30
0.0
 10
161.2686564081
 20
171.9246551618
 30
0.0
 11
162.5590629364
 21
178.2222471528
 31
0.0
 11
162.5142388114
 21
177.444411756
 31
0.0
 11
162.37690269
 21
176.5713860069
 31
0.0
 11
162.158222607
 21
175.5944504177
 31
0.0
 11
161.8817867375
 21
174.5045016188
 31
0.0
 11
161.575440807
 21
173.2899669874
 31
0.0
 11
161.2686564081
 21
171.9246551618
 31
0.0
  0
SPLINE
  5
16D2
330
1B
100
AcDbEntity
  8
0
  6
Continuous
100
AcDbSpline
210
0.0
220
0.0
230
1.0
 70
     8
 71
     3
 72
    13
 73
     9
 74
     7
 42
0.0000000001
 43
0.0000000001
 44
0.0000000001
 40
0.0
 40
0.0
 40
0.0
 40
0.0
 40
0.7209668445377859
 40
1.530815131253381
 40
2.448687806696343
 40
3.473631851812184
 40
4.596968609887931
 40
5.822774999396943
 40
5.822774999396943
 40
5.822774999396943
 40
5.822774999396943
 10
161.6872831477
 20
178.3954522336
 30
0.0
 10
161.6716659518997
 20
178.1548237967236
 30
0.0
 10
161.6385062583298
 20
177.643902032469
 30
0.0
 10
161.3844540971117
 20
176.8612581740505
 30
0.0
 10
161.0123415236116
 20
176.0230534621248
 30
0.0
 10
160.5450136103244
 20
175.113565010169
 30
0.0
 10
160.0222395870678
 20
174.1175002302009
 30
0.0
 10
159.7031235436265
 20
173.4021605087613
 30
0.0
 10
159.5366056005
 20
173.0288890876
 30
0.0
 11
161.6872831477
 21
178.3954522336
 31
0.0
 11
161.6125580226
 21
177.6783683148
 31
0.0
 11
161.383729743
 21
176.9015209257
 31
0.0
 11
161.019343001
 21
176.0590765355
 31
0.0
 11
160.5587764558
 21
175.1434408257
 31
0.0
 11
160.0483728829
 21
174.142754229
 31
0.0
 11
159.5366056005
 21
173.0288890876
 31
0.0
  0
SPLINE
  5
16D3
330
1B
100
AcDbEntity
  8
0
  6
Continuous
100
AcDbSpline
210
0.0
220
0.0
230
1.0
 70
     8
 71
     3
 72
     9
 73
     5
 74
     3
 42
0.0000000001
 43
0.0000000001
 44
0.0000000001
 40
0.0
 40
0.0
 40
0.0
 40
0.0
 40
1.030829924935182
 40
2.10040712879933
 40
2.10040712879933
 40
2.10040712879933
 40
2.10040712879933
 10
161.2686564081
 20
171.9246551618
 30
0.0
 10
161.1377501192084
 20
171.6068402483124
 30
0.0
 10
160.8710169794912
 20
170.9592642575686
 30
0.0
 10
160.5606680508911
 20
170.3314116761237
 30
0.0
 10
160.4026310043
 20
170.0116942274
 30
0.0
 11
161.2686564081
 21
171.9246551618
 31
0.0
 11
160.8654321848
 21
170.9759610278
 31
0.0
 11
160.4026310043
 21
170.0116942274
 31
0.0
  0
SPLINE
  5
16D4
330
1B
100
AcDbEntity
  8
0
  6
Continuous
100
AcDbSpline
210
0.0
220
0.0
230
1.0
 70
     8
 71
     3
 72
    11
 73
     7
 74
     5
 42
0.0000000001
 43
0.0000000001
 44
0.0000000001
 40
0.0
 40
0.0
 40
0.0
 40
0.0
 40
0.5299128830254033
 40
1.077382185580422
 40
1.631069838955043
 40
2.178257150679978
 40
2.178257150679978
 40
2.178257150679978
 40
2.178257150679978
 10
160.4026310047
 20
170.0116976516
 30
0.0
 10
160.3092557878264
 20
170.1628270245702
 30
0.0
 10
160.1194117616537
 20
170.4700928023457
 30
0.0
 10
159.6984266476147
 20
170.825212952149
 30
0.0
 10
159.2115139025902
 20
171.0931833672098
 30
0.0
 10
158.8501802425355
 20
171.1674151285482
 30
0.0
 10
158.6705801967999
 20
171.2043118509
 30
0.0
 11
160.4026310047
 21
170.0116976516
 31
0.0
 11
160.1011603208
 21
170.4474993156
 31
0.0
 11
159.6898813284
 21
170.8088471088
 31
0.0
 11
159.200451559
 21
171.067745773
 31
0.0
 11
158.6705801967999
 21
171.2043118509
 31
0.0
  0
SPLINE
  5
16D5
330
1B
100
AcDbEntity
  8
0
  6
Continuous
100
AcDbSpline
210
0.0
220
0.0
230
1.0
 70
     8
 71
     3
 72
     9
 73
     5
 74
     3
 42
0.0000000001
 43
0.0000000001
 44
0.0000000001
 40
0.0
 40
0.0
 40
0.0
 40
0.0
 40
0.9904737051322536
 40
2.020227195624569
 40
2.020227195624569
 40
2.020227195624569
 40
2.020227195624569
 10
159.5366056005
 20
173.0288890876
 30
0.0
 10
159.4056181993831
 20
172.7257068381624
 30
0.0
 10
159.1384487544506
 20
172.1073188664569
 30
0.0
 10
158.8285449009338
 20
171.5091907082795
 30
0.0
 10
158.6705802049
 20
171.2043118511
 30
0.0
 11
159.5366056005
 21
173.0288890876
 31
0.0
 11
159.1333712041
 21
172.1242122491
 31
0.0
 11
158.6705802049
 21
171.2043118511
 31
0.0
  0
SPLINE
  5
16D6
330
1B
100
AcDbEntity
  8
0
  6
Continuous
100
AcDbSpline
210
0.0
220
0.0
230
1.0
 70
     8
 71
     3
 72
    11
 73
     7
 74
     5
 42
0.0000000001
 43
0.0000000001
 44
0.0000000001
 40
0.0
 40
0.0
 40
0.0
 40
0.0
 40
0.515478730426769
 40
1.048082624631379
 40
1.588832310167257
 40
2.126824104314429
 40
2.126824104314429
 40
2.126824104314429
 40
2.126824104314429
 10
161.2686567231
 20
171.924655276
 30
0.0
 10
161.1726345199566
 20
172.0683311087612
 30
0.0
 10
160.977400077189
 20
172.3604559531204
 30
0.0
 10
160.5550944468041
 20
172.6914281186031
 30
0.0
 10
160.0702420647128
 20
172.9361094595162
 30
0.0
 10
159.7141809887544
 20
172.9980153006983
 30
0.0
 10
159.5366056005
 20
173.0288890876
 30
0.0
 11
161.2686567231
 21
171.924655276
 31
0.0
 11
160.9604299441
 21
172.3378314784
 31
0.0
 11
160.5479825446
 21
172.6748092978
 31
0.0
 11
160.0615047577
 21
172.9109227986
 31
0.0
 11
159.5366056005
 21
173.0288890876
 31
0.0
  0
SPLINE
  5
16D7
330
1B
100
AcDbEntity
  8
0
  6
Continuous
100
AcDbSpline
210
0.0
220
0.0
230
1.0
 70
     8
 71
     3
 72
     9
 73
     5
 74
     3
 42
0.0000000001
 43
0.0000000001
 44
0.0000000001
 40
0.0
 40
0.0
 40
0.0
 40
0.0
 40
1.943902159764781
 40
3.847572768218021
 40
3.847572768218021
 40
3.847572768218021
 40
3.847572768218021
 10
160.4026310043
 20
167.4296774263
 30
0.0
 10
160.5611872288867
 20
166.8013319490899
 30
0.0
 10
160.8750181533943
 20
165.5576454111629
 30
0.0
 10
161.1383615263209
 20
164.3023020462854
 30
0.0
 10
161.2686564081
 20
163.681193516
 30
0.0
 11
160.4026310043
 21
167.4296774263
 31
0.0
 11
160.8654124525
 21
165.5416655254
 31
0.0
 11
161.2686564081
 21
163.681193516
 31
0.0
  0
SPLINE
  5
16D8
330
1B
100
AcDbEntity
  8
0
  6
Continuous
100
AcDbSpline
210
0.0
220
0.0
230
1.0
 70
     8
 71
     3
 72
     9
 73
     5
 74
     3
 42
0.0000000001
 43
0.0000000001
 44
0.0000000001
 40
0.0
 40
0.0
 40
0.0
 40
0.0
 40
1.898039657990543
 40
3.750856068660636
 40
3.750856068660636
 40
3.750856068660636
 40
3.750856068660636
 10
158.6705802051
 20
166.9701759657
 30
0.0
 10
158.8291444610837
 20
166.3576118625441
 30
0.0
 10
159.1424949747703
 20
165.1470787874879
 30
0.0
 10
159.4062955872605
 20
163.924794988646
 30
0.0
 10
159.5366056005
 20
163.3210214928
 30
0.0
 11
158.6705802051
 21
166.9701759657
 31
0.0
 11
159.1335849909
 21
165.1294747103
 31
0.0
 11
159.5366056005
 21
163.3210214928
 31
0.0
  0
SPLINE
  5
16D9
330
1B
100
AcDbEntity
  8
0
  6
Continuous
100
AcDbSpline
210
0.0
220
0.0
230
1.0
 70
     8
 71
     3
 72
    15
 73
    11
 74
     9
 42
0.0000000001
 43
0.0000000001
 44
0.0000000001
 40
0.0
 40
0.0
 40
0.0
 40
0.0
 40
2.048805215007071
 40
3.969504323445941
 40
5.814546792406849
 40
7.62423601906218
 40
9.433878399467812
 40
11.27880913686463
 40
13.19891765731049
 40
15.24733541754146
 40
15.24733541754146
 40
15.24733541754146
 40
15.24733541754146
 10
133.9451430132
 20
193.2301683123
 30
0.0
 10
133.328759871333
 20
192.9349078289967
 30
0.0
 10
132.134534315571
 20
192.3628486813383
 30
0.0
 10
130.2913955342139
 20
191.746459392599
 30
0.0
 10
128.4683182635927
 20
191.3625249310394
 30
0.0
 10
126.6452722365378
 20
191.2339700847567
 30
0.0
 10
124.8222754595319
 20
191.3626797433539
 30
0.0
 10
122.9994719142835
 20
191.746693404181
 30
0.0
 10
121.1567064525347
 20
192.3630375332517
 30
0.0
 10
119.9627780268793
 20
192.9349609651534
 30
0.0
 10
119.3465129404
 20
193.2301683123
 30
0.0
 11
133.9451430132
 21
193.2301683123
 31
0.0
 11
132.0789288074
 21
192.3846818564
 31
0.0
 11
130.2576202308
 21
191.7748293054
 31
0.0
 11
128.4505736739
 21
191.4023182942
 31
0.0
 11
126.6452585903
 21
191.2765703479
 31
0.0
 11
124.8400009341
 21
191.4024684801
 31
0.0
 11
123.0330905132
 21
191.7750864569
 31
0.0
 11
121.2123664295
 21
192.3848245493
 31
0.0
 11
119.3465129404
 21
193.2301683123
 31
0.0
  0
SPLINE
  5
16DA
330
1B
100
AcDbEntity
  8
0
  6
Continuous
100
AcDbSpline
210
0.0
220
0.0
230
1.0
 70
     8
 71
     3
 72
    10
 73
     6
 74
     4
 42
0.0000000001
 43
0.0000000001
 44
0.0000000001
 40
0.0
 40
0.0
 40
0.0
 40
0.0
 40
0.3324854197761641
 40
0.6469578200860382
 40
0.9402860903287906
 40
0.9402860903287906
 40
0.9402860903287906
 40
0.9402860903287906
 10
86.2396408713
 20
193.2301683123
 30
0.0
 10
86.13161407020668
 20
193.2550457876347
 30
0.0
 10
85.92141302201259
 20
193.3034529545494
 30
0.0
 10
85.61017538888927
 20
193.3460369765504
 30
0.0
 10
85.40757027318148
 20
193.3521035429556
 30
0.0
 10
85.3097918221
 20
193.3550313045
 30
0.0
 11
86.2396408713
 21
193.2301683123
 31
0.0
 11
85.91451879500001
 21
193.2997541576
 31
0.0
 11
85.60279616680001
 21
193.3412498637
 31
0.0
 11
85.3097918221
 21
193.3550313045
 31
0.0
  0
SPLINE
  5
16DB
330
1B
100
AcDbEntity
  8
0
  6
Continuous
100
AcDbSpline
210
0.0
220
0.0
230
1.0
 70
     8
 71
     3
 72
    10
 73
     6
 74
     4
 42
0.0000000001
 43
0.0000000001
 44
0.0000000001
 40
0.0
 40
0.0
 40
0.0
 40
0.0
 40
0.2552984211278239
 40
0.4821041860095994
 40
0.6803200381269333
 40
0.6803200381269333
 40
0.6803200381269333
 40
0.6803200381269333
 10
82.99353254570001
 20
193.3550313045
 30
0.0
 10
82.90848641375563
 20
193.3524598847618
 30
0.0
 10
82.74788574872531
 20
193.3476040293504
 30
0.0
 10
82.52232247563289
 20
193.3102204297658
 30
0.0
 10
82.39118641550658
 20
193.2556282685182
 30
0.0
 10
82.3300289476
 20
193.2301683123
 30
0.0
 11
82.99353254570001
 21
193.3550313045
 31
0.0
 11
82.73860636870001
 21
193.3412498637
 31
0.0
 11
82.515628878
 21
193.2997541576
 31
0.0
 11
82.3300289476
 21
193.2301683123
 31
0.0
  0
SPLINE
  5
16DC
330
1B
100
AcDbEntity
  8
0
  6
Continuous
100
AcDbSpline
210
0.0
220
0.0
230
1.0
 70
     8
 71
     3
 72
    10
 73
     6
 74
     4
 42
0.0000000001
 43
0.0000000001
 44
0.0000000001
 40
0.0
 40
0.0
 40
0.0
 40
0.0
 40
0.1559122158865456
 40
0.2538795219362334
 40
0.2943748916210798
 40
0.2943748916210798
 40
0.2943748916210798
 40
0.2943748916210798
 10
67.7313988749
 20
193.2301683123
 30
0.0
 10
67.68487099582197
 20
193.253248804547
 30
0.0
 10
67.60910736415354
 20
193.290831904142
 30
0.0
 10
67.52144801229623
 20
193.3354684885532
 30
0.0
 10
67.47781462547735
 20
193.3506045492682
 30
0.0
 10
67.4650534238
 20
193.3550313045
 30
0.0
 11
67.7313988749
 21
193.2301683123
 31
0.0
 11
67.59187672900001
 21
193.2997541576
 31
0.0
 11
67.50313159149999
 21
193.3412498637
 31
0.0
 11
67.4650534238
 21
193.3550313045
 31
0.0
  0
SPLINE
  5
16DD
330
1B
100
AcDbEntity
  8
0
  6
Continuous
100
AcDbSpline
210
0.0
220
0.0
230
1.0
 70
     8
 71
     3
 72
    10
 73
     6
 74
     4
 42
0.0000000001
 43
0.0000000001
 44
0.0000000001
 40
0.0
 40
0.0
 40
0.0
 40
0.0
 40
0.2933282703426295
 40
0.6078006706525037
 40
0.9402860904286678
 40
0.9402860904286678
 40
0.9402860904286678
 40
0.9402860904286678
 10
116.366750066
 20
193.3550313045
 30
0.0
 10
116.2689716148851
 20
193.3521035429568
 30
0.0
 10
116.0663664991437
 20
193.3460369765554
 30
0.0
 10
115.7551288659874
 20
193.3034529545493
 30
0.0
 10
115.5449278177933
 20
193.2550457876347
 30
0.0
 10
115.4369010167
 20
193.2301683123
 30
0.0
 11
116.366750066
 21
193.3550313045
 31
0.0
 11
116.0737457212
 21
193.3412498637
 31
0.0
 11
115.762023093
 21
193.2997541576
 31
0.0
 11
115.4369010167
 21
193.2301683123
 31
0.0
  0
SPLINE
  5
16DE
330
1B
100
AcDbEntity
  8
0
  6
Continuous
100
AcDbSpline
210
0.0
220
0.0
230
1.0
 70
     8
 71
     3
 72
    10
 73
     6
 74
     4
 42
0.0000000001
 43
0.0000000001
 44
0.0000000001
 40
0.0
 40
0.0
 40
0.0
 40
0.0
 40
0.198215852117334
 40
0.4250216169991095
 40
0.6803200380270773
 40
0.6803200380270773
 40
0.6803200380270773
 40
0.6803200380270773
 10
119.3465129404
 20
193.2301683123
 30
0.0
 10
119.2853554724934
 20
193.2556282685183
 30
0.0
 10
119.1542194123672
 20
193.3102204297658
 30
0.0
 10
118.9286561393078
 20
193.3476040293447
 30
0.0
 10
118.768055474311
 20
193.3524598847602
 30
0.0
 10
118.6830093424
 20
193.3550313045
 30
0.0
 11
119.3465129404
 21
193.2301683123
 31
0.0
 11
119.16091301
 21
193.2997541576
 31
0.0
 11
118.9379355193
 21
193.3412498637
 31
0.0
 11
118.6830093424
 21
193.3550313045
 31
0.0
  0
SPLINE
  5
16DF
330
1B
100
AcDbEntity
  8
0
  6
Continuous
100
AcDbSpline
210
0.0
220
0.0
230
1.0
 70
     8
 71
     3
 72
    10
 73
     6
 74
     4
 42
0.0000000001
 43
0.0000000001
 44
0.0000000001
 40
0.0
 40
0.0
 40
0.0
 40
0.0
 40
0.040495369778879
 40
0.1384626758285669
 40
0.2943748916256233
 40
0.2943748916256233
 40
0.2943748916256233
 40
0.2943748916256233
 10
134.2114884643
 20
193.3550313045
 30
0.0
 10
134.1987272625885
 20
193.3506045492704
 30
0.0
 10
134.1550938757246
 20
193.3354684885879
 30
0.0
 10
134.067434523874
 20
193.2908319041504
 30
0.0
 10
133.9916708922441
 20
193.2532488045471
 30
0.0
 10
133.9451430132
 20
193.2301683123
 30
0.0
 11
134.2114884643
 21
193.3550313045
 31
0.0
 11
134.1734102965
 21
193.3412498637
 31
0.0
 11
134.084665159
 21
193.2997541576
 31
0.0
 11
133.9451430132
 21
193.2301683123
 31
0.0
  0
SPLINE
  5
16E0
330
1B
100
AcDbEntity
  8
0
  6
Continuous
100
AcDbSpline
210
0.0
220
0.0
230
1.0
 70
     8
 71
     3
 72
    15
 73
    11
 74
     9
 42
0.0000000001
 43
0.0000000001
 44
0.0000000001
 40
0.0
 40
0.0
 40
0.0
 40
0.0
 40
2.048805215007058
 40
3.969504323351101
 40
5.814546792409965
 40
7.624236019065283
 40
9.433878399470929
 40
11.27880913686774
 40
13.19891765721877
 40
15.24733541744975
 40
15.24733541744975
 40
15.24733541744975
 40
15.24733541744975
 10
82.3300289476
 20
193.2301683123
 30
0.0
 10
81.71364580573183
 20
192.9349078290007
 30
0.0
 10
80.51942024999592
 20
192.3628486813636
 30
0.0
 10
78.6762814686569
 20
191.7464593925643
 30
0.0
 10
76.85320419802279
 20
191.3625249310532
 30
0.0
 10
75.03015817093822
 20
191.2339700847529
 30
0.0
 10
73.20716139393271
 20
191.3626797433577
 30
0.0
 10
71.38435784871081
 20
191.7466934041628
 30
0.0
 10
69.54159238700939
 20
192.3630375332753
 30
0.0
 10
68.34766396138046
 20
192.9349609651569
 30
0.0
 10
67.7313988749
 20
193.2301683123
 30
0.0
 11
82.3300289476
 21
193.2301683123
 31
0.0
 11
80.46381474179999
 21
192.3846818564
 31
0.0
 11
78.64250616530001
 21
191.7748293054
 31
0.0
 11
76.8354596083
 21
191.4023182942
 31
0.0
 11
75.03014452470001
 21
191.2765703479
 31
0.0
 11
73.22488686849999
 21
191.4024684801
 31
0.0
 11
71.4179764476
 21
191.7750864569
 31
0.0
 11
69.597252364
 21
192.3848245493
 31
0.0
 11
67.7313988749
 21
193.2301683123
 31
0.0
  0
SPLINE
  5
16E1
330
1B
100
AcDbEntity
  8
0
  6
Continuous
100
AcDbSpline
210
0.0
220
0.0
230
1.0
 70
     8
 71
     3
 72
    15
 73
    11
 74
     9
 42
0.0000000001
 43
0.0000000001
 44
0.0000000001
 40
0.0
 40
0.0
 40
0.0
 40
0.0
 40
3.826992186408192
 40
7.520307750778434
 40
11.15354783212207
 40
14.76636705691251
 40
18.37907672705851
 40
22.01205694067649
 40
25.70420066708478
 40
29.53045772180414
 40
29.53045772180414
 40
29.53045772180414
 40
29.53045772180414
 10
115.4369010167
 20
193.2301683123
 30
0.0
 10
114.1958942199377
 20
192.933479959289
 30
0.0
 10
111.7572289240936
 20
192.3504665607671
 30
0.0
 10
108.0865057249049
 20
191.7410908523636
 30
0.0
 10
104.4576013853201
 20
191.3609389139946
 30
0.0
 10
100.8371677262668
 20
191.2344664011232
 30
0.0
 10
97.2168265488599
 20
191.3610917887338
 30
0.0
 10
93.58844798597893
 20
191.7413244592863
 30
0.0
 10
89.91845340612807
 20
192.3506611561281
 30
0.0
 10
87.4804083424791
 20
192.9335334988334
 30
0.0
 10
86.2396408713
 20
193.2301683123
 30
0.0
 11
115.4369010167
 21
193.2301683123
 31
0.0
 11
111.7044726051
 21
192.3846818564
 31
0.0
 11
108.061855452
 21
191.7748293054
 31
0.0
 11
104.4477623382
 21
191.4023182942
 31
0.0
 11
100.8371321709
 21
191.2765703479
 31
0.0
 11
97.2266168585
 21
191.4024684801
 31
0.0
 11
93.6127960168
 21
191.7750864569
 31
0.0
 11
89.97134784950001
 21
192.3848245493
 31
0.0
 11
86.2396408713
 21
193.2301683123
 31
0.0
  0
SPLINE
  5
16E2
330
1B
100
AcDbEntity
  8
0
  6
Continuous
100
AcDbSpline
210
0.0
220
0.0
230
1.0
 70
     8
 71
     3
 72
    11
 73
     7
 74
     5
 42
0.0000000001
 43
0.0000000001
 44
0.0000000001
 40
0.0
 40
0.0
 40
0.0
 40
0.0
 40
0.547828241224266
 40
1.102145941432764
 40
1.650386766364026
 40
2.181456795474398
 40
2.181456795474398
 40
2.181456795474398
 40
2.181456795474398
 10
82.3300289516
 20
200.8000331553
 30
0.0
 10
82.36723083134129
 20
200.9797928652967
 30
0.0
 10
82.44207527652523
 20
201.3414416812892
 30
0.0
 10
82.71132951504536
 20
201.828453708509
 30
0.0
 10
83.06787580861931
 20
202.2493710470986
 30
0.0
 10
83.37613072156493
 20
202.4388511446987
 30
0.0
 10
83.52780615870002
 20
202.5320839706
 30
0.0
 11
82.3300289516
 21
200.8000331553
 31
0.0
 11
82.46756808240001
 21
201.3303149383
 31
0.0
 11
82.72767880169999
 21
201.8198152207
 31
0.0
 11
83.090378923
 21
202.2309315353
 31
0.0
 11
83.52780615870002
 21
202.5320839706
 31
0.0
  0
SPLINE
  5
16E3
330
1B
100
AcDbEntity
  8
0
  6
Continuous
100
AcDbSpline
210
0.0
220
0.0
230
1.0
 70
     8
 71
     3
 72
    16
 73
    12
 74
    10
 42
0.0000000001
 43
0.0000000001
 44
0.0000000001
 40
0.0
 40
0.0
 40
0.0
 40
0.0
 40
1.936477906104432
 40
3.752333377071911
 40
5.48012135384825
 40
7.151513092411945
 40
8.797487898534799
 40
10.44973214408674
 40
12.14164423755507
 40
13.90414463825609
 40
15.77595344504343
 40
15.77595344504343
 40
15.77595344504343
 40
15.77595344504343
 10
83.5278222606
 20
202.5320839625
 30
0.0
 10
82.94704917850469
 20
202.8146552336052
 30
0.0
 10
81.82167913757549
 20
203.3621965242273
 30
0.0
 10
80.09882831788826
 20
203.9806038497858
 30
0.0
 10
78.40971180907508
 20
204.4043899045566
 30
0.0
 10
76.73723302744267
 20
204.6184065500793
 30
0.0
 10
75.07623401568964
 20
204.6198485852233
 30
0.0
 10
73.42177103553115
 20
204.4077233791729
 30
0.0
 10
71.76969490372628
 20
203.9837362791581
 30
0.0
 10
70.10163137061346
 20
203.3639001799992
 30
0.0
 10
69.02087950399685
 20
202.8148604880861
 30
0.0
 10
68.4642507896
 20
202.5320839625
 30
0.0
 11
83.5278222606
 21
202.5320839625
 31
0.0
 11
81.77104240629998
 21
203.346744152
 31
0.0
 11
80.0622909131
 21
203.9611539712
 31
0.0
 11
78.3847635302
 21
204.3748605971
 31
0.0
 11
76.7265089965
 21
204.5840070654
 31
0.0
 11
75.08053433230001
 21
204.5846905878
 31
0.0
 11
73.4414801181
 21
204.3763343307
 31
0.0
 11
71.80109527090001
 21
203.9619624143
 31
0.0
 11
70.1493735741
 21
203.34696396
 31
0.0
 11
68.4642507896
 21
202.5320839625
 31
0.0
  0
SPLINE
  5
16E4
330
1B
100
AcDbEntity
  8
0
  6
Continuous
100
AcDbSpline
210
0.0
220
0.0
230
1.0
 70
     8
 71
     3
 72
    11
 73
     7
 74
     5
 42
0.0000000001
 43
0.0000000001
 44
0.0000000001
 40
0.0
 40
0.0
 40
0.0
 40
0.0
 40
0.5302526299123677
 40
1.036551383670024
 40
1.51898809416856
 40
1.985311888272297
 40
1.985311888272297
 40
1.985311888272297
 40
1.985311888272297
 10
67.7313988714
 20
200.8000331552
 30
0.0
 10
67.7198975699787
 20
200.977548851074
 30
0.0
 10
67.69741453221567
 20
201.3245610671411
 30
0.0
 10
67.83244319421149
 20
201.8201253661131
 30
0.0
 10
68.08070538387484
 20
202.2498324970215
 30
0.0
 10
68.33785859322398
 20
202.4390714348629
 30
0.0
 10
68.46425156559999
 20
202.5320839697
 30
0.0
 11
67.7313988714
 21
200.8000331552
 31
0.0
 11
67.7268912429
 21
201.3302666253
 31
0.0
 11
67.8557526136
 21
201.8198921712
 31
0.0
 11
68.10808940539999
 21
202.2310750054
 31
0.0
 11
68.46425156559999
 21
202.5320839697
 31
0.0
  0
SPLINE
  5
16E5
330
1B
100
AcDbEntity
  8
0
  6
Continuous
100
AcDbSpline
210
0.0
220
0.0
230
1.0
 70
     8
 71
     3
 72
     9
 73
     5
 74
     3
 42
0.0000000001
 43
0.0000000001
 44
0.0000000001
 40
0.0
 40
0.0
 40
0.0
 40
0.0
 40
2.086732688758391
 40
3.448679566288889
 40
3.448679566288889
 40
3.448679566288889
 40
3.448679566288889
 10
82.3300289476
 20
200.8000332686
 30
0.0
 10
81.71013121145029
 20
201.1178989310777
 30
0.0
 10
80.6856451010035
 20
201.6432258313163
 30
0.0
 10
79.6014957049031
 20
202.0286339023595
 30
0.0
 10
79.1733452037
 20
202.1808386256
 30
0.0
 11
82.3300289476
 21
200.8000332686
 31
0.0
 11
80.44849159079999
 21
201.7024026438
 31
0.0
 11
79.1733452037
 21
202.1808386256
 31
0.0
  0
SPLINE
  5
16E6
330
1B
100
AcDbEntity
  8
0
  6
Continuous
100
AcDbSpline
210
0.0
220
0.0
230
1.0
 70
     8
 71
     3
 72
    14
 73
    10
 74
     8
 42
0.0000000001
 43
0.0000000001
 44
0.0000000001
 40
0.0
 40
0.0
 40
0.0
 40
0.0
 40
0.5770532439909176
 40
2.417426879703903
 40
4.210148132857942
 40
6.004710039041426
 40
7.850423911981652
 40
9.792786291949501
 40
11.8799923156451
 40
11.8799923156451
 40
11.8799923156451
 40
11.8799923156451
 10
79.1733452037
 20
202.1808386256
 30
0.0
 10
78.99000350430646
 20
202.2390246798286
 30
0.0
 10
78.22193720037363
 20
202.4827812707168
 30
0.0
 10
76.84619020460751
 20
202.7850519012207
 30
0.0
 10
75.03618056355157
 20
202.9237782039763
 30
0.0
 10
73.22313640366002
 20
202.7879482424953
 30
0.0
 10
71.4021377985508
 20
202.3807211316346
 30
0.0
 10
69.55139722769889
 20
201.722748808214
 30
0.0
 10
68.35243068998329
 20
201.114888337941
 30
0.0
 10
67.7313988749
 20
200.8000332696
 30
0.0
 11
79.1733452037
 21
202.1808386256
 31
0.0
 11
78.6220736894
 21
202.3513970142
 31
0.0
 11
76.82436366170001
 21
202.7453688093
 31
0.0
 11
75.036587654
 21
202.8784343488
 31
0.0
 11
73.2468591829
 21
202.7468120298
 31
0.0
 11
71.4437224074
 21
202.3526579107
 31
0.0
 11
69.61337315299998
 21
201.7025862054
 31
0.0
 11
67.7313988749
 21
200.8000332696
 31
0.0
  0
SPLINE
  5
16E7
330
1B
100
AcDbEntity
  8
0
  6
Continuous
100
AcDbSpline
210
0.0
220
0.0
230
1.0
 70
     8
 71
     3
 72
    16
 73
    12
 74
    10
 42
0.0000000001
 43
0.0000000001
 44
0.0000000001
 40
0.0
 40
0.0
 40
0.0
 40
0.0
 40
3.537830756605163
 40
6.9572602827349
 40
10.30124817000121
 40
13.6027153987133
 40
16.89027654666527
 40
20.19181949818738
 40
23.53597813946137
 40
26.95562808928498
 40
30.49357431339004
 40
30.49357431339004
 40
30.49357431339004
 40
30.49357431339004
 10
115.9018422803
 20
202.5320839625
 30
0.0
 10
114.7570447132416
 20
202.8161590637547
 30
0.0
 10
112.5057627291622
 20
203.3748020727747
 30
0.0
 10
109.1248857431877
 20
203.9884248979345
 30
0.0
 10
105.7946942636085
 20
204.4089121421828
 30
0.0
 10
102.4880634779831
 20
204.61911919011
 30
0.0
 10
99.18903587898899
 20
204.6191378810694
 30
0.0
 10
95.8823207248974
 20
204.4089598299902
 30
0.0
 10
92.5519714321109
 20
203.9884776658878
 30
0.0
 10
89.17092563319034
 20
203.3748368041515
 30
0.0
 10
86.9195346810823
 20
202.8161678260013
 30
0.0
 10
85.77469960889999
 20
202.5320839625
 30
0.0
 11
115.9018422803
 21
202.5320839625
 31
0.0
 11
112.4591501972
 21
203.3470181214
 31
0.0
 11
109.09550715
 21
203.9621634174
 31
0.0
 11
105.7772252663
 21
204.3759995329
 31
0.0
 11
102.4823426836
 21
204.5844092939
 31
0.0
 11
99.1947815357
 21
204.5844277811
 31
0.0
 11
95.89982123679999
 21
204.3760471452
 31
0.0
 11
92.5813668207
 21
203.9622146836
 31
0.0
 11
89.2175047187
 21
203.3470419127
 31
0.0
 11
85.77469960889999
 21
202.5320839625
 31
0.0
  0
SPLINE
  5
16E8
330
1B
100
AcDbEntity
  8
0
  6
Continuous
100
AcDbSpline
210
0.0
220
0.0
230
1.0
 70
     8
 71
     3
 72
    15
 73
    11
 74
     9
 42
0.0000000001
 43
0.0000000001
 44
0.0000000001
 40
0.0
 40
0.0
 40
0.0
 40
0.0
 40
3.871170145614947
 40
7.587819480139546
 40
11.20996934785127
 40
14.7865072887345
 40
18.36304387609679
 40
21.98519106964505
 40
25.70183891499392
 40
29.57300798063863
 40
29.57300798063863
 40
29.57300798063863
 40
29.57300798063863
 10
115.4369010167
 20
200.800033268
 30
0.0
 10
114.1855908278707
 20
201.1166078204022
 30
0.0
 10
111.7329174838041
 20
201.7371206021395
 30
0.0
 10
108.0496594288765
 20
202.386713851229
 30
0.0
 10
104.4309371075885
 20
202.7893229395437
 30
0.0
 10
100.8382680915765
 20
202.9227108839786
 30
0.0
 10
97.24559998714896
 20
202.7893225293242
 30
0.0
 10
93.62687952882463
 20
202.3867133821264
 30
0.0
 10
89.94362322120465
 20
201.7371203140534
 30
0.0
 10
87.49095070987366
 20
201.1166077355746
 30
0.0
 10
86.2396408713
 20
200.800033268
 30
0.0
 11
115.4369010167
 21
200.800033268
 31
0.0
 11
111.6724404728
 21
201.7026932869
 31
0.0
 11
108.0130448115
 21
202.352543785
 31
0.0
 11
104.4123654173
 21
202.7463426732
 31
0.0
 11
100.8382676436
 21
202.8784363771
 31
0.0
 11
97.26417123860001
 21
202.7463422875
 31
0.0
 11
93.66349453230001
 21
202.3525434195
 31
0.0
 11
90.0041003584
 21
201.7026930626
 31
0.0
 11
86.2396408713
 21
200.800033268
 31
0.0
  0
SPLINE
  5
16E9
330
1B
100
AcDbEntity
  8
0
  6
Continuous
100
AcDbSpline
210
0.0
220
0.0
230
1.0
 70
     8
 71
     3
 72
    11
 73
     7
 74
     5
 42
0.0000000001
 43
0.0000000001
 44
0.0000000001
 40
0.0
 40
0.0
 40
0.0
 40
0.0
 40
0.530292338685769
 40
1.036456372391215
 40
1.518790548616316
 40
1.985311648556429
 40
1.985311648556429
 40
1.985311648556429
 40
1.985311648556429
 10
133.9451430167
 20
200.8000331553
 30
0.0
 10
133.9566445720304
 20
200.9775624841996
 30
0.0
 10
133.9791243618461
 20
201.3245435563385
 30
0.0
 10
133.8441207271467
 20
201.8200410813087
 30
0.0
 10
133.5959074928023
 20
202.2497569097774
 30
0.0
 10
133.3387340778619
 20
202.4390263683711
 30
0.0
 10
133.2122903225
 20
202.5320839697
 30
0.0
 11
133.9451430167
 21
200.8000331553
 31
0.0
 11
133.9496458086
 21
201.3303063767
 31
0.0
 11
133.8208267097
 21
201.8198037401
 31
0.0
 11
133.5685823333
 21
202.2309229833
 31
0.0
 11
133.2122903225
 21
202.5320839697
 31
0.0
  0
SPLINE
  5
16EA
330
1B
100
AcDbEntity
  8
0
  6
Continuous
100
AcDbSpline
210
0.0
220
0.0
230
1.0
 70
     8
 71
     3
 72
    16
 73
    12
 74
    10
 42
0.0000000001
 43
0.0000000001
 44
0.0000000001
 40
0.0
 40
0.0
 40
0.0
 40
0.0
 40
1.87180654784501
 40
3.634306279446112
 40
5.326219122007177
 40
6.978463910088486
 40
8.624440057760147
 40
10.29583275091957
 40
12.02362166172693
 40
13.83947715499359
 40
15.77595344325414
 40
15.77595344325414
 40
15.77595344325414
 40
15.77595344325414
 10
133.2122910984
 20
202.5320839625
 30
0.0
 10
132.6556630638323
 20
202.8148601601285
 30
0.0
 10
131.5749120836233
 20
203.3638994355292
 30
0.0
 10
129.9068493327584
 20
203.9837355299429
 30
0.0
 10
128.2547730724128
 20
204.4077229764083
 30
0.0
 10
126.6003092487399
 20
204.6198485371962
 30
0.0
 10
124.9393092798365
 20
204.6184066272473
 30
0.0
 10
123.266829426422
 20
204.4043898173309
 30
0.0
 10
121.5777123264822
 20
203.9806034820189
 30
0.0
 10
119.8548617719738
 20
203.3621960788493
 30
0.0
 10
118.729492218945
 20
202.8146550055354
 30
0.0
 10
118.1487196269
 20
202.5320839625
 30
0.0
 11
133.2122910984
 21
202.5320839625
 31
0.0
 11
131.5271703918
 21
203.3469630681
 31
0.0
 11
129.8754494143
 21
203.9619615367
 31
0.0
 11
128.235063913
 21
204.3763339223
 31
0.0
 11
126.5960091906
 21
204.5846904838
 31
0.0
 11
124.9500331848
 21
204.5840070844
 31
0.0
 11
123.2917777067
 21
204.3748604753
 31
0.0
 11
121.6142494463
 21
203.9611535067
 31
0.0
 11
119.9054979851
 21
203.3467435326
 31
0.0
 11
118.1487196269
 21
202.5320839625
 31
0.0
  0
SPLINE
  5
16EB
330
1B
100
AcDbEntity
  8
0
  6
Continuous
100
AcDbSpline
210
0.0
220
0.0
230
1.0
 70
     8
 71
     3
 72
    11
 73
     7
 74
     5
 42
0.0000000001
 43
0.0000000001
 44
0.0000000001
 40
0.0
 40
0.0
 40
0.0
 40
0.0
 40
0.5478282393714706
 40
1.102145939640933
 40
1.650386764091607
 40
2.181456789776116
 40
2.181456789776116
 40
2.181456789776116
 40
2.181456789776116
 10
119.3465129365
 20
200.8000331553
 30
0.0
 10
119.3093110542056
 20
200.979792864067
 30
0.0
 10
119.2344666037537
 20
201.3414416782206
 30
0.0
 10
118.9652123637528
 20
201.828453703157
 30
0.0
 10
118.6086660733252
 20
202.2493710421156
 30
0.0
 10
118.3004111642173
 20
202.4388511432323
 30
0.0
 10
118.1487357294
 20
202.5320839706
 30
0.0
 11
119.3465129365
 21
200.8000331553
 31
0.0
 11
119.2089737992
 21
201.3303149347
 31
0.0
 11
118.9488630777
 21
201.819815216
 31
0.0
 11
118.5861629586
 21
202.2309315319
 31
0.0
 11
118.1487357294
 21
202.5320839706
 31
0.0
  0
SPLINE
  5
16EC
330
1B
100
AcDbEntity
  8
0
  6
Continuous
100
AcDbSpline
210
0.0
220
0.0
230
1.0
 70
     8
 71
     3
 72
    14
 73
    10
 74
     8
 42
0.0000000001
 43
0.0000000001
 44
0.0000000001
 40
0.0
 40
0.0
 40
0.0
 40
0.0
 40
2.08720361505387
 40
4.029565985272702
 40
5.875280569281197
 40
7.669843605621823
 40
9.462566227513021
 40
11.30294087950298
 40
11.87999233304953
 40
11.87999233304953
 40
11.87999233304953
 40
11.87999233304953
 10
133.9451430132
 20
200.8000332696
 30
0.0
 10
133.3241119248338
 20
201.1148879908102
 30
0.0
 10
132.1251461260836
 20
201.7227481275694
 30
0.0
 10
130.2744061914611
 20
202.3807205208586
 30
0.0
 10
128.4534070506981
 20
202.7879480532712
 30
0.0
 10
126.6403618241891
 20
202.9237782668697
 30
0.0
 10
124.8303510017148
 20
202.7850518553066
 30
0.0
 10
123.4546038396066
 20
202.4827810391964
 30
0.0
 10
122.6865377909991
 20
202.2390244986172
 30
0.0
 10
122.5031966627
 20
202.1808386183
 30
0.0
 11
133.9451430132
 21
200.8000332696
 31
0.0
 11
132.0631709604
 21
201.7025852754
 31
0.0
 11
130.2328218078
 21
202.3526572382
 31
0.0
 11
128.4296843973
 21
202.7468117821
 31
0.0
 11
126.6399548112
 21
202.8784343487
 31
0.0
 11
124.8521774397
 21
202.745368692
 31
0.0
 11
123.054466456
 21
202.3513965118
 31
0.0
 11
122.5031966627
 21
202.1808386183
 31
0.0
  0
SPLINE
  5
16ED
330
1B
100
AcDbEntity
  8
0
  6
Continuous
100
AcDbSpline
210
0.0
220
0.0
230
1.0
 70
     8
 71
     3
 72
     9
 73
     5
 74
     3
 42
0.0000000001
 43
0.0000000001
 44
0.0000000001
 40
0.0
 40
0.0
 40
0.0
 40
0.0
 40
1.361949054675135
 40
3.448679544427854
 40
3.448679544427854
 40
3.448679544427854
 40
3.448679544427854
 10
122.5031966627
 20
202.1808386183
 30
0.0
 10
122.0750454823485
 20
202.0286336349453
 30
0.0
 10
120.9908961064726
 20
201.6432255237875
 30
0.0
 10
119.9664100154661
 20
201.1178986077092
 30
0.0
 10
119.3465129404
 20
200.8000332686
 30
0.0
 11
122.5031966627
 21
202.1808386183
 31
0.0
 11
121.2280482679
 21
201.7024017899
 31
0.0
 11
119.3465129404
 21
200.8000332686
 31
0.0
  0
SPLINE
  5
16EE
330
1B
100
AcDbEntity
  8
0
  6
Continuous
100
AcDbSpline
210
0.0
220
0.0
230
1.0
 70
     8
 71
     3
 72
     9
 73
     5
 74
     3
 42
0.0000000001
 43
0.0000000001
 44
0.0000000001
 40
0.0
 40
0.0
 40
0.0
 40
0.0
 40
2.87117209658876
 40
5.742344202153159
 40
5.742344202153159
 40
5.742344202153159
 40
5.742344202153159
 10
106.32628273
 20
170.6867168788
 30
0.0
 10
106.8219482429237
 20
169.8567282325626
 30
0.0
 10
107.8132792703205
 20
168.196750937493
 30
0.0
 10
108.1164330760822
 20
166.2872065948926
 30
0.0
 10
108.2680099792
 20
165.3324344221
 30
0.0
 11
106.32628273
 21
170.6867168788
 31
0.0
 11
107.6412349639
 21
168.1343591784
 31
0.0
 11
108.2680099792
 21
165.3324344221
 31
0.0
  0
SPLINE
  5
16EF
330
1B
100
AcDbEntity
  8
0
  6
Continuous
100
AcDbSpline
210
0.0
220
0.0
230
1.0
 70
     8
 71
     3
 72
    15
 73
    11
 74
     9
 42
0.0000000001
 43
0.0000000001
 44
0.0000000001
 40
0.0
 40
0.0
 40
0.0
 40
0.0
 40
0.353704789294464
 40
0.7391105484054683
 40
1.147158097589676
 40
1.386767975317597
 40
1.62996435558095
 40
3.91662000294412
 40
6.110227706119378
 40
6.906352404320031
 40
6.906352404320031
 40
6.906352404320031
 40
6.906352404320031
 10
108.2680099792
 20
165.3324344221
 30
0.0
 10
108.2515108432738
 20
165.2085370005351
 30
0.0
 10
108.2170338280573
 20
164.9496377886203
 30
0.0
 10
107.8008605139156
 20
164.7736188592712
 30
0.0
 10
107.4416550200324
 20
164.9600939167052
 30
0.0
 10
107.3688302137779
 20
165.2608767307528
 30
0.0
 10
107.3472521375171
 20
166.1789726839347
 30
0.0
 10
107.320433465849
 20
167.7726166059917
 30
0.0
 10
106.7221388777968
 20
169.4537074782822
 30
0.0
 10
106.2701812684992
 20
170.341161221521
 30
0.0
 10
106.1498311612
 20
170.5774779712
 30
0.0
 11
108.2680099792
 21
165.3324344221
 31
0.0
 11
108.1650005244
 21
164.994061654
 31
0.0
 11
107.8118971657
 21
164.8396090165
 31
0.0
 11
107.4514624403
 21
165.0308931275
 31
0.0
 11
107.3779178487
 21
165.2589371727
 31
0.0
 11
107.3632230278
 21
165.5016891894
 31
0.0
 11
107.194196029
 21
167.7820891375
 31
0.0
 11
106.5028724491
 21
169.8639120078
 31
0.0
 11
106.1498311612
 21
170.5774779712
 31
0.0
  0
SPLINE
  5
16F0
330
1B
100
AcDbEntity
  8
0
  6
Continuous
100
AcDbSpline
210
0.0
220
0.0
230
1.0
 70
     8
 71
     3
 72
    11
 73
     7
 74
     5
 42
0.0000000001
 43
0.0000000001
 44
0.0000000001
 40
0.0
 40
0.0
 40
0.0
 40
0.0
 40
0.0771273070274782
 40
0.1542532320094029
 40
0.2313790899668508
 40
0.308506558921503
 40
0.308506558921503
 40
0.308506558921503
 40
0.308506558921503
 10
106.1498311612
 20
170.5774779712
 30
0.0
 10
106.1424631980241
 20
170.6034631741896
 30
0.0
 10
106.1277274036988
 20
170.6554331145395
 30
0.0
 10
106.1806548674705
 20
170.7248205952415
 30
0.0
 10
106.2663637066765
 20
170.7412655841151
 30
0.0
 10
106.3063095831627
 20
170.7048999071708
 30
0.0
 10
106.32628273
 20
170.6867168788
 30
0.0
 11
106.1498311612
 21
170.5774779712
 31
0.0
 11
106.1402327172
 21
170.6540056875
 31
0.0
 11
106.1861184067
 21
170.7159969111
 31
0.0
 11
106.2620648167
 21
170.7294334573
 31
0.0
 11
106.32628273
 21
170.6867168788
 31
0.0
  0
SPLINE
  5
16F1
330
1B
100
AcDbEntity
  8
0
  6
Continuous
100
AcDbSpline
210
0.0
220
0.0
230
1.0
 70
     8
 71
     3
 72
     9
 73
     5
 74
     3
 42
0.0000000001
 43
0.0000000001
 44
0.0000000001
 40
0.0
 40
0.0
 40
0.0
 40
0.0
 40
2.085442867390862
 40
4.170885674814036
 40
4.170885674814036
 40
4.170885674814036
 40
4.170885674814036
 10
107.2237137556
 20
170.4836922424
 30
0.0
 10
107.6918496414392
 20
169.9508309941713
 30
0.0
 10
108.6281213996561
 20
168.8851085130367
 30
0.0
 10
108.8836866085768
 20
167.4897391593248
 30
0.0
 10
109.0114692112
 20
166.7920544925
 30
0.0
 11
107.2237137556
 21
170.4836922424
 31
0.0
 11
108.4579447709
 21
168.8026967772
 31
0.0
 11
109.0114692112
 21
166.7920544925
 31
0.0
  0
SPLINE
  5
16F2
330
1B
100
AcDbEntity
  8
0
  6
Continuous
100
AcDbSpline
210
0.0
220
0.0
230
1.0
 70
     8
 71
     3
 72
    19
 73
    15
 74
    13
 42
0.0000000001
 43
0.0000000001
 44
0.0000000001
 40
0.0
 40
0.0
 40
0.0
 40
0.0
 40
0.0362998540446676
 40
0.0726546251805537
 40
0.1457122980770357
 40
0.2188444051322767
 40
0.2917078509240103
 40
0.4383790381108151
 40
0.5867897785672673
 40
0.7350488996846735
 40
0.8825360658019251
 40
1.027722012927037
 40
1.172880955080685
 40
1.176505972168247
 40
1.176505972168247
 40
1.176505972168247
 40
1.176505972168247
 10
109.0114692112
 20
166.7920544925
 30
0.0
 10
109.0121231279482
 20
166.7799662782151
 30
0.0
 10
109.013431950738
 20
166.7557715617048
 30
0.0
 10
109.0109033418601
 20
166.7071579915811
 30
0.0
 10
108.9972518494595
 20
166.647355904468
 30
0.0
 10
108.9675309495826
 20
166.5802108898913
 30
0.0
 10
108.9113591228129
 20
166.4996682926182
 30
0.0
 10
108.8100289105731
 20
166.4243294271158
 30
0.0
 10
108.6629301714077
 20
166.386426741121
 30
0.0
 10
108.5130146201674
 20
166.4131909951091
 30
0.0
 10
108.3855017653646
 20
166.4941281414145
 30
0.0
 10
108.3026409540501
 20
166.6191198207278
 30
0.0
 10
108.2836863471443
 20
166.7183349827733
 30
0.0
 10
108.284580492084
 20
166.7679179062542
 30
0.0
 10
108.2846022773
 20
166.7691259595
 30
0.0
 11
109.0114692112
 21
166.7920544925
 31
0.0
 11
109.0127895247
 21
166.7557786579
 31
0.0
 11
109.010846514
 21
166.7194758468
 31
0.0
 11
108.995034145
 21
166.6481498869
 31
0.0
 11
108.9654337945
 21
166.5812759433
 31
0.0
 11
108.9235066868
 21
166.5216840028
 31
0.0
 11
108.8063961443
 21
166.4333802204
 31
0.0
 11
108.6624542745
 21
166.3972348749
 31
0.0
 11
108.516346768
 21
166.4224015898
 31
0.0
 11
108.3922639165
 21
166.5021255519
 31
0.0
 11
108.311694434
 21
166.6229043486
 31
0.0
 11
108.2845431472
 21
166.7655014247
 31
0.0
 11
108.2846022773
 21
166.7691259595
 31
0.0
  0
SPLINE
  5
16F3
330
1B
100
AcDbEntity
  8
0
  6
Continuous
100
AcDbSpline
210
0.0
220
0.0
230
1.0
 70
     8
 71
     3
 72
     9
 73
     5
 74
     3
 42
0.0000000001
 43
0.0000000001
 44
0.0000000001
 40
0.0
 40
0.0
 40
0.0
 40
0.0
 40
1.905353091439623
 40
3.814273733614175
 40
3.814273733614175
 40
3.814273733614175
 40
3.814273733614175
 10
108.2846022773
 20
166.7691259595
 30
0.0
 10
108.2341590235413
 20
167.4141742687305
 30
0.0
 10
108.1331780669333
 20
168.7054786646792
 30
0.0
 10
107.4056921053648
 20
169.7771902767354
 30
0.0
 10
107.04160891
 20
170.3135472772
 30
0.0
 11
108.2846022773
 21
166.7691259595
 31
0.0
 11
107.9769391178
 21
168.6494753375
 31
0.0
 11
107.04160891
 21
170.3135472772
 31
0.0
  0
SPLINE
  5
16F4
330
1B
100
AcDbEntity
  8
0
  6
Continuous
100
AcDbSpline
210
0.0
220
0.0
230
1.0
 70
     8
 71
     3
 72
    11
 73
     7
 74
     5
 42
0.0000000001
 43
0.0000000001
 44
0.0000000001
 40
0.0
 40
0.0
 40
0.0
 40
0.0
 40
0.0918321803793159
 40
0.1836629153103952
 40
0.2754935154247921
 40
0.3673255047155072
 40
0.3673255047155072
 40
0.3673255047155072
 40
0.3673255047155072
 10
107.04160891
 20
170.3135472772
 30
0.0
 10
107.0273191049564
 20
170.3423251654061
 30
0.0
 10
106.9987397197923
 20
170.3998804888513
 30
0.0
 10
107.0446428418432
 20
170.492825633713
 30
0.0
 10
107.1404874589071
 20
170.5323189403441
 30
0.0
 10
107.1959715168134
 20
170.4999012234478
 30
0.0
 10
107.2237137556
 20
170.4836922424
 30
0.0
 11
107.04160891
 21
170.3135472772
 31
0.0
 11
107.0135351182
 21
170.400983034
 31
0.0
 11
107.0529664244
 21
170.4839170799
 31
0.0
 11
107.1383838866
 21
170.517632303
 31
0.0
 11
107.2237137556
 21
170.4836922424
 31
0.0
  0
SPLINE
  5
16F5
330
1B
100
AcDbEntity
  8
0
  6
Continuous
100
AcDbSpline
210
0.0
220
0.0
230
1.0
 70
     8
 71
     3
 72
    17
 73
    13
 74
    11
 42
0.0000000001
 43
0.0000000001
 44
0.0000000001
 40
0.0
 40
0.0
 40
0.0
 40
0.0
 40
0.0961845173625124
 40
0.2121938178093388
 40
0.2687126905139563
 40
0.3249989692083218
 40
0.3819453752472982
 40
0.4392926485027966
 40
0.5526312799700586
 40
0.6656439661676208
 40
0.7804509939295086
 40
0.8948064625089259
 40
0.8948064625089259
 40
0.8948064625089259
 40
0.8948064625089259
 10
106.0962068561
 20
171.5566979281
 30
0.0
 10
106.1077898718993
 20
171.526727395522
 30
0.0
 10
106.1333433020313
 20
171.4606090440046
 30
0.0
 10
106.1407274494221
 20
171.3692183963657
 30
0.0
 10
106.1259134579353
 20
171.2938712021013
 30
0.0
 10
106.1016545855193
 20
171.2421341965686
 30
0.0
 10
106.0668623749412
 20
171.1966931686847
 30
0.0
 10
106.0104219989491
 20
171.1455636521866
 30
0.0
 10
105.9251229624504
 20
171.100104125618
 30
0.0
 10
105.8105825012585
 20
171.0842933221055
 30
0.0
 10
105.6960691370953
 20
171.1023420567846
 30
0.0
 10
105.6269354604166
 20
171.1355172927295
 30
0.0
 10
105.5924367352
 20
171.1520722252
 30
0.0
 11
106.0962068561
 21
171.5566979281
 31
0.0
 11
106.1269035739
 21
171.4655432634
 31
0.0
 11
106.135168393
 21
171.3498287416
 31
0.0
 11
106.1236849254
 21
171.2944887656
 31
0.0
 11
106.1000406292
 21
171.2434094897
 31
0.0
 11
106.0656962461
 21
171.1979853055
 31
0.0
 11
106.0232889608
 21
171.1593804884
 31
0.0
 11
105.9230345896
 21
171.1065155053
 31
0.0
 11
105.8112453059
 21
171.0899316791
 31
0.0
 11
105.6978151027
 21
171.107658569
 31
0.0
 11
105.5924367352
 21
171.1520722252
 31
0.0
  0
SPLINE
  5
16F6
330
1B
100
AcDbEntity
  8
0
  6
Continuous
100
AcDbSpline
210
0.0
220
0.0
230
1.0
 70
     8
 71
     3
 72
     9
 73
     5
 74
     3
 42
0.0000000001
 43
0.0000000001
 44
0.0000000001
 40
0.0
 40
0.0
 40
0.0
 40
0.0
 40
0.1584396965109552
 40
0.6336855409396098
 40
0.6336855409396098
 40
0.6336855409396098
 40
0.6336855409396098
 10
105.5924367352
 20
171.1520722252
 30
0.0
 10
105.5479948967121
 20
171.1810129288434
 30
0.0
 10
105.3702480877828
 20
171.296762364416
 30
0.0
 10
105.2441010963624
 20
171.4701892541355
 30
0.0
 10
105.149494498
 20
171.60025441
 30
0.0
 11
105.5924367352
 21
171.1520722252
 31
0.0
 11
105.4623369539
 21
171.2425000104
 31
0.0
 11
105.149494498
 21
171.60025441
 31
0.0
  0
SPLINE
  5
16F7
330
1B
100
AcDbEntity
  8
0
  6
Continuous
100
AcDbSpline
210
0.0
220
0.0
230
1.0
 70
     8
 71
     3
 72
    14
 73
    10
 74
     8
 42
0.0000000001
 43
0.0000000001
 44
0.0000000001
 40
0.0
 40
0.0
 40
0.0
 40
0.0
 40
0.3862295942328414
 40
0.5802893907200772
 40
0.7767248960277999
 40
0.9700017247555279
 40
1.165554250172373
 40
1.369410179484396
 40
1.531145223383537
 40
1.531145223383537
 40
1.531145223383537
 40
1.531145223383537
 10
105.149494498
 20
171.60025441
 30
0.0
 10
105.052738477446
 20
171.688138461592
 30
0.0
 10
104.9073677107981
 20
171.8201795674882
 30
0.0
 10
104.6575328102145
 20
171.9022123731978
 30
0.0
 10
104.4616830987443
 20
171.9174980553782
 30
0.0
 10
104.2669147363257
 20
171.8658880390083
 30
0.0
 10
104.1163399029273
 20
171.7298889188918
 30
0.0
 10
104.018458010016
 20
171.5675169351424
 30
0.0
 10
103.9847150660523
 20
171.450065618706
 30
0.0
 10
103.9697874094
 20
171.3981059282
 30
0.0
 11
105.149494498
 21
171.60025441
 31
0.0
 11
104.8409393363
 21
171.8325624203
 31
0.0
 11
104.6569624034
 21
171.8943013284
 31
0.0
 11
104.4608910581
 21
171.9062568835
 31
0.0
 11
104.2752360064
 21
171.8525155186
 31
0.0
 11
104.1260727577
 21
171.7260595364
 31
0.0
 11
104.0204472476
 21
171.5517021691
 31
0.0
 11
103.9697874094
 21
171.3981059282
 31
0.0
  0
SPLINE
  5
16F8
330
1B
100
AcDbEntity
  8
0
  6
Continuous
100
AcDbSpline
210
0.0
220
0.0
230
1.0
 70
     8
 71
     3
 72
    10
 73
     6
 74
     4
 42
0.0000000001
 43
0.0000000001
 44
0.0000000001
 40
0.0
 40
0.0
 40
0.0
 40
0.0
 40
0.0391027639109761
 40
0.3546700098212315
 40
0.6715461814980142
 40
0.6715461814980142
 40
0.6715461814980142
 40
0.6715461814980142
 10
103.9699723193
 20
171.3980641746
 30
0.0
 10
103.9672632610692
 20
171.3853142647911
 30
0.0
 10
103.9426915527492
 20
171.2696699935212
 30
0.0
 10
103.9347811336762
 20
171.0427659449241
 30
0.0
 10
103.9701467228953
 20
170.8348052978472
 30
0.0
 10
103.9878661144
 20
170.7306097732
 30
0.0
 11
103.9699723193
 21
171.3980641746
 31
0.0
 11
103.9620930388
 21
171.3597634816
 31
0.0
 11
103.945456142
 21
171.0446350945
 31
0.0
 11
103.9878661144
 21
170.7306097732
 31
0.0
  0
SPLINE
  5
16F9
330
1B
100
AcDbEntity
  8
0
  6
Continuous
100
AcDbSpline
210
0.0
220
0.0
230
1.0
 70
    24
 71
     3
 72
     8
 73
     4
 74
     2
 42
0.0000000001
 43
0.0000000001
 44
0.0000000001
 40
0.0
 40
0.0
 40
0.0
 40
0.0
 40
0.9464170984310096
 40
0.9464170984310096
 40
0.9464170984310096
 40
0.9464170984310096
 10
103.9878661144
 20
170.7306097732
 30
0.0
 10
104.033238994
 20
170.4184173396
 30
0.0
 10
104.0786118736
 20
170.106224906
 30
0.0
 10
104.1239847532
 20
169.7940324724
 30
0.0
 11
103.9878661144
 21
170.7306097732
 31
0.0
 11
104.1239847532
 21
169.7940324724
 31
0.0
  0
SPLINE
  5
16FA
330
1B
100
AcDbEntity
  8
0
  6
Continuous
100
AcDbSpline
210
0.0
220
0.0
230
1.0
 70
     8
 71
     3
 72
     9
 73
     5
 74
     3
 42
0.0000000001
 43
0.0000000001
 44
0.0000000001
 40
0.0
 40
0.0
 40
0.0
 40
0.0
 40
0.3141530455491
 40
0.6283157761107965
 40
0.6283157761107965
 40
0.6283157761107965
 40
0.6283157761107965
 10
104.1239847532
 20
169.7940324724
 30
0.0
 10
104.1492474214098
 20
169.6923034891779
 30
0.0
 10
104.1997735366511
 20
169.4888423865345
 30
0.0
 10
104.2260112230057
 20
169.2808498492607
 30
0.0
 10
104.2391302684
 20
169.1768519776
 30
0.0
 11
104.1239847532
 21
169.7940324724
 31
0.0
 11
104.1937008378
 21
169.487712699
 31
0.0
 11
104.2391302684
 21
169.1768519776
 31
0.0
  0
SPLINE
  5
16FB
330
1B
100
AcDbEntity
  8
0
  6
Continuous
100
AcDbSpline
210
0.0
220
0.0
230
1.0
 70
     8
 71
     3
 72
    11
 73
     7
 74
     5
 42
0.0000000001
 43
0.0000000001
 44
0.0000000001
 40
0.0
 40
0.0
 40
0.0
 40
0.0
 40
0.15730662614035
 40
0.3145696509329403
 40
0.4746614820089468
 40
0.6346066176030447
 40
0.6346066176030447
 40
0.6346066176030447
 40
0.6346066176030447
 10
104.2391302684
 20
169.1768519776
 30
0.0
 10
104.2321271059143
 20
169.124329176068
 30
0.0
 10
104.2181227220393
 20
169.0192981309727
 30
0.0
 10
104.1329189751855
 20
168.8817773091846
 30
0.0
 10
104.0255706876479
 20
168.7642212175104
 30
0.0
 10
103.9436134624265
 20
168.6957013577443
 30
0.0
 10
103.9026536332
 20
168.6614571316
 30
0.0
 11
104.2391302684
 21
169.1768519776
 31
0.0
 11
104.2075022877
 21
169.022757703
 31
0.0
 11
104.1298884635
 21
168.8859814139
 31
0.0
 11
104.0230407694
 21
168.766763275
 31
0.0
 11
103.9026536332
 21
168.6614571316
 31
0.0
  0
SPLINE
  5
16FC
330
1B
100
AcDbEntity
  8
0
  6
Continuous
100
AcDbSpline
210
0.0
220
0.0
230
1.0
 70
     8
 71
     3
 72
    14
 73
    10
 74
     8
 42
0.0000000001
 43
0.0000000001
 44
0.0000000001
 40
0.0
 40
0.0
 40
0.0
 40
0.0
 40
0.3939967348683392
 40
0.5909719312855657
 40
0.7880350283788218
 40
0.9854810024738538
 40
1.183668898038169
 40
1.381067219961604
 40
1.577192060907791
 40
1.577192060907791
 40
1.577192060907791
 40
1.577192060907791
 10
103.9026536332
 20
168.6614571316
 30
0.0
 10
103.8004836548617
 20
168.5788401220817
 30
0.0
 10
103.6472346959885
 20
168.4549194665251
 30
0.0
 10
103.4308073056953
 20
168.3057614469778
 30
0.0
 10
103.2615743092593
 20
168.2042827216929
 30
0.0
 10
103.0839611844688
 20
168.1170933775683
 30
0.0
 10
102.9005471673105
 20
168.0436082214839
 30
0.0
 10
102.7174460135616
 20
167.9689013745516
 30
0.0
 10
102.6057218160987
 20
167.8997181149625
 30
0.0
 10
102.5500404928
 20
167.8652384272
 30
0.0
 11
103.9026536332
 21
168.6614571316
 31
0.0
 11
103.5921182004
 21
168.4189676018
 31
0.0
 11
103.4297016559
 21
168.307522126
 31
0.0
 11
103.2603496989
 21
168.206756165
 31
0.0
 11
103.0832363348
 21
168.1194877919
 31
0.0
 11
102.9002869012
 21
168.0432779061
 31
0.0
 11
102.7195804782
 21
167.9638343023
 31
0.0
 11
102.5500404928
 21
167.8652384272
 31
0.0
  0
SPLINE
  5
16FD
330
1B
100
AcDbEntity
  8
0
  6
Continuous
100
AcDbSpline
210
0.0
220
0.0
230
1.0
 70
     8
 71
     3
 72
     9
 73
     5
 74
     3
 42
0.0000000001
 43
0.0000000001
 44
0.0000000001
 40
0.0
 40
0.0
 40
0.0
 40
0.0
 40
0.3043556224622889
 40
0.6090719479544882
 40
0.6090719479544882
 40
0.6090719479544882
 40
0.6090719479544882
 10
102.5500404928
 20
167.8652384272
 30
0.0
 10
102.4715039277328
 20
167.7969603936291
 30
0.0
 10
102.3143377210298
 20
167.6603234076811
 30
0.0
 10
102.2632272965049
 20
167.4584282169781
 30
0.0
 10
102.23765695
 20
167.3574208387
 30
0.0
 11
102.5500404928
 21
167.8652384272
 31
0.0
 11
102.3409133484
 21
167.6441090931
 31
0.0
 11
102.23765695
 21
167.3574208387
 31
0.0
  0
SPLINE
  5
16FE
330
1B
100
AcDbEntity
  8
0
  6
Continuous
100
AcDbSpline
210
0.0
220
0.0
230
1.0
 70
     8
 71
     3
 72
    22
 73
    18
 74
    16
 42
0.0000000001
 43
0.0000000001
 44
0.0000000001
 40
0.0
 40
0.0
 40
0.0
 40
0.0
 40
0.1958143546368139
 40
0.2945084043070678
 40
0.3925041763792356
 40
0.4911159478825988
 40
0.5915152394074549
 40
0.640360475203671
 40
0.6879875253387686
 40
0.7848760538219302
 40
0.8879871039205549
 40
0.9926889159195543
 40
1.093484303515563
 40
1.191235680705195
 40
1.288117015898149
 40
1.386209624574994
 40
1.583389588910048
 40
1.583389588910048
 40
1.583389588910048
 40
1.583389588910048
 10
102.23765695
 20
167.3574208387
 30
0.0
 10
102.2306650475529
 20
167.2908611426739
 30
0.0
 10
102.2201490971948
 20
167.1907541310907
 30
0.0
 10
102.2746878332281
 20
167.0690123511042
 30
0.0
 10
102.3268490430622
 20
166.9858646591501
 30
0.0
 10
102.3814333066683
 20
166.9031792635756
 30
0.0
 10
102.4158845446193
 20
166.8271880342032
 30
0.0
 10
102.4290786333817
 20
166.762507252158
 30
0.0
 10
102.427632607777
 20
166.6974773226785
 30
0.0
 10
102.3983127836417
 20
166.6182184757218
 30
0.0
 10
102.3391530406308
 20
166.5350728983843
 30
0.0
 10
102.2679988581478
 20
166.4604828506726
 30
0.0
 10
102.1912991642707
 20
166.3943418286239
 30
0.0
 10
102.1089455878746
 20
166.3398329209979
 30
0.0
 10
102.0204545821313
 20
166.2977134008023
 30
0.0
 10
101.8949911843286
 20
166.2604141065779
 30
0.0
 10
101.8024919497069
 20
166.226774530378
 30
0.0
 10
101.7407219194
 20
166.20431037
 30
0.0
 11
102.23765695
 21
167.3574208387
 31
0.0
 11
102.2394206225
 21
167.1616144268
 31
0.0
 11
102.2766511714
 21
167.0702120107
 31
0.0
 11
102.3270891835
 21
166.9861930945
 31
0.0
 11
102.3789164957
 21
166.9022990471
 31
0.0
 11
102.4181889757
 21
166.8098994256
 31
0.0
 11
102.4273178852
 21
166.761914844
 31
0.0
 11
102.4262599105
 21
166.7142995461
 31
0.0
 11
102.3954939252
 21
166.6224254959
 31
0.0
 11
102.3375992174
 21
166.5371020439
 31
0.0
 11
102.2659052462
 21
166.4607971035
 31
0.0
 11
102.1892073517
 21
166.3953972324
 31
0.0
 11
102.1075473609
 21
166.3416666299
 31
0.0
 11
102.0199718743
 21
166.300235636
 31
0.0
 11
101.9269098593
 21
166.2692256176
 31
0.0
 11
101.7407219194
 21
166.20431037
 31
0.0
  0
SPLINE
  5
16FF
330
1B
100
AcDbEntity
  8
0
  6
Continuous
100
AcDbSpline
210
0.0
220
0.0
230
1.0
 70
     8
 71
     3
 72
     9
 73
     5
 74
     3
 42
0.0000000001
 43
0.0000000001
 44
0.0000000001
 40
0.0
 40
0.0
 40
0.0
 40
0.0
 40
0.3002216531104951
 40
0.5849203067466602
 40
0.5849203067466602
 40
0.5849203067466602
 40
0.5849203067466602
 10
101.7407219194
 20
166.20431037
 30
0.0
 10
101.6625613915916
 20
166.140015350665
 30
0.0
 10
101.5102816361924
 20
166.0147496943006
 30
0.0
 10
101.4183313597104
 20
165.8404731642743
 30
0.0
 10
101.3735763399
 20
165.7556474318
 30
0.0
 11
101.7407219194
 21
166.20431037
 31
0.0
 11
101.5221338599
 21
165.9985136226
 31
0.0
 11
101.3735763399
 21
165.7556474318
 31
0.0
  0
SPLINE
  5
1700
330
1B
100
AcDbEntity
  8
0
  6
Continuous
100
AcDbSpline
210
0.0
220
0.0
230
1.0
 70
     8
 71
     3
 72
    22
 73
    18
 74
    16
 42
0.0000000001
 43
0.0000000001
 44
0.0000000001
 40
0.0
 40
0.0
 40
0.0
 40
0.0
 40
0.0153979478048439
 40
0.1124880403243799
 40
0.2103527180568354
 40
0.3027488811413945
 40
0.3948339057657209
 40
0.4892264315839439
 40
0.5821790426904825
 40
0.6756748775225978
 40
0.7693601508628554
 40
0.8623930349488556
 40
0.9554410217323711
 40
1.141713490822546
 40
1.234768554710213
 40
1.327923180096051
 40
1.514356783117214
 40
1.514356783117214
 40
1.514356783117214
 40
1.514356783117214
 10
101.3734492117
 20
165.7557261612
 30
0.0
 10
101.3707632640388
 20
165.7513528469469
 30
0.0
 10
101.3511413642472
 20
165.7194040732343
 30
0.0
 10
101.3174727026492
 20
165.6576740464176
 30
0.0
 10
101.2844737693591
 20
165.567346387877
 30
0.0
 10
101.2774820496575
 20
165.4705969788328
 30
0.0
 10
101.3182552988147
 20
165.3832569465351
 30
0.0
 10
101.3863284230848
 20
165.3174527568208
 30
0.0
 10
101.4724618822707
 20
165.2763839424116
 30
0.0
 10
101.5665114092947
 20
165.2657151894358
 30
0.0
 10
101.6597933541848
 20
165.2753771936894
 30
0.0
 10
101.7507585046008
 20
165.2960472622064
 30
0.0
 10
101.8729452964779
 20
165.318336282385
 30
0.0
 10
101.9967410783924
 20
165.3288822005923
 30
0.0
 10
102.1199453031168
 20
165.3445103210013
 30
0.0
 10
102.2419625188206
 20
165.3684162855348
 30
0.0
 10
102.3315062909048
 20
165.39445477497
 30
0.0
 10
102.3912154144
 20
165.4118176283
 30
0.0
 11
101.3734492117
 21
165.7557261612
 31
0.0
 11
101.3654216725
 21
165.7425863206
 31
0.0
 11
101.3197831511
 21
165.6568914466
 31
0.0
 11
101.2883800618
 21
165.5642019589
 31
0.0
 11
101.2853861438
 21
165.4718543146
 31
0.0
 11
101.3223473035
 21
165.3875126023
 31
0.0
 11
101.3896794309
 21
165.3213587396
 31
0.0
 11
101.4736406683
 21
165.2814751775
 31
0.0
 11
101.5663153918
 21
165.2691112479
 31
0.0
 11
101.6596463133
 21
165.277251858
 31
0.0
 11
101.7508931474
 21
165.2953938752
 31
0.0
 11
101.842487248
 21
165.3117782757
 31
0.0
 11
102.0275219907
 21
165.3332160166
 31
0.0
 11
102.1197575921
 21
165.3455383033
 31
0.0
 11
102.2111970837
 21
165.3633316618
 31
0.0
 11
102.3912154144
 21
165.4118176283
 31
0.0
  0
SPLINE
  5
1701
330
1B
100
AcDbEntity
  8
0
  6
Continuous
100
AcDbSpline
210
0.0
220
0.0
230
1.0
 70
    24
 71
     3
 72
     8
 73
     4
 74
     2
 42
0.0000000001
 43
0.0000000001
 44
0.0000000001
 40
0.0
 40
0.0
 40
0.0
 40
0.0
 40
0.3153855952953409
 40
0.3153855952953409
 40
0.3153855952953409
 40
0.3153855952953409
 10
102.3912154144
 20
165.4118176283
 30
0.0
 10
102.4943077168
 20
165.4324085335
 30
0.0
 10
102.5974000192
 20
165.4529994387
 30
0.0
 10
102.7004923216
 20
165.4735903439
 30
0.0
 11
102.3912154144
 21
165.4118176283
 31
0.0
 11
102.7004923216
 21
165.4735903439
 31
0.0
  0
SPLINE
  5
1702
330
1B
100
AcDbEntity
  8
0
  6
Continuous
100
AcDbSpline
210
0.0
220
0.0
230
1.0
 70
     8
 71
     3
 72
    15
 73
    11
 74
     9
 42
0.0000000001
 43
0.0000000001
 44
0.0000000001
 40
0.0
 40
0.0
 40
0.0
 40
0.0
 40
0.3493900853218033
 40
0.5242303285161565
 40
0.6984732355367307
 40
0.8728778702323257
 40
1.049954838754111
 40
1.226832008655434
 40
1.400672064162809
 40
1.420965327030296
 40
1.420965327030296
 40
1.420965327030296
 40
1.420965327030296
 10
102.7004923216
 20
165.4735903439
 30
0.0
 10
102.8154098704967
 20
165.4932927698503
 30
0.0
 10
102.9878339516062
 20
165.5228545967663
 30
0.0
 10
103.2203881689036
 20
165.537007046252
 30
0.0
 10
103.3945623798047
 20
165.5471128287407
 30
0.0
 10
103.5695117657619
 20
165.5571594576372
 30
0.0
 10
103.7455508871382
 20
165.564334766681
 30
0.0
 10
103.9216298253323
 20
165.557018707406
 30
0.0
 10
104.0435649524562
 20
165.5273315780499
 30
0.0
 10
104.1024578765134
 20
165.500499900085
 30
0.0
 10
104.1086141077
 20
165.4976951147
 30
0.0
 11
102.7004923216
 21
165.4735903439
 31
0.0
 11
103.0461851453
 21
165.5242845582
 31
0.0
 11
103.2205671077
 21
165.5369353222
 31
0.0
 11
103.3945137006
 21
165.5470927562
 31
0.0
 11
103.568657378
 21
165.5566298535
 31
0.0
 11
103.7456557125
 21
165.56190644
 31
0.0
 11
103.9222009437
 21
165.5510752548
 31
0.0
 11
104.0900917588
 21
165.5059860199
 31
0.0
 11
104.1086141077
 21
165.4976951147
 31
0.0
  0
SPLINE
  5
1703
330
1B
100
AcDbEntity
  8
0
  6
Continuous
100
AcDbSpline
210
0.0
220
0.0
230
1.0
 70
     8
 71
     3
 72
    14
 73
    10
 74
     8
 42
0.0000000001
 43
0.0000000001
 44
0.0000000001
 40
0.0
 40
0.0
 40
0.0
 40
0.0
 40
0.2942161728938272
 40
0.6082739102485273
 40
0.9223458888270533
 40
1.236386575529977
 40
1.549594859414874
 40
1.865243984263637
 40
2.493362821654047
 40
2.493362821654047
 40
2.493362821654047
 40
2.493362821654047
 10
104.1086141077
 20
165.4976951147
 30
0.0
 10
104.192367498992
 20
165.4440670987441
 30
0.0
 10
104.3655225037514
 20
165.3331944616502
 30
0.0
 10
104.517641912358
 20
165.053775659404
 30
0.0
 10
104.5966209062564
 20
164.7494540367366
 30
0.0
 10
104.6167209356157
 20
164.4333175322526
 30
0.0
 10
104.5644859569579
 20
164.1217882499436
 30
0.0
 10
104.4558981003649
 20
163.7171601044148
 30
0.0
 10
104.4005833839541
 20
163.4072022440441
 30
0.0
 10
104.363769022
 20
163.2009117376
 30
0.0
 11
104.1086141077
 21
165.4976951147
 31
0.0
 11
104.3428342088
 21
165.3196386612
 31
0.0
 11
104.5049048135
 21
165.0506305173
 31
0.0
 11
104.5868124288
 21
164.7474270373
 31
0.0
 11
104.6046711962
 21
164.4338945552
 31
0.0
 11
104.5597868775
 21
164.1239190287
 31
0.0
 11
104.4858242913
 21
163.8170576498
 31
0.0
 11
104.363769022
 21
163.2009117376
 31
0.0
  0
SPLINE
  5
1704
330
1B
100
AcDbEntity
  8
0
  6
Continuous
100
AcDbSpline
210
0.0
220
0.0
230
1.0
 70
     8
 71
     3
 72
    22
 73
    18
 74
    16
 42
0.0000000001
 43
0.0000000001
 44
0.0000000001
 40
0.0
 40
0.0
 40
0.0
 40
0.0
 40
0.2350061423024412
 40
0.3531973277205521
 40
0.4719920464436261
 40
0.5897841096362303
 40
0.7071819033477111
 40
0.8256864834958808
 40
0.9443640326442266
 40
1.062111594927982
 40
1.179878746177723
 40
1.297960543138956
 40
1.415973344620255
 40
1.533606984822069
 40
1.65108102461074
 40
1.886478540158487
 40
1.890541624344585
 40
1.890541624344585
 40
1.890541624344585
 40
1.890541624344585
 10
103.9628263648
 20
161.3522102248
 30
0.0
 10
103.9461547346859
 20
161.275588138578
 30
0.0
 10
103.9210984738266
 20
161.1604306544678
 30
0.0
 10
103.9052398381684
 20
161.0036718936619
 30
0.0
 10
103.9047397013398
 20
160.8851807192543
 30
0.0
 10
103.9214436156531
 20
160.767683264199
 30
0.0
 10
103.9626502393473
 20
160.6562438990471
 30
0.0
 10
104.024745007596
 20
160.5549933958053
 30
0.0
 10
104.1012689072171
 20
160.4642850015874
 30
0.0
 10
104.1883738415907
 20
160.3842158446548
 30
0.0
 10
104.2824598514987
 20
160.3130399640507
 30
0.0
 10
104.3805573512304
 20
160.2474729806736
 30
0.0
 10
104.4814746765678
 20
160.1863868372786
 30
0.0
 10
104.5863681165322
 20
160.13265720658
 30
0.0
 10
104.7324291389824
 20
160.0748280317218
 30
0.0
 10
104.8488841944673
 20
160.0475630762185
 30
0.0
 10
104.9274425219178
 20
160.0334361403356
 30
0.0
 10
104.9287754723
 20
160.0331964394
 30
0.0
 11
103.9628263648
 21
161.3522102248
 31
0.0
 11
103.9186504576
 21
161.121393466
 31
0.0
 11
103.9071575386
 21
161.0037623939
 31
0.0
 11
103.9076371125
 21
160.8849686432
 31
0.0
 11
103.9255514544
 21
160.768546796
 31
0.0
 11
103.9659459992
 21
160.6583173865
 31
0.0
 11
104.0271115547
 21
160.5568180745
 31
0.0
 11
104.1032757981
 21
160.4658050606
 31
0.0
 11
104.1895556678
 21
160.3856784576
 31
0.0
 11
104.2830310338
 21
160.3140442628
 31
0.0
 11
104.3810534532
 21
160.2482041833
 31
0.0
 11
104.4822773475
 21
160.1875350434
 31
0.0
 11
104.5872034572
 21
160.1343543626
 31
0.0
 11
104.6964407081
 21
160.0911412507
 31
0.0
 11
104.9247767452
 21
160.0339167412
 31
0.0
 11
104.9287754723
 21
160.0331964394
 31
0.0
  0
SPLINE
  5
1705
330
1B
100
AcDbEntity
  8
0
  6
Continuous
100
AcDbSpline
210
0.0
220
0.0
230
1.0
 70
     8
 71
     3
 72
    10
 73
     6
 74
     4
 42
0.0000000001
 43
0.0000000001
 44
0.0000000001
 40
0.0
 40
0.0
 40
0.0
 40
0.0
 40
0.0750643130933825
 40
0.1546022023154268
 40
0.3134108792832376
 40
0.3134108792832376
 40
0.3134108792832376
 40
0.3134108792832376
 10
104.9287754723
 20
160.0331964394
 30
0.0
 10
104.9533064276594
 20
160.0282256737106
 30
0.0
 10
105.0038302993527
 20
160.0179879017106
 30
0.0
 10
105.103184512782
 20
159.9838730218442
 30
0.0
 10
105.1705612092011
 20
159.9410903926446
 30
0.0
 10
105.2154538384
 20
159.9125846212
 30
0.0
 11
104.9287754723
 21
160.0331964394
 31
0.0
 11
105.0020115413
 21
160.0167304351
 31
0.0
 11
105.077143838
 21
159.9906265309
 31
0.0
 11
105.2154538384
 21
159.9125846212
 31
0.0
  0
SPLINE
  5
1706
330
1B
100
AcDbEntity
  8
0
  6
Continuous
100
AcDbSpline
210
0.0
220
0.0
230
1.0
 70
     8
 71
     3
 72
    13
 73
     9
 74
     7
 42
0.0000000001
 43
0.0000000001
 44
0.0000000001
 40
0.0
 40
0.0
 40
0.0
 40
0.0
 40
0.0645798894138593
 40
0.1303955716688924
 40
0.1656144477344332
 40
0.2018502317069648
 40
0.2358275076495008
 40
0.2675195776355831
 40
0.2675195776355831
 40
0.2675195776355831
 40
0.2675195776355831
 10
105.2154538384
 20
159.9125846212
 30
0.0
 10
105.2326490436696
 20
159.8995933108531
 30
0.0
 10
105.2673684995474
 20
159.8733620900383
 30
0.0
 10
105.30628088032
 20
159.8339716190812
 30
0.0
 10
105.3355642221966
 20
159.798665351452
 30
0.0
 10
105.3555394169021
 20
159.7700440316921
 30
0.0
 10
105.3709872876561
 20
159.7382950235296
 30
0.0
 10
105.3680184320759
 20
159.7161526274587
 30
0.0
 10
105.3665856604
 20
159.7054666924
 30
0.0
 11
105.2154538384
 21
159.9125846212
 31
0.0
 11
105.2660382009
 21
159.8724375866
 31
0.0
 11
105.3125424125
 21
159.8258643933
 31
0.0
 11
105.3349330122
 21
159.798679282
 31
0.0
 11
105.3552591229
 21
159.768681261
 31
0.0
 11
105.3678739975
 21
159.737132565
 31
0.0
 11
105.3665856604
 21
159.7054666924
 31
0.0
  0
SPLINE
  5
1707
330
1B
100
AcDbEntity
  8
0
  6
Continuous
100
AcDbSpline
210
0.0
220
0.0
230
1.0
 70
     8
 71
     3
 72
    13
 73
     9
 74
     7
 42
0.0000000001
 43
0.0000000001
 44
0.0000000001
 40
0.0
 40
0.0
 40
0.0
 40
0.0
 40
0.0354141842759424
 40
0.0760078874915534
 40
0.1205630844737339
 40
0.1624239872699062
 40
0.2379679783872029
 40
0.3117628534566543
 40
0.3117628534566543
 40
0.3117628534566543
 40
0.3117628534566543
 10
105.3665856604
 20
159.7054666924
 30
0.0
 10
105.3608745116008
 20
159.6946378749058
 30
0.0
 10
105.3486169271258
 20
159.6713964658887
 30
0.0
 10
105.3075236288958
 20
159.6588379660565
 30
0.0
 10
105.266419884883
 20
159.6521511990204
 30
0.0
 10
105.2123120417266
 20
159.6480064409395
 30
0.0
 10
105.1485226110167
 20
159.649927038066
 30
0.0
 10
105.0991293072825
 20
159.6563298894673
 30
0.0
 10
105.0747219124
 20
159.6594938188
 30
0.0
 11
105.3665856604
 21
159.7054666924
 31
0.0
 11
105.346489104
 21
159.6763069107
 31
0.0
 11
105.3092071002
 21
159.6602476164
 31
0.0
 11
105.2653077706
 21
159.6526308954
 31
0.0
 11
105.223571712
 21
159.6494003234
 31
0.0
 11
105.148049141
 21
159.651199174
 31
0.0
 11
105.0747219124
 21
159.6594938188
 31
0.0
  0
SPLINE
  5
1708
330
1B
100
AcDbEntity
  8
0
  6
Continuous
100
AcDbSpline
210
0.0
220
0.0
230
1.0
 70
     8
 71
     3
 72
     9
 73
     5
 74
     3
 42
0.0000000001
 43
0.0000000001
 44
0.0000000001
 40
0.0
 40
0.0
 40
0.0
 40
0.0
 40
0.1577009783101095
 40
0.3154395507482299
 40
0.3154395507482299
 40
0.3154395507482299
 40
0.3154395507482299
 10
105.0747219124
 20
159.6594938188
 30
0.0
 10
105.0226717277317
 20
159.6669480529199
 30
0.0
 10
104.9185589502203
 20
159.6818582981646
 30
0.0
 10
104.8155804202718
 20
159.7032407661997
 30
0.0
 10
104.7640850188
 20
159.7139332744
 30
0.0
 11
105.0747219124
 21
159.6594938188
 31
0.0
 11
104.9188548527
 21
159.6834741912
 31
0.0
 11
104.7640850188
 21
159.7139332744
 31
0.0
  0
SPLINE
  5
1709
330
1B
100
AcDbEntity
  8
0
  6
Continuous
100
AcDbSpline
210
0.0
220
0.0
230
1.0
 70
     8
 71
     3
 72
     9
 73
     5
 74
     3
 42
0.0000000001
 43
0.0000000001
 44
0.0000000001
 40
0.0
 40
0.0
 40
0.0
 40
0.0
 40
0.3154642582795926
 40
0.6309250244120848
 40
0.6309250244120848
 40
0.6309250244120848
 40
0.6309250244120848
 10
104.7640850188
 20
159.7139332744
 30
0.0
 10
104.6611025025703
 20
159.7353564434184
 30
0.0
 10
104.4551386101134
 20
159.7782025443037
 30
0.0
 10
104.2467777525479
 20
159.8072312547256
 30
0.0
 10
104.1425979004
 20
159.8217455296
 30
0.0
 11
104.7640850188
 21
159.7139332744
 31
0.0
 11
104.4545382222
 21
159.7747483956
 31
0.0
 11
104.1425979004
 21
159.8217455296
 31
0.0
  0
SPLINE
  5
170A
330
1B
100
AcDbEntity
  8
0
  6
Continuous
100
AcDbSpline
210
0.0
220
0.0
230
1.0
 70
     8
 71
     3
 72
     9
 73
     5
 74
     3
 42
0.0000000001
 43
0.0000000001
 44
0.0000000001
 40
0.0
 40
0.0
 40
0.0
 40
0.0
 40
0.3140704821401785
 40
0.6281569662218494
 40
0.6281569662218494
 40
0.6281569662218494
 40
0.6281569662218494
 10
104.1425979004
 20
159.8217455296
 30
0.0
 10
104.0374426641998
 20
159.8285410902662
 30
0.0
 10
103.8271268341232
 20
159.8421325578335
 30
0.0
 10
103.6225134317778
 20
159.7916264481493
 30
0.0
 10
103.5202041244
 20
159.76637275
 30
0.0
 11
104.1425979004
 21
159.8217455296
 31
0.0
 11
103.8285577261
 21
159.8261086337
 31
0.0
 11
103.5202041244
 21
159.76637275
 31
0.0
  0
SPLINE
  5
170B
330
1B
100
AcDbEntity
  8
0
  6
Continuous
100
AcDbSpline
210
0.0
220
0.0
230
1.0
 70
     8
 71
     3
 72
    23
 73
    19
 74
    17
 42
0.0000000001
 43
0.0000000001
 44
0.0000000001
 40
0.0
 40
0.0
 40
0.0
 40
0.0
 40
0.1224076567015739
 40
0.2439019894839147
 40
0.3028878454442953
 40
0.3619925104109178
 40
0.4220927024084838
 40
0.4825325023723702
 40
0.6018047223720779
 40
0.720436645188706
 40
0.9579495825150866
 40
1.07631714518736
 40
1.195125128134539
 40
1.314045259628526
 40
1.43292643403709
 40
1.551474688946982
 40
1.670095734653398
 40
1.908002389604164
 40
1.908002389604164
 40
1.908002389604164
 40
1.908002389604164
 10
103.5202041244
 20
159.76637275
 30
0.0
 10
103.4799333196999
 20
159.759516819436
 30
0.0
 10
103.3996921840623
 20
159.7458561126682
 30
0.0
 10
103.2971593900095
 20
159.7529341523904
 30
0.0
 10
103.2213753349947
 20
159.7800093976193
 30
0.0
 10
103.1715470153171
 20
159.8134302148827
 30
0.0
 10
103.1300722333436
 20
159.8571917384766
 30
0.0
 10
103.0868071102644
 20
159.924899267681
 30
0.0
 10
103.0572748475054
 20
160.0221042543086
 30
0.0
 10
103.0597086606286
 20
160.1824303853306
 30
0.0
 10
103.1101731339711
 20
160.3338922132217
 30
0.0
 10
103.1352667180156
 20
160.4902572192293
 30
0.0
 10
103.1479596199923
 20
160.6082727487678
 30
0.0
 10
103.1640493914349
 20
160.7261012519521
 30
0.0
 10
103.1867620647138
 20
160.8427182485467
 30
0.0
 10
103.2055992015462
 20
160.9599210644226
 30
0.0
 10
103.2141937935654
 20
161.1187867741498
 30
0.0
 10
103.1927700291963
 20
161.2362612756757
 30
0.0
 10
103.1784742084
 20
161.3146506004
 30
0.0
 11
103.5202041244
 21
159.76637275
 31
0.0
 11
103.3988063705
 21
159.7506813585
 31
0.0
 11
103.2778151203
 21
159.7617262792
 31
0.0
 11
103.2224936068
 21
159.7821923816
 31
0.0
 11
103.1732544409
 21
159.8148858972
 31
0.0
 11
103.1316626563
 21
159.8582697252
 31
0.0
 11
103.0990763283
 21
159.9091725802
 31
0.0
 11
103.0634366901
 21
160.0229955948
 31
0.0
 11
103.0631003404
 21
160.1416270408
 31
0.0
 11
103.114365789
 21
160.3735413551
 31
0.0
 11
103.1342262648
 21
160.4902308636
 31
0.0
 11
103.148518158
 21
160.6081760992
 31
0.0
 11
103.1651583754
 21
160.725926262
 31
0.0
 11
103.1861385651
 21
160.8429414972
 31
0.0
 11
103.2035323658
 21
160.960206771
 31
0.0
 11
103.2089502565
 21
161.0787040239
 31
0.0
 11
103.1784742084
 21
161.3146506004
 31
0.0
  0
SPLINE
  5
170C
330
1B
100
AcDbEntity
  8
0
  6
Continuous
100
AcDbSpline
210
0.0
220
0.0
230
1.0
 70
     8
 71
     3
 72
    10
 73
     6
 74
     4
 42
0.0000000001
 43
0.0000000001
 44
0.0000000001
 40
0.0
 40
0.0
 40
0.0
 40
0.0
 40
1.128325017545733
 40
1.901572748940216
 40
2.245576544797529
 40
2.245576544797529
 40
2.245576544797529
 40
2.245576544797529
 10
103.1784742084
 20
161.3146506004
 30
0.0
 10
103.068226487125
 20
161.677263340395
 30
0.0
 10
102.8824253578854
 20
162.2883767111618
 30
0.0
 10
102.9860965507836
 20
163.0632637052502
 30
0.0
 10
103.1757161088435
 20
163.3852388359123
 30
0.0
 10
103.2341003188
 20
163.4843755696
 30
0.0
 11
103.1784742084
 21
161.3146506004
 31
0.0
 11
102.94405714
 21
162.4183561695
 31
0.0
 11
103.0720343294
 21
163.1809398653
 31
0.0
 11
103.2341003188
 21
163.4843755696
 31
0.0
  0
SPLINE
  5
170D
330
1B
100
AcDbEntity
  8
0
  6
Continuous
100
AcDbSpline
210
0.0
220
0.0
230
1.0
 70
     8
 71
     3
 72
    13
 73
     9
 74
     7
 42
0.0000000001
 43
0.0000000001
 44
0.0000000001
 40
0.0
 40
0.0
 40
0.0
 40
0.0
 40
0.0790724977291327
 40
0.1590791954559751
 40
0.2016887449300122
 40
0.2459400324254503
 40
0.2877112857052274
 40
0.3265390751223452
 40
0.3265390751223452
 40
0.3265390751223452
 40
0.3265390751223452
 10
103.2341003188
 20
163.4843755696
 30
0.0
 10
103.2477487650021
 20
163.5069204497645
 30
0.0
 10
103.2752069066241
 20
163.5522765660023
 30
0.0
 10
103.3046415405957
 20
163.6130370376858
 30
0.0
 10
103.3201282556517
 20
163.6667465848279
 30
0.0
 10
103.3263581398725
 20
163.7089265579428
 30
0.0
 10
103.3249471103631
 20
163.752266749422
 30
0.0
 10
103.308771898085
 20
163.7744293045035
 30
0.0
 10
103.30097965
 20
163.7851058956
 30
0.0
 11
103.2341003188
 21
163.4843755696
 31
0.0
 11
103.2739975807
 21
163.5526446577
 31
0.0
 11
103.3073255815
 21
163.6253792165
 31
0.0
 11
103.3190483238
 21
163.6663444581
 31
0.0
 11
103.3251185056
 21
163.710177429
 31
0.0
 11
103.3208139545
 21
163.7517262971
 31
0.0
 11
103.30097965
 21
163.7851058956
 31
0.0
  0
SPLINE
  5
170E
330
1B
100
AcDbEntity
  8
0
  6
Continuous
100
AcDbSpline
210
0.0
220
0.0
230
1.0
 70
     8
 71
     3
 72
    28
 73
    24
 74
    22
 42
0.0000000001
 43
0.0000000001
 44
0.0000000001
 40
0.0
 40
0.0
 40
0.0
 40
0.0
 40
0.0972697246175709
 40
0.1947176108718507
 40
0.3890455923939638
 40
0.5835513681474711
 40
0.7780332951845903
 40
0.8754299362253664
 40
0.9728646768457014
 40
1.16783345951858
 40
1.362386310605132
 40
1.557018308574605
 40
1.750168055188899
 40
1.948154800608335
 40
2.047953058099191
 40
2.144917736709265
 40
2.241063187361047
 40
2.339056658121779
 40
2.436534729264685
 40
2.534091388909784
 40
2.729725122816154
 40
2.92496234000241
 40
3.11958860217993
 40
3.11958860217993
 40
3.11958860217993
 40
3.11958860217993
 10
103.30097965
 20
163.7851058956
 30
0.0
 10
103.272254985661
 20
163.801276734447
 30
0.0
 10
103.2147530441765
 20
163.8336480310499
 30
0.0
 10
103.0818817174895
 20
163.8344751573476
 30
0.0
 10
102.9217463897421
 20
163.8119777832957
 30
0.0
 10
102.7366220508086
 20
163.7454784877241
 30
0.0
 10
102.5999245786969
 20
163.6576377693114
 30
0.0
 10
102.4875576221888
 20
163.5926273661978
 30
0.0
 10
102.3697866280879
 20
163.5373922443337
 30
0.0
 10
102.2159268256427
 20
163.484095819847
 30
0.0
 10
102.0255843478748
 20
163.4420927593432
 30
0.0
 10
101.8337460871098
 20
163.4113888969545
 30
0.0
 10
101.6389692240069
 20
163.3963702078988
 30
0.0
 10
101.4754731011212
 20
163.3877951417088
 30
0.0
 10
101.3450591387429
 20
163.3689900846183
 30
0.0
 10
101.2511257520924
 20
163.3392538671692
 30
0.0
 10
101.1695214046182
 20
163.2839216999358
 30
0.0
 10
101.1080548224947
 20
163.2069426270494
 30
0.0
 10
101.0677230166427
 20
163.1171137042533
 30
0.0
 10
101.0378484153615
 20
162.9898148285499
 30
0.0
 10
101.036423176466
 20
162.82483221999
 30
0.0
 10
101.0803586653921
 20
162.6335689657392
 30
0.0
 10
101.1261896086191
 20
162.5119078157889
 30
0.0
 10
101.1490691694
 20
162.4511725684
 30
0.0
 11
103.30097965
 21
163.7851058956
 31
0.0
 11
103.2125597083
 21
163.8256436957
 31
0.0
 11
103.1153672206
 21
163.8326942893
 31
0.0
 11
102.9229645567
 21
163.8054073084
 31
0.0
 11
102.7401466662
 21
163.7389986063
 31
0.0
 11
102.5716566256
 21
163.6418681468
 31
0.0
 11
102.4869111683
 21
163.5938648849
 31
0.0
 11
102.3988057191
 21
163.5522600955
 31
0.0
 11
102.214831136
 21
163.4877141507
 31
0.0
 11
102.025261333
 21
163.4439637032
 31
0.0
 11
101.8329563755
 21
163.4139567381
 31
0.0
 11
101.6405284629
 21
163.3972737207
 31
0.0
 11
101.4431233748
 21
163.382108545
 31
0.0
 11
101.3446129476
 21
163.3661276836
 31
0.0
 11
101.2528283008
 21
163.3348590489999
 31
0.0
 11
101.1733510415
 21
163.280754401
 31
0.0
 11
101.111539282
 21
163.204714762
 31
0.0
 11
101.0707138769
 21
163.1161977543
 31
0.0
 11
101.0477360138
 21
163.0213857316
 31
0.0
 11
101.0440553268
 21
162.8257866253
 31
0.0
 11
101.0845614432
 21
162.6347975536
 31
0.0
 11
101.1490691694
 21
162.4511725684
 31
0.0
  0
SPLINE
  5
170F
330
1B
100
AcDbEntity
  8
0
  6
Continuous
100
AcDbSpline
210
0.0
220
0.0
230
1.0
 70
    24
 71
     3
 72
     8
 73
     4
 74
     2
 42
0.0000000001
 43
0.0000000001
 44
0.0000000001
 40
0.0
 40
0.0
 40
0.0
 40
0.0
 40
0.82549160711697
 40
0.82549160711697
 40
0.82549160711697
 40
0.82549160711697
 10
101.1490691694
 20
162.4511725684
 30
0.0
 10
101.2257941799
 20
162.1869218776
 30
0.0
 10
101.3025191904
 20
161.9226711868
 30
0.0
 10
101.3792442009
 20
161.658420496
 30
0.0
 11
101.1490691694
 21
162.4511725684
 31
0.0
 11
101.3792442009
 21
161.658420496
 31
0.0
  0
SPLINE
  5
1710
330
1B
100
AcDbEntity
  8
0
  6
Continuous
100
AcDbSpline
210
0.0
220
0.0
230
1.0
 70
    24
 71
     3
 72
     8
 73
     4
 74
     2
 42
0.0000000001
 43
0.0000000001
 44
0.0000000001
 40
0.0
 40
0.0
 40
0.0
 40
0.0
 40
0.6562519864635643
 40
0.6562519864635643
 40
0.6562519864635643
 40
0.6562519864635643
 10
101.3792442009
 20
161.658420496
 30
0.0
 10
101.4203637897
 20
161.4435693112
 30
0.0
 10
101.4614833785
 20
161.2287181264
 30
0.0
 10
101.5026029673
 20
161.0138669416
 30
0.0
 11
101.3792442009
 21
161.658420496
 31
0.0
 11
101.5026029673
 21
161.0138669416
 31
0.0
  0
SPLINE
  5
1711
330
1B
100
AcDbEntity
  8
0
  6
Continuous
100
AcDbSpline
210
0.0
220
0.0
230
1.0
 70
     8
 71
     3
 72
    17
 73
    13
 74
    11
 42
0.0000000001
 43
0.0000000001
 44
0.0000000001
 40
0.0
 40
0.0
 40
0.0
 40
0.0
 40
0.4081311483212472
 40
0.6125463090348349
 40
0.8168121512688371
 40
1.021854341337961
 40
1.127288404095847
 40
1.230657110747877
 40
1.331336153818589
 40
1.433550285710174
 40
1.538607924996573
 40
1.642912886704637
 40
1.642912886704637
 40
1.642912886704637
 40
1.642912886704637
 10
101.5026029673
 20
161.0138669416
 30
0.0
 10
101.5397166786177
 20
160.882253276436
 30
0.0
 10
101.5954190355089
 20
160.684720044419
 30
0.0
 10
101.6036344180318
 20
160.4111324615194
 30
0.0
 10
101.58472551762
 20
160.2072260326084
 30
0.0
 10
101.5515511965057
 20
160.0383039066807
 30
0.0
 10
101.5075149528937
 20
159.9072676356895
 30
0.0
 10
101.4596377456828
 20
159.8151642934511
 30
0.0
 10
101.3904501915932
 20
159.737884452466
 30
0.0
 10
101.2999811166086
 20
159.6866674452865
 30
0.0
 10
101.2002784594302
 20
159.6551323623609
 30
0.0
 10
101.1307546375907
 20
159.6476667126239
 30
0.0
 10
101.0961176989
 20
159.6439473076
 30
0.0
 11
101.5026029673
 21
161.0138669416
 31
0.0
 11
101.5919508034
 21
160.6156358549
 31
0.0
 11
101.5994573738
 21
160.4113585695
 31
0.0
 11
101.5813203768
 21
160.2078995229
 31
0.0
 11
101.5394498237
 21
160.0071779333999
 31
0.0
 11
101.504724105
 21
159.9076266097
 31
0.0
 11
101.4554927691
 21
159.8167345579
 31
0.0
 11
101.3874063944
 21
159.742569099
 31
0.0
 11
101.2994950217
 21
159.690422006
 31
0.0
 11
101.1994007868
 21
159.6585119494
 31
0.0
 11
101.0961176989
 21
159.6439473076
 31
0.0
  0
SPLINE
  5
1712
330
1B
100
AcDbEntity
  8
0
  6
Continuous
100
AcDbSpline
210
0.0
220
0.0
230
1.0
 70
     8
 71
     3
 72
     9
 73
     5
 74
     3
 42
0.0000000001
 43
0.0000000001
 44
0.0000000001
 40
0.0
 40
0.0
 40
0.0
 40
0.0
 40
0.3264804292668151
 40
0.6533253052380019
 40
0.6533253052380019
 40
0.6533253052380019
 40
0.6533253052380019
 10
101.0961176989
 20
159.6439473076
 30
0.0
 10
100.9872422744005
 20
159.6462753370887
 30
0.0
 10
100.7693698888984
 20
159.6509339948211
 30
0.0
 10
100.5530152233888
 20
159.6770265995646
 30
0.0
 10
100.4447775457
 20
159.6900801796
 30
0.0
 11
101.0961176989
 21
159.6439473076
 31
0.0
 11
100.7698704322
 21
159.6562839062
 31
0.0
 11
100.4447775457
 21
159.6900801796
 31
0.0
  0
SPLINE
  5
1713
330
1B
100
AcDbEntity
  8
0
  6
Continuous
100
AcDbSpline
210
0.0
220
0.0
230
1.0
 70
    24
 71
     3
 72
     8
 73
     4
 74
     2
 42
0.0000000001
 43
0.0000000001
 44
0.0000000001
 40
0.0
 40
0.0
 40
0.0
 40
0.0
 40
0.6564034636465722
 40
0.6564034636465722
 40
0.6564034636465722
 40
0.6564034636465722
 10
100.4447775457
 20
159.6900801796
 30
0.0
 10
100.2259881780667
 20
159.692351268
 30
0.0
 10
100.0071988104334
 20
159.6946223564
 30
0.0
 10
99.78840944280002
 20
159.6968934448
 30
0.0
 11
100.4447775457
 21
159.6900801796
 31
0.0
 11
99.78840944280002
 21
159.6968934448
 31
0.0
  0
SPLINE
  5
1714
330
1B
100
AcDbEntity
  8
0
  6
Continuous
100
AcDbSpline
210
0.0
220
0.0
230
1.0
 70
     8
 71
     3
 72
    10
 73
     6
 74
     4
 42
0.0000000001
 43
0.0000000001
 44
0.0000000001
 40
0.0
 40
0.0
 40
0.0
 40
0.0
 40
0.6571460598246182
 40
1.314284133320217
 40
1.452218969762558
 40
1.452218969762558
 40
1.452218969762558
 40
1.452218969762558
 10
99.78840944280002
 20
159.6968934448
 30
0.0
 10
99.5694365926605
 20
159.6863730851023
 30
0.0
 10
99.13149355356941
 20
159.6653324935612
 30
0.0
 10
98.64760710082703
 20
159.7044394692057
 30
0.0
 10
98.38490294987574
 20
159.7392278202562
 30
0.0
 10
98.33932718740002
 20
159.7452631479
 30
0.0
 11
99.78840944280002
 21
159.6968934448
 31
0.0
 11
99.1314951793
 21
159.6794408131
 31
0.0
 11
98.4761212324
 21
159.7275598048
 31
0.0
 11
98.33932718740002
 21
159.7452631479
 31
0.0
  0
SPLINE
  5
1715
330
1B
100
AcDbEntity
  8
0
  6
Continuous
100
AcDbSpline
210
0.0
220
0.0
230
1.0
 70
     8
 71
     3
 72
    12
 73
     8
 74
     6
 42
0.0000000001
 43
0.0000000001
 44
0.0000000001
 40
0.0
 40
0.0
 40
0.0
 40
0.0
 40
0.3541539002308702
 40
0.8462068249836952
 40
1.338262470243187
 40
1.830348405023942
 40
1.851271475470353
 40
1.851271475470353
 40
1.851271475470353
 40
1.851271475470353
 10
98.33932718740002
 20
159.7452631479
 30
0.0
 10
98.22217627373854
 20
159.7597990576749
 30
0.0
 10
97.94225869375765
 20
159.7945308114432
 30
0.0
 10
97.49410696832014
 20
159.8030788973983
 30
0.0
 10
97.0065800883049
 20
159.7277100452337
 30
0.0
 10
96.6709541960131
 20
159.7242660630379
 30
0.0
 10
96.50041538211583
 20
159.711670566482
 30
0.0
 10
96.4934599572
 20
159.7111568592
 30
0.0
 11
98.33932718740002
 21
159.7452631479
 31
0.0
 11
97.9872689914
 21
159.7837340678
 31
0.0
 11
97.49524367319999
 21
159.7889462658
 31
0.0
 11
97.0056858721
 21
159.7394294261
 31
0.0
 11
96.51432751720002
 21
159.7126799536
 31
0.0
 11
96.4934599572
 21
159.7111568592
 31
0.0
  0
SPLINE
  5
1716
330
1B
100
AcDbEntity
  8
0
  6
Continuous
100
AcDbSpline
210
0.0
220
0.0
230
1.0
 70
     8
 71
     3
 72
     9
 73
     5
 74
     3
 42
0.0000000001
 43
0.0000000001
 44
0.0000000001
 40
0.0
 40
0.0
 40
0.0
 40
0.0
 40
0.3067105212373317
 40
0.3142820461472213
 40
0.3142820461472213
 40
0.3142820461472213
 40
0.3142820461472213
 10
96.4934599572
 20
159.7111568592
 30
0.0
 10
96.39102280722366
 20
159.6948962436158
 30
0.0
 10
96.28605687072377
 20
159.6782342148181
 30
0.0
 10
96.19202004244772
 20
159.6320037089835
 30
0.0
 10
96.1897545545
 20
159.6308899469
 30
0.0
 11
96.4934599572
 21
159.7111568592
 31
0.0
 11
96.1965573616
 21
159.6342140716
 31
0.0
 11
96.1897545545
 21
159.6308899469
 31
0.0
  0
SPLINE
  5
1717
330
1B
100
AcDbEntity
  8
0
  6
Continuous
100
AcDbSpline
210
0.0
220
0.0
230
1.0
 70
     8
 71
     3
 72
    15
 73
    11
 74
     9
 42
0.0000000001
 43
0.0000000001
 44
0.0000000001
 40
0.0
 40
0.0
 40
0.0
 40
0.0
 40
0.1368923343305668
 40
0.282043075955099
 40
0.3534311274426998
 40
0.4251938814596154
 40
0.4627945017880479
 40
0.5015528581620377
 40
0.5387594725418765
 40
0.573961211504551
 40
0.573961211504551
 40
0.573961211504551
 40
0.573961211504551
 10
96.1897545545
 20
159.6308899469
 30
0.0
 10
96.14872087460479
 20
159.6103736288302
 30
0.0
 10
96.06417804500083
 20
159.5681032892675
 30
0.0
 10
95.94312822266021
 20
159.557152299045
 30
0.0
 10
95.84845412147834
 20
159.5762609405154
 30
0.0
 10
95.79262054915306
 20
159.5997578135094
 30
0.0
 10
95.7493595548967
 20
159.6237329116333
 30
0.0
 10
95.7176422159626
 20
159.6440179566402
 30
0.0
 10
95.68842256977479
 20
159.6685466235306
 30
0.0
 10
95.67973348669698
 20
159.6914693646707
 30
0.0
 10
95.6755092388
 20
159.7026133876
 30
0.0
 11
96.1897545545
 21
159.6308899469
 31
0.0
 11
96.06381328060002
 21
159.5772400939
 31
0.0
 11
95.91923776980001
 21
159.5643304281
 31
0.0
 11
95.8492709774
 21
159.5785044133
 31
0.0
 11
95.78286063989999
 21
159.6056992646
 31
0.0
 11
95.7499342622
 21
159.6238558144
 31
0.0
 11
95.71753396130001
 21
159.6451262326
 31
0.0
 11
95.69062655039998
 21
159.670822991
 31
0.0
 11
95.6755092388
 21
159.7026133876
 31
0.0
  0
SPLINE
  5
1718
330
1B
100
AcDbEntity
  8
0
  6
Continuous
100
AcDbSpline
210
0.0
220
0.0
230
1.0
 70
     8
 71
     3
 72
    15
 73
    11
 74
     9
 42
0.0000000001
 43
0.0000000001
 44
0.0000000001
 40
0.0
 40
0.0
 40
0.0
 40
0.0
 40
0.018619951202671
 40
0.0377268461041108
 40
0.0594230237969227
 40
0.0833152888151197
 40
0.1313401757631788
 40
0.1729339657455943
 40
0.2507506078776046
 40
0.3321139662259058
 40
0.3321139662259058
 40
0.3321139662259058
 40
0.3321139662259058
 10
95.6755092388
 20
159.7026133876
 30
0.0
 10
95.67458548492405
 20
159.7089173879181
 30
0.0
 10
95.672713819422
 20
159.7216902489882
 30
0.0
 10
95.68303975393516
 20
159.7398304996182
 30
0.0
 10
95.69838839635619
 20
159.75493050115
 30
0.0
 10
95.72428156307456
 20
159.7726355348612
 30
0.0
 10
95.7584793251981
 20
159.7891596032447
 30
0.0
 10
95.81138115931942
 20
159.8072362392504
 30
0.0
 10
95.87695585755222
 20
159.8210862386359
 30
0.0
 10
95.92874273409791
 20
159.8325692585165
 30
0.0
 10
95.9552131084
 20
159.838438696
 30
0.0
 11
95.6755092388
 21
159.7026133876
 31
0.0
 11
95.67479080539999
 21
159.7212194736
 31
0.0
 11
95.68315773850001
 21
159.7383970131
 31
0.0
 11
95.69827371589999
 21
159.7539607965
 31
0.0
 11
95.71780241570001
 21
159.7677256144
 31
0.0
 11
95.7607946649
 21
159.7891278637
 31
0.0
 11
95.80009079600001
 21
159.8027608181
 31
0.0
 11
95.8757489801
 21
159.820961614
 31
0.0
 11
95.9552131084
 21
159.838438696
 31
0.0
  0
SPLINE
  5
1719
330
1B
100
AcDbEntity
  8
0
  6
Continuous
100
AcDbSpline
210
0.0
220
0.0
230
1.0
 70
     8
 71
     3
 72
     9
 73
     5
 74
     3
 42
0.0000000001
 43
0.0000000001
 44
0.0000000001
 40
0.0
 40
0.0
 40
0.0
 40
0.0
 40
0.7779556127571095
 40
0.9894473946919939
 40
0.9894473946919939
 40
0.9894473946919939
 40
0.9894473946919939
 10
95.9552131084
 20
159.838438696
 30
0.0
 10
96.21384186912921
 20
159.9182480200054
 30
0.0
 10
96.54278037063187
 20
160.0197539753764
 30
0.0
 10
96.75037794360945
 20
160.2801044851248
 30
0.0
 10
96.7947513796
 20
160.3357537228
 30
0.0
 11
95.9552131084
 21
159.838438696
 31
0.0
 11
96.6560872546
 21
160.1760632902
 31
0.0
 11
96.7947513796
 21
160.3357537228
 31
0.0
  0
SPLINE
  5
171A
330
1B
100
AcDbEntity
  8
0
  6
Continuous
100
AcDbSpline
210
0.0
220
0.0
230
1.0
 70
     8
 71
     3
 72
    19
 73
    15
 74
    13
 42
0.0000000001
 43
0.0000000001
 44
0.0000000001
 40
0.0
 40
0.0
 40
0.0
 40
0.0
 40
0.213448168372973
 40
0.319535215080883
 40
0.4260525940688654
 40
0.5328075662285703
 40
0.6397179916157398
 40
0.7458930947672215
 40
0.8515852076626305
 40
0.9584211231000998
 40
1.065506100841561
 40
1.277488109599382
 40
1.490818808903279
 40
1.703727833786833
 40
1.703727833786833
 40
1.703727833786833
 40
1.703727833786833
 10
96.7947513796
 20
160.3357537228
 30
0.0
 10
96.83985353979819
 20
160.3910088911613
 30
0.0
 10
96.90737217239825
 20
160.4737267342857
 30
0.0
 10
97.01651919985655
 20
160.5656657419244
 30
0.0
 10
97.11017967686144
 20
160.6177834250775
 30
0.0
 10
97.21315512322251
 20
160.6491803140521
 30
0.0
 10
97.32053695885087
 20
160.6555395288535
 30
0.0
 10
97.42626326634208
 20
160.6383042841021
 30
0.0
 10
97.52579647456278
 20
160.5998206050273
 30
0.0
 10
97.6205459994127
 20
160.5510894476689
 30
0.0
 10
97.74560002628759
 20
160.4837878022084
 30
0.0
 10
97.90993355237022
 20
160.4157549833243
 30
0.0
 10
98.12244129010736
 20
160.3740941608696
 30
0.0
 10
98.26365320878495
 20
160.397136536949
 30
0.0
 10
98.33418931840001
 20
160.4086463272
 30
0.0
 11
96.7947513796
 21
160.3357537228
 31
0.0
 11
96.93645687839999
 21
160.4953772555
 31
0.0
 11
97.01837257260002
 21
160.5627885344
 31
0.0
 11
97.11161758519999
 21
160.6142795011
 31
0.0
 11
97.21385832270001
 21
160.6449952247
 31
0.0
 11
97.32056530660002
 21
160.6515875417
 31
0.0
 11
97.42539362239999
 21
160.6347299993
 31
0.0
 11
97.5246058298
 21
160.5982915494
 31
0.0
 11
97.62032117850001
 21
160.5508311991
 31
0.0
 11
97.71534080310001
 21
160.5014503992
 31
0.0
 11
97.9120848436
 21
160.4225317413
 31
0.0
 11
98.1224032203
 21
160.386808252
 31
0.0
 11
98.33418931840001
 21
160.4086463272
 31
0.0
  0
SPLINE
  5
171B
330
1B
100
AcDbEntity
  8
0
  6
Continuous
100
AcDbSpline
210
0.0
220
0.0
230
1.0
 70
     8
 71
     3
 72
    19
 73
    15
 74
    13
 42
0.0000000001
 43
0.0000000001
 44
0.0000000001
 40
0.0
 40
0.0
 40
0.0
 40
0.0
 40
0.2228587746004971
 40
0.5292459231186362
 40
1.215909014397896
 40
1.412890202910817
 40
1.598108874421563
 40
1.756371613063048
 40
1.973882942429559
 40
2.265227789762906
 40
2.600235625581896
 40
5.376733251816471
 40
5.486712303290834
 40
5.76219470814293
 40
5.76219470814293
 40
5.76219470814293
 40
5.76219470814293
 10
98.33418931840001
 20
160.4086463272
 30
0.0
 10
98.40430458017956
 20
160.4349151258886
 30
0.0
 10
98.5708145886446
 20
160.4972983757117
 30
0.0
 10
98.88326269491003
 20
160.754087388099
 30
0.0
 10
99.31261231991456
 20
160.8847305599988
 30
0.0
 10
99.64213247017253
 20
160.7882017815577
 30
0.0
 10
99.83890714791575
 20
160.7029973771724
 30
0.0
 10
99.96206086387002
 20
160.9071473943851
 30
0.0
 10
99.83990174399158
 20
161.1182857990879
 30
0.0
 10
99.64782112718085
 20
161.3166329944115
 30
0.0
 10
99.09624955015687
 20
162.3163949462294
 30
0.0
 10
98.51897549896796
 20
163.3303064917566
 30
0.0
 10
98.58142121641032
 20
164.3850528319847
 30
0.0
 10
98.61057635616207
 20
164.5105366822198
 30
0.0
 10
98.6314130128
 20
164.6002177444
 30
0.0
 11
98.33418931840001
 21
160.4086463272
 31
0.0
 11
98.5391249809
 21
160.496210062
 31
0.0
 11
98.79535872610001
 21
160.6641902769
 31
0.0
 11
99.46127129520001
 21
160.8317213225
 31
0.0
 11
99.6514231745
 21
160.7803029267
 31
0.0
 11
99.8342834231
 21
160.7508396316
 31
0.0
 11
99.9222161183
 21
160.8824258602
 31
0.0
 11
99.8492837701
 21
161.087345481
 31
0.0
 11
99.6666400852
 21
161.3143324948
 31
0.0
 11
99.49137626060001
 21
161.5998370339
 31
0.0
 11
98.57247038090002
 21
164.2198658606
 31
0.0
 11
98.5799063874
 21
164.329593239
 31
0.0
 11
98.6314130128
 21
164.6002177444
 31
0.0
  0
SPLINE
  5
171C
330
1B
100
AcDbEntity
  8
0
  6
Continuous
100
AcDbSpline
210
0.0
220
0.0
230
1.0
 70
     8
 71
     3
 72
     9
 73
     5
 74
     3
 42
0.0000000001
 43
0.0000000001
 44
0.0000000001
 40
0.0
 40
0.0
 40
0.0
 40
0.0
 40
0.6562083902113208
 40
1.312416454545307
 40
1.312416454545307
 40
1.312416454545307
 40
1.312416454545307
 10
98.6314130128
 20
164.6002177444
 30
0.0
 10
98.70032894824789
 20
164.8080667470761
 30
0.0
 10
98.83816078491962
 20
165.223764649209
 30
0.0
 10
99.02702790767199
 20
165.6188995258408
 30
0.0
 10
99.12146144560001
 20
165.8164669151
 30
0.0
 11
98.6314130128
 21
164.6002177444
 31
0.0
 11
98.850919647
 21
165.2186239935
 31
0.0
 11
99.12146144560001
 21
165.8164669151
 31
0.0
  0
SPLINE
  5
171D
330
1B
100
AcDbEntity
  8
0
  6
Continuous
100
AcDbSpline
210
0.0
220
0.0
230
1.0
 70
     8
 71
     3
 72
     9
 73
     5
 74
     3
 42
0.0000000001
 43
0.0000000001
 44
0.0000000001
 40
0.0
 40
0.0
 40
0.0
 40
0.0
 40
0.3268674656958356
 40
0.6537306222798325
 40
0.6537306222798325
 40
0.6537306222798325
 40
0.6537306222798325
 10
99.12146144560001
 20
165.8164669151
 30
0.0
 10
99.17623212411317
 20
165.9112941578281
 30
0.0
 10
99.28577275909458
 20
166.1009473931715
 30
0.0
 10
99.34076369225707
 20
166.3129461903922
 30
0.0
 10
99.36825897759999
 20
166.4189448903
 30
0.0
 11
99.12146144560001
 21
165.8164669151
 31
0.0
 11
99.27213587590001
 21
166.1065351074
 31
0.0
 11
99.36825897759999
 21
166.4189448903
 31
0.0
  0
SPLINE
  5
171E
330
1B
100
AcDbEntity
  8
0
  6
Continuous
100
AcDbSpline
210
0.0
220
0.0
230
1.0
 70
     8
 71
     3
 72
    11
 73
     7
 74
     5
 42
0.0000000001
 43
0.0000000001
 44
0.0000000001
 40
0.0
 40
0.0
 40
0.0
 40
0.0
 40
0.3525799435136529
 40
0.7103607731454114
 40
1.064024639564057
 40
1.418134530796519
 40
1.418134530796519
 40
1.418134530796519
 40
1.418134530796519
 10
99.36825897759999
 20
166.4189448903
 30
0.0
 10
99.37585199424817
 20
166.536735154245
 30
0.0
 10
99.39115003168882
 20
166.7740531994267
 30
0.0
 10
99.32382266842214
 20
167.1241718842039
 30
0.0
 10
99.28868455452067
 20
167.4781402242476
 30
0.0
 10
99.29548431514934
 20
167.7142185438766
 30
0.0
 10
99.298886338
 20
167.8323320896
 30
0.0
 11
99.36825897759999
 21
166.4189448903
 31
0.0
 11
99.3761960384
 21
166.7714354854
 31
0.0
 11
99.3290138675
 21
167.1260916073
 31
0.0
 11
99.2962246602
 21
167.4782322018
 31
0.0
 11
99.298886338
 21
167.8323320896
 31
0.0
  0
SPLINE
  5
171F
330
1B
100
AcDbEntity
  8
0
  6
Continuous
100
AcDbSpline
210
0.0
220
0.0
230
1.0
 70
     8
 71
     3
 72
    11
 73
     7
 74
     5
 42
0.0000000001
 43
0.0000000001
 44
0.0000000001
 40
0.0
 40
0.0
 40
0.0
 40
0.0
 40
0.6555808475359104
 40
1.311148585040311
 40
1.966727863581954
 40
2.622306762241196
 40
2.622306762241196
 40
2.622306762241196
 40
2.622306762241196
 10
99.298886338
 20
167.8323320896
 30
0.0
 10
99.31159766066989
 20
168.0506866517627
 30
0.0
 10
99.33702005181399
 20
168.4873914095251
 30
0.0
 10
99.26218202053278
 20
169.1438473425376
 30
0.0
 10
99.0526917137127
 20
169.768153661005
 30
0.0
 10
98.99877030523001
 20
170.2029487351261
 30
0.0
 10
98.9718096088
 20
170.4203462092
 30
0.0
 11
99.298886338
 21
167.8323320896
 31
0.0
 11
99.3181913581
 21
168.4876286361
 31
0.0
 11
99.23974085800001
 21
169.1384854387
 31
0.0
 11
99.0741265862
 21
169.7728008992
 31
0.0
 11
98.9718096088
 21
170.4203462092
 31
0.0
  0
SPLINE
  5
1720
330
1B
100
AcDbEntity
  8
0
  6
Continuous
100
AcDbSpline
210
0.0
220
0.0
230
1.0
 70
     8
 71
     3
 72
    15
 73
    11
 74
     9
 42
0.0000000001
 43
0.0000000001
 44
0.0000000001
 40
0.0
 40
0.0
 40
0.0
 40
0.0
 40
0.6745710761627869
 40
1.104185184653691
 40
1.627080932702077
 40
3.340078624069283
 40
4.128848494050117
 40
4.84433916757475
 40
6.142091477467213
 40
6.969455128464035
 40
6.969455128464035
 40
6.969455128464035
 40
6.969455128464035
 10
98.9718096088
 20
170.4203462092
 30
0.0
 10
98.93082958477271
 20
170.644148728932
 30
0.0
 10
98.86375061118987
 20
171.0104843684349
 30
0.0
 10
99.09539349107077
 20
171.5582829131687
 30
0.0
 10
100.009127994963
 20
171.8093135557323
 30
0.0
 10
100.9286904563731
 20
172.100477867693
 30
0.0
 10
101.9373884201117
 20
172.5522530819301
 30
0.0
 10
102.5034863722159
 20
173.3157863953367
 30
0.0
 10
103.1225781672255
 20
174.0288589230801
 30
0.0
 10
103.657894552825
 20
174.4945844365948
 30
0.0
 10
103.86630733
 20
174.6759036532
 30
0.0
 11
98.9718096088
 21
170.4203462092
 31
0.0
 11
98.9325761134
 21
171.093775396
 31
0.0
 11
99.1209511087
 21
171.4798882595
 31
0.0
 11
99.5964196769
 21
171.697487901
 31
0.0
 11
101.2208249814
 21
172.241241979
 31
0.0
 11
101.9142495918
 21
172.6171677928
 31
0.0
 11
102.3898963603
 21
173.1516648045
 31
0.0
 11
103.2520068245
 21
174.1216785185
 31
0.0
 11
103.86630733
 21
174.6759036532
 31
0.0
  0
SPLINE
  5
1721
330
1B
100
AcDbEntity
  8
0
  6
Continuous
100
AcDbSpline
210
0.0
220
0.0
230
1.0
 70
     8
 71
     3
 72
    15
 73
    11
 74
     9
 42
0.0000000001
 43
0.0000000001
 44
0.0000000001
 40
0.0
 40
0.0
 40
0.0
 40
0.0
 40
0.1792674689175828
 40
0.3585977615533172
 40
0.5366733838786902
 40
0.7155309414537897
 40
0.8938040264786724
 40
1.072254770869471
 40
1.426444804804387
 40
1.454439185380915
 40
1.454439185380915
 40
1.454439185380915
 40
1.454439185380915
 10
103.86630733
 20
174.6759036532
 30
0.0
 10
103.9180202286698
 20
174.7061113733048
 30
0.0
 10
104.0214641486315
 20
174.7665373997145
 30
0.0
 10
104.1948447077892
 20
174.8187729967008
 30
0.0
 10
104.3760010354044
 20
174.8226826059178
 30
0.0
 10
104.5501206718914
 20
174.7727853662883
 30
0.0
 10
104.7025247743517
 20
174.6754449598729
 30
0.0
 10
104.8637554103352
 20
174.4986434865592
 30
0.0
 10
104.9387612648069
 20
174.3218045047827
 30
0.0
 10
104.971901058545
 20
174.1988562584833
 30
0.0
 10
104.974328494
 20
174.1898505014
 30
0.0
 11
103.86630733
 21
174.6759036532
 31
0.0
 11
104.0245465846
 21
174.760148319
 31
0.0
 11
104.1965769685
 21
174.8107931694
 31
0.0
 11
104.3746281008
 21
174.813746397
 31
0.0
 11
104.54665852
 21
174.7648019308
 31
0.0
 11
104.6973278332
 21
174.6695126297
 31
0.0
 11
104.8183383784
 21
174.5383596041
 31
0.0
 11
104.9669496568
 21
174.2168549104
 31
0.0
 11
104.974328494
 21
174.1898505014
 31
0.0
  0
SPLINE
  5
1722
330
1B
100
AcDbEntity
  8
0
  6
Continuous
100
AcDbSpline
210
0.0
220
0.0
230
1.0
 70
     8
 71
     3
 72
    10
 73
     6
 74
     4
 42
0.0000000001
 43
0.0000000001
 44
0.0000000001
 40
0.0
 40
0.0
 40
0.0
 40
0.0
 40
0.7920161646439126
 40
1.202010759542436
 40
1.612264742333432
 40
1.612264742333432
 40
1.612264742333432
 40
1.612264742333432
 10
104.974328494
 20
174.1898505014
 30
0.0
 10
105.0191022469312
 20
173.9297777677106
 30
0.0
 10
105.0870535529409
 20
173.5350759445492
 30
0.0
 10
105.1776083818179
 20
173.0045551265033
 30
0.0
 10
105.2583407321864
 20
172.7430065835391
 30
0.0
 10
105.2987196724
 20
172.6121909572
 30
0.0
 11
104.974328494
 21
174.1898505014
 31
0.0
 11
105.1084592011
 21
173.4092747149
 31
0.0
 11
105.1862538537
 21
173.0067283699
 31
0.0
 11
105.2987196724
 21
172.6121909572
 31
0.0
  0
SPLINE
  5
1723
330
1B
100
AcDbEntity
  8
0
  6
Continuous
100
AcDbSpline
210
0.0
220
0.0
230
1.0
 70
     8
 71
     3
 72
    12
 73
     8
 74
     6
 42
0.0000000001
 43
0.0000000001
 44
0.0000000001
 40
0.0
 40
0.0
 40
0.0
 40
0.0
 40
0.3273372650330652
 40
0.6545866484010146
 40
0.981836265707336
 40
1.309092366017375
 40
1.329039107095277
 40
1.329039107095277
 40
1.329039107095277
 40
1.329039107095277
 10
105.2987196724
 20
172.6121909572
 30
0.0
 10
105.3491094957389
 20
172.5151058697693
 30
0.0
 10
105.4498756140408
 20
172.3209617597652
 30
0.0
 10
105.6621913627582
 20
172.0684891163294
 30
0.0
 10
105.9000263136349
 20
171.8455549516872
 30
0.0
 10
106.0439299368986
 20
171.6673790029704
 30
0.0
 10
106.0933667216658
 20
171.5627110814525
 30
0.0
 10
106.0962068561
 20
171.5566979281
 30
0.0
 11
105.2987196724
 21
172.6121909572
 31
0.0
 11
105.4600878841
 21
172.3273928088
 31
0.0
 11
105.6664474061
 21
172.0734087412
 31
0.0
 11
105.8952974665
 21
171.8394857584
 31
0.0
 11
106.0876051168
 21
171.5746946656
 31
0.0
 11
106.0962068561
 21
171.5566979281
 31
0.0
  0
SPLINE
  5
1724
330
1B
100
AcDbEntity
  8
0
  6
Continuous
100
AcDbSpline
210
0.0
220
0.0
230
1.0
 70
     8
 71
     3
 72
    11
 73
     7
 74
     5
 42
0.0000000001
 43
0.0000000001
 44
0.0000000001
 40
0.0
 40
0.0
 40
0.0
 40
0.0
 40
0.085027517795255
 40
0.1700542744176266
 40
0.2550812756896552
 40
0.3401090175515271
 40
0.3401090175515271
 40
0.3401090175515271
 40
0.3401090175515271
 10
103.4939910532
 20
169.9857238888
 30
0.0
 10
103.4934634275129
 20
170.0152174537533
 30
0.0
 10
103.492408180862
 20
170.0742043196312
 30
0.0
 10
103.421594942351
 20
170.1358545156209
 30
0.0
 10
103.3279695986188
 20
170.1428741364147
 30
0.0
 10
103.285274386319
 20
170.102160056575
 30
0.0
 10
103.2639266872
 20
170.081802928
 30
0.0
 11
103.4939910532
 21
169.9857238888
 31
0.0
 11
103.4808696718
 21
170.0697328653
 31
0.0
 11
103.4177930269
 21
170.1267494086
 31
0.0
 11
103.332900286
 21
170.1315257553
 31
0.0
 11
103.2639266872
 21
170.081802928
 31
0.0
  0
SPLINE
  5
1725
330
1B
100
AcDbEntity
  8
0
  6
Continuous
100
AcDbSpline
210
0.0
220
0.0
230
1.0
 70
     8
 71
     3
 72
     9
 73
     5
 74
     3
 42
0.0000000001
 43
0.0000000001
 44
0.0000000001
 40
0.0
 40
0.0
 40
0.0
 40
0.0
 40
0.8586076660444142
 40
1.717215352397013
 40
1.717215352397013
 40
1.717215352397013
 40
1.717215352397013
 10
103.2639266872
 20
170.081802928
 30
0.0
 10
103.0683885993189
 20
169.8610571446387
 30
0.0
 10
102.6773124189318
 20
169.419565572695
 30
0.0
 10
102.0978356390616
 20
169.3097382121313
 30
0.0
 10
101.8080972457
 20
169.2548245312
 30
0.0
 11
103.2639266872
 21
170.081802928
 31
0.0
 11
102.6302122748
 21
169.5024816288
 31
0.0
 11
101.8080972457
 21
169.2548245312
 31
0.0
  0
SPLINE
  5
1726
330
1B
100
AcDbEntity
  8
0
  6
Continuous
100
AcDbSpline
210
0.0
220
0.0
230
1.0
 70
     8
 71
     3
 72
    11
 73
     7
 74
     5
 42
0.0000000001
 43
0.0000000001
 44
0.0000000001
 40
0.0
 40
0.0
 40
0.0
 40
0.0
 40
0.1030335243461572
 40
0.2060657546729229
 40
0.3090978406230729
 40
0.4121312722204085
 40
0.4121312722204085
 40
0.4121312722204085
 40
0.4121312722204085
 10
101.8080972457
 20
169.2548245312
 30
0.0
 10
101.7736293609966
 20
169.2447162899728
 30
0.0
 10
101.7046940244791
 20
169.2244999344698
 30
0.0
 10
101.6598030508288
 20
169.1183835746938
 30
0.0
 10
101.6925074644394
 20
169.0078997675186
 30
0.0
 10
101.7587423937709
 20
168.9800827059898
 30
0.0
 10
101.7918600747
 20
168.9661740844
 30
0.0
 11
101.8080972457
 21
169.2548245312
 31
0.0
 11
101.7144457001
 21
169.2118676325
 31
0.0
 11
101.672735557
 21
169.1176556139
 31
0.0
 11
101.7036151644
 21
169.0193598328
 31
0.0
 11
101.7918600747
 21
168.9661740844
 31
0.0
  0
SPLINE
  5
1727
330
1B
100
AcDbEntity
  8
0
  6
Continuous
100
AcDbSpline
210
0.0
220
0.0
230
1.0
 70
     8
 71
     3
 72
    11
 73
     7
 74
     5
 42
0.0000000001
 43
0.0000000001
 44
0.0000000001
 40
0.0
 40
0.0
 40
0.0
 40
0.0
 40
0.7750160022410633
 40
1.449809262265944
 40
1.829775031973102
 40
2.214540901009053
 40
2.214540901009053
 40
2.214540901009053
 40
2.214540901009053
 10
101.7918600747
 20
168.9661740844
 30
0.0
 10
102.0518225954293
 20
168.953315193905
 30
0.0
 10
102.5381300643143
 20
168.9292602860215
 30
0.0
 10
103.1277837620922
 20
169.2023963881481
 30
0.0
 10
103.4042195629458
 20
169.6111251939775
 30
0.0
 10
103.4639422664662
 20
169.8603362377806
 30
0.0
 10
103.4939910532
 20
169.9857238888
 30
0.0
 11
101.7918600747
 21
168.9661740844
 31
0.0
 11
102.5662897738
 21
168.9963145038
 31
0.0
 11
103.1665756476
 21
169.304539768
 31
0.0
 11
103.3817876943
 21
169.6176815268
 31
0.0
 11
103.4939910532
 21
169.9857238888
 31
0.0
  0
SPLINE
  5
1728
330
1B
100
AcDbEntity
  8
0
  6
Continuous
100
AcDbSpline
210
0.0
220
0.0
230
1.0
 70
     8
 71
     3
 72
    14
 73
    10
 74
     8
 42
0.0000000001
 43
0.0000000001
 44
0.0000000001
 40
0.0
 40
0.0
 40
0.0
 40
0.0
 40
0.1194895003514647
 40
0.4184750882171758
 40
2.087442234404989
 40
2.361912802352534
 40
2.601930351249903
 40
3.524936288286076
 40
3.900389099183138
 40
3.900389099183138
 40
3.900389099183138
 40
3.900389099183138
 10
102.2997811949
 20
171.9438562831
 30
0.0
 10
102.2653348798885
 20
171.9658782509536
 30
0.0
 10
102.1446972952407
 20
172.0430033951137
 30
0.0
 10
101.4127273474165
 20
171.8219219921283
 30
0.0
 10
100.8495725662697
 20
171.382964048601
 30
0.0
 10
100.2186482754943
 20
171.0026304540528
 30
0.0
 10
99.94029201885765
 20
170.5908891668957
 30
0.0
 10
100.0811561162634
 20
170.0226376866951
 30
0.0
 10
100.2340630307597
 20
169.6243405823647
 30
0.0
 10
100.278276473
 20
169.5091719121
 30
0.0
 11
102.2997811949
 21
171.9438562831
 31
0.0
 11
102.1943141094
 21
172.0000206363
 31
0.0
 11
101.8976373251
 21
171.9629360383
 31
0.0
 11
100.4451572352
 21
171.1408941151
 31
0.0
 11
100.222649647
 21
170.9801941902
 31
0.0
 11
100.0866727875
 21
170.7824096674
 31
0.0
 11
100.1484804509
 21
169.8614754827
 31
0.0
 11
100.278276473
 21
169.5091719121
 31
0.0
  0
SPLINE
  5
1729
330
1B
100
AcDbEntity
  8
0
  6
Continuous
100
AcDbSpline
210
0.0
220
0.0
230
1.0
 70
     8
 71
     3
 72
    18
 73
    14
 74
    12
 42
0.0000000001
 43
0.0000000001
 44
0.0000000001
 40
0.0
 40
0.0
 40
0.0
 40
0.0
 40
0.2635357096836422
 40
0.6158936041445476
 40
0.842568522393685
 40
1.003030549366458
 40
1.875920203392615
 40
2.743366042389302
 40
3.578684665467807
 40
3.690623104765204
 40
3.753654801122364
 40
3.820510011015044
 40
3.902359841853035
 40
3.902359841853035
 40
3.902359841853035
 40
3.902359841853035
 10
100.278276473
 20
169.5091719121
 30
0.0
 10
100.339052763984
 20
169.4369547017614
 30
0.0
 10
100.4810894122455
 20
169.2681801625913
 30
0.0
 10
100.8370675759805
 20
169.4091729026709
 30
0.0
 10
100.8724022020256
 20
169.6773641674791
 30
0.0
 10
100.719206906294
 20
170.069942680819
 30
0.0
 10
100.7930844321904
 20
170.7489620371803
 30
0.0
 10
101.281310598629
 20
171.4907756228995
 30
0.0
 10
101.8722977735665
 20
171.7569432718336
 30
0.0
 10
102.2011845562192
 20
171.7962937867301
 30
0.0
 10
102.28643055732
 20
171.7984751456351
 30
0.0
 10
102.3317345191184
 20
171.8694424229356
 30
0.0
 10
102.3111250201864
 20
171.9174384424141
 30
0.0
 10
102.2997811949
 20
171.9438562831
 30
0.0
 11
100.278276473
 21
169.5091719121
 31
0.0
 11
100.4822418333
 21
169.3422911101
 31
0.0
 11
100.8098224493
 21
169.4720872033
 31
0.0
 11
100.8530878137
 21
169.6945947915
 31
0.0
 11
100.8098224493
 21
169.84911395
 31
0.0
 11
100.85926858
 21
170.720602004
 31
0.0
 11
101.3475491209
 21
171.4375708994
 31
0.0
 11
102.1077833807
 21
171.7836938144
 31
0.0
 11
102.2190371748
 21
171.7960553471
 31
0.0
 11
102.2808448382
 21
171.8084168798
 31
0.0
 11
102.3179294362
 21
171.8640437769
 31
0.0
 11
102.2997811949
 21
171.9438562831
 31
0.0
  0
SPLINE
  5
172A
330
1B
100
AcDbEntity
  8
0
  6
Continuous
100
AcDbSpline
210
0.0
220
0.0
230
1.0
 70
     8
 71
     3
 72
    21
 73
    17
 74
    15
 42
0.0000000001
 43
0.0000000001
 44
0.0000000001
 40
0.0
 40
0.0
 40
0.0
 40
0.0
 40
0.087249066490329
 40
0.2077011937786702
 40
0.3302745944638622
 40
0.4549381301777937
 40
0.5816606644407627
 40
0.710411062441875
 40
0.8411581895518749
 40
0.9738709119200621
 40
1.108518095876123
 40
1.245068608542192
 40
1.383491317553319
 40
1.523755090929059
 40
1.665828797101072
 40
1.807415103600901
 40
1.807415103600901
 40
1.807415103600901
 40
1.807415103600901
 10
136.3880042999
 20
176.1920526157
 30
0.0
 10
136.3597869899171
 20
176.1850016881583
 30
0.0
 10
136.2926141340413
 20
176.1682165679667
 30
0.0
 10
136.184728598232
 20
176.1460805282005
 30
0.0
 10
136.063788634292
 20
176.126028424531
 30
0.0
 10
135.9400306897407
 20
176.1107992822425
 30
0.0
 10
135.8136943646281
 20
176.1005796549879
 30
0.0
 10
135.6850079258669
 20
176.0956760449971
 30
0.0
 10
135.5542315641539
 20
176.0963498747896
 30
0.0
 10
135.4216458417243
 20
176.1028615794363
 30
0.0
 10
135.2875531634944
 20
176.11545215412
 30
0.0
 10
135.1522825197608
 20
176.1343611357485
 30
0.0
 10
135.0161663139499
 20
176.1597609577227
 30
0.0
 10
134.8796267871017
 20
176.1919945890424
 30
0.0
 10
134.7435706698097
 20
176.2304571813882
 30
0.0
 10
134.6542704684899
 20
176.2615879222259
 30
0.0
 10
134.609697088
 20
176.2771265474
 30
0.0
 11
136.3880042999
 21
176.1920526157
 31
0.0
 11
136.3032335105
 21
176.1714052704
 31
0.0
 11
136.1852862955
 21
176.1469682198
 31
0.0
 11
136.0643533467
 21
176.1269817131
 31
0.0
 11
135.9406252223
 21
176.1117387354
 31
0.0
 11
135.8143148884
 21
176.1015259865
 31
0.0
 11
135.6856579113
 21
176.0966221891
 31
0.0
 11
135.5549125222
 21
176.0972963379
 31
0.0
 11
135.4223595429
 21
176.1038058968
 31
0.0
 11
135.2883021681
 21
176.1163949559
 31
0.0
 11
135.1530655951
 21
176.1352923587
 31
0.0
 11
135.0169964967
 21
176.16070981
 31
0.0
 11
134.8804623312
 21
176.1928399792
 31
0.0
 11
134.743850485
 21
176.2318546106
 31
0.0
 11
134.609697088
 21
176.2771265474
 31
0.0
  0
SPLINE
  5
172B
330
1B
100
AcDbEntity
  8
0
  6
Continuous
100
AcDbSpline
210
0.0
220
0.0
230
1.0
 70
     8
 71
     3
 72
    15
 73
    11
 74
     9
 42
0.0000000001
 43
0.0000000001
 44
0.0000000001
 40
0.0
 40
0.0
 40
0.0
 40
0.0
 40
0.4667565170019227
 40
1.147514286038307
 40
1.828272124453868
 40
2.509030005686214
 40
3.189787899564569
 40
3.870545777311855
 40
4.551303601095767
 40
5.071672495227494
 40
5.071672495227494
 40
5.071672495227494
 40
5.071672495227494
 10
126.6557918235
 20
179.1721048505
 30
0.0
 10
126.5119360700765
 20
179.2321174204551
 30
0.0
 10
126.1582687378182
 20
179.3796574736882
 30
0.0
 10
125.659396625872
 20
179.7422453429859
 30
0.0
 10
125.2035032324732
 20
180.254431198484
 30
0.0
 10
124.876119006245
 20
180.8582802011096
 30
0.0
 10
124.6924047956576
 20
181.5201776161409
 30
0.0
 10
124.6649463395504
 20
182.2052451940867
 30
0.0
 10
124.7749735703602
 20
182.8306120345835
 30
0.0
 10
124.9390149625412
 20
183.1968794380356
 30
0.0
 10
125.0100832658
 20
183.3555589186
 30
0.0
 11
126.6557918235
 21
179.1721048505
 31
0.0
 11
126.2309336006
 21
179.3653847941
 31
0.0
 11
125.6762920217
 21
179.7601047696
 31
0.0
 11
125.2249214395
 21
180.2697083725
 31
0.0
 11
124.9000640116
 21
180.8679549307
 31
0.0
 11
124.7184474205
 21
181.5240393185
 31
0.0
 11
124.689423519
 21
182.2041782023
 31
0.0
 11
124.8144867817
 21
182.8733496265
 31
0.0
 11
125.0100832658
 21
183.3555589186
 31
0.0
  0
SPLINE
  5
172C
330
1B
100
AcDbEntity
  8
0
  6
Continuous
100
AcDbSpline
210
0.0
220
0.0
230
1.0
 70
     8
 71
     3
 72
     9
 73
     5
 74
     3
 42
0.0000000001
 43
0.0000000001
 44
0.0000000001
 40
0.0
 40
0.0
 40
0.0
 40
0.0
 40
0.6532038714741144
 40
0.665948009055423
 40
0.665948009055423
 40
0.665948009055423
 40
0.665948009055423
 10
131.0092347672
 20
134.5879096246
 30
0.0
 10
131.227618726797
 20
134.5759027070278
 30
0.0
 10
131.4502634009245
 20
134.5636615321032
 30
0.0
 10
131.6668476156841
 20
134.5149434266753
 30
0.0
 10
131.6709923522
 20
134.5140111163
 30
0.0
 11
131.0092347672
 21
134.5879096246
 31
0.0
 11
131.6585559232
 21
134.5167946889
 31
0.0
 11
131.6709923522
 21
134.5140111163
 31
0.0
  0
SPLINE
  5
172D
330
1B
100
AcDbEntity
  8
0
  6
Continuous
100
AcDbSpline
210
0.0
220
0.0
230
1.0
 70
    24
 71
     3
 72
     8
 73
     4
 74
     2
 42
0.0000000001
 43
0.0000000001
 44
0.0000000001
 40
0.0
 40
0.0
 40
0.0
 40
0.0
 40
0.3697535597444105
 40
0.3697535597444105
 40
0.3697535597444105
 40
0.3697535597444105
 10
132.5288595909
 20
134.1745181476
 30
0.0
 10
132.6310822744334
 20
134.1056604830667
 30
0.0
 10
132.7333049579667
 20
134.0368028185334
 30
0.0
 10
132.8355276415
 20
133.967945154
 30
0.0
 11
132.5288595909
 21
134.1745181476
 31
0.0
 11
132.8355276415
 21
133.967945154
 31
0.0
  0
SPLINE
  5
172E
330
1B
100
AcDbEntity
  8
0
  6
Continuous
100
AcDbSpline
210
0.0
220
0.0
230
1.0
 70
     8
 71
     3
 72
     9
 73
     5
 74
     3
 42
0.0000000001
 43
0.0000000001
 44
0.0000000001
 40
0.0
 40
0.0
 40
0.0
 40
0.0
 40
0.6532051870529171
 40
0.6658909425116097
 40
0.6658909425116097
 40
0.6658909425116097
 40
0.6658909425116097
 10
131.0092347672
 20
134.5878952006
 30
0.0
 10
131.2276191128454
 20
134.5758887359182
 30
0.0
 10
131.4502446532329
 20
134.5636490963047
 30
0.0
 10
131.6668111559749
 20
134.5149392190509
 30
0.0
 10
131.6709369212
 20
134.5140112569
 30
0.0
 11
131.0092347672
 21
134.5878952006
 31
0.0
 11
131.6585574265
 21
134.5167819071
 31
0.0
 11
131.6709369212
 21
134.5140112569
 31
0.0
  0
SPLINE
  5
172F
330
1B
100
AcDbEntity
  8
0
  6
Continuous
100
AcDbSpline
210
0.0
220
0.0
230
1.0
 70
    24
 71
     3
 72
     8
 73
     4
 74
     2
 42
0.0000000001
 43
0.0000000001
 44
0.0000000001
 40
0.0
 40
0.0
 40
0.0
 40
0.0
 40
0.2145620477601513
 40
0.2145620477601513
 40
0.2145620477601513
 40
0.2145620477601513
 10
131.6709369212
 20
134.5140112569
 30
0.0
 10
131.7400874249333
 20
134.4957515780667
 30
0.0
 10
131.8092379286667
 20
134.4774918992333
 30
0.0
 10
131.8783884324
 20
134.4592322204
 30
0.0
 11
131.6709369212
 21
134.5140112569
 31
0.0
 11
131.8783884324
 21
134.4592322204
 31
0.0
  0
SPLINE
  5
1730
330
1B
100
AcDbEntity
  8
0
  6
Continuous
100
AcDbSpline
210
0.0
220
0.0
230
1.0
 70
     8
 71
     3
 72
     9
 73
     5
 74
     3
 42
0.0000000001
 43
0.0000000001
 44
0.0000000001
 40
0.0
 40
0.0
 40
0.0
 40
0.0
 40
0.4268484061634955
 40
0.452383803275035
 40
0.452383803275035
 40
0.452383803275035
 40
0.452383803275035
 10
131.8783884324
 20
134.4592322204
 30
0.0
 10
132.01327820865
 20
134.4130881844438
 30
0.0
 10
132.1562375101767
 20
134.3641836689696
 30
0.0
 10
132.2925009036364
 20
134.299568958102
 30
0.0
 10
132.3001924696
 20
134.295921696
 30
0.0
 11
131.8783884324
 21
134.4592322204
 31
0.0
 11
132.2770964373
 21
134.3068134267
 31
0.0
 11
132.3001924696
 21
134.295921696
 31
0.0
  0
SPLINE
  5
1731
330
1B
100
AcDbEntity
  8
0
  6
Continuous
100
AcDbSpline
210
0.0
220
0.0
230
1.0
 70
    24
 71
     3
 72
     8
 73
     4
 74
     2
 42
0.0000000001
 43
0.0000000001
 44
0.0000000001
 40
0.0
 40
0.0
 40
0.0
 40
0.0
 40
0.2588964399694558
 40
0.2588964399694558
 40
0.2588964399694558
 40
0.2588964399694558
 10
132.3001924696
 20
134.295921696
 30
0.0
 10
132.3764140317333
 20
134.2554524651333
 30
0.0
 10
132.4526355938667
 20
134.2149832342666
 30
0.0
 10
132.528857156
 20
134.1745140034
 30
0.0
 11
132.3001924696
 21
134.295921696
 31
0.0
 11
132.528857156
 21
134.1745140034
 31
0.0
  0
SPLINE
  5
1732
330
1B
100
AcDbEntity
  8
0
  6
Continuous
100
AcDbSpline
210
0.0
220
0.0
230
1.0
 70
     8
 71
     3
 72
     9
 73
     5
 74
     3
 42
0.0000000001
 43
0.0000000001
 44
0.0000000001
 40
0.0
 40
0.0
 40
0.0
 40
0.0
 40
0.3697537776827406
 40
0.408156998881488
 40
0.408156998881488
 40
0.408156998881488
 40
0.408156998881488
 10
132.528857156
 20
134.1745140034
 30
0.0
 10
132.633312104251
 20
134.1087382052752
 30
0.0
 10
132.7486159111888
 20
134.036130827117
 30
0.0
 10
132.8557624825006
 20
133.9522613869729
 30
0.0
 10
132.8658438323
 20
133.944370167
 30
0.0
 11
132.528857156
 21
134.1745140034
 31
0.0
 11
132.8355275685
 21
133.9679441261
 31
0.0
 11
132.8658438323
 21
133.944370167
 31
0.0
  0
SPLINE
  5
1733
330
1B
100
AcDbEntity
  8
0
  6
Continuous
100
AcDbSpline
210
0.0
220
0.0
230
1.0
 70
    24
 71
     3
 72
     8
 73
     4
 74
     2
 42
0.0000000001
 43
0.0000000001
 44
0.0000000001
 40
0.0
 40
0.0
 40
0.0
 40
0.0
 40
0.2778401922137065
 40
0.2778401922137065
 40
0.2778401922137065
 40
0.2778401922137065
 10
132.8658438323
 20
133.944370167
 30
0.0
 10
132.9358539397
 20
133.8837415744
 30
0.0
 10
133.0058640471
 20
133.8231129818
 30
0.0
 10
133.0758741545
 20
133.7624843892
 30
0.0
 11
132.8658438323
 21
133.944370167
 31
0.0
 11
133.0758741545
 21
133.7624843892
 31
0.0
  0
SPLINE
  5
1734
330
1B
100
AcDbEntity
  8
0
  6
Continuous
100
AcDbSpline
210
0.0
220
0.0
230
1.0
 70
     8
 71
     3
 72
     9
 73
     5
 74
     3
 42
0.0000000001
 43
0.0000000001
 44
0.0000000001
 40
0.0
 40
0.0
 40
0.0
 40
0.0
 40
0.3379789958135432
 40
0.3892586742402086
 40
0.3892586742402086
 40
0.3892586742402086
 40
0.3892586742402086
 10
133.0758741545
 20
133.7624843892
 30
0.0
 10
133.1554247776391
 20
133.6825017847044
 30
0.0
 10
133.2470451755978
 20
133.590383863254
 30
0.0
 10
133.3291815994473
 20
133.489912949975
 30
0.0
 10
133.3400019862
 20
133.4766772369
 30
0.0
 11
133.0758741545
 21
133.7624843892
 31
0.0
 11
133.3073762356
 21
133.5162394135
 31
0.0
 11
133.3400019862
 21
133.4766772369
 31
0.0
  0
SPLINE
  5
1735
330
1B
100
AcDbEntity
  8
0
  6
Continuous
100
AcDbSpline
210
0.0
220
0.0
230
1.0
 70
    24
 71
     3
 72
     8
 73
     4
 74
     2
 42
0.0000000001
 43
0.0000000001
 44
0.0000000001
 40
0.0
 40
0.0
 40
0.0
 40
0.0
 40
0.2883654251755715
 40
0.2883654251755715
 40
0.2883654251755715
 40
0.2883654251755715
 10
133.3400019862
 20
133.4766772369
 30
0.0
 10
133.3968598038333
 20
133.3991750393667
 30
0.0
 10
133.4537176214667
 20
133.3216728418333
 30
0.0
 10
133.5105754391
 20
133.2441706443
 30
0.0
 11
133.3400019862
 21
133.4766772369
 31
0.0
 11
133.5105754391
 21
133.2441706443
 31
0.0
  0
SPLINE
  5
1736
330
1B
100
AcDbEntity
  8
0
  6
Continuous
100
AcDbSpline
210
0.0
220
0.0
230
1.0
 70
     8
 71
     3
 72
     9
 73
     5
 74
     3
 42
0.0000000001
 43
0.0000000001
 44
0.0000000001
 40
0.0
 40
0.0
 40
0.0
 40
0.0
 40
0.314602678759934
 40
0.3787597463146267
 40
0.3787597463146267
 40
0.3787597463146267
 40
0.3787597463146267
 10
133.5105754391
 20
133.2441706443
 30
0.0
 10
133.5662259704602
 20
133.1551418894566
 30
0.0
 10
133.6332253400249
 20
133.0479574600929
 30
0.0
 10
133.68970982548
 20
132.93501830784
 30
0.0
 10
133.6992775765
 20
132.9158878567
 30
0.0
 11
133.5105754391
 21
133.2441706443
 31
0.0
 11
133.67027263
 21
132.9731140954
 31
0.0
 11
133.6992775765
 21
132.9158878567
 31
0.0
  0
SPLINE
  5
1737
330
1B
100
AcDbEntity
  8
0
  6
Continuous
100
AcDbSpline
210
0.0
220
0.0
230
1.0
 70
    24
 71
     3
 72
     8
 73
     4
 74
     2
 42
0.0000000001
 43
0.0000000001
 44
0.0000000001
 40
0.0
 40
0.0
 40
0.0
 40
0.0
 40
0.578415834892092
 40
0.578415834892092
 40
0.578415834892092
 40
0.578415834892092
 10
133.6992775765
 20
132.9158878567
 30
0.0
 10
133.7675643970333
 20
132.7355803818667
 30
0.0
 10
133.8358512175667
 20
132.5552729070333
 30
0.0
 10
133.9041380381
 20
132.3749654322
 30
0.0
 11
133.6992775765
 21
132.9158878567
 31
0.0
 11
133.9041380381
 21
132.3749654322
 31
0.0
  0
SPLINE
  5
1738
330
1B
100
AcDbEntity
  8
0
  6
Continuous
100
AcDbSpline
210
0.0
220
0.0
230
1.0
 70
    24
 71
     3
 72
     8
 73
     4
 74
     2
 42
0.0000000001
 43
0.0000000001
 44
0.0000000001
 40
0.0
 40
0.0
 40
0.0
 40
0.0
 40
0.011029393295566
 40
0.011029393295566
 40
0.011029393295566
 40
0.011029393295566
 10
133.9041380381
 20
132.3749654322
 30
0.0
 10
133.9050961076
 20
132.3714159965334
 30
0.0
 10
133.9060541771
 20
132.3678665608667
 30
0.0
 10
133.9070122466
 20
132.3643171252
 30
0.0
 11
133.9041380381
 21
132.3749654322
 31
0.0
 11
133.9070122466
 21
132.3643171252
 31
0.0
  0
SPLINE
  5
1739
330
1B
100
AcDbEntity
  8
0
  6
Continuous
100
AcDbSpline
210
0.0
220
0.0
230
1.0
 70
     8
 71
     3
 72
    13
 73
     9
 74
     7
 42
0.0000000001
 43
0.0000000001
 44
0.0000000001
 40
0.0
 40
0.0
 40
0.0
 40
0.0
 40
2.343398121453366
 40
4.124557756377808
 40
5.425076927015772
 40
6.306114810898389
 40
6.814805217630552
 40
6.981063663042446
 40
6.981063663042446
 40
6.981063663042446
 40
6.981063663042446
 10
83.1062201365
 20
168.0070698161
 30
0.0
 10
82.51677199031762
 20
168.5196312164701
 30
0.0
 10
81.47929871547721
 20
169.4217780092673
 30
0.0
 10
80.11470996181171
 20
170.6083949307603
 30
0.0
 10
79.11794339483755
 20
171.475140520742
 30
0.0
 10
78.44125162002766
 20
172.0635683299581
 30
0.0
 10
78.04986491060805
 20
172.4039019433932
 30
0.0
 10
77.88009093921866
 20
172.5515302833248
 30
0.0
 10
77.83827094580001
 20
172.5878951993
 30
0.0
 11
83.1062201365
 21
168.0070698161
 31
0.0
 11
81.3378785063
 21
169.5447572468
 31
0.0
 11
79.99381005479999
 21
170.7135213987
 31
0.0
 11
79.01242947519999
 21
171.5668925203
 31
0.0
 11
78.3475926544
 21
172.1450099431
 31
0.0
 11
77.9637309246
 21
172.4788004497
 31
0.0
 11
77.83827094580001
 21
172.5878951993
 31
0.0
  0
SPLINE
  5
173A
330
1B
100
AcDbEntity
  8
0
  6
Continuous
100
AcDbSpline
210
0.0
220
0.0
230
1.0
 70
     8
 71
     3
 72
    13
 73
     9
 74
     7
 42
0.0000000001
 43
0.0000000001
 44
0.0000000001
 40
0.0
 40
0.0
 40
0.0
 40
0.0
 40
2.34339761661889
 40
4.124558242053275
 40
5.425078277989403
 40
6.306116196042352
 40
6.814805742262792
 40
6.981063662960179
 40
6.981063662960179
 40
6.981063662960179
 40
6.981063662960179
 10
85.4190963288
 20
170.3199460084
 30
0.0
 10
84.90653462772067
 20
170.9093936700933
 30
0.0
 10
84.00438700507446
 20
171.9468664378621
 30
0.0
 10
82.81777140303584
 20
173.3114569356602
 30
0.0
 10
81.95102607740319
 20
174.3082245673613
 30
0.0
 10
81.36259833252905
 20
174.9849164153288
 30
0.0
 10
81.02226440297598
 20
175.3763022530615
 30
0.0
 10
80.87463586919135
 20
175.5460754439867
 30
0.0
 10
80.8382709456
 20
175.587895199
 30
0.0
 11
85.4190963288
 21
170.3199460084
 31
0.0
 11
83.88140862589999
 21
172.0882867329
 31
0.0
 11
82.7126449204
 21
173.4323568852
 31
0.0
 11
81.85927385620001
 21
174.4137386614
 31
0.0
 11
81.28115629910001
 21
175.0785754107
 31
0.0
 11
80.94736570400001
 21
175.4624359232
 31
0.0
 11
80.8382709456
 21
175.587895199
 31
0.0
  0
SPLINE
  5
173B
330
1B
100
AcDbEntity
  8
0
  6
Continuous
100
AcDbSpline
210
0.0
220
0.0
230
1.0
 70
     8
 71
     3
 72
    22
 73
    18
 74
    16
 42
0.0000000001
 43
0.0000000001
 44
0.0000000001
 40
0.0
 40
0.0
 40
0.0
 40
0.0
 40
0.0384419824770465
 40
0.1596274871416525
 40
0.3664171541902694
 40
0.6669073799069532
 40
1.07331919748891
 40
1.603558650248763
 40
2.289815872546244
 40
3.167872497117433
 40
4.285345422179475
 40
5.709529302108354
 40
7.479569066797289
 40
9.552220456756409
 40
11.78747655308052
 40
14.11318953952776
 40
16.48544508772897
 40
16.48544508772897
 40
16.48544508772897
 40
16.48544508772897
 10
95.62287756089999
 20
123.7190073562
 30
0.0
 10
95.61307008681149
 20
123.7272545254727
 30
0.0
 10
95.57234527651096
 20
123.7615002855042
 30
0.0
 10
95.48146402518893
 20
123.8431660350181
 30
0.0
 10
95.33337611292352
 20
123.9915551472054
 30
0.0
 10
95.13534579404504
 20
124.2234432229198
 30
0.0
 10
94.89647297187388
 20
124.5603328098327
 30
0.0
 10
94.62634414238588
 20
125.0299608904013
 30
0.0
 10
94.33533042519045
 20
125.6656377813569
 30
0.0
 10
94.03412365331683
 20
126.5083451691402
 30
0.0
 10
93.73393006862931
 20
127.6090317112024
 30
0.0
 10
93.4501690751265
 20
129.0189418651127
 30
0.0
 10
93.20414170926667
 20
130.7580760170682
 30
0.0
 10
93.01655458672904
 20
132.7759987010134
 30
0.0
 10
92.89608882989595
 20
134.9842886851428
 30
0.0
 10
92.83527379309012
 20
137.2949082746531
 30
0.0
 10
92.83837333940832
 20
138.8609529298321
 30
0.0
 10
92.83993846609999
 20
139.6517326242
 30
0.0
 11
95.62287756089999
 21
123.7190073562
 31
0.0
 11
95.59352084350002
 21
123.7438260822
 31
0.0
 11
95.5032510559
 21
123.824679604
 31
0.0
 11
95.3570481749
 21
123.9709214721
 31
0.0
 11
95.1613239949
 21
124.1989267815
 31
0.0
 11
94.92507939870001
 21
124.5296215898
 31
0.0
 11
94.65867071229999
 21
124.9880758286
 31
0.0
 11
94.3699936595
 21
125.6106627979
 31
0.0
 11
94.0704921052
 21
126.4360610381
 31
0.0
 11
93.77164893479998
 21
127.5128332971
 31
0.0
 11
93.4850586303
 21
128.9078837339
 31
0.0
 11
93.23119915600002
 21
130.6596246211
 31
0.0
 11
93.0342413754
 21
132.7228966383
 31
0.0
 11
92.90801609309999
 21
134.9545859075
 31
0.0
 11
92.84654063950001
 21
137.2794862632
 31
0.0
 11
92.83993846609999
 21
139.6517326242
 31
0.0
  0
SPLINE
  5
173C
330
1B
100
AcDbEntity
  8
0
  6
Continuous
100
AcDbSpline
210
0.0
220
0.0
230
1.0
 70
     8
 71
     3
 72
    14
 73
    10
 74
     8
 42
0.0000000001
 43
0.0000000001
 44
0.0000000001
 40
0.0
 40
0.0
 40
0.0
 40
0.0
 40
0.1194611349408947
 40
0.4729656324746496
 40
1.049477104647282
 40
1.830060265999896
 40
2.800438316852437
 40
3.957806070772145
 40
5.280450501541255
 40
5.280450501541255
 40
5.280450501541255
 40
5.280450501541255
 10
126.6557956155
 20
179.1721141697
 30
0.0
 10
126.6209107181162
 20
179.1529122035473
 30
0.0
 10
126.4827958612374
 20
179.0768885656448
 30
0.0
 10
126.1735935070799
 20
178.9131995261975
 30
0.0
 10
125.6625589715746
 20
178.6600542410049
 30
0.0
 10
124.9540636342641
 20
178.3431893751684
 30
0.0
 10
124.0499217065898
 20
177.9924954632364
 30
0.0
 10
122.9556116814977
 20
177.6346301534588
 30
0.0
 10
122.1505073352234
 20
177.4455103230399
 30
0.0
 10
121.7211276788
 20
177.3446486047
 30
0.0
 11
126.6557956155
 21
179.1721141697
 31
0.0
 11
126.5510622809
 21
179.1146520832
 31
0.0
 11
126.2387432659
 21
178.9490553965
 31
0.0
 11
125.7221384928
 21
178.6931550527
 31
0.0
 11
125.0095850984
 21
178.3744424362
 31
0.0
 11
124.1052760055
 21
178.0225068937
 31
0.0
 11
123.0039890117
 21
177.6666037115
 31
0.0
 11
121.7211276788
 21
177.3446486047
 31
0.0
  0
SPLINE
  5
173D
330
1B
100
AcDbEntity
  8
0
  6
Continuous
100
AcDbSpline
210
0.0
220
0.0
230
1.0
 70
     8
 71
     3
 72
     9
 73
     5
 74
     3
 42
0.0000000001
 43
0.0000000001
 44
0.0000000001
 40
0.0
 40
0.0
 40
0.0
 40
0.0
 40
1.3980058940771
 40
2.956738251139947
 40
2.956738251139947
 40
2.956738251139947
 40
2.956738251139947
 10
121.1871695078
 20
182.121869797
 30
0.0
 10
120.7424725447374
 20
181.9825615287411
 30
0.0
 10
119.8019525323228
 20
181.6879289472861
 30
0.0
 10
118.8578446314697
 20
181.4049992064807
 30
0.0
 10
118.3601301202
 20
181.2558443932
 30
0.0
 11
121.1871695078
 21
182.121869797
 31
0.0
 11
119.8522765137
 21
181.7065612681
 31
0.0
 11
118.3601301202
 21
181.2558443932
 31
0.0
  0
SPLINE
  5
173E
330
1B
100
AcDbEntity
  8
0
  6
Continuous
100
AcDbSpline
210
0.0
220
0.0
230
1.0
 70
     8
 71
     3
 72
    15
 73
    11
 74
     9
 42
0.0000000001
 43
0.0000000001
 44
0.0000000001
 40
0.0
 40
0.0
 40
0.0
 40
0.0
 40
0.4902881332297728
 40
1.049815393280672
 40
1.678971335147753
 40
2.364187354001675
 40
3.083259124134926
 40
3.809524128408949
 40
4.51543102106868
 40
5.175995317648177
 40
5.175995317648177
 40
5.175995317648177
 40
5.175995317648177
 10
121.1871658642
 20
182.1218769292
 30
0.0
 10
121.0820554420293
 20
181.9951651791148
 30
0.0
 10
120.8569907673817
 20
181.7238472810603
 30
0.0
 10
120.6770195151078
 20
181.1827828281289
 30
0.0
 10
120.5909937595312
 20
180.5628318844832
 30
0.0
 10
120.6180350932239
 20
179.8819110984697
 30
0.0
 10
120.7505986119923
 20
179.1816810642031
 30
0.0
 10
120.9853562471599
 20
178.5023657814354
 30
0.0
 10
121.2988335127308
 20
177.8741212158884
 30
0.0
 10
121.5835116081388
 20
177.5171912808677
 30
0.0
 10
121.7211275252
 20
177.3446481835
 30
0.0
 11
121.1871658642
 21
182.1218769292
 31
0.0
 11
120.8963793569
 21
181.727129338
 31
0.0
 11
120.7006238573
 21
181.2029628195
 31
0.0
 11
120.6113977449
 21
180.5801659826
 31
0.0
 11
120.6339418323
 21
179.8953209223
 31
0.0
 11
120.7669315872
 21
179.1886541439
 31
0.0
 11
121.0025551149
 21
178.5016734967
 31
0.0
 11
121.3269722278
 21
177.8747300559
 31
0.0
 11
121.7211275252
 21
177.3446481835
 31
0.0
  0
SPLINE
  5
173F
330
1B
100
AcDbEntity
  8
0
  6
Continuous
100
AcDbSpline
210
0.0
220
0.0
230
1.0
 70
     8
 71
     3
 72
     9
 73
     5
 74
     3
 42
0.0000000001
 43
0.0000000001
 44
0.0000000001
 40
0.0
 40
0.0
 40
0.0
 40
0.0
 40
1.36154458643636
 40
2.887525218012332
 40
2.887525218012332
 40
2.887525218012332
 40
2.887525218012332
 10
121.7211276788
 20
177.3446486047
 30
0.0
 10
121.277167383658
 20
177.2504066436655
 30
0.0
 10
120.3356289567938
 20
177.050540960387
 30
0.0
 10
119.3916817646181
 20
176.8623726674385
 30
0.0
 10
118.8928306642
 20
176.7629307063
 30
0.0
 11
121.7211276788
 21
177.3446486047
 31
0.0
 11
120.3887112352
 21
177.0645234868
 31
0.0
 11
118.8928306642
 21
176.7629307063
 31
0.0
  0
SPLINE
  5
1740
330
1B
100
AcDbEntity
  8
0
  6
Continuous
100
AcDbSpline
210
0.0
220
0.0
230
1.0
 70
     8
 71
     3
 72
    15
 73
    11
 74
     9
 42
0.0000000001
 43
0.0000000001
 44
0.0000000001
 40
0.0
 40
0.0
 40
0.0
 40
0.0
 40
0.3569231309596305
 40
0.7979814023347528
 40
1.357113539333066
 40
1.999221366645269
 40
2.685970092322927
 40
3.389363538564254
 40
4.079193471126065
 40
4.726683041992669
 40
4.726683041992669
 40
4.726683041992669
 40
4.726683041992669
 10
118.3601301202
 20
181.2558443932
 30
0.0
 10
118.2966412624812
 20
181.1545548607327
 30
0.0
 10
118.1546977364932
 20
180.9280994809911
 30
0.0
 10
118.0397037797924
 20
180.4845496946991
 30
0.0
 10
117.9831203797664
 20
179.939367087646
 30
0.0
 10
118.0109497223913
 20
179.3082972026048
 30
0.0
 10
118.1201908532127
 20
178.6383302859884
 30
0.0
 10
118.3085094544601
 20
177.9700565214976
 30
0.0
 10
118.557526877411
 20
177.3343656033985
 30
0.0
 10
118.7835528167644
 20
176.9494692543981
 30
0.0
 10
118.892987726
 20
176.763114108
 30
0.0
 11
118.3601301202
 21
181.2558443932
 31
0.0
 11
118.1845335683
 21
180.9451033879
 31
0.0
 11
118.059487987
 21
180.5221423952
 31
0.0
 11
117.9987821922
 21
179.9663154859
 31
0.0
 11
118.022396395
 21
179.3246420243
 31
0.0
 11
118.131776
 21
178.6466597869
 31
0.0
 11
118.3209187079
 21
177.969173716
 31
0.0
 11
118.5794139467
 21
177.3296070288
 31
0.0
 11
118.892987726
 21
176.763114108
 31
0.0
  0
SPLINE
  5
1741
330
1B
100
AcDbEntity
  8
0
  6
Continuous
100
AcDbSpline
210
0.0
220
0.0
230
1.0
 70
     8
 71
     3
 72
    19
 73
    15
 74
    13
 42
0.0000000001
 43
0.0000000001
 44
0.0000000001
 40
0.0
 40
0.0
 40
0.0
 40
0.0
 40
1.99477697821752
 40
4.006482782667749
 40
5.887359655149389
 40
7.664573853160219
 40
9.477006552292524
 40
11.3864515698927
 40
13.40662119659342
 40
15.56061366578296
 40
17.90126090432133
 40
20.47732350764233
 40
23.2579337075341
 40
26.07724453797258
 40
26.07724453797258
 40
26.07724453797258
 40
26.07724453797258
 10
117.1376705445
 20
178.6577681819
 30
0.0
 10
116.7739536954902
 20
178.1008613119089
 30
0.0
 10
116.0434332868246
 20
176.9823213395045
 30
0.0
 10
115.1174147185753
 20
175.2488131758341
 30
0.0
 10
114.3683868814283
 20
173.5110154674185
 30
0.0
 10
113.8133208977213
 20
171.7707412606607
 30
0.0
 10
113.4413860042968
 20
169.9721996474052
 30
0.0
 10
113.2644608376282
 20
168.0623034403591
 30
0.0
 10
113.3014837357846
 20
166.0309037316261
 30
0.0
 10
113.5607565853413
 20
163.871614389519
 30
0.0
 10
114.0447959856062
 20
161.562364663854
 30
0.0
 10
114.7533013663904
 20
159.0946312918131
 30
0.0
 10
115.6495182829623
 20
156.5193239210263
 30
0.0
 10
116.3537531264806
 20
154.7903881606845
 30
0.0
 10
116.7083040051
 20
153.9199460084
 30
0.0
 11
117.1376705445
 21
178.6577681819
 31
0.0
 11
116.0713943544
 21
176.9718885067
 31
0.0
 11
115.1230162622
 21
175.1977579484
 31
0.0
 11
114.3843271834
 21
173.4680076039
 31
0.0
 11
113.8466602542
 21
171.7740759114
 31
0.0
 11
113.4804477382
 21
169.9990264242
 31
0.0
 11
113.3021071583
 21
168.0979280804
 31
0.0
 11
113.3336293926
 21
166.0780044013
 31
0.0
 11
113.5829126458
 21
163.9384854327
 31
0.0
 11
114.0549647163
 21
161.6459330695
 31
0.0
 11
114.7562402646
 21
159.1671609659
 31
0.0
 11
115.6675635723
 21
156.5401316717
 31
0.0
 11
116.7083040051
 21
153.9199460084
 31
0.0
  0
SPLINE
  5
1742
330
1B
100
AcDbEntity
  8
0
  6
Continuous
100
AcDbSpline
210
0.0
220
0.0
230
1.0
 70
     8
 71
     3
 72
    11
 73
     7
 74
     5
 42
0.0000000001
 43
0.0000000001
 44
0.0000000001
 40
0.0
 40
0.0
 40
0.0
 40
0.0
 40
0.6163336086497065
 40
1.270440625283569
 40
1.945551141725349
 40
2.622296652019643
 40
2.622296652019643
 40
2.622296652019643
 40
2.622296652019643
 10
117.1376748289
 20
178.6577681833
 30
0.0
 10
117.2300470507966
 20
178.4736283527477
 30
0.0
 10
117.4204527364485
 20
178.0940632630247
 30
0.0
 10
117.8338746038789
 20
177.5891215686159
 30
0.0
 10
118.3216235608859
 20
177.1274747390407
 30
0.0
 10
118.7023795033275
 20
176.8846655397049
 30
0.0
 10
118.892987726
 20
176.763114108
 30
0.0
 11
117.1376748289
 21
178.6577681833
 31
0.0
 11
117.4335158205
 21
178.1170786006
 31
0.0
 11
117.8392783663
 21
177.6040359653
 31
0.0
 11
118.3342077531
 21
177.1448855417
 31
0.0
 11
118.892987726
 21
176.763114108
 31
0.0
  0
SPLINE
  5
1743
330
1B
100
AcDbEntity
  8
0
  6
Continuous
100
AcDbSpline
210
0.0
220
0.0
230
1.0
 70
     8
 71
     3
 72
    19
 73
    15
 74
    13
 42
0.0000000001
 43
0.0000000001
 44
0.0000000001
 40
0.0
 40
0.0
 40
0.0
 40
0.0
 40
1.765936012705207
 40
3.516980085209961
 40
5.127139734134977
 40
6.629505400789625
 40
8.154140185849274
 40
9.767559093698118
 40
11.49807101448657
 40
13.38003461059143
 40
15.46959524129977
 40
17.8162240702683
 40
20.39289862755761
 40
23.04054102444732
 40
23.04054102444732
 40
23.04054102444732
 40
23.04054102444732
 10
118.8928306642
 20
176.7629307063
 30
0.0
 10
118.5137898216148
 20
176.3121626531283
 30
0.0
 10
117.7589045453292
 20
175.4144278231867
 30
0.0
 10
116.804425949162
 20
173.9920350431274
 30
0.0
 10
116.0498597119634
 20
172.5530765098142
 30
0.0
 10
115.5142254752898
 20
171.0980442843403
 30
0.0
 10
115.1895367278887
 20
169.5799972821742
 30
0.0
 10
115.0931038636967
 20
167.9537536392187
 30
0.0
 10
115.2465271058487
 20
166.2128738002583
 30
0.0
 10
115.6576256799511
 20
164.3527061612301
 30
0.0
 10
116.3294692499843
 20
162.3532949282735
 30
0.0
 10
117.2612713075829
 20
160.2072319065816
 30
0.0
 10
118.4099657584026
 20
157.9583164877285
 30
0.0
 10
119.2886334197719
 20
156.4545252867674
 30
0.0
 10
119.7339352216
 20
155.6924158331
 30
0.0
 11
118.8928306642
 21
176.7629307063
 31
0.0
 11
117.780959939
 21
175.3909709797
 31
0.0
 11
116.8064914782
 21
173.9361285268
 31
0.0
 11
116.0661523469
 21
172.5062641746
 31
0.0
 11
115.5507545195
 21
171.0950704686
 31
0.0
 11
115.2329067328
 21
169.6039353264
 31
0.0
 11
115.1336966039
 21
167.9935695535
 31
0.0
 11
115.2775101495
 21
166.2690437717
 31
0.0
 11
115.6731924543
 21
164.4291463586
 31
0.0
 11
116.3282504948
 21
162.4449178957
 31
0.0
 11
117.2517926458
 21
160.2876657648
 31
0.0
 11
118.4201212936
 21
157.991090065
 31
0.0
 11
119.7339352216
 21
155.6924158331
 31
0.0
  0
SPLINE
  5
1744
330
1B
100
AcDbEntity
  8
0
  6
Continuous
100
AcDbSpline
210
0.0
220
0.0
230
1.0
 70
     8
 71
     3
 72
    13
 73
     9
 74
     7
 42
0.0000000001
 43
0.0000000001
 44
0.0000000001
 40
0.0
 40
0.0
 40
0.0
 40
0.0
 40
0.6664008740717382
 40
1.252175700317216
 40
1.76589741662222
 40
2.209306490425952
 40
2.583812611211981
 40
2.888812437609511
 40
2.888812437609511
 40
2.888812437609511
 40
2.888812437609511
 10
116.7083040051
 20
153.9199460084
 30
0.0
 10
116.8457729300267
 20
153.7451552747784
 30
0.0
 10
117.1040787847147
 20
153.4167212678655
 30
0.0
 10
117.4035894739527
 20
152.9083347202634
 30
0.0
 10
117.6220601987927
 20
152.4414182817509
 30
0.0
 10
117.7613269737305
 20
152.0199296545203
 30
0.0
 10
117.8418013086821
 20
151.6507995349672
 30
0.0
 10
117.8295395714114
 20
151.4237722090215
 30
0.0
 10
117.824035826
 20
151.321869797
 30
0.0
 11
116.7083040051
 21
153.9199460084
 31
0.0
 11
117.1077029542
 21
153.3864944132
 31
0.0
 11
117.4070684872
 21
152.8829942397
 31
0.0
 11
117.6218104257
 21
152.416308155
 31
0.0
 11
117.7606202862
 21
151.9951865225
 31
0.0
 11
117.8282656059
 21
151.6268402924
 31
0.0
 11
117.824035826
 21
151.321869797
 31
0.0
  0
SPLINE
  5
1745
330
1B
100
AcDbEntity
  8
0
  6
Continuous
100
AcDbSpline
210
0.0
220
0.0
230
1.0
 70
     8
 71
     3
 72
    12
 73
     8
 74
     6
 42
0.0000000001
 43
0.0000000001
 44
0.0000000001
 40
0.0
 40
0.0
 40
0.0
 40
0.0
 40
0.6358199661996277
 40
1.343082677853544
 40
2.091313891931342
 40
2.845136261002304
 40
3.568541994378727
 40
3.568541994378727
 40
3.568541994378727
 40
3.568541994378727
 10
116.7082850355
 20
153.9199460104
 30
0.0
 10
116.8480412821616
 20
154.0798957960724
 30
0.0
 10
117.143257230058
 20
154.4177678319994
 30
0.0
 10
117.7034670547519
 20
154.8400510201859
 30
0.0
 10
118.3396580363959
 20
155.2119497344861
 30
0.0
 10
119.022031233446
 20
155.5115148728548
 30
0.0
 10
119.4999092998379
 20
155.6329365712895
 30
0.0
 10
119.733928496
 20
155.6923973632
 30
0.0
 11
116.7082850355
 21
153.9199460104
 31
0.0
 11
117.1420227638
 21
154.3848531113
 31
0.0
 11
117.6993949612
 21
154.820234297
 31
0.0
 11
118.3450041384
 21
155.1984389242
 31
0.0
 11
119.0378490282
 21
155.4954475483
 31
0.0
 11
119.733928496
 21
155.6923973632
 31
0.0
  0
SPLINE
  5
1746
330
1B
100
AcDbEntity
  8
0
  6
Continuous
100
AcDbSpline
210
0.0
220
0.0
230
1.0
 70
     8
 71
     3
 72
    13
 73
     9
 74
     7
 42
0.0000000001
 43
0.0000000001
 44
0.0000000001
 40
0.0
 40
0.0
 40
0.0
 40
0.0
 40
1.044582101694354
 40
1.966183613478053
 40
2.77859813277634
 40
3.494318947837379
 40
4.134679260216821
 40
4.729496613550933
 40
4.729496613550933
 40
4.729496613550933
 40
4.729496613550933
 10
119.7339352216
 20
155.6924158331
 30
0.0
 10
119.9019241080367
 20
155.3867297543507
 30
0.0
 10
120.2181242374689
 20
154.8113465863543
 30
0.0
 10
120.5159449692858
 20
153.9296945567495
 30
0.0
 10
120.6593917036663
 20
153.1211054228091
 30
0.0
 10
120.6437677508222
 20
152.3959122300562
 30
0.0
 10
120.4887114884709
 20
151.7495822984629
 30
0.0
 10
120.2415521666591
 20
151.4157306023562
 30
0.0
 10
120.1225290838
 20
151.254959575
 30
0.0
 11
119.7339352216
 21
155.6924158331
 31
0.0
 11
120.2081364099
 21
154.7616715072
 31
0.0
 11
120.5038293414
 21
153.8887940606
 31
0.0
 11
120.636650868
 21
153.0873105653
 31
0.0
 11
120.6159232906
 21
152.3718899529
 31
0.0
 11
120.4450473767
 21
151.7547491653
 31
0.0
 11
120.1225290838
 21
151.254959575
 31
0.0
  0
SPLINE
  5
1747
330
1B
100
AcDbEntity
  8
0
  6
Continuous
100
AcDbSpline
210
0.0
220
0.0
230
1.0
 70
     8
 71
     3
 72
     9
 73
     5
 74
     3
 42
0.0000000001
 43
0.0000000001
 44
0.0000000001
 40
0.0
 40
0.0
 40
0.0
 40
0.0
 40
0.1173233684108553
 40
0.2285102215951253
 40
0.2285102215951253
 40
0.2285102215951253
 40
0.2285102215951253
 10
117.824035826
 20
151.321869797
 30
0.0
 10
117.7983765590797
 20
151.2923563397133
 30
0.0
 10
117.7484001149206
 20
151.2348731055037
 30
0.0
 10
117.699014256968
 20
151.1768817372944
 30
0.0
 10
117.6749844429
 20
151.1486647162
 30
0.0
 11
117.824035826
 21
151.321869797
 31
0.0
 11
117.7472137082
 21
151.2331954772
 31
0.0
 11
117.6749844429
 21
151.1486647162
 31
0.0
  0
SPLINE
  5
1748
330
1B
100
AcDbEntity
  8
0
  6
Continuous
100
AcDbSpline
210
0.0
220
0.0
230
1.0
 70
     8
 71
     3
 72
    10
 73
     6
 74
     4
 42
0.0000000001
 43
0.0000000001
 44
0.0000000001
 40
0.0
 40
0.0
 40
0.0
 40
0.0
 40
0.7611121474747769
 40
1.547402490680042
 40
2.356174560206759
 40
2.356174560206759
 40
2.356174560206759
 40
2.356174560206759
 10
117.8240374492
 20
151.3218667346
 30
0.0
 10
118.0672106356004
 20
151.3985139208376
 30
0.0
 10
118.5616013709879
 20
151.5543438432495
 30
0.0
 10
119.3654693636403
 20
151.5250065111877
 30
0.0
 10
119.8678164146687
 20
151.3458189839914
 30
0.0
 10
120.1225301242
 20
151.2549624344
 30
0.0
 11
117.8240374492
 21
151.3218667346
 31
0.0
 11
118.5616724236
 21
151.5094469723
 31
0.0
 11
119.347629884
 21
151.4865695979
 31
0.0
 11
120.1225301242
 21
151.2549624344
 31
0.0
  0
SPLINE
  5
1749
330
1B
100
AcDbEntity
  8
0
  6
Continuous
100
AcDbSpline
210
0.0
220
0.0
230
1.0
 70
     8
 71
     3
 72
     9
 73
     5
 74
     3
 42
0.0000000001
 43
0.0000000001
 44
0.0000000001
 40
0.0
 40
0.0
 40
0.0
 40
0.0
 40
0.0970205429399469
 40
0.1891156609339703
 40
0.1891156609339703
 40
0.1891156609339703
 40
0.1891156609339703
 10
120.1225290838
 20
151.254959575
 30
0.0
 10
120.1006850444989
 20
151.2311109527776
 30
0.0
 10
120.0581059184217
 20
151.184624427169
 30
0.0
 10
120.0162056485246
 20
151.1375251791592
 30
0.0
 10
119.9958011496
 20
151.1145888936
 30
0.0
 11
120.1225290838
 21
151.254959575
 31
0.0
 11
120.0571756353
 21
151.1832524448
 31
0.0
 11
119.9958011496
 21
151.1145888936
 31
0.0
  0
SPLINE
  5
174A
330
1B
100
AcDbEntity
  8
0
  6
Continuous
100
AcDbSpline
210
0.0
220
0.0
230
1.0
 70
     8
 71
     3
 72
    11
 73
     7
 74
     5
 42
0.0000000001
 43
0.0000000001
 44
0.0000000001
 40
0.0
 40
0.0
 40
0.0
 40
0.0
 40
0.575293563724361
 40
1.168926599711084
 40
1.774031112507958
 40
2.38205821615288
 40
2.38205821615288
 40
2.38205821615288
 40
2.38205821615288
 10
117.6749844429
 20
151.1486647162
 30
0.0
 10
117.8562511994878
 20
151.2135931032447
 30
0.0
 10
118.2245632175246
 20
151.3455196942558
 30
0.0
 10
118.8203062964596
 20
151.3890919723751
 30
0.0
 10
119.4239586117657
 20
151.3242463250409
 30
0.0
 10
119.8049305601019
 20
151.1846416745621
 30
0.0
 10
119.9958754396
 20
151.1146711865
 30
0.0
 11
117.6749844429
 21
151.1486647162
 31
0.0
 11
118.2246533809
 21
151.3184491179
 31
0.0
 11
118.8159523732
 21
151.3710388804
 31
0.0
 11
119.4169255558
 21
151.3004506009
 31
0.0
 11
119.9958754396
 21
151.1146711865
 31
0.0
  0
SPLINE
  5
174B
330
1B
100
AcDbEntity
  8
0
  6
Continuous
100
AcDbSpline
210
0.0
220
0.0
230
1.0
 70
     8
 71
     3
 72
     9
 73
     5
 74
     3
 42
0.0000000001
 43
0.0000000001
 44
0.0000000001
 40
0.0
 40
0.0
 40
0.0
 40
0.0
 40
0.5066289571570726
 40
0.9508829505003428
 40
0.9508829505003428
 40
0.9508829505003428
 40
0.9508829505003428
 10
116.2873432205
 20
148.5505885049
 30
0.0
 10
116.3684810619919
 20
148.4024808653028
 30
0.0
 10
116.5207672450558
 20
148.1245002498204
 30
0.0
 10
116.6735009359662
 20
147.8467652716507
 30
0.0
 10
116.7448583539
 20
147.7170070579
 30
0.0
 11
116.2873432205
 21
148.5505885049
 31
0.0
 11
116.5308837809
 21
148.1063353162
 31
0.0
 11
116.7448583539
 21
147.7170070579
 31
0.0
  0
SPLINE
  5
174C
330
1B
100
AcDbEntity
  8
0
  6
Continuous
100
AcDbSpline
210
0.0
220
0.0
230
1.0
 70
     8
 71
     3
 72
    15
 73
    11
 74
     9
 42
0.0000000001
 43
0.0000000001
 44
0.0000000001
 40
0.0
 40
0.0
 40
0.0
 40
0.0
 40
0.5760567796072033
 40
1.177945459833076
 40
1.80023048790966
 40
2.434499650780766
 40
3.070707953576431
 40
3.69855450822833
 40
4.308860308006195
 40
4.894928466917688
 40
4.894928466917688
 40
4.894928466917688
 40
4.894928466917688
 10
116.2873432205
 20
148.5505885049
 30
0.0
 10
116.3413598938886
 20
148.7355436417399
 30
0.0
 10
116.4518154903261
 20
149.1137477900566
 30
0.0
 10
116.7632728110034
 20
149.6335284512084
 30
0.0
 10
117.1667784417915
 20
150.1065335089627
 30
0.0
 10
117.6566680556835
 20
150.5093198506808
 30
0.0
 10
118.2081492693815
 20
150.8261460497166
 30
0.0
 10
118.7977342538383
 20
151.0395348176317
 30
0.0
 10
119.4009887037444
 20
151.1521056759073
 30
0.0
 10
119.8002762834753
 20
151.1269796716228
 30
0.0
 10
119.9958754396
 20
151.1146711865
 30
0.0
 11
116.2873432205
 21
148.5505885049
 31
0.0
 11
116.4717160989
 21
149.0963430789
 31
0.0
 11
116.7727977001
 21
149.6175146944
 31
0.0
 11
117.1770280432
 21
150.0906283022
 31
0.0
 11
117.6661998611
 21
150.4943711703
 31
0.0
 11
118.2182772254
 21
150.8105540104
 31
0.0
 11
118.8083899409
 21
151.0249328321
 31
0.0
 11
119.4099554873
 21
151.127850579
 31
0.0
 11
119.9958754396
 21
151.1146711865
 31
0.0
  0
SPLINE
  5
174D
330
1B
100
AcDbEntity
  8
0
  6
Continuous
100
AcDbSpline
210
0.0
220
0.0
230
1.0
 70
     8
 71
     3
 72
     9
 73
     5
 74
     3
 42
0.0000000001
 43
0.0000000001
 44
0.0000000001
 40
0.0
 40
0.0
 40
0.0
 40
0.0
 40
0.498768423649004
 40
0.9362858984154163
 40
0.9362858984154163
 40
0.9362858984154163
 40
0.9362858984154163
 10
119.9958011496
 20
151.1145888936
 30
0.0
 10
120.0976271183473
 20
150.9831636893186
 30
0.0
 10
120.2887743805037
 20
150.7364528719723
 30
0.0
 10
120.4802586327394
 20
150.4900035254443
 30
0.0
 10
120.5697373984
 20
150.3748400952
 30
0.0
 11
119.9958011496
 21
151.1145888936
 31
0.0
 11
120.3013746867
 21
150.7203874808
 31
0.0
 11
120.5697373984
 21
150.3748400952
 31
0.0
  0
SPLINE
  5
174E
330
1B
100
AcDbEntity
  8
0
  6
Continuous
100
AcDbSpline
210
0.0
220
0.0
230
1.0
 70
     8
 71
     3
 72
    15
 73
    11
 74
     9
 42
0.0000000001
 43
0.0000000001
 44
0.0000000001
 40
0.0
 40
0.0
 40
0.0
 40
0.0
 40
1.08922302791807
 40
2.338075764794154
 40
3.751704017101515
 40
5.303190589238096
 40
6.886819705429059
 40
8.346132150769446
 40
9.686451631492876
 40
10.92372978647995
 40
10.92372978647995
 40
10.92372978647995
 40
10.92372978647995
 10
83.1062201365
 20
168.0070698161
 30
0.0
 10
83.28028089421537
 20
167.6882609983796
 30
0.0
 10
83.65391166476003
 20
167.0039207382039
 30
0.0
 10
84.14683541446453
 20
165.8525580905433
 30
0.0
 10
84.60603913489396
 20
164.5239461325888
 30
0.0
 10
84.98997715100299
 20
163.0555914287362
 30
0.0
 10
85.27940518906159
 20
161.5508069408536
 30
0.0
 10
85.48038457129118
 20
160.1031733325283
 30
0.0
 10
85.61732565903222
 20
158.7642282439199
 30
0.0
 10
85.6760891559436
 20
157.9069993973728
 30
0.0
 10
85.7042963478
 20
157.495519145
 30
0.0
 11
83.1062201365
 21
168.0070698161
 31
0.0
 11
83.6139832905
 21
167.0434395011
 31
0.0
 11
84.1120559253
 21
165.8982072937
 31
0.0
 11
84.57445979640001
 21
164.5623452141
 31
0.0
 11
84.9708258897
 21
163.0623437129
 31
0.0
 11
85.27310721569999
 21
161.5078318353
 31
0.0
 11
85.4767663288
 21
160.0628004243
 31
0.0
 11
85.61306785079999
 21
158.7294294311
 31
0.0
 11
85.7042963478
 21
157.495519145
 31
0.0
  0
SPLINE
  5
174F
330
1B
100
AcDbEntity
  8
0
  6
Continuous
100
AcDbSpline
210
0.0
220
0.0
230
1.0
 70
     8
 71
     3
 72
    12
 73
     8
 74
     6
 42
0.0000000001
 43
0.0000000001
 44
0.0000000001
 40
0.0
 40
0.0
 40
0.0
 40
0.0
 40
0.6496906663813825
 40
1.329552355440574
 40
2.01990323151715
 40
2.699764426615811
 40
3.349454355866446
 40
3.349454355866446
 40
3.349454355866446
 40
3.349454355866446
 10
83.10622013530001
 20
168.0070472818
 30
0.0
 10
83.30266119491681
 20
168.099316044818
 30
0.0
 10
83.70466585195378
 20
168.2881384453113
 30
0.0
 10
84.24601649473947
 20
168.6962156670293
 30
0.0
 10
84.72992859267886
 20
169.1801368690871
 30
0.0
 10
85.13799529378466
 20
169.7214949986315
 30
0.0
 10
85.32680914356823
 20
170.1235032391085
 30
0.0
 10
85.419073709
 20
170.3199460088
 30
0.0
 11
83.10622013530001
 21
168.0070472818
 31
0.0
 11
83.68463723359999
 21
168.3029047177
 31
0.0
 11
84.2324236031
 21
168.7055733279
 31
0.0
 11
84.7205707734
 21
169.1937297293
 31
0.0
 11
85.12322850590002
 21
169.7415234816
 31
0.0
 11
85.419073709
 21
170.3199460088
 31
0.0
  0
SPLINE
  5
1750
330
1B
100
AcDbEntity
  8
0
  6
Continuous
100
AcDbSpline
210
0.0
220
0.0
230
1.0
 70
     8
 71
     3
 72
    15
 73
    11
 74
     9
 42
0.0000000001
 43
0.0000000001
 44
0.0000000001
 40
0.0
 40
0.0
 40
0.0
 40
0.0
 40
1.434169450181604
 40
3.071388527080631
 40
4.895077958383089
 40
6.846938553358898
 40
8.777262348714286
 40
10.50025494020467
 40
12.03926828106419
 40
13.42756627133194
 40
13.42756627133194
 40
13.42756627133194
 40
13.42756627133194
 10
85.4190963288
 20
170.3199460084
 30
0.0
 10
85.72077245186125
 20
169.9485574683757
 30
0.0
 10
86.36683598580922
 20
169.153199220593
 30
0.0
 10
87.21995722178585
 20
167.7569075479217
 30
0.0
 10
88.01647070512752
 20
166.1356692297803
 30
0.0
 10
88.68496256560349
 20
164.3518077061546
 30
0.0
 10
89.19146109930244
 20
162.5514593525764
 30
0.0
 10
89.54393427760618
 20
160.8560050538665
 30
0.0
 10
89.78397391332155
 20
159.3239045450603
 30
0.0
 10
89.88810489110256
 20
158.3536056677858
 30
0.0
 10
89.9374897398
 20
157.8934345999
 30
0.0
 11
85.4190963288
 21
170.3199460084
 31
0.0
 11
86.29997103229999
 21
169.1881766995
 31
0.0
 11
87.16644900730002
 21
167.7990394764
 31
0.0
 11
87.97118658310001
 21
166.1625063799
 31
0.0
 11
88.6611897679
 21
164.3366763256
 31
0.0
 11
89.18726874559999
 21
162.4794227446
 31
0.0
 11
89.5416205371
 21
160.7932619343
 31
0.0
 11
89.77877045859999
 21
159.2726298361
 31
0.0
 11
89.9374897398
 21
157.8934345999
 31
0.0
  0
SPLINE
  5
1751
330
1B
100
AcDbEntity
  8
0
  6
Continuous
100
AcDbSpline
210
0.0
220
0.0
230
1.0
 70
     8
 71
     3
 72
    10
 73
     6
 74
     4
 42
0.0000000001
 43
0.0000000001
 44
0.0000000001
 40
0.0
 40
0.0
 40
0.0
 40
0.0
 40
1.170199428952309
 40
2.399267166718901
 40
3.689941541550343
 40
3.689941541550343
 40
3.689941541550343
 40
3.689941541550343
 10
85.7042963478
 20
157.495519145
 30
0.0
 10
85.74808275039203
 20
157.1079050004657
 30
0.0
 10
85.8378582839367
 20
156.3131773093323
 30
0.0
 10
85.93508959301457
 20
155.0866816174012
 30
0.0
 10
85.96955968114258
 20
154.247422329049
 30
0.0
 10
85.98721611480001
 20
153.8175329162
 30
0.0
 11
85.7042963478
 21
157.495519145
 31
0.0
 11
85.829338831
 21
156.3320196474
 31
0.0
 11
85.925870244
 21
155.1067485793
 31
0.0
 11
85.98721611480001
 21
153.8175329162
 31
0.0
  0
SPLINE
  5
1752
330
1B
100
AcDbEntity
  8
0
  6
Continuous
100
AcDbSpline
210
0.0
220
0.0
230
1.0
 70
     8
 71
     3
 72
    14
 73
    10
 74
     8
 42
0.0000000001
 43
0.0000000001
 44
0.0000000001
 40
0.0
 40
0.0
 40
0.0
 40
0.0
 40
0.4100817769566272
 40
0.9401379159564589
 40
1.561743592050513
 40
2.241285139205073
 40
2.941916310744213
 40
3.625620045410744
 40
4.255318819192458
 40
4.255318819192458
 40
4.255318819192458
 40
4.255318819192458
 10
85.70429545330001
 20
157.495519008
 30
0.0
 10
85.84100789169845
 20
157.4959947612175
 30
0.0
 10
86.15442963863663
 20
157.4970854549854
 30
0.0
 10
86.67437331712952
 20
157.5264069801761
 30
0.0
 10
87.2830800375945
 20
157.5716280955143
 30
0.0
 10
87.94742407605068
 20
157.6345914763107
 30
0.0
 10
88.63113221073158
 20
157.7110570323279
 30
0.0
 10
89.29718271911922
 20
157.7957082796479
 30
0.0
 10
89.72998570578636
 20
157.8617645348387
 30
0.0
 10
89.937489124
 20
157.8934345999
 30
0.0
 11
85.70429545330001
 21
157.495519008
 31
0.0
 11
86.11435167490001
 21
157.5000970992
 31
0.0
 11
86.6437680284
 21
157.5261323664
 31
0.0
 11
87.26366396340001
 21
157.5722045524
 31
0.0
 11
87.9402231171
 21
157.635800353
 31
0.0
 11
88.636538053
 21
157.7134505209
 31
0.0
 11
89.31462362359999
 21
157.8009191195
 31
0.0
 11
89.937489124
 21
157.8934345999
 31
0.0
  0
SPLINE
  5
1753
330
1B
100
AcDbEntity
  8
0
  6
Continuous
100
AcDbSpline
210
0.0
220
0.0
230
1.0
 70
     8
 71
     3
 72
    10
 73
     6
 74
     4
 42
0.0000000001
 43
0.0000000001
 44
0.0000000001
 40
0.0
 40
0.0
 40
0.0
 40
0.0
 40
1.259202813253117
 40
2.585509311114909
 40
3.981870595199382
 40
3.981870595199382
 40
3.981870595199382
 40
3.981870595199382
 10
89.9374897398
 20
157.8934345999
 30
0.0
 10
89.97559171778765
 20
157.4754237094728
 30
0.0
 10
90.05382615136905
 20
156.6171258737532
 30
0.0
 10
90.13824751091627
 20
155.2922649889071
 30
0.0
 10
90.16816387132781
 20
154.3851656179429
 30
0.0
 10
90.1835069285
 20
153.9199460084
 30
0.0
 11
89.9374897398
 21
157.8934345999
 31
0.0
 11
90.0462411386
 21
156.6389367489
 31
0.0
 11
90.13016337649998
 21
155.3152880099
 31
0.0
 11
90.1835069285
 21
153.9199460084
 31
0.0
  0
SPLINE
  5
1754
330
1B
100
AcDbEntity
  8
0
  6
Continuous
100
AcDbSpline
210
0.0
220
0.0
230
1.0
 70
     8
 71
     3
 72
    14
 73
    10
 74
     8
 42
0.0000000001
 43
0.0000000001
 44
0.0000000001
 40
0.0
 40
0.0
 40
0.0
 40
0.0
 40
0.4098191187510367
 40
0.9349346729845225
 40
1.547718113531154
 40
2.215912498961242
 40
2.904338313555311
 40
3.576749295220993
 40
4.197743586460695
 40
4.197743586460695
 40
4.197743586460695
 40
4.197743586460695
 10
85.9872207195
 20
153.8175330978
 30
0.0
 10
86.12382778630062
 20
153.8178733345685
 30
0.0
 10
86.43547426027639
 20
153.8186495285949
 30
0.0
 10
86.95133165369877
 20
153.8264820478407
 30
0.0
 10
87.55324640054515
 20
153.8382770255717
 30
0.0
 10
88.20951952416526
 20
153.8544137504811
 30
0.0
 10
88.88558440074571
 20
153.8738596442695
 30
0.0
 10
89.54585028080133
 20
153.8953076259119
 30
0.0
 10
89.9766647308614
 20
153.9119537923772
 30
0.0
 10
90.1835088807
 20
153.9199460084
 30
0.0
 11
85.9872207195
 21
153.8175330978
 31
0.0
 11
86.39703596969999
 21
153.8193137711
 31
0.0
 11
86.9221037816
 21
153.8263946047
 31
0.0
 11
87.53476955639999
 21
153.8384026602
 31
0.0
 11
88.2027650313
 21
153.8547054892
 31
0.0
 11
88.8909078042
 21
153.8744444432
 31
0.0
 11
89.5629543427
 21
153.8965798979
 31
0.0
 11
90.1835088807
 21
153.9199460084
 31
0.0
  0
SPLINE
  5
1755
330
1B
100
AcDbEntity
  8
0
  6
Continuous
100
AcDbSpline
210
0.0
220
0.0
230
1.0
 70
     8
 71
     3
 72
    14
 73
    10
 74
     8
 42
0.0000000001
 43
0.0000000001
 44
0.0000000001
 40
0.0
 40
0.0
 40
0.0
 40
0.0
 40
0.347527830378249
 40
0.7344261691019791
 40
1.146357227965346
 40
1.565260552026462
 40
1.970410340427173
 40
2.343857758991878
 40
2.677000720013045
 40
2.677000720013045
 40
2.677000720013045
 40
2.677000720013045
 10
90.1835069285
 20
153.9199460084
 30
0.0
 10
90.19029280014981
 20
153.8042948715076
 30
0.0
 10
90.20463329689319
 20
153.5598907864369
 30
0.0
 10
90.24192320662669
 20
153.1794798923638
 30
0.0
 10
90.29599349261352
 20
152.7771190824594
 30
0.0
 10
90.36971319130311
 20
152.3714563612147
 30
0.0
 10
90.46597535501095
 20
151.9840946041774
 30
0.0
 10
90.57945726124842
 20
151.6298987761855
 30
0.0
 10
90.68821715080651
 20
151.4205659551383
 30
0.0
 10
90.73949522179998
 20
151.321869797
 30
0.0
 11
90.1835069285
 21
153.9199460084
 31
0.0
 11
90.2060028603
 21
153.5731470379
 31
0.0
 11
90.24333383370001
 21
153.1880539025
 31
0.0
 11
90.2987969109
 21
152.7798737409
 31
0.0
 11
90.37495033640001
 21
152.3679506283
 31
0.0
 11
90.4730965381
 21
151.9748683543
 31
0.0
 11
90.59380449669999
 21
151.621466935
 31
0.0
 11
90.73949522179998
 21
151.321869797
 31
0.0
  0
SPLINE
  5
1756
330
1B
100
AcDbEntity
  8
0
  6
Continuous
100
AcDbSpline
210
0.0
220
0.0
230
1.0
 70
     8
 71
     3
 72
    14
 73
    10
 74
     8
 42
0.0000000001
 43
0.0000000001
 44
0.0000000001
 40
0.0
 40
0.0
 40
0.0
 40
0.0
 40
0.6413074493737139
 40
1.356061395343302
 40
2.118628234612046
 40
2.897363119388097
 40
3.656448510691313
 40
4.366595709439251
 40
5.017741722532646
 40
5.017741722532646
 40
5.017741722532646
 40
5.017741722532646
 10
85.98721611480001
 20
153.8175329162
 30
0.0
 10
85.99678128327699
 20
153.6039418786388
 30
0.0
 10
86.01700708250056
 20
153.1522980364988
 30
0.0
 10
86.09240557063177
 20
152.4496079489431
 30
0.0
 10
86.21395719017417
 20
151.7071366223976
 30
0.0
 10
86.39101562067823
 20
150.9598751920568
 30
0.0
 10
86.63029467328863
 20
150.2495308434314
 30
0.0
 10
86.92172397019981
 20
149.6008478766796
 30
0.0
 10
87.19289188249861
 20
149.2355636721298
 30
0.0
 10
87.32259935730001
 20
149.0608376459
 30
0.0
 11
85.98721611480001
 21
153.8175329162
 31
0.0
 11
86.0221815388
 21
153.1771793703
 31
0.0
 11
86.0970287201
 21
152.4663551285
 31
0.0
 11
86.2217979637
 21
151.7140647456
 31
0.0
 11
86.4041506498
 21
150.9569811844
 31
0.0
 11
86.6476613836
 21
150.2380144579
 31
0.0
 11
86.9527117838
 21
149.5967241202
 31
0.0
 11
87.32259935730001
 21
149.0608376459
 31
0.0
  0
SPLINE
  5
1757
330
1B
100
AcDbEntity
  8
0
  6
Continuous
100
AcDbSpline
210
0.0
220
0.0
230
1.0
 70
     8
 71
     3
 72
     9
 73
     5
 74
     3
 42
0.0000000001
 43
0.0000000001
 44
0.0000000001
 40
0.0
 40
0.0
 40
0.0
 40
0.0
 40
0.1011456120915255
 40
0.2013857830802785
 40
0.2013857830802785
 40
0.2013857830802785
 40
0.2013857830802785
 10
87.32259935730001
 20
149.0608376459
 30
0.0
 10
87.34446601463017
 20
149.0351750878202
 30
0.0
 10
87.38800358209082
 20
148.9840796992228
 30
0.0
 10
87.43133371228049
 20
148.9328082820089
 30
0.0
 10
87.45290137009999
 20
148.9072878329
 30
0.0
 11
87.32259935730001
 21
149.0608376459
 31
0.0
 11
87.38814700259998
 21
148.9838055679
 31
0.0
 11
87.45290137009999
 21
148.9072878329
 31
0.0
  0
SPLINE
  5
1758
330
1B
100
AcDbEntity
  8
0
  6
Continuous
100
AcDbSpline
210
0.0
220
0.0
230
1.0
 70
     8
 71
     3
 72
    13
 73
     9
 74
     7
 42
0.0000000001
 43
0.0000000001
 44
0.0000000001
 40
0.0
 40
0.0
 40
0.0
 40
0.0
 40
0.7103679141969685
 40
1.448739467243209
 40
2.199325934665613
 40
2.944106998658686
 40
3.666111319061257
 40
4.35269341973659
 40
4.35269341973659
 40
4.35269341973659
 40
4.35269341973659
 10
87.3226017639
 20
149.060837333
 30
0.0
 10
87.4226716371038
 20
149.276459216182
 30
0.0
 10
87.62675626972163
 20
149.7162030811905
 30
0.0
 10
88.10696010168121
 20
150.2806236363194
 30
0.0
 10
88.68595253635623
 20
150.7549879238975
 30
0.0
 10
89.34375479613976
 20
151.1002314237901
 30
0.0
 10
90.03805789915133
 20
151.3142222136735
 30
0.0
 10
90.50963594965866
 20
151.3193643032717
 30
0.0
 10
90.7394955051
 20
151.3218706931
 30
0.0
 11
87.3226017639
 21
149.060837333
 31
0.0
 11
87.6497959149
 21
149.6913661278
 31
0.0
 11
88.11925494969999
 21
150.2612790729
 31
0.0
 11
88.70156859759999
 21
150.7348726334
 31
0.0
 11
89.3602565313
 21
151.0824773504
 31
0.0
 11
90.054053712
 21
151.2823165626
 31
0.0
 11
90.7394955051
 21
151.3218706931
 31
0.0
  0
SPLINE
  5
1759
330
1B
100
AcDbEntity
  8
0
  6
Continuous
100
AcDbSpline
210
0.0
220
0.0
230
1.0
 70
     8
 71
     3
 72
     9
 73
     5
 74
     3
 42
0.0000000001
 43
0.0000000001
 44
0.0000000001
 40
0.0
 40
0.0
 40
0.0
 40
0.0
 40
0.109538033259203
 40
0.2182994324102245
 40
0.2182994324102245
 40
0.2182994324102245
 40
0.2182994324102245
 10
90.73949522179998
 20
151.321869797
 30
0.0
 10
90.76176334008122
 20
151.2929335172931
 30
0.0
 10
90.80614169376351
 20
151.2352661185993
 30
0.0
 10
90.8503435215418
 20
151.1774633028373
 30
0.0
 10
90.872365808
 20
151.1486647162
 30
0.0
 11
90.73949522179998
 21
151.321869797
 31
0.0
 11
90.80625513059999
 21
151.2350268623
 31
0.0
 11
90.872365808
 21
151.1486647162
 31
0.0
  0
SPLINE
  5
175A
330
1B
100
AcDbEntity
  8
0
  6
Continuous
100
AcDbSpline
210
0.0
220
0.0
230
1.0
 70
     8
 71
     3
 72
    14
 73
    10
 74
     8
 42
0.0000000001
 43
0.0000000001
 44
0.0000000001
 40
0.0
 40
0.0
 40
0.0
 40
0.0
 40
0.6043241332899277
 40
1.231966055224561
 40
1.872398428781831
 40
2.51420862738885
 40
3.146497681630852
 40
3.75918666855702
 40
4.345273017794766
 40
4.345273017794766
 40
4.345273017794766
 40
4.345273017794766
 10
87.45292378950001
 20
148.9074241158
 30
0.0
 10
87.53700549473061
 20
149.091105794696
 30
0.0
 10
87.7084131897131
 20
149.4655564924276
 30
0.0
 10
88.0954749986899
 20
149.9618053475373
 30
0.0
 10
88.56249002644807
 20
150.3974761095979
 30
0.0
 10
89.09892895092875
 20
150.7498686584955
 30
0.0
 10
89.67794924089708
 20
151.0006461230476
 30
0.0
 10
90.27546500744387
 20
151.1507756772006
 30
0.0
 10
90.67636439572456
 20
151.149357882195
 30
0.0
 10
90.872365808
 20
151.1486647162
 30
0.0
 11
87.45292378950001
 21
148.9074241158
 31
0.0
 11
87.7252043976
 21
149.4469340124
 31
0.0
 11
88.10457544450001
 21
149.9469460032
 31
0.0
 11
88.57356231839998
 21
150.3830709133
 31
0.0
 11
89.1102250734
 21
150.7350842915
 31
0.0
 11
89.6902067784
 21
150.9868990448
 31
0.0
 11
90.28668328329999
 21
151.1269118078
 31
0.0
 11
90.872365808
 21
151.1486647162
 31
0.0
  0
SPLINE
  5
175B
330
1B
100
AcDbEntity
  8
0
  6
Continuous
100
AcDbSpline
210
0.0
220
0.0
230
1.0
 70
     8
 71
     3
 72
     9
 73
     5
 74
     3
 42
0.0000000001
 43
0.0000000001
 44
0.0000000001
 40
0.0
 40
0.0
 40
0.0
 40
0.0
 40
0.1271601824665229
 40
0.2545991632159134
 40
0.2545991632159134
 40
0.2545991632159134
 40
0.2545991632159134
 10
87.45290137009999
 20
148.9072878329
 30
0.0
 10
87.44832121190467
 20
148.865148459853
 30
0.0
 10
87.43915085353221
 20
148.7807773233219
 30
0.0
 10
87.42856838774645
 20
148.6965716447249
 30
0.0
 10
87.42327136070001
 20
148.6544227008
 30
0.0
 11
87.45290137009999
 21
148.9072878329
 31
0.0
 11
87.43880864140002
 21
148.7809109877
 31
0.0
 11
87.42327136070001
 21
148.6544227008
 31
0.0
  0
SPLINE
  5
175C
330
1B
100
AcDbEntity
  8
0
  6
Continuous
100
AcDbSpline
210
0.0
220
0.0
230
1.0
 70
     8
 71
     3
 72
    14
 73
    10
 74
     8
 42
0.0000000001
 43
0.0000000001
 44
0.0000000001
 40
0.0
 40
0.0
 40
0.0
 40
0.0
 40
0.4118511998909605
 40
0.9434547875130681
 40
1.566208978521683
 40
2.246382263287509
 40
2.947051439750907
 40
3.630158706884241
 40
4.258618734565482
 40
4.258618734565482
 40
4.258618734565482
 40
4.258618734565482
 10
87.45292378950001
 20
148.9074241158
 30
0.0
 10
87.59022265786501
 20
148.9070447241857
 30
0.0
 10
87.90474225793754
 20
148.9061756267179
 30
0.0
 10
88.42630629214146
 20
148.8799655424967
 30
0.0
 10
89.03646015337677
 20
148.8394582250128
 30
0.0
 10
89.70198533722493
 20
148.7830001680025
 30
0.0
 10
90.38654841295387
 20
148.7143865895029
 30
0.0
 10
91.05303013091822
 20
148.6384136156698
 30
0.0
 10
91.48618027471233
 20
148.5790389130694
 30
0.0
 10
91.6937316161
 20
148.5505885031
 30
0.0
 11
87.45292378950001
 21
148.9074241158
 31
0.0
 11
87.86475574609999
 21
148.9034428629
 31
0.0
 11
88.3958501977
 21
148.8801822126
 31
0.0
 11
89.0172353195
 21
148.838911002
 31
0.0
 11
89.69501347519999
 21
148.7818805806
 31
0.0
 11
90.39220943460001
 21
148.7122021116
 31
0.0
 11
91.0707883299
 21
148.633676821
 31
0.0
 11
91.6937316161
 21
148.5505885031
 31
0.0
  0
SPLINE
  5
175D
330
1B
100
AcDbEntity
  8
0
  6
Continuous
100
AcDbSpline
210
0.0
220
0.0
230
1.0
 70
     8
 71
     3
 72
     9
 73
     5
 74
     3
 42
0.0000000001
 43
0.0000000001
 44
0.0000000001
 40
0.0
 40
0.0
 40
0.0
 40
0.0
 40
0.1369005147181512
 40
0.2740114891895586
 40
0.2740114891895586
 40
0.2740114891895586
 40
0.2740114891895586
 10
91.69373162940001
 20
148.5505885049
 30
0.0
 10
91.68982466120234
 20
148.5051225069792
 30
0.0
 10
91.68200471855083
 20
148.4141206153982
 30
0.0
 10
91.67382185298563
 20
148.3231506394747
 30
0.0
 10
91.66972727770001
 20
148.2776307159
 30
0.0
 11
91.69373162940001
 21
148.5505885049
 31
0.0
 11
91.6819201334
 21
148.4141984778
 31
0.0
 11
91.66972727770001
 21
148.2776307159
 31
0.0
  0
SPLINE
  5
175E
330
1B
100
AcDbEntity
  8
0
  6
Continuous
100
AcDbSpline
210
0.0
220
0.0
230
1.0
 70
     8
 71
     3
 72
     9
 73
     5
 74
     3
 42
0.0000000001
 43
0.0000000001
 44
0.0000000001
 40
0.0
 40
0.0
 40
0.0
 40
0.0
 40
0.0336746224424329
 40
0.1407622913353782
 40
0.1407622913353782
 40
0.1407622913353782
 40
0.1407622913353782
 10
95.7588849715
 20
123.679097693
 30
0.0
 10
95.75084369286395
 20
123.6869304725067
 30
0.0
 10
95.71723058233802
 20
123.7196720420009
 30
0.0
 10
95.68519770105587
 20
123.753973693889
 30
0.0
 10
95.66082805950001
 20
123.7800693471
 30
0.0
 11
95.7588849715
 21
123.679097693
 31
0.0
 11
95.734851574
 21
123.7026853169
 31
0.0
 11
95.66082805950001
 21
123.7800693471
 31
0.0
  0
SPLINE
  5
175F
330
1B
100
AcDbEntity
  8
0
  6
Continuous
100
AcDbSpline
210
0.0
220
0.0
230
1.0
 70
     8
 71
     3
 72
    20
 73
    16
 74
    14
 42
0.0000000001
 43
0.0000000001
 44
0.0000000001
 40
0.0
 40
0.0
 40
0.0
 40
0.0
 40
0.1845804701388593
 40
0.4564848885536991
 40
0.8302843089744758
 40
1.326414932780854
 40
1.979102660880587
 40
2.826259911101124
 40
3.91724242573192
 40
5.320846886929647
 40
7.078100107006584
 40
9.146992380241786
 40
11.3868329731571
 40
13.72362885649159
 40
16.11172486680792
 40
16.11172486680792
 40
16.11172486680792
 40
16.11172486680792
 10
95.66082805950001
 20
123.7800693471
 30
0.0
 10
95.62037962625574
 20
123.8264652738146
 30
0.0
 10
95.52034684094647
 20
123.941206770679
 30
0.0
 10
95.36060097983676
 20
124.1678792417581
 30
0.0
 10
95.16895164065778
 20
124.4972432376286
 30
0.0
 10
94.95692702352903
 20
124.9592554649531
 30
0.0
 10
94.73396142931431
 20
125.5869252596916
 30
0.0
 10
94.51122879496774
 20
126.4221786734552
 30
0.0
 10
94.30027930741184
 20
127.5167248383117
 30
0.0
 10
94.1165537689122
 20
128.9227893644884
 30
0.0
 10
93.97915196113567
 20
130.6612410241966
 30
0.0
 10
93.90369662567002
 20
132.682305776185
 30
0.0
 10
93.89388609641334
 20
134.8977308631746
 30
0.0
 10
93.93963018077469
 20
137.2191097684928
 30
0.0
 10
94.00859932132553
 20
138.7926053568467
 30
0.0
 10
94.043458305
 20
139.5878952008
 30
0.0
 11
95.66082805950001
 21
123.7800693471
 31
0.0
 11
95.5414783722
 21
123.9208727636
 31
0.0
 11
95.383017053
 21
124.1418298252
 31
0.0
 11
95.1940767073
 21
124.4643628506
 31
0.0
 11
94.9846288574
 21
124.9141152203
 31
0.0
 11
94.7629954849
 21
125.5280206842
 31
0.0
 11
94.5406493477
 21
126.3454786965
 31
0.0
 11
94.3295156659
 21
127.4158363076
 31
0.0
 11
94.14239219749999
 21
128.806911536
 31
0.0
 11
93.9985046123
 21
130.5582639398
 31
0.0
 11
93.91671359110001
 21
132.6255388289
 31
0.0
 11
93.9028472613
 21
134.8653364998
 31
0.0
 11
93.94857247669999
 21
137.2016849766
 31
0.0
 11
94.043458305
 21
139.5878952008
 31
0.0
  0
SPLINE
  5
1760
330
1B
100
AcDbEntity
  8
0
  6
Continuous
100
AcDbSpline
210
0.0
220
0.0
230
1.0
 70
     8
 71
     3
 72
    11
 73
     7
 74
     5
 42
0.0000000001
 43
0.0000000001
 44
0.0000000001
 40
0.0
 40
0.0
 40
0.0
 40
0.0
 40
1.774472300071507
 40
3.341494543672913
 40
4.665234359710476
 40
4.907861460894408
 40
4.907861460894408
 40
4.907861460894408
 40
4.907861460894408
 10
69.55959128759999
 20
136.5178316406
 30
0.0
 10
69.38120551231282
 20
135.9538736203616
 30
0.0
 10
69.04528869086295
 20
134.8918887996287
 30
0.0
 10
68.59770400711611
 20
133.402571457359
 30
0.0
 10
68.30460920440439
 20
132.4000687002225
 30
0.0
 10
68.16054113116512
 20
131.8982158859287
 30
0.0
 10
68.1382252749
 20
131.8204798892
 30
0.0
 11
69.55959128759999
 21
136.5178316406
 31
0.0
 11
69.0287577571
 21
134.8246193956
 31
0.0
 11
68.5764031004
 21
133.3243081024
 31
0.0
 11
68.2052315958
 21
132.0536709336
 31
0.0
 11
68.1382252749
 21
131.8204798892
 31
0.0
  0
SPLINE
  5
1761
330
1B
100
AcDbEntity
  8
0
  6
Continuous
100
AcDbSpline
210
0.0
220
0.0
230
1.0
 70
     8
 71
     3
 72
    11
 73
     7
 74
     5
 42
0.0000000001
 43
0.0000000001
 44
0.0000000001
 40
0.0
 40
0.0
 40
0.0
 40
0.0
 40
0.8155411595970787
 40
1.586755277690678
 40
2.05498289177593
 40
2.212029120851969
 40
2.212029120851969
 40
2.212029120851969
 40
2.212029120851969
 10
68.1382252749
 20
131.8204798892
 30
0.0
 10
68.06365244214409
 20
131.5590607962519
 30
0.0
 10
67.91856002767142
 20
131.0504315007918
 30
0.0
 10
67.73416577267855
 20
130.390719479799
 30
0.0
 10
67.6100815363923
 20
129.9420661686067
 30
0.0
 10
67.55485841684161
 20
129.7410904640404
 30
0.0
 10
67.5409883617
 20
129.6906126184
 30
0.0
 11
68.1382252749
 21
131.8204798892
 31
0.0
 11
67.91522328400001
 21
131.036019887
 31
0.0
 11
67.7073989763
 21
130.2933353826
 31
0.0
 11
67.5826196773
 21
129.8420403293
 31
0.0
 11
67.5409883617
 21
129.6906126184
 31
0.0
  0
SPLINE
  5
1762
330
1B
100
AcDbEntity
  8
0
  6
Continuous
100
AcDbSpline
210
0.0
220
0.0
230
1.0
 70
     8
 71
     3
 72
    12
 73
     8
 74
     6
 42
0.0000000001
 43
0.0000000001
 44
0.0000000001
 40
0.0
 40
0.0
 40
0.0
 40
0.0
 40
0.4493142595057934
 40
0.9443110872081142
 40
1.478293339231801
 40
2.040683268548238
 40
2.618473246189456
 40
2.618473246189456
 40
2.618473246189456
 40
2.618473246189456
 10
69.55959128759999
 20
136.5178302512
 30
0.0
 10
69.69992336048449
 20
136.5712637826913
 30
0.0
 10
69.99485531403856
 20
136.6835635264639
 30
0.0
 10
70.48631392706847
 20
136.7530725481991
 30
0.0
 10
71.01724301287764
 20
136.7607133658335
 30
0.0
 10
71.57434911168943
 20
136.7018177595126
 30
0.0
 10
71.94312781689969
 20
136.6084430184402
 30
0.0
 10
72.130007658
 20
136.5611250564
 30
0.0
 11
69.55959128759999
 21
136.5178302512
 31
0.0
 11
69.9848900099
 21
136.6627588564
 31
0.0
 11
70.47363430359999
 21
136.7411863695
 31
0.0
 11
71.0075408276
 21
136.7501790947
 31
0.0
 11
71.56663690729999
 21
136.6894007576
 31
0.0
 11
72.130007658
 21
136.5611250564
 31
0.0
  0
SPLINE
  5
1763
330
1B
100
AcDbEntity
  8
0
  6
Continuous
100
AcDbSpline
210
0.0
220
0.0
230
1.0
 70
     8
 71
     3
 72
    14
 73
    10
 74
     8
 42
0.0000000001
 43
0.0000000001
 44
0.0000000001
 40
0.0
 40
0.0
 40
0.0
 40
0.0
 40
1.580761247255498
 40
2.973711505967586
 40
4.149347485348023
 40
5.087817592737415
 40
5.771309101124916
 40
6.186113998689017
 40
6.325174897905066
 40
6.325174897905066
 40
6.325174897905066
 40
6.325174897905066
 10
72.13059309800001
 20
136.5612472031
 30
0.0
 10
71.97929108252967
 20
136.0565084307277
 30
0.0
 10
71.6946633153312
 20
135.1069991373303
 30
0.0
 10
71.31850850653157
 20
133.7759687467548
 30
0.0
 10
71.00971304712761
 20
132.648465076793
 30
0.0
 10
70.76991587600276
 20
131.7472837424527
 30
0.0
 10
70.59865312278902
 20
131.0903160869927
 30
0.0
 10
70.49588819757108
 20
130.6908704504329
 30
0.0
 10
70.45022951535268
 20
130.511983488894
 30
0.0
 10
70.4387658405
 20
130.4670697537
 30
0.0
 11
72.13059309800001
 21
136.5612472031
 31
0.0
 11
71.6809395407
 21
135.0457876031
 31
0.0
 11
71.3007753254
 21
133.7057183539
 31
0.0
 11
70.99035676719998
 21
132.5718046558
 31
0.0
 11
70.74894525809999
 21
131.6649162251
 31
0.0
 11
70.5765001167
 21
131.0035363681
 31
0.0
 11
70.47317835760001
 21
130.6018054667
 31
0.0
 11
70.4387658405
 21
130.4670697537
 31
0.0
  0
SPLINE
  5
1764
330
1B
100
AcDbEntity
  8
0
  6
Continuous
100
AcDbSpline
210
0.0
220
0.0
230
1.0
 70
     8
 71
     3
 72
    11
 73
     7
 74
     5
 42
0.0000000001
 43
0.0000000001
 44
0.0000000001
 40
0.0
 40
0.0
 40
0.0
 40
0.0
 40
2.872481448388826
 40
5.873789315554978
 40
8.880612720342498
 40
11.65210049922103
 40
11.65210049922103
 40
11.65210049922103
 40
11.65210049922103
 10
83.1062201365
 20
139.3988818044
 30
0.0
 10
82.15517105072485
 20
139.2869151046791
 30
0.0
 10
80.21041977592448
 20
139.0579601692562
 30
0.0
 10
77.28930107815056
 20
138.5736582273812
 30
0.0
 10
74.42170542599176
 20
137.9783192993961
 30
0.0
 10
72.56936252226409
 20
137.4483329813384
 30
0.0
 10
71.6809116312
 20
137.1941323063
 30
0.0
 11
83.1062201365
 21
139.3988818044
 31
0.0
 11
80.2561037621
 21
139.0411300417
 31
0.0
 11
77.29458241179999
 21
138.5540569412
 31
0.0
 11
74.35430844559998
 21
137.9249496441
 31
0.0
 11
71.6809116312
 21
137.1941323063
 31
0.0
  0
SPLINE
  5
1765
330
1B
100
AcDbEntity
  8
0
  6
Continuous
100
AcDbSpline
210
0.0
220
0.0
230
1.0
 70
     8
 71
     3
 72
    10
 73
     6
 74
     4
 42
0.0000000001
 43
0.0000000001
 44
0.0000000001
 40
0.0
 40
0.0
 40
0.0
 40
0.0
 40
0.3646222579952333
 40
0.7651023484893151
 40
1.192510158162257
 40
1.192510158162257
 40
1.192510158162257
 40
1.192510158162257
 10
83.10622013479998
 20
139.3988761046
 30
0.0
 10
83.13150382647673
 20
139.2799895526391
 30
0.0
 10
83.18455766906639
 20
139.0305248583847
 30
0.0
 10
83.25592633734958
 20
138.6394186242725
 30
0.0
 10
83.29957714267732
 20
138.3669277903329
 30
0.0
 10
83.32211243410001
 20
138.2262508817
 30
0.0
 11
83.10622013479998
 21
139.3988761046
 31
0.0
 11
83.18042134249998
 21
139.0418837072
 31
0.0
 11
83.25293507230001
 21
138.6480232473
 31
0.0
 11
83.32211243410001
 21
138.2262508817
 31
0.0
  0
SPLINE
  5
1766
330
1B
100
AcDbEntity
  8
0
  6
Continuous
100
AcDbSpline
210
0.0
220
0.0
230
1.0
 70
     8
 71
     3
 72
    12
 73
     8
 74
     6
 42
0.0000000001
 43
0.0000000001
 44
0.0000000001
 40
0.0
 40
0.0
 40
0.0
 40
0.0
 40
2.238201781470588
 40
4.560253554736963
 40
6.927728174747824
 40
9.224626278615505
 40
11.33110794281367
 40
11.33110794281367
 40
11.33110794281367
 40
11.33110794281367
 10
83.3221138246
 20
138.2262560083
 30
0.0
 10
82.57795380372045
 20
138.1724246547048
 30
0.0
 10
81.06175521581685
 20
138.0627452577795
 30
0.0
 10
78.76521013452617
 20
137.8152078503447
 30
0.0
 10
76.45952701654197
 20
137.4857530717521
 30
0.0
 10
74.2379275698618
 20
137.0804901373704
 30
0.0
 10
72.81249108791863
 20
136.7292654830105
 30
0.0
 10
72.13059309800001
 20
136.5612472031
 30
0.0
 11
83.3221138246
 21
138.2262560083
 31
0.0
 11
81.0907111308
 21
138.0519309307
 31
0.0
 11
78.78196619800001
 21
137.8036946058
 31
0.0
 11
76.4385317182
 21
137.4671668725
 31
0.0
 11
74.1807188574
 21
137.0452403562
 31
0.0
 11
72.13059309800001
 21
136.5612472031
 31
0.0
  0
SPLINE
  5
1767
330
1B
100
AcDbEntity
  8
0
  6
Continuous
100
AcDbSpline
210
0.0
220
0.0
230
1.0
 70
     8
 71
     3
 72
    10
 73
     6
 74
     4
 42
0.0000000001
 43
0.0000000001
 44
0.0000000001
 40
0.0
 40
0.0
 40
0.0
 40
0.0
 40
0.2420487375574527
 40
0.5017195788181865
 40
0.7770010623527941
 40
0.7770010623527941
 40
0.7770010623527941
 40
0.7770010623527941
 10
71.68091163059999
 20
137.1941392603
 30
0.0
 10
71.73234659808318
 20
137.1319489325228
 30
0.0
 10
71.83896120174774
 20
137.0030405755786
 30
0.0
 10
71.98826041825666
 20
136.7910432381983
 30
0.0
 10
72.08184823779027
 20
136.6392410490015
 30
0.0
 10
72.130007658
 20
136.5611250564
 30
0.0
 11
71.68091163059999
 21
137.1941392603
 31
0.0
 11
71.83284014740001
 21
137.0057107138
 31
0.0
 11
71.983092619
 21
136.7939251133
 31
0.0
 11
72.130007658
 21
136.5611250564
 31
0.0
  0
SPLINE
  5
1768
330
1B
100
AcDbEntity
  8
0
  6
Continuous
100
AcDbSpline
210
0.0
220
0.0
230
1.0
 70
     8
 71
     3
 72
    16
 73
    12
 74
    10
 42
0.0000000001
 43
0.0000000001
 44
0.0000000001
 40
0.0
 40
0.0
 40
0.0
 40
0.0
 40
1.04630322025368
 40
1.95497853297654
 40
2.748186361181535
 40
3.441164876939842
 40
4.044421654400546
 40
4.563408457142892
 40
5.00514958478113
 40
5.382247971219539
 40
5.70833794602648
 40
5.70833794602648
 40
5.70833794602648
 40
5.70833794602648
 10
85.7042963478
 20
144.2514737075
 30
0.0
 10
85.62961987752375
 20
143.9106765286067
 30
0.0
 10
85.49008967874151
 20
143.2739097138455
 30
0.0
 10
85.22468747068629
 20
142.3962031281905
 30
0.0
 10
84.94633890288027
 20
141.6474721981688
 30
0.0
 10
84.65546453304019
 20
141.0137312353933
 30
0.0
 10
84.35628939422549
 20
140.4870230121552
 30
0.0
 10
84.05195107645146
 20
140.0615328808421
 30
0.0
 10
83.74342485501967
 20
139.7390412428852
 30
0.0
 10
83.43470824724751
 20
139.5048771579757
 30
0.0
 10
83.21028982883304
 20
139.432462635713
 30
0.0
 10
83.1062201365
 20
139.3988818044
 30
0.0
 11
85.7042963478
 21
144.2514737075
 31
0.0
 11
85.4661543821
 21
143.2326317998
 31
0.0
 11
85.20400105180001
 21
142.3625936079
 31
0.0
 11
84.92495919780001
 21
141.6200881854
 31
0.0
 11
84.6334889707
 21
140.9913876764
 31
0.0
 11
84.3327444486
 21
140.4684426774
 31
0.0
 11
84.0268195762
 21
140.0492085258
 31
0.0
 11
83.71921823260001
 21
139.7321649369
 31
0.0
 11
83.41094301890001
 21
139.514979335
 31
0.0
 11
83.1062201365
 21
139.3988818044
 31
0.0
  0
SPLINE
  5
1769
330
1B
100
AcDbEntity
  8
0
  6
Continuous
100
AcDbSpline
210
0.0
220
0.0
230
1.0
 70
     8
 71
     3
 72
    12
 73
     8
 74
     6
 42
0.0000000001
 43
0.0000000001
 44
0.0000000001
 40
0.0
 40
0.0
 40
0.0
 40
0.0
 40
0.3702483026165002
 40
0.8512024369834412
 40
1.420679880746572
 40
2.051533129980674
 40
2.713359052491541
 40
2.713359052491541
 40
2.713359052491541
 40
2.713359052491541
 10
85.70429350300002
 20
144.2514744477
 30
0.0
 10
85.81118054892077
 20
144.1896593193516
 30
0.0
 10
86.05691432629868
 20
144.0475460739411
 30
0.0
 10
86.48838591074198
 20
143.8509764288179
 30
0.0
 10
87.00555556935274
 20
143.6352610996296
 30
0.0
 10
87.5864744563855
 20
143.4159827158574
 30
0.0
 10
87.99475982023283
 20
143.2781924620997
 30
0.0
 10
88.2037937735
 20
143.2076466037
 30
0.0
 11
85.70429350300002
 21
144.2514744477
 31
0.0
 11
86.0273731911
 21
144.0706338529
 31
0.0
 11
86.4623586367
 21
143.865439941
 31
0.0
 11
86.98785315630001
 21
143.6459859166
 31
0.0
 11
87.57800798780001
 21
143.4230664313
 31
0.0
 11
88.2037937735
 21
143.2076466037
 31
0.0
  0
SPLINE
  5
176A
330
1B
100
AcDbEntity
  8
0
  6
Continuous
100
AcDbSpline
210
0.0
220
0.0
230
1.0
 70
     8
 71
     3
 72
    16
 73
    12
 74
    10
 42
0.0000000001
 43
0.0000000001
 44
0.0000000001
 40
0.0
 40
0.0
 40
0.0
 40
0.0
 40
1.124721683352557
 40
2.14548043854168
 40
3.076235027784929
 40
3.929706819270924
 40
4.71611188307913
 40
5.441237237422316
 40
6.113043610298613
 40
6.746402797641505
 40
7.350019058080019
 40
7.350019058080019
 40
7.350019058080019
 40
7.350019058080019
 10
88.2037944686
 20
143.2076491978
 30
0.0
 10
88.07225197627653
 20
142.8562209835032
 30
0.0
 10
87.82132603762494
 20
142.1858485967292
 30
0.0
 10
87.34167531616194
 20
141.2766363753591
 30
0.0
 10
86.82888474395364
 20
140.4932517373241
 30
0.0
 10
86.28436213489219
 20
139.8292356784423
 30
0.0
 10
85.71687485727273
 20
139.2795163445094
 30
0.0
 10
85.13231364850985
 20
138.841706154362
 30
0.0
 10
84.53559448331841
 20
138.5188078509413
 30
0.0
 10
83.9329350872772
 20
138.2997298167772
 30
0.0
 10
83.52243073612739
 20
138.2503515126507
 30
0.0
 10
83.3221138246
 20
138.2262560083
 30
0.0
 11
88.2037944686
 21
143.2076491978
 31
0.0
 11
87.7861923526
 21
142.1633277254
 31
0.0
 11
87.31328326729999
 21
141.2587253634
 31
0.0
 11
86.8006707814
 21
140.4818517928
 31
0.0
 11
86.2576617861
 21
139.8234026073
 31
0.0
 11
85.69080243560001
 21
139.2783306844
 31
0.0
 11
85.1081874827
 21
138.8466287083
 31
0.0
 11
84.5167486575
 21
138.5280005258
 31
0.0
 11
83.91831300419999
 21
138.3205911985
 31
0.0
 11
83.3221138246
 21
138.2262560083
 31
0.0
  0
SPLINE
  5
176B
330
1B
100
AcDbEntity
  8
0
  6
Continuous
100
AcDbSpline
210
0.0
220
0.0
230
1.0
 70
     8
 71
     3
 72
     9
 73
     5
 74
     3
 42
0.0000000001
 43
0.0000000001
 44
0.0000000001
 40
0.0
 40
0.0
 40
0.0
 40
0.0
 40
2.306645466128723
 40
4.727559147850937
 40
4.727559147850937
 40
4.727559147850937
 40
4.727559147850937
 10
87.42327136070001
 20
148.6544227008
 30
0.0
 10
87.12198884315941
 20
147.9468235028545
 30
0.0
 10
86.50449866410855
 20
146.4965715632387
 30
0.0
 10
85.97529419333745
 20
145.0118022763207
 30
0.0
 10
85.7042963478
 20
144.2514737075
 30
0.0
 11
87.42327136070001
 21
148.6544227008
 31
0.0
 11
86.5404411679
 21
146.5234078822
 31
0.0
 11
85.7042963478
 21
144.2514737075
 31
0.0
  0
SPLINE
  5
176C
330
1B
100
AcDbEntity
  8
0
  6
Continuous
100
AcDbSpline
210
0.0
220
0.0
230
1.0
 70
     8
 71
     3
 72
    12
 73
     8
 74
     6
 42
0.0000000001
 43
0.0000000001
 44
0.0000000001
 40
0.0
 40
0.0
 40
0.0
 40
0.0
 40
0.4272982496940929
 40
0.9431676114631857
 40
1.52682921578345
 40
2.150356530978296
 40
2.793950886095265
 40
2.793950886095265
 40
2.793950886095265
 40
2.793950886095265
 10
87.4246077233
 20
148.6574633743
 30
0.0
 10
87.51345981863702
 20
148.5457435136147
 30
0.0
 10
87.7095814236108
 20
148.2991463084283
 30
0.0
 10
88.10367805898963
 20
147.9723955421742
 30
0.0
 10
88.57824413039637
 20
147.648709147954
 30
0.0
 10
89.12066002598425
 20
147.3515899990241
 30
0.0
 10
89.5108141583581
 20
147.1892805224421
 30
0.0
 10
89.7089806037
 20
147.10684056
 30
0.0
 11
87.4246077233
 21
148.6574633743
 31
0.0
 11
87.7008771981
 21
148.3314894927
 31
0.0
 11
88.0903685916
 21
147.9932327074
 31
0.0
 11
88.5722458206
 21
147.6639073295
 31
0.0
 11
89.11932978960002
 21
147.3647661527
 31
0.0
 11
89.7089806037
 21
147.10684056
 31
0.0
  0
SPLINE
  5
176D
330
1B
100
AcDbEntity
  8
0
  6
Continuous
100
AcDbSpline
210
0.0
220
0.0
230
1.0
 70
     8
 71
     3
 72
    10
 73
     6
 74
     4
 42
0.0000000001
 43
0.0000000001
 44
0.0000000001
 40
0.0
 40
0.0
 40
0.0
 40
0.0
 40
1.354862270807582
 40
2.752344747671534
 40
4.180794283983291
 40
4.180794283983291
 40
4.180794283983291
 40
4.180794283983291
 10
89.70900119860001
 20
147.1068905133
 30
0.0
 10
89.53136599990705
 20
146.6916378525608
 30
0.0
 10
89.17050769227056
 20
145.8480698350819
 30
0.0
 10
88.67189228836678
 20
144.5463207610541
 30
0.0
 10
88.36096281511911
 20
143.6571210544167
 30
0.0
 10
88.2037944686
 20
143.2076491978
 30
0.0
 11
89.70900119860001
 21
147.1068905133
 31
0.0
 11
89.1839962498
 21
145.8578822761
 31
0.0
 11
88.6819684387
 21
144.5536869878
 31
0.0
 11
88.2037944686
 21
143.2076491978
 31
0.0
  0
SPLINE
  5
176E
330
1B
100
AcDbEntity
  8
0
  6
Continuous
100
AcDbSpline
210
0.0
220
0.0
230
1.0
 70
     8
 71
     3
 72
    14
 73
    10
 74
     8
 42
0.0000000001
 43
0.0000000001
 44
0.0000000001
 40
0.0
 40
0.0
 40
0.0
 40
0.0
 40
0.4118594680766538
 40
0.9440309244515994
 40
1.567813313243049
 40
2.249310270171952
 40
2.951398586907444
 40
3.635808948263654
 40
4.26525574879587
 40
4.26525574879587
 40
4.26525574879587
 40
4.26525574879587
 10
87.4246077233
 20
148.6574633743
 30
0.0
 10
87.56191118601258
 20
148.657031196496
 30
0.0
 10
87.87662706577683
 20
148.6560405935269
 30
0.0
 10
88.39865468734655
 20
148.6280676936185
 30
0.0
 10
89.00959942123424
 20
148.584894913715
 30
0.0
 10
89.67607163701847
 20
148.5247681768528
 30
0.0
 10
90.36153585817573
 20
148.4517455366561
 30
0.0
 10
91.02870104360439
 20
148.3709414392382
 30
0.0
 10
91.46209561562664
 20
148.3078319936696
 30
0.0
 10
91.6697276434
 20
148.277597323
 30
0.0
 11
87.4246077233
 21
148.6574633743
 31
0.0
 11
87.8364445982
 21
148.653149453
 31
0.0
 11
88.368036366
 21
148.6283169866
 31
0.0
 11
88.99026564359998
 21
148.5843261391
 31
0.0
 11
89.66905043529999
 21
148.523586458
 31
0.0
 11
90.3672109234
 21
148.4494248955
 31
0.0
 11
91.04650594970001
 21
148.365903581
 31
0.0
 11
91.6697276434
 21
148.277597323
 31
0.0
  0
SPLINE
  5
176F
330
1B
100
AcDbEntity
  8
0
  6
Continuous
100
AcDbSpline
210
0.0
220
0.0
230
1.0
 70
     8
 71
     3
 72
    13
 73
     9
 74
     7
 42
0.0000000001
 43
0.0000000001
 44
0.0000000001
 40
0.0
 40
0.0
 40
0.0
 40
0.0
 40
1.359288378572315
 40
2.725663332572265
 40
4.131176656150151
 40
5.636158683473341
 40
7.283437139059133
 40
9.090472366839389
 40
9.090472366839389
 40
9.090472366839389
 40
9.090472366839389
 10
94.043458305
 20
139.5878952008
 30
0.0
 10
94.04374379950414
 20
140.0416253640136
 30
0.0
 10
94.04431627692236
 20
140.9514511877671
 30
0.0
 10
93.82774354808154
 20
142.3161262105152
 30
0.0
 10
93.48485197927302
 20
143.7007457883793
 30
0.0
 10
93.00602050063768
 20
145.143946407586
 30
0.0
 10
92.3996508251478
 20
146.682671090679
 30
0.0
 10
91.92042298066511
 20
147.7298342708561
 30
0.0
 10
91.66972727770001
 20
148.2776307159
 30
0.0
 11
94.043458305
 21
139.5878952008
 31
0.0
 11
94.00863539309999
 21
140.946737451
 31
0.0
 11
93.8111049123
 21
142.2987589834
 31
0.0
 11
93.4759364966
 21
143.6637241243
 31
0.0
 11
93.0086033251
 21
145.0943081342
 31
0.0
 11
92.40625104880002
 21
146.6275067663
 31
0.0
 11
91.66972727770001
 21
148.2776307159
 31
0.0
  0
SPLINE
  5
1770
330
1B
100
AcDbEntity
  8
0
  6
Continuous
100
AcDbSpline
210
0.0
220
0.0
230
1.0
 70
     8
 71
     3
 72
    10
 73
     6
 74
     4
 42
0.0000000001
 43
0.0000000001
 44
0.0000000001
 40
0.0
 40
0.0
 40
0.0
 40
0.0
 40
0.3885028565888337
 40
0.7927911118449293
 40
1.205185164814481
 40
1.205185164814481
 40
1.205185164814481
 40
1.205185164814481
 10
94.0434279127
 20
139.5878951877
 30
0.0
 10
93.91413618452076
 20
139.5952550071908
 30
0.0
 10
93.65029942966245
 20
139.6102736856332
 30
0.0
 10
93.24913183483727
 20
139.6315180268903
 30
0.0
 10
92.97723588111813
 20
139.6449502730444
 30
0.0
 10
92.83993858300001
 20
139.6517330555
 30
0.0
 11
94.0434279127
 21
139.5878951877
 31
0.0
 11
93.65553878790001
 21
139.6097239861
 31
0.0
 11
93.2518181018
 21
139.6311389564
 31
0.0
 11
92.83993858300001
 21
139.6517330555
 31
0.0
  0
SPLINE
  5
1771
330
1B
100
AcDbEntity
  8
0
  6
Continuous
100
AcDbSpline
210
0.0
220
0.0
230
1.0
 70
     8
 71
     3
 72
    13
 73
     9
 74
     7
 42
0.0000000001
 43
0.0000000001
 44
0.0000000001
 40
0.0
 40
0.0
 40
0.0
 40
0.0
 40
1.152876420496939
 40
2.338517679975415
 40
3.591745495868974
 40
4.964072264000914
 40
6.493766324350502
 40
8.198270353113969
 40
8.198270353113969
 40
8.198270353113969
 40
8.198270353113969
 10
92.83993846609999
 20
139.6517326242
 30
0.0
 10
92.82086715159258
 20
140.0365316512753
 30
0.0
 10
92.78218251431225
 20
140.8170657241857
 30
0.0
 10
92.4697366427704
 20
141.9803146754804
 30
0.0
 10
92.01105541195176
 20
143.1659043640568
 30
0.0
 10
91.39172089049336
 20
144.4068034474405
 30
0.0
 10
90.61977350118133
 20
145.7351672589472
 30
0.0
 10
90.02333784454123
 20
146.6334649537933
 30
0.0
 10
89.70900119860001
 20
147.1068905133
 30
0.0
 11
92.83993846609999
 21
139.6517326242
 31
0.0
 11
92.7426847971
 21
140.8004996871
 31
0.0
 11
92.4563869636
 21
141.9510555296
 31
0.0
 11
92.00822240239999
 21
143.1214095293
 31
0.0
 11
91.4031523028
 21
144.3531444574
 31
0.0
 11
90.6368849543
 21
145.6770773367
 31
0.0
 11
89.70900119860001
 21
147.1068905133
 31
0.0
  0
SPLINE
  5
1772
330
1B
100
AcDbEntity
  8
0
  6
Continuous
100
AcDbSpline
210
0.0
220
0.0
230
1.0
 70
     8
 71
     3
 72
    11
 73
     7
 74
     5
 42
0.0000000001
 43
0.0000000001
 44
0.0000000001
 40
0.0
 40
0.0
 40
0.0
 40
0.0
 40
0.5454522165201236
 40
1.122161186996372
 40
1.710189949253567
 40
2.289037572447415
 40
2.289037572447415
 40
2.289037572447415
 40
2.289037572447415
 10
91.6697276434
 20
148.277597323
 30
0.0
 10
91.52466352925237
 20
148.1678644360625
 30
0.0
 10
91.22622250437027
 20
147.9421104966176
 30
0.0
 10
90.74345959863145
 20
147.6379556201786
 30
0.0
 10
90.23677143442373
 20
147.3523903844542
 30
0.0
 10
89.88398562533861
 20
147.1882600349898
 30
0.0
 10
89.7089806037
 20
147.10684056
 30
0.0
 11
91.6697276434
 21
148.277597323
 31
0.0
 11
91.2302046425
 21
147.9545839298
 31
0.0
 11
90.7442806068
 21
147.6439860094
 31
0.0
 11
90.23062680939998
 21
147.3577385611
 31
0.0
 11
89.7089806037
 21
147.10684056
 31
0.0
  0
SPLINE
  5
1773
330
1B
100
AcDbEntity
  8
0
  6
Continuous
100
AcDbSpline
210
0.0
220
0.0
230
1.0
 70
     8
 71
     3
 72
    18
 73
    14
 74
    12
 42
0.0000000001
 43
0.0000000001
 44
0.0000000001
 40
0.0
 40
0.0
 40
0.0
 40
0.0
 40
0.6012712538516578
 40
1.458973258460629
 40
2.627179171900735
 40
4.104049654867903
 40
5.815272036851175
 40
7.700896303102097
 40
9.743753004279188
 40
11.90037464651229
 40
14.12643043597905
 40
16.36939651882415
 40
18.58068148581196
 40
18.58068148581196
 40
18.58068148581196
 40
18.58068148581196
 10
129.017259406
 20
147.3002001157
 30
0.0
 10
129.0616086628015
 20
147.4956628205089
 30
0.0
 10
129.1692212906986
 20
147.9699493551069
 30
0.0
 10
129.3379166310718
 20
148.8294058228419
 30
0.0
 10
129.5377097698879
 20
149.9798563225427
 30
0.0
 10
129.752990164054
 20
151.4160380540311
 30
0.0
 10
129.9714719119399
 20
153.093187015505
 30
0.0
 10
130.184496530209
 20
154.9610465237934
 30
0.0
 10
130.3882459320889
 20
156.9791998290819
 30
0.0
 10
130.5809705419236
 20
159.1123895530464
 30
0.0
 10
130.7606505600851
 20
161.3136356094448
 30
0.0
 10
130.9271109118686
 20
163.5341936535228
 30
0.0
 10
131.0278605129267
 20
165.0155251093316
 30
0.0
 10
131.0778770198
 20
165.7509228098
 30
0.0
 11
129.017259406
 21
147.3002001157
 31
0.0
 11
129.1479413321
 21
147.8870981945
 31
0.0
 11
129.315373965
 21
148.7282991468
 31
0.0
 11
129.5161723903
 21
149.8791184413
 31
0.0
 11
129.7370599475
 21
151.3393770179
 31
0.0
 11
129.9596558676
 21
153.0360599868
 31
0.0
 11
130.1746756261
 21
154.9093846722
 31
0.0
 11
130.38096873
 21
156.9417986696
 31
0.0
 11
130.5758372796
 21
159.0895982776
 31
0.0
 11
130.7577516798
 21
161.3082085473
 31
0.0
 11
130.9253033578
 21
163.5449077412
 31
0.0
 11
131.0778770198
 21
165.7509228098
 31
0.0
  0
SPLINE
  5
1774
330
1B
100
AcDbEntity
  8
0
  6
Continuous
100
AcDbSpline
210
0.0
220
0.0
230
1.0
 70
     8
 71
     3
 72
    19
 73
    15
 74
    13
 42
0.0000000001
 43
0.0000000001
 44
0.0000000001
 40
0.0
 40
0.0
 40
0.0
 40
0.0
 40
0.5711404835345739
 40
1.379186095170192
 40
2.482625426227425
 40
3.893562085100383
 40
5.563559980293412
 40
7.434876626533468
 40
9.477305493603925
 40
11.66445046136681
 40
13.95608907752486
 40
16.30953111816696
 40
18.67719679232481
 40
21.01478117589472
 40
21.01478117589472
 40
21.01478117589472
 40
21.01478117589472
 10
130.9476575162
 20
145.2619815788
 30
0.0
 10
131.0001880246825
 20
145.4449796528622
 30
0.0
 10
131.1270383337745
 20
145.8868821382676
 30
0.0
 10
131.3298403168303
 20
146.6893347766448
 30
0.0
 10
131.5770757333692
 20
147.7689318015266
 30
0.0
 10
131.8564679008547
 20
149.1355825968977
 30
0.0
 10
132.1558652853359
 20
150.7590346063365
 30
0.0
 10
132.4640485999018
 20
152.594658333941
 30
0.0
 10
132.7748262386731
 20
154.6044472013901
 30
0.0
 10
133.0843455372666
 20
156.7560686294677
 30
0.0
 10
133.3892518580831
 20
159.0129977468946
 30
0.0
 10
133.6856801251459
 20
161.3317228589955
 30
0.0
 10
133.9711964116364
 20
163.6672474101402
 30
0.0
 10
134.1524346500147
 20
165.2251599304241
 30
0.0
 10
134.2424744291
 20
165.9991362194
 30
0.0
 11
130.9476575162
 21
145.2619815788
 31
0.0
 11
131.1028161662
 21
145.8116426064
 31
0.0
 11
131.3032252414
 21
146.5944413756
 31
0.0
 11
131.5504920462
 21
147.669819209
 31
0.0
 11
131.835090802
 21
149.051754737
 31
0.0
 11
132.1395487372
 21
150.6937651924
 31
0.0
 11
132.4507988213
 21
152.5390156837
 31
0.0
 11
132.7640259001
 21
154.5572833751
 31
0.0
 11
133.0763571204
 21
156.7220125311
 31
0.0
 11
133.3838281091
 21
158.9929306578
 31
0.0
 11
133.6829425024
 21
161.3272871041
 31
0.0
 11
133.9701130561
 21
163.6774730154
 31
0.0
 11
134.2424744291
 21
165.9991362194
 31
0.0
  0
SPLINE
  5
1775
330
1B
100
AcDbEntity
  8
0
  6
Continuous
100
AcDbSpline
210
0.0
220
0.0
230
1.0
 70
     8
 71
     3
 72
    17
 73
    13
 74
    11
 42
0.0000000001
 43
0.0000000001
 44
0.0000000001
 40
0.0
 40
0.0
 40
0.0
 40
0.0
 40
1.755397554588202
 40
3.389519776681884
 40
4.897809535658727
 40
6.272593996312985
 40
7.493885788976742
 40
8.5381480397944
 40
9.377896089583366
 40
9.985733626091024
 40
10.34583451793892
 40
10.46305903946698
 40
10.46305903946698
 40
10.46305903946698
 40
10.46305903946698
 10
134.2424744291
 20
165.9991362194
 30
0.0
 10
134.2878046406219
 20
166.5825885125499
 30
0.0
 10
134.3753333306518
 20
167.7091840698997
 30
0.0
 10
134.5825593392634
 20
169.3292114152988
 30
0.0
 10
134.8275564712703
 20
170.8151806050366
 30
0.0
 10
135.1035926208844
 20
172.1555544377098
 30
0.0
 10
135.3953048665946
 20
173.3337506969234
 30
0.0
 10
135.6851770403677
 20
174.3277466031952
 30
0.0
 10
135.9508064858953
 20
175.115009386249
 30
0.0
 10
136.1665803699464
 20
175.6777636690029
 30
0.0
 10
136.3070351026946
 20
176.0111623629722
 30
0.0
 10
136.3720407993402
 20
176.1563866378996
 30
0.0
 10
136.3880052996
 20
176.1920517118
 30
0.0
 11
134.2424744291
 21
165.9991362194
 31
0.0
 11
134.3934530763
 21
167.7480290185
 31
0.0
 11
134.5980182842
 21
169.369296582
 31
0.0
 11
134.8450691926
 21
170.8572158828
 31
0.0
 11
135.1232920129
 21
172.2035532757
 31
0.0
 11
135.4181905583
 21
173.3887066374
 31
0.0
 11
135.7119382521
 21
174.3908024117
 31
0.0
 11
135.9817464803
 21
175.1860258439
 31
0.0
 11
136.1999940918
 21
175.7533303925
 31
0.0
 11
136.3403062796
 21
176.0849704719
 31
0.0
 11
136.3880052996
 21
176.1920517118
 31
0.0
  0
SPLINE
  5
1776
330
1B
100
AcDbEntity
  8
0
  6
Continuous
100
AcDbSpline
210
0.0
220
0.0
230
1.0
 70
     8
 71
     3
 72
    13
 73
     9
 74
     7
 42
0.0000000001
 43
0.0000000001
 44
0.0000000001
 40
0.0
 40
0.0
 40
0.0
 40
0.0
 40
0.285219217867543
 40
0.6944912488361927
 40
1.21955661515815
 40
1.837683861779291
 40
2.518290108696219
 40
3.226276689279403
 40
3.226276689279403
 40
3.226276689279403
 40
3.226276689279403
 10
134.2424846741
 20
165.999134505
 30
0.0
 10
134.1622555671289
 20
165.9469446185628
 30
0.0
 10
133.9669026273448
 20
165.8198654558072
 30
0.0
 10
133.5623915878403
 20
165.7345698990081
 30
0.0
 10
133.0508729924963
 20
165.6684511385607
 30
0.0
 10
132.4416048859179
 20
165.6517553109848
 30
0.0
 10
131.7727751594411
 20
165.6739406002894
 30
0.0
 10
131.3125328673138
 20
165.7249217927741
 30
0.0
 10
131.0778741825
 20
165.7509150137
 30
0.0
 11
134.2424846741
 21
165.999134505
 31
0.0
 11
133.9958939632
 21
165.8558061284
 31
0.0
 11
133.6011929352
 21
165.7475716891999
 31
0.0
 11
133.0804318997
 21
165.6804778533
 31
0.0
 11
132.4627036143
 21
165.6582729342
 31
0.0
 11
131.7825179933
 21
165.6821974891
 31
0.0
 11
131.0778741825
 21
165.7509150137
 31
0.0
  0
SPLINE
  5
1777
330
1B
100
AcDbEntity
  8
0
  6
Continuous
100
AcDbSpline
210
0.0
220
0.0
230
1.0
 70
     8
 71
     3
 72
    17
 73
    13
 74
    11
 42
0.0000000001
 43
0.0000000001
 44
0.0000000001
 40
0.0
 40
0.0
 40
0.0
 40
0.0
 40
1.781940144603699
 40
3.479302987930713
 40
5.076600102432298
 40
6.557738867026047
 40
7.894493236172294
 40
9.055197325053982
 40
10.00338959878206
 40
10.7007713270576
 40
11.11980132896084
 40
11.25740927633033
 40
11.25740927633033
 40
11.25740927633033
 40
11.25740927633033
 10
131.0778770198
 20
165.7509228098
 30
0.0
 10
131.129904935253
 20
166.3428847065319
 30
0.0
 10
131.2314913337858
 20
167.4987118549789
 30
0.0
 10
131.5320681918128
 20
169.1661599516849
 30
0.0
 10
131.9137500141985
 20
170.7126301695147
 30
0.0
 10
132.3651722815431
 20
172.1147353624115
 30
0.0
 10
132.8578508232494
 20
173.3471755510546
 30
0.0
 10
133.3593273108326
 20
174.3815733752447
 30
0.0
 10
133.8271168953309
 20
175.1925936057535
 30
0.0
 10
134.2116558170699
 20
175.7638911113381
 30
0.0
 10
134.4636450865214
 20
176.0976218201902
 30
0.0
 10
134.5807487526529
 20
176.2415495930191
 30
0.0
 10
134.6096982613
 20
176.2771303604
 30
0.0
 11
131.0778770198
 21
165.7509228098
 31
0.0
 11
131.2613496179
 21
167.5233924103
 31
0.0
 11
131.5561044166
 21
169.1949665877
 31
0.0
 11
131.9415343286
 21
170.7450639572
 31
0.0
 11
132.3967421138
 21
172.1545170115
 31
0.0
 11
132.8951825363
 21
173.3948675219
 31
0.0
 11
133.4037705723
 21
174.4382141525
 31
0.0
 11
133.8796117535
 21
175.2583627721
 31
0.0
 11
134.2699000032
 21
175.8363042545
 31
0.0
 11
134.5231705799
 21
176.1701307925
 31
0.0
 11
134.6096982613
 21
176.2771303604
 31
0.0
  0
SPLINE
  5
1778
330
1B
100
AcDbEntity
  8
0
  6
Continuous
100
AcDbSpline
210
0.0
220
0.0
230
1.0
 70
     8
 71
     3
 72
    14
 73
    10
 74
     8
 42
0.0000000001
 43
0.0000000001
 44
0.0000000001
 40
0.0
 40
0.0
 40
0.0
 40
0.0
 40
0.0922151370403281
 40
0.3644662184036221
 40
0.8067496323961623
 40
1.402868168066234
 40
2.140836659585272
 40
3.018716678047131
 40
4.024348512373617
 40
4.024348512373617
 40
4.024348512373617
 40
4.024348512373617
 10
125.0100634948
 20
183.3555690202
 30
0.0
 10
124.981942324087
 20
183.3431573430653
 30
0.0
 10
124.8707976999419
 20
183.2941020884234
 30
0.0
 10
124.6236518487752
 20
183.1880807353944
 30
0.0
 10
124.2191308095757
 20
183.0229776230557
 30
0.0
 10
123.6650211922681
 20
182.8139189143618
 30
0.0
 10
122.9661684183195
 20
182.5784828333622
 30
0.0
 10
122.1272003409162
 20
182.3322635612992
 30
0.0
 10
121.5143685097902
 20
182.195102107344
 30
0.0
 10
121.1871695078
 20
182.121869797
 30
0.0
 11
125.0100634948
 21
183.3555690202
 31
0.0
 11
124.9256674148
 21
183.3184081109
 31
0.0
 11
124.6755029754
 21
183.210991145
 31
0.0
 11
124.2659903167
 21
183.0439163095
 31
0.0
 11
123.7082013128
 21
182.8336100193
 31
0.0
 11
123.0089924137
 21
182.5975922024
 31
0.0
 11
122.1659044109
 21
182.3528965826
 31
0.0
 11
121.1871695078
 21
182.121869797
 31
0.0
  0
SPLINE
  5
1779
330
1B
100
AcDbEntity
  8
0
  6
Continuous
100
AcDbSpline
210
0.0
220
0.0
230
1.0
 70
     8
 71
     3
 72
    14
 73
    10
 74
     8
 42
0.0000000001
 43
0.0000000001
 44
0.0000000001
 40
0.0
 40
0.0
 40
0.0
 40
0.0
 40
0.7081570560172938
 40
1.441455500106369
 40
2.193324204327331
 40
2.953101437672002
 40
3.70846380129643
 40
4.448009841173739
 40
5.163761495471548
 40
5.163761495471548
 40
5.163761495471548
 40
5.163761495471548
 10
116.7448606743
 20
147.7170005186
 30
0.0
 10
116.7964850620622
 20
147.9485821106588
 30
0.0
 10
116.9015666354889
 20
148.4199670340455
 30
0.0
 10
117.2777350944717
 20
149.0595313400431
 30
0.0
 10
117.7859840218743
 20
149.6145419989147
 30
0.0
 10
118.4125840539722
 20
150.0497046637632
 30
0.0
 10
119.1128067497746
 20
150.3341180676391
 30
0.0
 10
119.8483342836831
 20
150.4670491830344
 30
0.0
 10
120.3318891740944
 20
150.4052491485593
 30
0.0
 10
120.5697135135
 20
150.3748543523
 30
0.0
 11
116.7448606743
 21
147.7170005186
 31
0.0
 11
116.9340393018
 21
148.3994211095
 31
0.0
 11
117.2944242839
 21
149.0380518892
 31
0.0
 11
117.8028928362
 21
149.5919167461
 31
0.0
 11
118.4268205799
 21
150.025478293
 31
0.0
 11
119.1261748444
 21
150.310918152
 31
0.0
 11
119.8560833627
 21
150.4299219335
 31
0.0
 11
120.5697135135
 21
150.3748543523
 31
0.0
  0
SPLINE
  5
177A
330
1B
100
AcDbEntity
  8
0
  6
Continuous
100
AcDbSpline
210
0.0
220
0.0
230
1.0
 70
     8
 71
     3
 72
    10
 73
     6
 74
     4
 42
0.0000000001
 43
0.0000000001
 44
0.0000000001
 40
0.0
 40
0.0
 40
0.0
 40
0.0
 40
0.7351233250807071
 40
1.469815212620133
 40
2.204930840753077
 40
2.204930840753077
 40
2.204930840753077
 40
2.204930840753077
 10
119.4729160976
 20
137.3878952008
 30
0.0
 10
119.4987864008826
 20
137.6315870521773
 30
0.0
 10
119.5505118243899
 20
138.1188277342854
 30
0.0
 10
119.5936945539115
 20
138.8529113185184
 30
0.0
 10
119.5994525233694
 20
139.342853490476
 30
0.0
 10
119.6023323381
 20
139.5878952008
 30
0.0
 11
119.4729160976
 21
137.3878952008
 31
0.0
 11
119.5447887269
 21
138.1194966143
 31
0.0
 11
119.5879326615
 21
138.8529206189
 31
0.0
 11
119.6023323381
 21
139.5878952008
 31
0.0
  0
SPLINE
  5
177B
330
1B
100
AcDbEntity
  8
0
  6
Continuous
100
AcDbSpline
210
0.0
220
0.0
230
1.0
 70
     8
 71
     3
 72
    10
 73
     6
 74
     4
 42
0.0000000001
 43
0.0000000001
 44
0.0000000001
 40
0.0
 40
0.0
 40
0.0
 40
0.0
 40
0.6232047766524853
 40
1.245954006239433
 40
1.869154567242514
 40
1.869154567242514
 40
1.869154567242514
 40
1.869154567242514
 10
116.6351528763
 20
137.7229205815
 30
0.0
 10
116.6570844599364
 20
137.9295116815607
 30
0.0
 10
116.7009315957715
 20
138.342542868768
 30
0.0
 10
116.7375383126074
 20
138.9648370236693
 30
0.0
 10
116.7424195546773
 20
139.3801589931726
 30
0.0
 10
116.7448610598
 20
139.5878952008
 30
0.0
 11
116.6351528763
 21
137.7229205815
 31
0.0
 11
116.6960826775
 21
138.3431396984
 31
0.0
 11
116.7326529497
 21
138.9648142259
 31
0.0
 11
116.7448610598
 21
139.5878952008
 31
0.0
  0
SPLINE
  5
177C
330
1B
100
AcDbEntity
  8
0
  6
Continuous
100
AcDbSpline
210
0.0
220
0.0
230
1.0
 70
     8
 71
     3
 72
    17
 73
    13
 74
    11
 42
0.0000000001
 43
0.0000000001
 44
0.0000000001
 40
0.0
 40
0.0
 40
0.0
 40
0.0
 40
0.0182613790381795
 40
0.0816849631491702
 40
0.2035037673718958
 40
0.3935531748425072
 40
0.65689872950094
 40
0.9927167942183262
 40
1.396379589224479
 40
1.858712440463234
 40
2.356731189498639
 40
2.872584203142685
 40
2.872584203142685
 40
2.872584203142685
 40
2.872584203142685
 10
118.8396597793
 20
134.5878952008
 30
0.0
 10
118.8385543625103
 20
134.5939100095188
 30
0.0
 10
118.8336097233598
 20
134.6208148466354
 30
0.0
 10
118.8502516506648
 20
134.6883888811144
 30
0.0
 10
118.8688271580938
 20
134.8110666236473
 30
0.0
 10
118.9102051697658
 20
134.998929160431
 30
0.0
 10
118.9658495475241
 20
135.2557734649034
 30
0.0
 10
119.0406514821796
 20
135.5816852119609
 30
0.0
 10
119.1317111945027
 20
135.9717648992855
 30
0.0
 10
119.2369887334875
 20
136.4140940821867
 30
0.0
 10
119.3520964674518
 20
136.8925063182562
 30
0.0
 10
119.4321733631657
 20
137.2208404129445
 30
0.0
 10
119.4729160976
 20
137.3878952008
 30
0.0
 11
118.8396597793
 21
134.5878952008
 31
0.0
 11
118.8369245081
 21
134.6059505672
 31
0.0
 11
118.8447752845
 21
134.6688863784
 31
0.0
 11
118.866517726
 21
134.7887491637
 31
0.0
 11
118.9048187831
 21
134.9748991202
 31
0.0
 11
118.9612126068
 21
135.2321356219
 31
0.0
 11
119.0357704367
 21
135.55957249
 31
0.0
 11
119.1275318194
 21
135.9526672632
 31
0.0
 11
119.234410996
 21
136.402476675
 31
0.0
 11
119.3509518869
 21
136.8866676447
 31
0.0
 11
119.4729160976
 21
137.3878952008
 31
0.0
  0
SPLINE
  5
177D
330
1B
100
AcDbEntity
  8
0
  6
Continuous
100
AcDbSpline
210
0.0
220
0.0
230
1.0
 70
     8
 71
     3
 72
    12
 73
     8
 74
     6
 42
0.0000000001
 43
0.0000000001
 44
0.0000000001
 40
0.0
 40
0.0
 40
0.0
 40
0.0
 40
0.6900013248920075
 40
1.380007140816586
 40
2.070020959130496
 40
2.760044658771832
 40
3.450078105325745
 40
3.450078105325745
 40
3.450078105325745
 40
3.450078105325745
 10
118.8396597793
 20
134.5878952008
 30
0.0
 10
118.6091917488344
 20
134.572469079598
 30
0.0
 10
118.1482541878489
 20
134.5416167367895
 30
0.0
 10
117.4927351709212
 20
134.2968460805267
 30
0.0
 10
116.9112539622699
 20
133.91891168976
 30
0.0
 10
116.421390029502
 20
133.4192385944512
 30
0.0
 10
116.2060182037353
 20
133.0105267020186
 30
0.0
 10
116.0983315303
 20
132.8061693125
 30
0.0
 11
118.8396597793
 21
134.5878952008
 31
0.0
 11
118.1542374106
 21
134.5085352308
 31
0.0
 11
117.5050782948
 21
134.2746539182
 31
0.0
 11
116.9265272505
 21
133.898624985
 31
0.0
 11
116.4491935576
 21
133.4003426838
 31
0.0
 11
116.0983315303
 21
132.8061693125
 31
0.0
  0
SPLINE
  5
177E
330
1B
100
AcDbEntity
  8
0
  6
Continuous
100
AcDbSpline
210
0.0
220
0.0
230
1.0
 70
     8
 71
     3
 72
    17
 73
    13
 74
    11
 42
0.0000000001
 43
0.0000000001
 44
0.0000000001
 40
0.0
 40
0.0
 40
0.0
 40
0.0
 40
0.0317173292322394
 40
0.142348336973134
 40
0.3535456574026954
 40
0.6820215730930244
 40
1.136412839806329
 40
1.715263401024066
 40
2.410523042334385
 40
3.206158476852084
 40
4.062549964111408
 40
4.946757358938577
 40
4.946757358938577
 40
4.946757358938577
 40
4.946757358938577
 10
116.0983315303
 20
132.8061693125
 30
0.0
 10
116.0973951469027
 20
132.8167119169195
 30
0.0
 10
116.093192629774
 20
132.8640274457745
 30
0.0
 10
116.1072465734125
 20
132.9817726796271
 30
0.0
 10
116.1230142773453
 20
133.1975447757911
 30
0.0
 10
116.1580731750034
 20
133.5273003426992
 30
0.0
 10
116.2052790074291
 20
133.9786338130574
 30
0.0
 10
116.2687234506616
 20
134.5513429862897
 30
0.0
 10
116.34598554271
 20
135.2369028518551
 30
0.0
 10
116.4352744119704
 20
136.0142259331231
 30
0.0
 10
116.5328428774731
 20
136.8539870802533
 30
0.0
 10
116.6006881394837
 20
137.4302066261224
 30
0.0
 10
116.6351528763
 20
137.7229205815
 30
0.0
 11
116.0983315303
 21
132.8061693125
 31
0.0
 11
116.0960119473
 21
132.837801709
 31
0.0
 11
116.1026592686
 21
132.9482328323
 31
0.0
 11
116.1210816031
 21
133.1586251462
 31
0.0
 11
116.1535494154
 21
133.4854925021
 31
0.0
 11
116.2013718038
 21
133.9373602288
 31
0.0
 11
116.2646148715
 21
134.5127455663
 31
0.0
 11
116.3424687606
 21
135.2036324896
 31
0.0
 11
116.433128313
 21
135.9940858976
 31
0.0
 11
116.5319869779
 21
136.8447523092
 31
0.0
 11
116.6351528763
 21
137.7229205815
 31
0.0
  0
SPLINE
  5
177F
330
1B
100
AcDbEntity
  8
0
  6
Continuous
100
AcDbSpline
210
0.0
220
0.0
230
1.0
 70
     8
 71
     3
 72
    19
 73
    15
 74
    13
 42
0.0000000001
 43
0.0000000001
 44
0.0000000001
 40
0.0
 40
0.0
 40
0.0
 40
0.0
 40
0.2279865167193468
 40
0.4691927211478458
 40
0.7282649323225594
 40
1.008493267057052
 40
1.311080200763463
 40
1.633976676969116
 40
1.970426423807477
 40
2.307221412184694
 40
2.617001882328105
 40
2.864057797663487
 40
3.018082583480645
 40
3.067301566503504
 40
3.067301566503504
 40
3.067301566503504
 40
3.067301566503504
 10
129.760700375
 20
137.3878952008
 30
0.0
 10
129.7953647026328
 20
137.3202653778524
 30
0.0
 10
129.8667033521409
 20
137.1810842494411
 30
0.0
 10
129.974713450511
 20
136.9636750897992
 30
0.0
 10
130.0883180871455
 20
136.7296161543304
 30
0.0
 10
130.2082422042901
 20
136.4758960285375
 30
0.0
 10
130.3344435626647
 20
136.20162878795
 30
0.0
 10
130.4653992107588
 20
135.9089397318134
 30
0.0
 10
130.5978557866603
 20
135.6044466147222
 30
0.0
 10
130.7253099032948
 20
135.3025764435167
 30
0.0
 10
130.8389203943376
 20
135.0271902574376
 30
0.0
 10
130.9259853552236
 20
134.8068478003477
 30
0.0
 10
130.9821960627637
 20
134.6675952612193
 30
0.0
 10
131.0039634250919
 20
134.6034331599316
 30
0.0
 10
131.0092347672
 20
134.5878952008
 30
0.0
 11
129.760700375
 21
137.3878952008
 31
0.0
 11
129.8642797033
 21
137.1847962728
 31
0.0
 11
129.9717428383
 21
136.9688515862
 31
0.0
 11
130.0848522465
 21
136.7357750486
 31
0.0
 11
130.2046386209
 21
136.4824390186
 31
0.0
 11
130.331145013
 21
136.2075663477
 31
0.0
 11
130.4630530916
 21
135.9128420814
 31
0.0
 11
130.5972525519
 21
135.6043150372
 31
0.0
 11
130.7283701194
 21
135.2940908478
 31
0.0
 11
130.846092493
 21
135.0075504799
 31
0.0
 11
130.9377374731
 21
134.778121138
 31
0.0
 11
130.9932094157
 21
134.6344322441
 31
0.0
 11
131.0092347672
 21
134.5878952008
 31
0.0
  0
SPLINE
  5
1780
330
1B
100
AcDbEntity
  8
0
  6
Continuous
100
AcDbSpline
210
0.0
220
0.0
230
1.0
 70
     8
 71
     3
 72
    19
 73
    15
 74
    13
 42
0.0000000001
 43
0.0000000001
 44
0.0000000001
 40
0.0
 40
0.0
 40
0.0
 40
0.0
 40
0.4305285285318725
 40
0.8874079480620034
 40
1.379599878202345
 40
1.913596770689251
 40
2.491961447613281
 40
3.111030816891012
 40
3.75801941370723
 40
4.407503572960719
 40
5.006454367307748
 40
5.485259757401183
 40
5.78454351138139
 40
5.880781983551312
 40
5.880781983551312
 40
5.880781983551312
 40
5.880781983551312
 10
132.6584778538
 20
138.1101208593
 30
0.0
 10
132.6931642388567
 20
137.9708659234035
 30
0.0
 10
132.7646600207828
 20
137.6838328263336
 30
0.0
 10
132.8726628245105
 20
137.2368249690396
 30
0.0
 10
132.9862984756668
 20
136.7557046077928
 30
0.0
 10
133.1062456896364
 20
136.2344735903054
 30
0.0
 10
133.2324731495988
 20
135.6712994463562
 30
0.0
 10
133.3634455898635
 20
135.0706011757972
 30
0.0
 10
133.4959064887943
 20
134.4459730257904
 30
0.0
 10
133.6233270848285
 20
133.8271478443888
 30
0.0
 10
133.7369062898206
 20
133.2627022270636
 30
0.0
 10
133.8238539758601
 20
132.8120172667239
 30
0.0
 10
133.8801392543765
 20
132.5260236375468
 30
0.0
 10
133.9017531521657
 20
132.3959633866077
 30
0.0
 10
133.907012246
 20
132.364317125
 30
0.0
 11
132.6584778538
 21
138.1101208593
 31
0.0
 11
132.7620604913
 21
137.6922387574
 31
0.0
 11
132.8695324707
 21
137.2481795523
 31
0.0
 11
132.9826543789
 21
136.7691635505
 31
0.0
 11
133.1024545801
 21
136.2487785075
 31
0.0
 11
133.2289766645
 21
135.6844223596
 31
0.0
 11
133.3609001927
 21
135.0795727364
 31
0.0
 11
133.495112323
 21
134.4466577749
 31
0.0
 11
133.6262282668
 21
133.8105459275
 31
0.0
 11
133.7439358001
 21
133.2232751291
 31
0.0
 11
133.8355528818
 21
132.753316714
 31
0.0
 11
133.8910071425
 21
132.4592153873
 31
0.0
 11
133.907012246
 21
132.364317125
 31
0.0
  0
SPLINE
  5
1781
330
1B
100
AcDbEntity
  8
0
  6
Continuous
100
AcDbSpline
210
0.0
220
0.0
230
1.0
 70
     8
 71
     3
 72
    12
 73
     8
 74
     6
 42
0.0000000001
 43
0.0000000001
 44
0.0000000001
 40
0.0
 40
0.0
 40
0.0
 40
0.0
 40
1.256752225813456
 40
2.627091108214182
 40
4.111486724711287
 40
5.716242958562833
 40
7.453777775000201
 40
7.453777775000201
 40
7.453777775000201
 40
7.453777775000201
 10
128.0498682385
 20
144.6423509801
 30
0.0
 10
128.138828335854
 20
144.2329849883521
 30
0.0
 10
128.3247888425827
 20
143.3772540536169
 30
0.0
 10
128.6317034584464
 20
142.0415384233249
 30
0.0
 10
128.9737562505073
 20
140.5949275879827
 30
0.0
 10
129.3528604965809
 20
139.0313227345331
 30
0.0
 10
129.6212003199044
 20
137.9500232408293
 30
0.0
 10
129.760700375
 20
137.3878952008
 30
0.0
 11
128.0498682385
 21
144.6423509801
 31
0.0
 11
128.3190706197
 21
143.4147695225
 31
0.0
 11
128.6245405324
 21
142.0789114518
 31
0.0
 11
128.9658375897
 21
140.6342846263
 31
0.0
 11
129.3437744662
 21
139.0746672734
 31
0.0
 11
129.760700375
 21
137.3878952008
 31
0.0
  0
SPLINE
  5
1782
330
1B
100
AcDbEntity
  8
0
  6
Continuous
100
AcDbSpline
210
0.0
220
0.0
230
1.0
 70
     8
 71
     3
 72
    11
 73
     7
 74
     5
 42
0.0000000001
 43
0.0000000001
 44
0.0000000001
 40
0.0
 40
0.0
 40
0.0
 40
0.0
 40
1.552456367864056
 40
3.292075993851673
 40
5.218151785265581
 40
7.353868291356958
 40
7.353868291356958
 40
7.353868291356958
 40
7.353868291356958
 10
130.9476575162
 20
145.2619815788
 30
0.0
 10
131.0607093474845
 20
144.7569915075162
 30
0.0
 10
131.3004424746347
 20
143.6861300487208
 30
0.0
 10
131.7014716207477
 20
141.9935720408322
 30
0.0
 10
132.1579227890217
 20
140.1144036452708
 30
0.0
 10
132.4859821385161
 20
138.8008144854855
 30
0.0
 10
132.6584778538
 20
138.1101208593
 30
0.0
 11
130.9476575162
 21
145.2619815788
 31
0.0
 11
131.2897644292
 21
143.7476884651
 31
0.0
 11
131.6886499432
 21
142.0544174325
 31
0.0
 11
132.1433352706
 21
140.1827793245
 31
0.0
 11
132.6584778538
 21
138.1101208593
 31
0.0
  0
SPLINE
  5
1783
330
1B
100
AcDbEntity
  8
0
  6
Continuous
100
AcDbSpline
210
0.0
220
0.0
230
1.0
 70
     8
 71
     3
 72
    11
 73
     7
 74
     5
 42
0.0000000001
 43
0.0000000001
 44
0.0000000001
 40
0.0
 40
0.0
 40
0.0
 40
0.0
 40
0.7406534386956118
 40
1.474807652153628
 40
2.199343947734214
 40
2.913392031367398
 40
2.913392031367398
 40
2.913392031367398
 40
2.913392031367398
 10
129.017259746
 20
147.3001985437
 30
0.0
 10
129.2453647573419
 20
147.2024220941152
 30
0.0
 10
129.6995731612264
 20
147.0077271821438
 30
0.0
 10
130.264014658037
 20
146.5262544955591
 30
0.0
 10
130.7109679706319
 20
145.9437953362988
 30
0.0
 10
130.8691458461339
 20
145.4881445243795
 30
0.0
 10
130.9476581743
 20
145.2619801132
 30
0.0
 11
129.017259746
 21
147.3001985437
 31
0.0
 11
129.6824794572
 21
146.9745449669
 31
0.0
 11
130.2476640641
 21
146.5059846514
 31
0.0
 11
130.6781833067
 21
145.9232273903
 31
0.0
 11
130.9476581743
 21
145.2619801132
 31
0.0
  0
HATCH
  5
2A8A
330
1B
100
AcDbEntity
  8
0
100
AcDbHatch
 10
0.0
 20
0.0
 30
0.0
210
0.0
220
0.0
230
1.0
  2
SOLID
 70
     1
 71
     1
 91
        4
 92
        7
 72
     0
 73
     1
 93
        4
 10
191.6646818119
 20
173.0878952008
 10
185.7750508973
 20
175.5878952007999
 10
185.7750508972999
 20
152.5878952008
 10
191.6646818119
 20
152.5878952008
 97
        4
330
4C2
330
4E8
330
43C
330
4F5
 92
        7
 72
     0
 73
     1
 93
        4
 10
185.7750508973
 20
175.5878952008
 10
183.6646818119
 20
175.5878952008
 10
183.6646818119
 20
152.5878952008
 10
185.7750508973
 20
152.5878952008
 97
        4
330
481
330
4E7
330
43C
330
4E8
 92
        7
 72
     0
 73
     1
 93
        4
 10
191.6646818119
 20
152.5878952008
 10
185.7750508973
 20
152.5878952008
 10
185.7750508973
 20
129.5878952008
 10
191.6646818119
 20
132.0878952008
 97
        4
330
43C
330
4E8
330
4F9
330
4F5
 92
        7
 72
     0
 73
     1
 93
        4
 10
185.7750508973
 20
152.5878952008
 10
183.6646818119
 20
152.5878952008
 10
183.6646818119
 20
129.5878952008
 10
185.7750508973
 20
129.5878952008
 97
        4
330
43C
330
4E7
330
421
330
4E8
 75
     0
 76
     1
 47
0.18043386055308
 98
        4
 10
187.3479818811706
 20
167.2029132132282
 10
184.7367730076525
 20
165.6662809058368
 10
187.8067838999668
 20
139.1425032525102
 10
184.1950060156459
 20
141.1272756688163
  0
ENDSEC
  0
SECTION
  2
OBJECTS
  0
DICTIONARY
  5
1B3C
330
0
100
AcDbDictionary
281
     1
  3
ACAD_COLOR
350
2949
  3
ACAD_GROUP
350
1B3D
  3
ACAD_LAYOUT
350
294A
  3
ACAD_MATERIAL
350
2948
  3
ACAD_MLINESTYLE
350
1B3E
  3
ACAD_PLOTSETTINGS
350
294B
  3
ACAD_PLOTSTYLENAME
350
2946
  3
ACDBHEADERROUNDTRIPXREC
350
2C0C
  3
AcDbVariableDictionary
350
2C09
  0
DICTIONARY
  5
2949
102
{ACAD_REACTORS
330
1B3C
102
}
330
1B3C
100
AcDbDictionary
281
     1
  0
DICTIONARY
  5
1B3D
102
{ACAD_REACTORS
330
1B3C
102
}
330
1B3C
100
AcDbDictionary
281
     1
  0
DICTIONARY
  5
294A
102
{ACAD_REACTORS
330
1B3C
102
}
330
1B3C
100
AcDbDictionary
281
     1
  3
Layout1
350
294D
  3
Model
350
294C
  0
DICTIONARY
  5
2948
102
{ACAD_REACTORS
330
1B3C
102
}
330
1B3C
100
AcDbDictionary
281
     1
  0
DICTIONARY
  5
1B3E
102
{ACAD_REACTORS
330
1B3C
102
}
330
1B3C
100
AcDbDictionary
281
     1
  3
STANDARD
350
1B3F
  0
DICTIONARY
  5
294B
102
{ACAD_REACTORS
330
1B3C
102
}
330
1B3C
100
AcDbDictionary
281
     1
  0
ACDBDICTIONARYWDFLT
  5
2946
102
{ACAD_REACTORS
330
1B3C
102
}
330
1B3C
100
AcDbDictionary
281
     1
  3
Normal
350
2947
100
AcDbDictionaryWithDefault
340
2947
  0
DICTIONARY
  5
2C0C
102
{ACAD_REACTORS
330
1B3C
102
}
330
1B3C
100
AcDbDictionary
281
     1
  3
COLORDICT
350
2C0D
  3
MATERIALDICT
350
2C0E
  0
DICTIONARY
  5
2C09
102
{ACAD_REACTORS
330
1B3C
102
}
330
1B3C
100
AcDbDictionary
281
     1
  3
DIMASSOC
350
2C0A
  3
HIDETEXT
350
2C0B
  0
LAYOUT
  5
294D
102
{ACAD_REACTORS
330
294A
102
}
330
294A
100
AcDbPlotSettings
  1

  2
\\alderaan\HP LaserJet 4050 Ricerca
  4

  6

 40
0.0
 41
0.0
 42
0.0
 43
0.0
 44
0.0
 45
0.0
 46
0.0
 47
0.0
 48
0.0
 49
0.0
140
0.0
141
0.0
142
1.0
143
1.0
 70
   688
 72
     0
 73
     0
 74
     5
  7

 75
    16
147
1.0
148
0.0
149
0.0
100
AcDbLayout
  1
Layout1
 70
     0
 71
     1
 10
0.0
 20
0.0
 11
12.0
 21
9.0
 12
0.0
 22
0.0
 32
0.0
 14
1.000000000000000E+20
 24
1.000000000000000E+20
 34
1.000000000000000E+20
 15
-1.000000000000000E+20
 25
-1.000000000000000E+20
 35
-1.000000000000000E+20
146
0.0
 13
0.0
 23
0.0
 33
0.0
 16
1.0
 26
0.0
 36
0.0
 17
0.0
 27
1.0
 37
0.0
 76
     0
330
1C
  0
LAYOUT
  5
294C
102
{ACAD_REACTORS
330
294A
102
}
330
294A
100
AcDbPlotSettings
  1

  2
\\alderaan\HP LaserJet 4050 Ricerca
  4
A4
  6

 40
5.027083396911621
 41
5.069430828094482
 42
5.365737915039062
 43
5.365753173828125
 44
209.8886566162109
 45
297.0530090332031
 46
5.08
 47
10.16
 48
2.117087074981327
 49
54.41056340920477
140
264.0241037559024
141
240.9646603331607
142
1.0
143
25.0
 70
 11940
 72
     0
 73
     1
 74
     4
  7

 75
     0
147
0.04
148
-53.77401170452571
149
-1382.028310593801
100
AcDbLayout
  1
Model
 70
     1
 71
     0
 10
0.0
 20
0.0
 11
12.0
 21
9.0
 12
0.0
 22
0.0
 32
0.0
 14
0.0
 24
0.0
 34
0.0
 15
0.0
 25
0.0
 35
0.0
146
0.0
 13
0.0
 23
0.0
 33
0.0
 16
1.0
 26
0.0
 36
0.0
 17
0.0
 27
1.0
 37
0.0
 76
     0
330
1B
  0
MLINESTYLE
  5
1B3F
102
{ACAD_REACTORS
330
1B3E
102
}
330
1B3E
100
AcDbMlineStyle
  2
STANDARD
 70
     0
  3

 62
   256
 51
90.00000000000019
 52
90.00000000000019
 71
     2
 49
0.5
 62
   256
  6
BYLAYER
 49
-0.5
 62
   256
  6
BYLAYER
  0
ACDBPLACEHOLDER
  5
2947
102
{ACAD_REACTORS
330
2946
102
}
330
2946
  0
XRECORD
  5
2C0D
102
{ACAD_REACTORS
330
2C0C
102
}
330
2C0C
100
AcDbXrecord
280
     1
340
2949
  0
XRECORD
  5
2C0E
102
{ACAD_REACTORS
330
2C0C
102
}
330
2C0C
100
AcDbXrecord
280
     1
340
2948
  0
DICTIONARYVAR
  5
2C0A
102
{ACAD_REACTORS
330
2C09
102
}
330
2C09
100
DictionaryVariables
280
     0
  1
1
  0
DICTIONARYVAR
  5
2C0B
102
{ACAD_REACTORS
330
2C09
102
}
330
2C09
100
DictionaryVariables
280
     0
  1
0
  0
ENDSEC
  0
EOF
