  0
SECTION
  2
HEADER
  9
$ACADVER
  1
AC1015
  9
$ACADMAINTVER
 70
     6
  9
$DWGCODEPAGE
  3
ANSI_1252
  9
$INSBASE
 10
0.0
 20
0.0
 30
0.0
  9
$EXTMIN
 10
-11.77704721594794
 20
93.47953408894853
 30
0.0
  9
$EXTMAX
 10
263.7483337139
 20
289.0932891488512
 30
0.0
  9
$LIMMIN
 10
0.0
 20
0.0
  9
$LIMMAX
 10
420.0
 20
297.0
  9
$ORTHOMODE
 70
     1
  9
$REGENMODE
 70
     1
  9
$FILLMODE
 70
     1
  9
$QTEXTMODE
 70
     0
  9
$MIRRTEXT
 70
     1
  9
$LTSCALE
 40
23.1
  9
$ATTMODE
 70
     1
  9
$TEXTSIZE
 40
0.2
  9
$TRACEWID
 40
0.05
  9
$TEXTSTYLE
  7
STANDARD
  9
$CLAYER
  8
0
  9
$CELTYPE
  6
BYLAYER
  9
$CECOLOR
 62
   256
  9
$CELTSCALE
 40
1.0
  9
$DISPSILH
 70
     0
  9
$DIMSCALE
 40
1.0
  9
$DIMASZ
 40
3.0
  9
$DIMEXO
 40
2.625
  9
$DIMDLI
 40
15.96
  9
$DIMRND
 40
0.0
  9
$DIMDLE
 40
0.0
  9
$DIMEXE
 40
7.559999999999999
  9
$DIMTP
 40
0.003
  9
$DIMTM
 40
0.003
  9
$DIMTXT
 40
1.5
  9
$DIMCEN
 40
3.779999999999999
  9
$DIMTSZ
 40
0.0
  9
$DIMTOL
 70
     1
  9
$DIMLIM
 70
     0
  9
$DIMTIH
 70
     1
  9
$DIMTOH
 70
     1
  9
$DIMSE1
 70
     0
  9
$DIMSE2
 70
     0
  9
$DIMTAD
 70
     0
  9
$DIMZIN
 70
     0
  9
$DIMBLK
  1

  9
$DIMASO
 70
     1
  9
$DIMSHO
 70
     1
  9
$DIMPOST
  1

  9
$DIMAPOST
  1

  9
$DIMALT
 70
     0
  9
$DIMALTD
 70
     2
  9
$DIMALTF
 40
25.4
  9
$DIMLFAC
 40
1.0
  9
$DIMTOFL
 70
     0
  9
$DIMTVP
 40
0.0
  9
$DIMTIX
 70
     0
  9
$DIMSOXD
 70
     0
  9
$DIMSAH
 70
     0
  9
$DIMBLK1
  1

  9
$DIMBLK2
  1

  9
$DIMSTYLE
  2
STANDARD
  9
$DIMCLRD
 70
     0
  9
$DIMCLRE
 70
     0
  9
$DIMCLRT
 70
     0
  9
$DIMTFAC
 40
1.0
  9
$DIMGAP
 40
0.09
  9
$DIMJUST
 70
     0
  9
$DIMSD1
 70
     0
  9
$DIMSD2
 70
     0
  9
$DIMTOLJ
 70
     1
  9
$DIMTZIN
 70
     0
  9
$DIMALTZ
 70
     0
  9
$DIMALTTZ
 70
     0
  9
$DIMUPT
 70
     0
  9
$DIMDEC
 70
     4
  9
$DIMTDEC
 70
     4
  9
$DIMALTU
 70
     2
  9
$DIMALTTD
 70
     2
  9
$DIMTXSTY
  7
STANDARD
  9
$DIMAUNIT
 70
     0
  9
$DIMADEC
 70
     0
  9
$DIMALTRND
 40
0.0
  9
$DIMAZIN
 70
     0
  9
$DIMDSEP
 70
    46
  9
$DIMATFIT
 70
     3
  9
$DIMFRAC
 70
     0
  9
$DIMLDRBLK
  1

  9
$DIMLUNIT
 70
     2
  9
$DIMLWD
 70
    -2
  9
$DIMLWE
 70
    -2
  9
$DIMTMOVE
 70
     0
  9
$LUNITS
 70
     2
  9
$LUPREC
 70
     4
  9
$SKETCHINC
 40
0.1
  9
$FILLETRAD
 40
0.0
  9
$AUNITS
 70
     0
  9
$AUPREC
 70
     0
  9
$MENU
  1
acad
  9
$ELEVATION
 40
0.0
  9
$PELEVATION
 40
0.0
  9
$THICKNESS
 40
0.0
  9
$LIMCHECK
 70
     0
  9
$CHAMFERA
 40
0.0
  9
$CHAMFERB
 40
0.0
  9
$CHAMFERC
 40
0.0
  9
$CHAMFERD
 40
0.0
  9
$SKPOLY
 70
     0
  9
$TDCREATE
 40
2444972.041666667
  9
$TDUCREATE
 40
2444972.0
  9
$TDUPDATE
 40
2453410.616338414
  9
$TDUUPDATE
 40
2453410.574671748
  9
$TDINDWG
 40
0.0061204051
  9
$TDUSRTIMER
 40
0.0061204051
  9
$USRTIMER
 70
     1
  9
$ANGBASE
 50
0.0
  9
$ANGDIR
 70
     0
  9
$PDMODE
 70
     0
  9
$PDSIZE
 40
0.0
  9
$PLINEWID
 40
0.0
  9
$SPLFRAME
 70
     0
  9
$SPLINETYPE
 70
     6
  9
$SPLINESEGS
 70
     8
  9
$HANDSEED
  5
37A6
  9
$SURFTAB1
 70
     6
  9
$SURFTAB2
 70
     6
  9
$SURFTYPE
 70
     6
  9
$SURFU
 70
     6
  9
$SURFV
 70
     6
  9
$UCSBASE
  2

  9
$UCSNAME
  2

  9
$UCSORG
 10
0.0
 20
0.0
 30
0.0
  9
$UCSXDIR
 10
1.0
 20
0.0
 30
0.0
  9
$UCSYDIR
 10
0.0
 20
1.0
 30
0.0
  9
$UCSORTHOREF
  2

  9
$UCSORTHOVIEW
 70
     0
  9
$UCSORGTOP
 10
0.0
 20
0.0
 30
0.0
  9
$UCSORGBOTTOM
 10
0.0
 20
0.0
 30
0.0
  9
$UCSORGLEFT
 10
0.0
 20
0.0
 30
0.0
  9
$UCSORGRIGHT
 10
0.0
 20
0.0
 30
0.0
  9
$UCSORGFRONT
 10
0.0
 20
0.0
 30
0.0
  9
$UCSORGBACK
 10
0.0
 20
0.0
 30
0.0
  9
$PUCSBASE
  2

  9
$PUCSNAME
  2

  9
$PUCSORG
 10
0.0
 20
0.0
 30
0.0
  9
$PUCSXDIR
 10
1.0
 20
0.0
 30
0.0
  9
$PUCSYDIR
 10
0.0
 20
1.0
 30
0.0
  9
$PUCSORTHOREF
  2

  9
$PUCSORTHOVIEW
 70
     0
  9
$PUCSORGTOP
 10
0.0
 20
0.0
 30
0.0
  9
$PUCSORGBOTTOM
 10
0.0
 20
0.0
 30
0.0
  9
$PUCSORGLEFT
 10
0.0
 20
0.0
 30
0.0
  9
$PUCSORGRIGHT
 10
0.0
 20
0.0
 30
0.0
  9
$PUCSORGFRONT
 10
0.0
 20
0.0
 30
0.0
  9
$PUCSORGBACK
 10
0.0
 20
0.0
 30
0.0
  9
$USERI1
 70
     0
  9
$USERI2
 70
     0
  9
$USERI3
 70
     0
  9
$USERI4
 70
     0
  9
$USERI5
 70
     0
  9
$USERR1
 40
0.0
  9
$USERR2
 40
0.0
  9
$USERR3
 40
0.0
  9
$USERR4
 40
0.0
  9
$USERR5
 40
0.0
  9
$WORLDVIEW
 70
     1
  9
$SHADEDGE
 70
     3
  9
$SHADEDIF
 70
    70
  9
$TILEMODE
 70
     1
  9
$MAXACTVP
 70
    16
  9
$PINSBASE
 10
0.0
 20
0.0
 30
0.0
  9
$PLIMCHECK
 70
     0
  9
$PEXTMIN
 10
1.000000000000000E+20
 20
1.000000000000000E+20
 30
1.000000000000000E+20
  9
$PEXTMAX
 10
-1.000000000000000E+20
 20
-1.000000000000000E+20
 30
-1.000000000000000E+20
  9
$PLIMMIN
 10
0.0
 20
0.0
  9
$PLIMMAX
 10
12.0
 20
9.0
  9
$UNITMODE
 70
     0
  9
$VISRETAIN
 70
     0
  9
$PLINEGEN
 70
     1
  9
$PSLTSCALE
 70
     0
  9
$TREEDEPTH
 70
  3020
  9
$CMLSTYLE
  2
STANDARD
  9
$CMLJUST
 70
     0
  9
$CMLSCALE
 40
1.0
  9
$PROXYGRAPHICS
 70
     1
  9
$MEASUREMENT
 70
     0
  9
$CELWEIGHT
370
    -1
  9
$ENDCAPS
280
     0
  9
$JOINSTYLE
280
     0
  9
$LWDISPLAY
290
     0
  9
$INSUNITS
 70
     0
  9
$HYPERLINKBASE
  1

  9
$STYLESHEET
  1

  9
$XEDIT
290
     1
  9
$CEPSNTYPE
380
     0
  9
$PSTYLEMODE
290
     1
  9
$FINGERPRINTGUID
  2
{8307D7DB-B8F5-4930-BA3D-2C27E4D0E7ED}
  9
$VERSIONGUID
  2
{C46C3524-5C22-4F0D-BBF7-DAB19D53DF2E}
  9
$EXTNAMES
290
     1
  9
$PSVPSCALE
 40
0.0
  9
$OLESTARTUP
290
     0
  0
ENDSEC
  0
SECTION
  2
CLASSES
  0
CLASS
  1
IMAGE
  2
AcDbRasterImage
  3
ISM
 90
      127
280
     0
281
     1
  0
CLASS
  1
DICTIONARYVAR
  2
AcDbDictionaryVar
  3
ObjectDBX Classes
 90
        0
280
     0
281
     0
  0
CLASS
  1
RASTERVARIABLES
  2
AcDbRasterVariables
  3
ISM
 90
        0
280
     0
281
     0
  0
CLASS
  1
IMAGEDEF
  2
AcDbRasterImageDef
  3
ISM
 90
        0
280
     0
281
     0
  0
CLASS
  1
IMAGEDEF_REACTOR
  2
AcDbRasterImageDefReactor
  3
ISM
 90
        1
280
     0
281
     0
  0
CLASS
  1
IDBUFFER
  2
AcDbIdBuffer
  3
ObjectDBX Classes
 90
        0
280
     0
281
     0
  0
CLASS
  1
SPATIAL_FILTER
  2
AcDbSpatialFilter
  3
ObjectDBX Classes
 90
        0
280
     0
281
     0
  0
CLASS
  1
SORTENTSTABLE
  2
AcDbSortentsTable
  3
ObjectDBX Classes
 90
        0
280
     0
281
     0
  0
CLASS
  1
LAYER_INDEX
  2
AcDbLayerIndex
  3
ObjectDBX Classes
 90
        0
280
     0
281
     0
  0
CLASS
  1
SPATIAL_INDEX
  2
AcDbSpatialIndex
  3
AutoCAD 2000
 90
        0
280
     0
281
     0
  0
CLASS
  1
OBJECT_PTR
  2
CAseDLPNTableRecord
  3
ASE-LPNTableRecord
 90
        1
280
     0
281
     0
  0
CLASS
  1
PLOTSETTINGS
  2
AcDbPlotSettings
  3
ObjectDBX Classes
 90
        0
280
     0
281
     0
  0
CLASS
  1
ACDBDICTIONARYWDFLT
  2
AcDbDictionaryWithDefault
  3
ObjectDBX Classes
 90
        0
280
     0
281
     0
  0
CLASS
  1
WIPEOUT
  2
AcDbWipeout
  3
WipeOut|AutoCAD Express Tool|expresstools@autodesk.com
 90
      127
280
     0
281
     1
  0
CLASS
  1
WIPEOUTVARIABLES
  2
AcDbWipeoutVariables
  3
WipeOut|AutoCAD Express Tool|expresstools@autodesk.com
 90
        0
280
     0
281
     0
  0
CLASS
  1
RTEXT
  2
RText
  3
RText|AutoCAD Express Tool|expresstools@autodesk.com
 90
        0
280
     0
281
     1
  0
CLASS
  1
ARCALIGNEDTEXT
  2
AcDbArcAlignedText
  3
ATEXT|AutoCAD Express Tool|expresstools@autodesk.com
 90
        0
280
     0
281
     1
  0
CLASS
  1
ACDBPLACEHOLDER
  2
AcDbPlaceHolder
  3
ObjectDBX Classes
 90
        0
280
     0
281
     0
  0
CLASS
  1
LAYOUT
  2
AcDbLayout
  3
ObjectDBX Classes
 90
        0
280
     0
281
     0
  0
ENDSEC
  0
SECTION
  2
TABLES
  0
TABLE
  2
VPORT
  5
8
330
0
100
AcDbSymbolTable
 70
     1
  0
VPORT
  5
379F
330
8
100
AcDbSymbolTableRecord
100
AcDbViewportTableRecord
  2
*Active
 70
     0
 10
0.0
 20
0.0
 11
1.0
 21
1.0
 12
133.3062286871282
 22
170.9460258034291
 13
0.0
 23
0.0
 14
1.0
 24
1.0
 15
0.0
 25
0.0
 16
0.0
 26
0.0
 36
1.0
 17
0.0
 27
0.0
 37
0.0
 40
295.8860954754647
 41
1.888667992047713
 42
50.0
 43
0.0
 44
0.0
 50
0.0
 51
0.0
 71
     0
 72
   100
 73
     1
 74
     1
 75
     0
 76
     0
 77
     0
 78
     0
281
     0
 65
     1
110
0.0
120
0.0
130
0.0
111
1.0
121
0.0
131
0.0
112
0.0
122
1.0
132
0.0
 79
     0
146
0.0
  0
ENDTAB
  0
TABLE
  2
LTYPE
  5
5
330
0
100
AcDbSymbolTable
 70
     2
  0
LTYPE
  5
14
330
5
100
AcDbSymbolTableRecord
100
AcDbLinetypeTableRecord
  2
BYBLOCK
 70
     0
  3

 72
    65
 73
     0
 40
0.0
  0
LTYPE
  5
15
330
5
100
AcDbSymbolTableRecord
100
AcDbLinetypeTableRecord
  2
BYLAYER
 70
     0
  3

 72
    65
 73
     0
 40
0.0
  0
LTYPE
  5
16
330
5
100
AcDbSymbolTableRecord
100
AcDbLinetypeTableRecord
  2
CONTINUOUS
 70
     0
  3
Solid line
 72
    65
 73
     0
 40
0.0
  0
LTYPE
  5
1F5
330
5
100
AcDbSymbolTableRecord
100
AcDbLinetypeTableRecord
  2
CENTER
 70
     0
  3
____ _ ____ _ ____ _ ____ _ ____ _ ____ _ ____
 72
    65
 73
     4
 40
0.6
 49
0.375
 74
     0
 49
-0.075
 74
     0
 49
0.075
 74
     0
 49
-0.075
 74
     0
  0
ENDTAB
  0
TABLE
  2
LAYER
  5
2
330
0
100
AcDbSymbolTable
 70
     3
  0
LAYER
  5
10
330
2
100
AcDbSymbolTableRecord
100
AcDbLayerTableRecord
  2
0
 70
     0
 62
     7
  6
CONTINUOUS
370
    -3
390
30FA
  0
LAYER
  5
1FA
330
2
100
AcDbSymbolTableRecord
100
AcDbLayerTableRecord
  2
DEFAULT_1
 70
     0
 62
     7
  6
CENTER
370
    -3
390
30FA
  0
LAYER
  5
3165
330
2
100
AcDbSymbolTableRecord
100
AcDbLayerTableRecord
  2
Defpoints
 70
     0
 62
     7
  6
CONTINUOUS
290
     0
370
    -3
390
30FA
  0
ENDTAB
  0
TABLE
  2
STYLE
  5
3
330
0
100
AcDbSymbolTable
 70
     1
  0
STYLE
  5
11
330
3
100
AcDbSymbolTableRecord
100
AcDbTextStyleTableRecord
  2
STANDARD
 70
     0
 40
0.0
 41
1.0
 50
0.0
 71
     0
 42
0.2
  3
txt
  4

  0
ENDTAB
  0
TABLE
  2
VIEW
  5
6
330
0
100
AcDbSymbolTable
 70
     0
  0
ENDTAB
  0
TABLE
  2
UCS
  5
7
330
0
100
AcDbSymbolTable
 70
     0
  0
ENDTAB
  0
TABLE
  2
APPID
  5
9
330
0
100
AcDbSymbolTable
 70
     1
  0
APPID
  5
222
330
9
100
AcDbSymbolTableRecord
100
AcDbRegAppTableRecord
  2
ACAD
 70
     0
  0
ENDTAB
  0
TABLE
  2
DIMSTYLE
  5
A
330
0
100
AcDbSymbolTable
 70
     1
100
AcDbDimStyleTable
  0
DIMSTYLE
105
223
330
A
100
AcDbSymbolTableRecord
100
AcDbDimStyleTableRecord
  2
STANDARD
 70
     0
 41
3.0
 47
0.003
 48
0.003
 71
     1
 73
     0
 74
     0
 77
     1
 78
     8
140
1.5
271
     3
272
     3
284
     8
340
11
  0
ENDTAB
  0
TABLE
  2
BLOCK_RECORD
  5
1
330
0
100
AcDbSymbolTable
 70
     0
  0
BLOCK_RECORD
  5
1B
330
1
100
AcDbSymbolTableRecord
100
AcDbBlockTableRecord
  2
*MODEL_SPACE
340
30FF
  0
BLOCK_RECORD
  5
1C
330
1
100
AcDbSymbolTableRecord
100
AcDbBlockTableRecord
  2
*PAPER_SPACE
340
3100
  0
ENDTAB
  0
ENDSEC
  0
SECTION
  2
BLOCKS
  0
BLOCK
  5
1E
330
1B
100
AcDbEntity
  8
0
100
AcDbBlockBegin
  2
*MODEL_SPACE
 70
     0
 71
     0
 10
0.0
 20
0.0
 30
0.0
  3
*MODEL_SPACE
  1

  0
ENDBLK
  5
1F
330
1B
100
AcDbEntity
  8
0
100
AcDbBlockEnd
  0
BLOCK
  5
20
330
1C
100
AcDbEntity
 67
     1
  8
0
100
AcDbBlockBegin
  2
*PAPER_SPACE
 70
     0
 71
     0
 10
0.0
 20
0.0
 30
0.0
  3
*PAPER_SPACE
  1

  0
ENDBLK
  5
21
330
1C
100
AcDbEntity
 67
     1
  8
0
100
AcDbBlockEnd
  0
ENDSEC
  0
SECTION
  2
ENTITIES
  0
TEXT
  5
305
330
1B
100
AcDbEntity
  8
0
  6
Continuous
 62
     1
100
AcDbText
 10
328.0620514055
 20
31.790927071
 30
0.0
 40
1.5
  1
 
 41
1.285714285699999
 72
     5
 11
329.990622834
 21
31.790927071
 31
0.0
100
AcDbText
  0
TEXT
  5
306
330
1B
100
AcDbEntity
  8
0
  6
Continuous
 62
     1
100
AcDbText
 10
329.990622834
 20
31.790927071
 30
0.0
 40
1.5
  1
 
 41
1.285714285699999
 72
     5
 11
331.9191942626
 21
31.790927071
 31
0.0
100
AcDbText
  0
TEXT
  5
308
330
1B
100
AcDbEntity
  8
0
  6
Continuous
 62
     1
100
AcDbText
 10
352.7763371197
 20
31.790927071
 30
0.0
 40
1.5
  1
 
 41
1.285714285699999
 72
     5
 11
354.7049085483
 21
31.790927071
 31
0.0
100
AcDbText
  0
TEXT
  5
312
330
1B
100
AcDbEntity
  8
0
  6
Continuous
 62
     1
100
AcDbText
 10
401.7191942625999
 20
20.9052127852
 30
0.0
 40
1.5
  1
 
 41
1.0285714286
 72
     5
 11
403.2620514054999
 21
20.9052127852
 31
0.0
100
AcDbText
  0
TEXT
  5
315
330
1B
100
AcDbEntity
  8
0
  6
Continuous
 62
     1
100
AcDbText
 10
376.5263371197
 20
13.1052127852
 30
0.0
 40
1.5
  1
 
 41
1.285714285699999
 72
     5
 11
378.4549085483
 21
13.1052127852
 31
0.0
100
AcDbText
  0
TEXT
  5
399
330
1B
100
AcDbEntity
  8
0
  6
Continuous
 62
     2
100
AcDbText
 10
350.7477845182
 20
210.2990040563
 30
0.0
 40
1.5
  1
 
 41
1.285714285699999
 72
     5
 11
352.6763559468
 21
210.2990040563
 31
0.0
100
AcDbText
  0
TEXT
  5
39A
330
1B
100
AcDbEntity
  8
0
  6
Continuous
 62
     2
100
AcDbText
 10
350.7477845182
 20
206.4418611991
 30
0.0
 40
1.5
  1
 
 41
1.285714285699999
 72
     5
 11
352.6763559468
 21
206.4418611991
 31
0.0
100
AcDbText
  0
LINE
  5
422
330
1B
100
AcDbEntity
  8
0
  6
Continuous
100
AcDbLine
 10
31.6897258172
 20
181.9266091374
 30
0.0
 11
31.6897258172
 21
211.3781914338
 31
0.0
  0
LINE
  5
423
330
1B
100
AcDbEntity
  8
0
  6
Continuous
100
AcDbLine
 10
31.7897258172
 20
178.697253551
 30
0.0
 11
31.7897258172
 21
181.1804923877
 31
0.0
  0
LINE
  5
424
330
1B
100
AcDbEntity
  8
0
  6
Continuous
100
AcDbLine
 10
31.7897258172
 20
195.8636287207
 30
0.0
 11
31.7897258172
 21
197.4166859741
 31
0.0
  0
LINE
  5
425
330
1B
100
AcDbEntity
  8
0
  6
Continuous
100
AcDbLine
 10
31.7897258172
 20
212.02629165
 30
0.0
 11
31.7897258172
 21
214.1903661659
 31
0.0
  0
LINE
  5
426
330
1B
100
AcDbEntity
  8
0
  6
Continuous
100
AcDbLine
 10
31.7897258172
 20
215.9456966261
 30
0.0
 11
31.7897258172
 21
218.3343203854
 31
0.0
  0
LINE
  5
427
330
1B
100
AcDbEntity
  8
0
  6
Continuous
100
AcDbLine
 10
32.2897258172
 20
220.9231528309
 30
0.0
 11
32.2897258172
 21
177.8552035659
 31
0.0
  0
LINE
  5
428
330
1B
100
AcDbEntity
  8
0
  6
Continuous
100
AcDbLine
 10
33.2548263205
 20
221.9225281423
 30
0.0
 11
33.2548263205
 21
212.4340651045
 31
0.0
  0
LINE
  5
429
330
1B
100
AcDbEntity
  8
0
  6
Continuous
100
AcDbLine
 10
33.2548263205
 20
211.3259000636
 30
0.0
 11
33.2548263205
 21
210.3076457109
 31
0.0
  0
LINE
  5
42A
330
1B
100
AcDbEntity
  8
0
  6
Continuous
100
AcDbLine
 10
33.2548263205
 20
208.0150779956
 30
0.0
 11
33.2548263205
 21
207.9731740463
 31
0.0
  0
LINE
  5
42B
330
1B
100
AcDbEntity
  8
0
  6
Continuous
100
AcDbLine
 10
33.2548263205
 20
207.3264323037
 30
0.0
 11
33.2548263205
 21
185.9456871208
 31
0.0
  0
LINE
  5
42C
330
1B
100
AcDbEntity
  8
0
  6
Continuous
100
AcDbLine
 10
33.2548263205
 20
183.994913635
 30
0.0
 11
33.2548263205
 21
182.8407233121
 31
0.0
  0
LINE
  5
42D
330
1B
100
AcDbEntity
  8
0
  6
Continuous
100
AcDbLine
 10
33.2548263205
 20
181.7844848153
 30
0.0
 11
33.2548263205
 21
176.8551240391
 31
0.0
  0
LINE
  5
42E
330
1B
100
AcDbEntity
  8
0
  6
Continuous
100
AcDbLine
 10
39.2897258172
 20
222.1332731795
 30
0.0
 11
39.2897258172
 21
176.6443759523
 31
0.0
  0
LINE
  5
42F
330
1B
100
AcDbEntity
  8
0
  6
Continuous
100
AcDbLine
 10
39.8897258172
 20
179.3888260914
 30
0.0
 11
39.8897258172
 21
219.3888260914
 31
0.0
  0
LINE
  5
430
330
1B
100
AcDbEntity
  8
0
  6
Continuous
100
AcDbLine
 10
32.3042519769
 20
207.0342145124
 30
0.0
 11
32.2897258172
 21
206.9743920212
 31
0.0
  0
LWPOLYLINE
  5
431
330
1B
100
AcDbEntity
  8
0
  6
Continuous
100
AcDbPolyline
 90
        5
 70
     0
 43
0.0
 10
45.9295052522
 20
215.6517085758
 10
45.9277572047
 20
215.9658553628
 10
45.92266870409999
 20
216.3600435521
 10
45.9146928178
 20
216.7991756144
 10
45.9045396985
 20
217.2441523301
  0
LINE
  5
438
330
1B
100
AcDbEntity
  8
0
  6
Continuous
100
AcDbLine
 10
41.3897258172
 20
178.4518811181
 30
0.0
 11
41.3897258172
 21
220.3723188364
 31
0.0
  0
LINE
  5
439
330
1B
100
AcDbEntity
  8
0
  6
Continuous
100
AcDbLine
 10
45.9291071442
 20
215.6047625883
 30
0.0
 11
45.9295052522
 21
215.6517085758
 31
0.0
  0
LWPOLYLINE
  5
43A
330
1B
100
AcDbEntity
  8
0
  6
Continuous
100
AcDbPolyline
 90
        9
 70
     0
 43
0.0
 10
45.9045396985
 20
191.5537256472
 10
45.9146928178
 20
191.8859811175
 10
45.92266870409999
 20
192.2919249072
 10
45.9277572047
 20
192.7354127976
 10
45.9295052522
 20
193.1769577374
 10
45.9277572047
 20
193.5772456704
 10
45.92266870409999
 20
193.9006359614
 10
45.9146928178
 20
194.1183347484
 10
45.9045396985
 20
194.2109586766
  0
LINE
  5
445
330
1B
100
AcDbEntity
  8
0
  6
Continuous
100
AcDbLine
 10
55.80855708459999
 20
178.0277629616
 30
0.0
 11
55.80855708459999
 21
220.7498892211
 31
0.0
  0
LINE
  5
446
330
1B
100
AcDbEntity
  8
0
  6
Continuous
100
AcDbLine
 10
66.1292414337
 20
174.1575063307
 30
0.0
 11
66.1292414337
 21
224.620145852
 31
0.0
  0
LINE
  5
447
330
1B
100
AcDbEntity
  8
0
  6
Continuous
100
AcDbLine
 10
74.3897258172
 20
203.3888260914
 30
0.0
 11
74.3897258172
 21
195.3888260914
 31
0.0
  0
LINE
  5
448
330
1B
100
AcDbEntity
  8
0
  6
Continuous
100
AcDbLine
 10
76.3897258172
 20
173.8888260914
 30
0.0
 11
76.3897258172
 21
195.0975030799
 31
0.0
  0
LINE
  5
449
330
1B
100
AcDbEntity
  8
0
  6
Continuous
100
AcDbLine
 10
76.3897258172
 20
203.6801482577
 30
0.0
 11
76.3897258172
 21
224.8888260914
 31
0.0
  0
LINE
  5
44A
330
1B
100
AcDbEntity
  8
0
  6
Continuous
100
AcDbLine
 10
152.0240403922
 20
156.9888260914
 30
0.0
 11
108.7554112421
 21
156.9888260914
 31
0.0
  0
LINE
  5
44B
330
1B
100
AcDbEntity
  8
0
  6
Continuous
100
AcDbLine
 10
152.3068831047
 20
157.1059833789
 30
0.0
 11
108.4725685297
 21
157.1059833789
 31
0.0
  0
LINE
  5
44C
330
1B
100
AcDbEntity
  8
0
  6
Continuous
100
AcDbLine
 10
108.0897265801
 20
157.4888245655
 30
0.0
 11
152.6897250542
 21
157.4888245655
 31
0.0
  0
LINE
  5
44D
330
1B
100
AcDbEntity
  8
0
  6
Continuous
100
AcDbLine
 10
154.2725685297
 20
159.0716688038
 30
0.0
 11
106.5068831047
 21
159.0716688038
 31
0.0
  0
LINE
  5
44E
330
1B
100
AcDbEntity
  8
0
  6
Continuous
100
AcDbLine
 10
154.3897258172
 20
159.3545115163
 30
0.0
 11
106.3897258172
 21
159.3545115163
 31
0.0
  0
LINE
  5
44F
330
1B
100
AcDbEntity
  8
0
  6
Continuous
100
AcDbLine
 10
55.80855708459999
 20
178.0277629616
 30
0.0
 11
66.1292414337
 21
174.1575063307
 31
0.0
  0
LINE
  5
450
330
1B
100
AcDbEntity
  8
0
  6
Continuous
100
AcDbLine
 10
108.4725685297
 20
157.1059833789
 30
0.0
 11
106.5068831047
 21
159.0716688038
 31
0.0
  0
LINE
  5
451
330
1B
100
AcDbEntity
  8
0
  6
Continuous
100
AcDbLine
 10
78.0480382124
 20
219.8888260914
 30
0.0
 11
78.0480382124
 21
203.7563945972
 31
0.0
  0
LINE
  5
452
330
1B
100
AcDbEntity
  8
0
  6
Continuous
100
AcDbLine
 10
78.0480382124
 20
195.0212575855
 30
0.0
 11
78.0480382124
 21
178.8888260914
 31
0.0
  0
LINE
  5
453
330
1B
100
AcDbEntity
  8
0
  6
Continuous
100
AcDbLine
 10
78.9897258112
 20
196.0829174617
 30
0.0
 11
78.9897258172
 21
194.9361422458
 31
0.0
  0
LINE
  5
454
330
1B
100
AcDbEntity
  8
0
  6
Continuous
100
AcDbLine
 10
78.9897258172
 20
196.0829174793
 30
0.0
 11
78.9897258172
 21
202.6947347036
 31
0.0
  0
LINE
  5
455
330
1B
100
AcDbEntity
  8
0
  6
Continuous
100
AcDbLine
 10
78.9897258172
 20
202.6947347225
 30
0.0
 11
78.9897258172
 21
203.8415099369
 31
0.0
  0
LINE
  5
456
330
1B
100
AcDbEntity
  8
0
  6
Continuous
100
AcDbLine
 10
85.58972581720001
 20
219.8888260914
 30
0.0
 11
85.58972581720001
 21
218.0085838215
 31
0.0
  0
LINE
  5
457
330
1B
100
AcDbEntity
  8
0
  6
Continuous
100
AcDbLine
 10
88.3897258172
 20
194.9361422458
 30
0.0
 11
88.3897258172
 21
197.8051572654
 31
0.0
  0
LINE
  5
458
330
1B
100
AcDbEntity
  8
0
  6
Continuous
100
AcDbLine
 10
88.3897258172
 20
200.9724949173
 30
0.0
 11
88.3897258172
 21
203.8415099369
 31
0.0
  0
LINE
  5
459
330
1B
100
AcDbEntity
  8
0
  6
Continuous
100
AcDbLine
 10
88.3897258172
 20
220.5517697919
 30
0.0
 11
88.3897258172
 21
228.5941710868
 31
0.0
  0
LINE
  5
45A
330
1B
100
AcDbEntity
  8
0
  6
Continuous
100
AcDbLine
 10
55.80855708459999
 20
220.7498892211
 30
0.0
 11
66.1292414337
 21
224.620145852
 31
0.0
  0
LINE
  5
45B
330
1B
100
AcDbEntity
  8
0
  6
Continuous
100
AcDbLine
 10
106.3897258172
 20
169.9888260914
 30
0.0
 11
154.3897258172
 21
169.9888260914
 31
0.0
  0
LINE
  5
45C
330
1B
100
AcDbEntity
  8
0
  6
Continuous
100
AcDbLine
 10
108.0897265801
 20
171.6888253284
 30
0.0
 11
152.6897250542
 21
171.6888253284
 31
0.0
  0
LINE
  5
45D
330
1B
100
AcDbEntity
  8
0
  6
Continuous
100
AcDbLine
 10
108.6323665043
 20
172.2314667785
 30
0.0
 11
152.1470851301
 21
172.2314667785
 31
0.0
  0
LINE
  5
45E
330
1B
100
AcDbEntity
  8
0
  6
Continuous
100
AcDbLine
 10
66.1292414337
 20
174.1575063307
 30
0.0
 11
76.3897258172
 21
173.8888260914
 31
0.0
  0
LINE
  5
45F
330
1B
100
AcDbEntity
  8
0
  6
Continuous
100
AcDbLine
 10
33.2548263205
 20
176.8551240391
 30
0.0
 11
39.2897258172
 21
176.6443807049
 31
0.0
  0
LWPOLYLINE
  5
460
330
1B
100
AcDbEntity
  8
0
  6
Continuous
100
AcDbPolyline
 90
       10
 70
     0
 43
0.0
 10
33.2548263205
 20
181.7844848153
 10
33.0856094354
 20
181.8004567419
 10
32.9223226046
 20
181.838647799
 10
32.7697096893
 20
181.8979484477
 10
32.6322044486
 20
181.9766358665
 10
32.5138017288
 20
182.0724240036
 10
32.41794140350001
 20
182.1825299912999
 10
32.3474084374
 20
182.3037549953
 10
32.3042519769
 20
182.432577148
 10
32.2897258172
 20
182.5652538672
  0
LINE
  5
46C
330
1B
100
AcDbEntity
  8
0
  6
Continuous
100
AcDbLine
 10
132.2227479856
 20
243.4084874021
 30
0.0
 11
133.3252578305
 21
243.733634464
 31
0.0
  0
LINE
  5
46D
330
1B
100
AcDbEntity
  8
0
  6
Continuous
100
AcDbLine
 10
110.9100222662
 20
176.4741074656
 30
0.0
 11
150.3897258172
 21
176.4741074656
 31
0.0
  0
LINE
  5
46E
330
1B
100
AcDbEntity
  8
0
  6
Continuous
100
AcDbLine
 10
32.2897258172
 20
178.6972287052
 30
0.0
 11
31.7897258172
 21
178.6972287052
 31
0.0
  0
LINE
  5
46F
330
1B
100
AcDbEntity
  8
0
  6
Continuous
100
AcDbLine
 10
78.0480382124
 20
178.8888260914
 30
0.0
 11
107.3320795881
 21
178.8888260914
 31
0.0
  0
LINE
  5
470
330
1B
100
AcDbEntity
  8
0
  6
Continuous
100
AcDbLine
 10
39.2897258172
 20
179.3888260914
 30
0.0
 11
39.8897258172
 21
179.3888260914
 31
0.0
  0
LINE
  5
471
330
1B
100
AcDbEntity
  8
0
  6
Continuous
100
AcDbLine
 10
32.2897258172
 20
179.5187824296
 30
0.0
 11
31.7897258172
 21
179.5187824296
 31
0.0
  0
LINE
  5
472
330
1B
100
AcDbEntity
  8
0
  6
Continuous
100
AcDbLine
 10
32.2897258172
 20
180.6020709579
 30
0.0
 11
31.7897258172
 21
180.6020709579
 31
0.0
  0
LINE
  5
473
330
1B
100
AcDbEntity
  8
0
  6
Continuous
100
AcDbLine
 10
32.2897258172
 20
181.1805172335
 30
0.0
 11
31.7897258172
 21
181.1805172335
 31
0.0
  0
LINE
  5
474
330
1B
100
AcDbEntity
  8
0
  6
Continuous
100
AcDbLine
 10
115.3913857218
 20
181.4794250146
 30
0.0
 11
150.3897258172
 21
181.4794250146
 31
0.0
  0
LINE
  5
475
330
1B
100
AcDbEntity
  8
0
  6
Continuous
100
AcDbLine
 10
47.3170572506
 20
178.2501207103
 30
0.0
 11
55.80855708459999
 21
178.0277629616
 31
0.0
  0
LINE
  5
476
330
1B
100
AcDbEntity
  8
0
  6
Continuous
100
AcDbLine
 10
33.2548263205
 20
183.994913635
 30
0.0
 11
39.2897258172
 21
183.7021243927
 31
0.0
  0
LWPOLYLINE
  5
477
330
1B
100
AcDbEntity
  8
0
  6
Continuous
100
AcDbPolyline
 90
       10
 70
     0
 43
0.0
 10
33.2548263205
 20
185.9456871208
 10
33.0855746311
 20
185.9578880347
 10
32.9222564727
 20
185.9870629894
 10
32.76961781140001
 20
186.0323643151
 10
32.6320959347
 20
186.092475232
 10
32.5136892257
 20
186.1656476437
 10
32.4178372192
 20
186.2497555421
 10
32.3473331893
 20
186.3423419411
 10
32.304211731
 20
186.4407269302
 10
32.2897258172
 20
186.5419029465
  0
LWPOLYLINE
  5
483
330
1B
100
AcDbEntity
  8
0
  6
Continuous
100
AcDbPolyline
 90
       10
 70
     0
 43
0.0
 10
33.2548263205
 20
182.8407233121
 10
33.0855746311
 20
182.835086127
 10
32.9222564727
 20
182.8216064302
 10
32.76961781140001
 20
182.8006758703
 10
32.6320959347
 20
182.7729028388
 10
32.5136892257
 20
182.7390950082
 10
32.4178372192
 20
182.7002346574
 10
32.3473331893
 20
182.6574569873
 10
32.304211731
 20
182.612000196
 10
32.2897258172
 20
182.5652538672
  0
LINE
  5
48F
330
1B
100
AcDbEntity
  8
0
  6
Continuous
100
AcDbLine
 10
32.2897258172
 20
181.9266077945
 30
0.0
 11
31.6897258172
 21
181.9266077945
 31
0.0
  0
LINE
  5
490
330
1B
100
AcDbEntity
  8
0
  6
Continuous
100
AcDbLine
 10
32.2897258172
 20
182.8518882163
 30
0.0
 11
31.6897258172
 21
182.8518882163
 31
0.0
  0
LINE
  5
491
330
1B
100
AcDbEntity
  8
0
  6
Continuous
100
AcDbLine
 10
39.8897258172
 20
183.6888260913999
 30
0.0
 11
41.0047625279
 21
183.6888260913999
 31
0.0
  0
LINE
  5
492
330
1B
100
AcDbEntity
  8
0
  6
Continuous
100
AcDbLine
 10
148.3897258172
 20
184.9435266297
 30
0.0
 11
122.1987672879
 21
184.9435266297
 31
0.0
  0
LINE
  5
493
330
1B
100
AcDbEntity
  8
0
  6
Continuous
100
AcDbLine
 10
123.6539382074
 20
186.3869023027
 30
0.0
 11
145.8897258171
 21
186.3869023027
 31
0.0
  0
LINE
  5
494
330
1B
100
AcDbEntity
  8
0
  6
Continuous
100
AcDbLine
 10
32.2897258172
 20
187.7238890467
 30
0.0
 11
31.6897258172
 21
187.7238890467
 31
0.0
  0
LINE
  5
495
330
1B
100
AcDbEntity
  8
0
  6
Continuous
100
AcDbLine
 10
32.2897258172
 20
187.9858665248
 30
0.0
 11
31.6897258172
 21
187.9858665248
 31
0.0
  0
LINE
  5
496
330
1B
100
AcDbEntity
  8
0
  6
Continuous
100
AcDbLine
 10
106.3897258172
 20
159.3545115163
 30
0.0
 11
106.3897258172
 21
169.9888260914
 31
0.0
  0
LINE
  5
497
330
1B
100
AcDbEntity
  8
0
  6
Continuous
100
AcDbLine
 10
108.0897258172
 20
157.4888260914
 30
0.0
 11
108.0897258172
 21
171.6888260914
 31
0.0
  0
LINE
  5
498
330
1B
100
AcDbEntity
  8
0
  6
Continuous
100
AcDbLine
 10
149.6691517442
 20
252.4171150705
 30
0.0
 11
151.7183337139
 21
254.4662970402
 31
0.0
  0
LINE
  5
499
330
1B
100
AcDbEntity
  8
0
  6
Continuous
100
AcDbLine
 10
124.3057886574
 20
188.9849785141
 30
0.0
 11
144.3897258172
 21
188.9849785141
 31
0.0
  0
LINE
  5
49A
330
1B
100
AcDbEntity
  8
0
  6
Continuous
100
AcDbLine
 10
32.2897258172
 20
189.1490303869
 30
0.0
 11
31.6897258172
 21
189.1490303869
 31
0.0
  0
LINE
  5
49B
330
1B
100
AcDbEntity
  8
0
  6
Continuous
100
AcDbLine
 10
32.2897258172
 20
189.851939638
 30
0.0
 11
31.6897258172
 21
189.851939638
 31
0.0
  0
LINE
  5
49C
330
1B
100
AcDbEntity
  8
0
  6
Continuous
100
AcDbLine
 10
128.9897258172
 20
190.3888260914
 30
0.0
 11
131.7897258172
 21
190.3888260914
 31
0.0
  0
LINE
  5
49D
330
1B
100
AcDbEntity
  8
0
  6
Continuous
100
AcDbLine
 10
32.2897258172
 20
191.2646557866
 30
0.0
 11
31.6897258172
 21
191.2646557866
 31
0.0
  0
LINE
  5
49E
330
1B
100
AcDbEntity
  8
0
  6
Continuous
100
AcDbLine
 10
32.2897258172
 20
192.0627574433
 30
0.0
 11
31.6897258172
 21
192.0627574433
 31
0.0
  0
LINE
  5
49F
330
1B
100
AcDbEntity
  8
0
  6
Continuous
100
AcDbLine
 10
32.2897258172
 20
193.5637683512
 30
0.0
 11
31.6897258172
 21
193.5637683512
 31
0.0
  0
LINE
  5
4A0
330
1B
100
AcDbEntity
  8
0
  6
Continuous
100
AcDbLine
 10
32.2897258172
 20
194.3149228516
 30
0.0
 11
31.6897258172
 21
194.3149228516
 31
0.0
  0
LINE
  5
4A1
330
1B
100
AcDbEntity
  8
0
  6
Continuous
100
AcDbLine
 10
88.3897258172
 20
194.9361422458
 30
0.0
 11
78.9897258172
 21
194.9361422458
 31
0.0
  0
LINE
  5
4A2
330
1B
100
AcDbEntity
  8
0
  6
Continuous
100
AcDbLine
 10
154.0277347906
 20
195.3378379491
 30
0.0
 11
173.2542320987
 21
195.3378379491
 31
0.0
  0
LINE
  5
4A3
330
1B
100
AcDbEntity
  8
0
  6
Continuous
100
AcDbLine
 10
154.0277347906
 20
195.3733225486
 30
0.0
 11
173.2542320987
 21
195.3733225486
 31
0.0
  0
LINE
  5
4A4
330
1B
100
AcDbEntity
  8
0
  6
Continuous
100
AcDbLine
 10
153.9059843665
 20
195.6391405338
 30
0.0
 11
173.2542321069
 21
195.6391405338
 31
0.0
  0
LINE
  5
4A5
330
1B
100
AcDbEntity
  8
0
  6
Continuous
100
AcDbLine
 10
32.2897258172
 20
195.8636121419
 30
0.0
 11
31.7897258172
 21
195.8636121419
 31
0.0
  0
LINE
  5
4A6
330
1B
100
AcDbEntity
  8
0
  6
Continuous
100
AcDbLine
 10
75.47688155989999
 20
195.2937122884
 30
0.0
 11
74.3897258172
 21
195.3888260914
 31
0.0
  0
LINE
  5
4A7
330
1B
100
AcDbEntity
  8
0
  6
Continuous
100
AcDbLine
 10
116.6576750096
 20
186.0297593222
 30
0.0
 11
116.6576750096
 21
214.9978381544
 31
0.0
  0
LINE
  5
4A8
330
1B
100
AcDbEntity
  8
0
  6
Continuous
100
AcDbLine
 10
119.255751221
 20
188.6915490987
 30
0.0
 11
119.255751221
 21
214.0175843922
 31
0.0
  0
LINE
  5
4A9
330
1B
100
AcDbEntity
  8
0
  6
Continuous
100
AcDbLine
 10
109.5626740874
 20
196.7005409745
 30
0.0
 11
109.183617466
 21
194.952753512
 31
0.0
  0
LINE
  5
4AA
330
1B
100
AcDbEntity
  8
0
  6
Continuous
100
AcDbLine
 10
88.3897258172
 20
196.494123462
 30
0.0
 11
78.9897258172
 21
196.494123462
 31
0.0
  0
LINE
  5
4AB
330
1B
100
AcDbEntity
  8
0
  6
Continuous
100
AcDbLine
 10
78.9897258172
 20
196.8089625673
 30
0.0
 11
88.3897258172
 21
196.8089625673
 31
0.0
  0
LINE
  5
4AC
330
1B
100
AcDbEntity
  8
0
  6
Continuous
100
AcDbLine
 10
32.2897258172
 20
197.25679979
 30
0.0
 11
31.7897258172
 21
197.25679979
 31
0.0
  0
LINE
  5
4AD
330
1B
100
AcDbEntity
  8
0
  6
Continuous
100
AcDbLine
 10
32.2897258172
 20
197.409890201
 30
0.0
 11
31.7897258172
 21
197.409890201
 31
0.0
  0
LINE
  5
4AE
330
1B
100
AcDbEntity
  8
0
  6
Continuous
100
AcDbLine
 10
32.2897258172
 20
197.4167025529
 30
0.0
 11
31.7897258172
 21
197.4167025529
 31
0.0
  0
LINE
  5
4AF
330
1B
100
AcDbEntity
  8
0
  6
Continuous
100
AcDbLine
 10
78.9897258172
 20
197.8051572654
 30
0.0
 11
88.3897258172
 21
197.8051572654
 31
0.0
  0
LINE
  5
4B0
330
1B
100
AcDbEntity
  8
0
  6
Continuous
100
AcDbLine
 10
126.2897258172
 20
198.3888260914
 30
0.0
 11
127.7897258172
 21
198.3888260914
 31
0.0
  0
LINE
  5
4B1
330
1B
100
AcDbEntity
  8
0
  6
Continuous
100
AcDbLine
 10
132.9897258172
 20
198.3888260914
 30
0.0
 11
134.4897258172
 21
198.3888260914
 31
0.0
  0
LINE
  5
4B2
330
1B
100
AcDbEntity
  8
DEFAULT_1
  6
CENTER
100
AcDbLine
 10
28.6759998333
 20
199.3888260914
 30
0.0
 11
146.5569376157
 21
199.3888260914
 31
0.0
  0
LINE
  5
4B3
330
1B
100
AcDbEntity
  8
0
  6
Continuous
100
AcDbLine
 10
88.3897258172
 20
200.9724949173
 30
0.0
 11
78.9897258172
 21
200.9724949173
 31
0.0
  0
LINE
  5
4B4
330
1B
100
AcDbEntity
  8
0
  6
Continuous
100
AcDbLine
 10
32.2897258172
 20
201.4708090662
 30
0.0
 11
31.6897258172
 21
201.4708090662
 31
0.0
  0
LINE
  5
4B5
330
1B
100
AcDbEntity
  8
0
  6
Continuous
100
AcDbLine
 10
88.3897258172
 20
201.9686896154
 30
0.0
 11
78.9897258172
 21
201.9686896154
 31
0.0
  0
LINE
  5
4B6
330
1B
100
AcDbEntity
  8
0
  6
Continuous
100
AcDbLine
 10
78.9897258172
 20
202.2835287207
 30
0.0
 11
88.3897258172
 21
202.2835287207
 31
0.0
  0
LINE
  5
4B7
330
1B
100
AcDbEntity
  8
0
  6
Continuous
100
AcDbLine
 10
148.3897258172
 20
184.9435266297
 30
0.0
 11
145.8897258172
 21
186.3869023027
 31
0.0
  0
LINE
  5
4B8
330
1B
100
AcDbEntity
  8
0
  6
Continuous
100
AcDbLine
 10
154.3897258172
 20
169.9888260914
 30
0.0
 11
152.1470851301
 21
172.2314667785
 31
0.0
  0
LINE
  5
4B9
330
1B
100
AcDbEntity
  8
0
  6
Continuous
100
AcDbLine
 10
121.2764771631
 20
211.723885107
 30
0.0
 11
121.2764771631
 21
193.448521754
 31
0.0
  0
LINE
  5
4BA
330
1B
100
AcDbEntity
  8
0
  6
Continuous
100
AcDbLine
 10
123.8745533745
 20
210.5621325169
 30
0.0
 11
123.8745533745
 21
194.0234259586
 31
0.0
  0
LWPOLYLINE
  5
4BB
330
1B
100
AcDbEntity
  8
0
  6
Continuous
100
AcDbPolyline
 90
        6
 70
     0
 43
0.0
 10
124.3057886213
 20
188.9849785132
 10
124.2772996303
 20
188.3612434416
 10
124.1930777629
 20
187.7647685848
 10
124.0568039188
 20
187.2216227572
 10
123.8744339189
 20
186.7555440376
 10
123.6539382074
 20
186.3869023027
  0
LINE
  5
4C3
330
1B
100
AcDbEntity
  8
0
  6
Continuous
100
AcDbLine
 10
151.7719234968
 20
258.0306581759
 30
0.0
 11
154.0277347906
 21
261.9378379491
 31
0.0
  0
LINE
  5
4C4
330
1B
100
AcDbEntity
  8
0
  6
Continuous
100
AcDbLine
 10
147.4181529419
 20
248.7227158195
 30
0.0
 11
149.1923958764
 21
251.7957947269
 31
0.0
  0
LINE
  5
4C5
330
1B
100
AcDbEntity
  8
0
  6
Continuous
100
AcDbLine
 10
74.3897258172
 20
203.3888260914
 30
0.0
 11
75.47688155989999
 21
203.4839398943
 31
0.0
  0
LINE
  5
4C6
330
1B
100
AcDbEntity
  8
0
  6
Continuous
100
AcDbLine
 10
178.7183337139
 20
207.1170317353
 30
0.0
 11
191.2483337139
 21
207.1534801306
 31
0.0
  0
LINE
  5
4C7
330
1B
100
AcDbEntity
  8
0
  6
Continuous
100
AcDbLine
 10
193.6483337139
 20
203.8378379491
 30
0.0
 11
197.8483337139
 21
203.8378379491
 31
0.0
  0
LINE
  5
4C8
330
1B
100
AcDbEntity
  8
0
  6
Continuous
100
AcDbLine
 10
78.9897258172
 20
203.8415099369
 30
0.0
 11
88.3897258172
 21
203.8415099369
 31
0.0
  0
LINE
  5
4C9
330
1B
100
AcDbEntity
  8
0
  6
Continuous
100
AcDbLine
 10
151.7183337139
 20
204.5178379491
 30
0.0
 11
150.0098746228
 21
204.5178379491
 31
0.0
  0
LINE
  5
4CA
330
1B
100
AcDbEntity
  8
0
  6
Continuous
100
AcDbLine
 10
200.3587027993
 20
205.6378379491
 30
0.0
 11
198.2483337139
 21
205.6378379491
 31
0.0
  0
LINE
  5
4CB
330
1B
100
AcDbEntity
  8
0
  6
Continuous
100
AcDbLine
 10
217.3826482889
 20
207.9378379491
 30
0.0
 11
206.9182066949
 21
207.9378379491
 31
0.0
  0
LINE
  5
4CC
330
1B
100
AcDbEntity
  8
0
  6
Continuous
100
AcDbLine
 10
219.6183337139
 20
210.0078379491
 30
0.0
 11
206.3635518666
 21
210.0078379491
 31
0.0
  0
LINE
  5
4CD
330
1B
100
AcDbEntity
  8
0
  6
Continuous
100
AcDbLine
 10
173.2542321069
 20
210.0214212987
 30
0.0
 11
153.9059843665
 21
210.0214212987
 31
0.0
  0
LWPOLYLINE
  5
4CE
330
1B
100
AcDbEntity
  8
0
  6
Continuous
100
AcDbPolyline
 90
       10
 70
     0
 43
0.0
 10
33.2548263205
 20
211.3259000636
 10
33.0856094354
 20
211.3367338379
 10
32.9223226046
 20
211.3626388712
 10
32.7697096893
 20
211.4028625622
 10
32.6322044486
 20
211.4562363195
 10
32.5138017288
 20
211.5212095114
 10
32.41794140350001
 20
211.5958945162
 10
32.3474084374
 20
211.6781215612
 10
32.3042519769
 20
211.7655017601
 10
32.2897258172
 20
211.8554965153
  0
LINE
  5
4DA
330
1B
100
AcDbEntity
  8
0
  6
Continuous
100
AcDbLine
 10
134.8975846163
 20
199.4288842693
 30
0.0
 11
130.7975846163
 21
203.2288842693
 31
0.0
  0
LINE
  5
4DB
330
1B
100
AcDbEntity
  8
0
  6
Continuous
100
AcDbLine
 10
130.3897258172
 20
211.0708647333
 30
0.0
 11
130.387953965
 21
215.7430455762
 31
0.0
  0
LINE
  5
4DC
330
1B
100
AcDbEntity
  8
0
  6
Continuous
100
AcDbLine
 10
128.3897258172
 20
190.9888260914
 30
0.0
 11
128.3897258172
 21
197.7888260914
 31
0.0
  0
LINE
  5
4DD
330
1B
100
AcDbEntity
  8
DEFAULT_1
  6
CENTER
100
AcDbLine
 10
130.3897258172
 20
151.9888260914
 30
0.0
 11
130.3897258172
 21
212.4409871016
 31
0.0
  0
LINE
  5
4DE
330
1B
100
AcDbEntity
  8
0
  6
Continuous
100
AcDbLine
 10
132.3897258172
 20
190.9888260914
 30
0.0
 11
132.3897258172
 21
197.7888260914
 31
0.0
  0
LINE
  5
4DF
330
1B
100
AcDbEntity
  8
0
  6
Continuous
100
AcDbLine
 10
133.3252578305
 20
243.733634464
 30
0.0
 11
133.3252578305
 21
223.2246647085
 31
0.0
  0
LINE
  5
4E0
330
1B
100
AcDbEntity
  8
0
  6
Continuous
100
AcDbLine
 10
129.9818670181
 20
203.2288842693
 30
0.0
 11
125.8818670181
 21
199.4288842693
 31
0.0
  0
LWPOLYLINE
  5
4E1
330
1B
100
AcDbEntity
  8
0
  6
Continuous
100
AcDbPolyline
 90
        9
 70
     0
 43
0.0
 10
33.2548263205
 20
207.3264323037
 10
33.0856094354
 20
207.3192307355
 10
32.9223226046
 20
207.3020108029
 10
32.7697096893
 20
207.2752727847
 10
32.6322044486
 20
207.2397934824
 10
32.5138017288
 20
207.1966036522
 10
32.41794140350001
 20
207.1469580586
 10
32.3474084374
 20
207.0922990214
 10
32.3042519769
 20
207.0342145124
  0
LINE
  5
4EC
330
1B
100
AcDbEntity
  8
0
  6
Continuous
100
AcDbLine
 10
33.2548263205
 20
208.0150779956
 30
0.0
 11
39.2897258172
 21
208.2129540006
 31
0.0
  0
LINE
  5
4ED
330
1B
100
AcDbEntity
  8
0
  6
Continuous
100
AcDbLine
 10
33.2548263205
 20
210.3076457109
 30
0.0
 11
39.2897258172
 21
210.5055217159
 31
0.0
  0
LINE
  5
4EE
330
1B
100
AcDbEntity
  8
0
  6
Continuous
100
AcDbLine
 10
173.2542320987
 20
210.6745988895
 30
0.0
 11
154.0277347906
 21
210.6745988895
 31
0.0
  0
LINE
  5
4EF
330
1B
100
AcDbEntity
  8
0
  6
Continuous
100
AcDbLine
 10
32.2897258172
 20
211.3781843304
 30
0.0
 11
31.6897258172
 21
211.3781843304
 31
0.0
  0
LINE
  5
4F0
330
1B
100
AcDbEntity
  8
0
  6
Continuous
100
AcDbLine
 10
32.2897258172
 20
212.0262668042
 30
0.0
 11
31.7897258172
 21
212.0262668042
 31
0.0
  0
LINE
  5
4F1
330
1B
100
AcDbEntity
  8
0
  6
Continuous
100
AcDbLine
 10
32.2897258172
 20
213.2298046644
 30
0.0
 11
31.7897258172
 21
213.2298046644
 31
0.0
  0
LINE
  5
4F2
330
1B
100
AcDbEntity
  8
0
  6
Continuous
100
AcDbLine
 10
154.0277347906
 20
213.3365616082
 30
0.0
 11
173.2542320987
 21
213.3365616082
 31
0.0
  0
LINE
  5
4F3
330
1B
100
AcDbEntity
  8
0
  6
Continuous
100
AcDbLine
 10
32.2897258172
 20
213.9939288719
 30
0.0
 11
31.7897258172
 21
213.9939288719
 31
0.0
  0
LINE
  5
4F4
330
1B
100
AcDbEntity
  8
0
  6
Continuous
100
AcDbLine
 10
32.2897258172
 20
214.1903910117
 30
0.0
 11
31.7897258172
 21
214.1903910117
 31
0.0
  0
LINE
  5
4F5
330
1B
100
AcDbEntity
  8
0
  6
Continuous
100
AcDbLine
 10
153.9059843665
 20
214.2555571842
 30
0.0
 11
173.2542321071
 21
214.2555571842
 31
0.0
  0
LINE
  5
4F6
330
1B
100
AcDbEntity
  8
0
  6
Continuous
100
AcDbLine
 10
32.2897258172
 20
215.9456717803
 30
0.0
 11
31.7897258172
 21
215.9456717803
 31
0.0
  0
LINE
  5
4F7
330
1B
100
AcDbEntity
  8
0
  6
Continuous
100
AcDbLine
 10
32.2897258172
 20
216.3388119776
 30
0.0
 11
31.7897258172
 21
216.3388119776
 31
0.0
  0
LINE
  5
4F8
330
1B
100
AcDbEntity
  8
0
  6
Continuous
100
AcDbLine
 10
32.2897258172
 20
217.3274854285
 30
0.0
 11
31.7897258172
 21
217.3274854285
 31
0.0
  0
LINE
  5
4F9
330
1B
100
AcDbEntity
  8
0
  6
Continuous
100
AcDbLine
 10
41.1328872439
 20
217.3888260431
 30
0.0
 11
39.8897258172
 21
217.3888260431
 31
0.0
  0
LINE
  5
4FA
330
1B
100
AcDbEntity
  8
0
  6
Continuous
100
AcDbLine
 10
106.3897258172
 20
169.9888260914
 30
0.0
 11
108.6323665043
 21
172.2314667785
 31
0.0
  0
LWPOLYLINE
  5
4FB
330
1B
100
AcDbEntity
  8
0
  6
Continuous
100
AcDbPolyline
 90
        6
 70
     0
 43
0.0
 10
121.2764771631
 20
193.4485218054
 10
121.6451188981
 20
193.6429774052
 10
122.1111976176
 20
193.8038098653
 10
122.6543434453
 20
193.9239900353
 10
123.250818302
 20
193.9982654651
 10
123.8745533745
 20
194.0233899621
  0
LWPOLYLINE
  5
503
330
1B
100
AcDbEntity
  8
0
  6
Continuous
100
AcDbPolyline
 90
       10
 70
     0
 43
0.0
 10
33.2548263205
 20
207.9731740463
 10
33.0855746311
 20
207.9527350494
 10
32.9222564727
 20
207.9038611028
 10
32.76961781140001
 20
207.8279722252
 10
32.6320959347
 20
207.7272742889
 10
32.5136892257
 20
207.6046957084
 10
32.4178372192
 20
207.4637979772
 10
32.3473331893
 20
207.3086970438
 10
32.304211731
 20
207.1438822999
 10
32.2897258172
 20
206.9743920212
  0
LWPOLYLINE
  5
50F
330
1B
100
AcDbEntity
  8
0
  6
Continuous
100
AcDbPolyline
 90
       10
 70
     0
 43
0.0
 10
33.2548263205
 20
212.4340651045
 10
33.0855746311
 20
212.4222253223
 10
32.9222564727
 20
212.3939139094
 10
32.76961781140001
 20
212.3499534458
 10
32.6320959347
 20
212.2916217363
 10
32.5136892257
 20
212.2206151357
 10
32.4178372192
 20
212.1389967249
 10
32.3473331893
 20
212.0491507666
 10
32.304211731
 20
211.9536778491
 10
32.2897258172
 20
211.8554965153
  0
LINE
  5
51B
330
1B
100
AcDbEntity
  8
0
  6
Continuous
100
AcDbLine
 10
41.3897258172
 20
220.3723188364
 30
0.0
 11
55.80855708459999
 21
220.7498892211
 31
0.0
  0
LINE
  5
51C
330
1B
100
AcDbEntity
  8
0
  6
Continuous
100
AcDbLine
 10
32.2897258172
 20
218.3343452312
 30
0.0
 11
31.7897258172
 21
218.3343452312
 31
0.0
  0
LINE
  5
51D
330
1B
100
AcDbEntity
  8
0
  6
Continuous
100
AcDbLine
 10
39.2897258172
 20
219.3888260914
 30
0.0
 11
39.8897258172
 21
219.3888260914
 31
0.0
  0
LINE
  5
51E
330
1B
100
AcDbEntity
  8
0
  6
Continuous
100
AcDbLine
 10
78.0480382124
 20
219.8888260914
 30
0.0
 11
85.58972581720001
 21
219.8888260914
 31
0.0
  0
LINE
  5
51F
330
1B
100
AcDbEntity
  8
0
  6
Continuous
100
AcDbLine
 10
149.6691517442
 20
204.8585608277
 30
0.0
 11
151.7183337139
 21
202.809378858
 31
0.0
  0
LINE
  5
520
330
1B
100
AcDbEntity
  8
0
  6
Continuous
100
AcDbLine
 10
144.3897258172
 20
188.9849785141
 30
0.0
 11
144.3897258172
 21
199.3888260914
 31
0.0
  0
LINE
  5
521
330
1B
100
AcDbEntity
  8
0
  6
Continuous
100
AcDbLine
 10
144.9893275072
 20
211.3378989236
 30
0.0
 11
144.9893275072
 21
246.8590125143
 31
0.0
  0
LINE
  5
522
330
1B
100
AcDbEntity
  8
0
  6
Continuous
100
AcDbLine
 10
147.4181529419
 20
248.7227158195
 30
0.0
 11
147.4181529419
 21
209.4451781896
 31
0.0
  0
LINE
  5
523
330
1B
100
AcDbEntity
  8
0
  6
Continuous
100
AcDbLine
 10
191.2483337139
 20
251.0378379491
 30
0.0
 11
193.6483337139
 21
253.4378379491
 31
0.0
  0
LWPOLYLINE
  5
524
330
1B
100
AcDbEntity
  8
0
  6
Continuous
100
AcDbPolyline
 90
        5
 70
     0
 43
0.0
 10
174.9862829063
 20
213.7960593962
 10
174.6684456611
 20
213.6057291805
 10
174.2542320987
 20
213.4596836694
 10
173.7718701889
 20
213.367875623
 10
173.2542320987
 20
213.3365616082
  0
LINE
  5
52B
330
1B
100
AcDbEntity
  8
0
  6
Continuous
100
AcDbLine
 10
174.9862829063
 20
243.479616502
 30
0.0
 11
173.2542320987
 21
243.020118714
 31
0.0
  0
LINE
  5
52C
330
1B
100
AcDbEntity
  8
0
  6
Continuous
100
AcDbLine
 10
175.8523243292
 20
239.7311395961
 30
0.0
 11
174.1202575025
 21
239.3709642411
 31
0.0
  0
LINE
  5
52D
330
1B
100
AcDbEntity
  8
0
  6
Continuous
100
AcDbLine
 10
33.2548263205
 20
221.9225281436
 30
0.0
 11
39.2897258172
 21
222.1332714778
 31
0.0
  0
LINE
  5
52E
330
1B
100
AcDbEntity
  8
0
  6
Continuous
100
AcDbLine
 10
66.1292414337
 20
224.620145852
 30
0.0
 11
76.3897258172
 21
224.8888260914
 31
0.0
  0
LINE
  5
52F
330
1B
100
AcDbEntity
  8
DEFAULT_1
  6
CENTER
100
AcDbLine
 10
87.3890131787
 20
228.6378379491
 30
0.0
 11
223.2296851224
 21
228.6378379491
 31
0.0
  0
LINE
  5
530
330
1B
100
AcDbEntity
  8
0
  6
Continuous
100
AcDbLine
 10
175.8523086288
 20
217.5445395677
 30
0.0
 11
174.1202575025
 21
217.9047116571
 31
0.0
  0
LINE
  5
531
330
1B
100
AcDbEntity
  8
0
  6
Continuous
100
AcDbLine
 10
174.9862829067
 20
213.7960593965
 30
0.0
 11
173.2542320987
 21
214.2555571838
 31
0.0
  0
LINE
  5
532
330
1B
100
AcDbEntity
  8
0
  6
Continuous
100
AcDbLine
 10
151.7719234968
 20
199.2450177222
 30
0.0
 11
154.0277347906
 21
195.3378379491
 31
0.0
  0
LINE
  5
533
330
1B
100
AcDbEntity
  8
0
  6
Continuous
100
AcDbLine
 10
148.9284320965
 20
205.9370798494
 30
0.0
 11
149.1923958764
 21
205.4798811712
 31
0.0
  0
LINE
  5
534
330
1B
100
AcDbEntity
  8
0
  6
Continuous
100
AcDbLine
 10
148.9284248395
 20
205.937145419
 30
0.0
 11
148.9284320965
 21
205.9370798494
 31
0.0
  0
LINE
  5
535
330
1B
100
AcDbEntity
  8
0
  6
Continuous
100
AcDbLine
 10
148.9274460067
 20
205.9580876659
 30
0.0
 11
148.9284248395
 21
205.937145419
 31
0.0
  0
LINE
  5
536
330
1B
100
AcDbEntity
  8
0
  6
Continuous
100
AcDbLine
 10
149.1923958764
 20
205.4798811712
 30
0.0
 11
149.1923958764
 21
251.7957947269
 31
0.0
  0
LINE
  5
537
330
1B
100
AcDbEntity
  8
0
  6
Continuous
100
AcDbLine
 10
149.6691517442
 20
204.8585608277
 30
0.0
 11
149.6691517442
 21
252.4171150705
 31
0.0
  0
LINE
  5
538
330
1B
100
AcDbEntity
  8
0
  6
Continuous
100
AcDbLine
 10
150.0098754296
 20
204.5178372455
 30
0.0
 11
150.0098754296
 21
252.757838924
 31
0.0
  0
LINE
  5
539
330
1B
100
AcDbEntity
  8
0
  6
Continuous
100
AcDbLine
 10
150.3897258172
 20
176.4741074656
 30
0.0
 11
150.3897258172
 21
181.4794250146
 31
0.0
  0
LINE
  5
53A
330
1B
100
AcDbEntity
  8
0
  6
Continuous
100
AcDbLine
 10
151.7183337139
 20
199.4452201774
 30
0.0
 11
151.7183337139
 21
257.8304557207
 31
0.0
  0
LINE
  5
53B
330
1B
100
AcDbEntity
  8
0
  6
Continuous
100
AcDbLine
 10
151.771923515
 20
199.2450176986
 30
0.0
 11
151.771923515
 21
258.0306581995
 31
0.0
  0
LINE
  5
53C
330
1B
100
AcDbEntity
  8
0
  6
Continuous
100
AcDbLine
 10
152.6897258172
 20
157.4888260914
 30
0.0
 11
152.6897258172
 21
171.6888260914
 31
0.0
  0
LINE
  5
53D
330
1B
100
AcDbEntity
  8
0
  6
Continuous
100
AcDbLine
 10
154.0277347906
 20
195.3733225486
 30
0.0
 11
154.0277347906
 21
195.3378379491
 31
0.0
  0
LINE
  5
53E
330
1B
100
AcDbEntity
  8
0
  6
Continuous
100
AcDbLine
 10
154.0277347906
 20
210.6745988895
 30
0.0
 11
154.0277347906
 21
213.3365616082
 31
0.0
  0
LINE
  5
53F
330
1B
100
AcDbEntity
  8
0
  6
Continuous
100
AcDbLine
 10
154.0277347906
 20
243.93911429
 30
0.0
 11
154.0277347906
 21
246.6010770086
 31
0.0
  0
LINE
  5
540
330
1B
100
AcDbEntity
  8
0
  6
Continuous
100
AcDbLine
 10
154.0277347906
 20
261.9023533495
 30
0.0
 11
154.0277347906
 21
261.9378379491
 31
0.0
  0
LINE
  5
541
330
1B
100
AcDbEntity
  8
0
  6
Continuous
100
AcDbLine
 10
154.3897258172
 20
159.3545115163
 30
0.0
 11
154.3897258172
 21
169.9888260914
 31
0.0
  0
LWPOLYLINE
  5
542
330
1B
100
AcDbEntity
  8
0
  6
Continuous
100
AcDbPolyline
 90
        5
 70
     0
 43
0.0
 10
174.9862829063
 20
211.2140354979
 10
174.6686772101
 20
210.9907182643
 10
174.25443879
 20
210.8192049486
 10
173.7719695092
 20
210.7113749296
 10
173.2542320987
 20
210.6745988895
  0
LINE
  5
549
330
1B
100
AcDbEntity
  8
0
  6
Continuous
100
AcDbLine
 10
206.2483337139
 20
208.1378379491
 30
0.0
 11
200.3587027993
 21
205.6378379491
 31
0.0
  0
LINE
  5
54A
330
1B
100
AcDbEntity
  8
0
  6
Continuous
100
AcDbLine
 10
91.35444963679998
 20
232.457874392
 30
0.0
 11
132.2220253687
 21
243.408308306
 31
0.0
  0
LINE
  5
54B
330
1B
100
AcDbEntity
  8
0
  6
Continuous
100
AcDbLine
 10
133.3252578305
 20
243.733634464
 30
0.0
 11
144.9893275072
 21
246.8590125143
 31
0.0
  0
LINE
  5
54C
330
1B
100
AcDbEntity
  8
0
  6
Continuous
100
AcDbLine
 10
173.2542320988
 20
243.020118714
 30
0.0
 11
153.9059843665
 21
243.020118714
 31
0.0
  0
LINE
  5
54D
330
1B
100
AcDbEntity
  8
0
  6
Continuous
100
AcDbLine
 10
173.2542320987
 20
243.93911429
 30
0.0
 11
154.0277347906
 21
243.93911429
 31
0.0
  0
LINE
  5
54E
330
1B
100
AcDbEntity
  8
0
  6
Continuous
100
AcDbLine
 10
154.0277347906
 20
246.6010770086
 30
0.0
 11
173.2542320987
 21
246.6010770086
 31
0.0
  0
LINE
  5
54F
330
1B
100
AcDbEntity
  8
0
  6
Continuous
100
AcDbLine
 10
153.9059843665
 20
247.2542545994
 30
0.0
 11
173.2542320988
 21
247.2542545994
 31
0.0
  0
LINE
  5
550
330
1B
100
AcDbEntity
  8
0
  6
Continuous
100
AcDbLine
 10
219.6183337139
 20
247.2678379491
 30
0.0
 11
206.3635518666
 21
247.2678379491
 31
0.0
  0
LINE
  5
551
330
1B
100
AcDbEntity
  8
0
  6
Continuous
100
AcDbLine
 10
217.3826482889
 20
249.3378379491
 30
0.0
 11
206.9182066949
 21
249.3378379491
 31
0.0
  0
LINE
  5
552
330
1B
100
AcDbEntity
  8
0
  6
Continuous
100
AcDbLine
 10
200.3587027993
 20
251.6378379491
 30
0.0
 11
198.2483337139
 21
251.6378379491
 31
0.0
  0
LINE
  5
553
330
1B
100
AcDbEntity
  8
0
  6
Continuous
100
AcDbLine
 10
151.7183337139
 20
252.7578379491
 30
0.0
 11
150.0098746228
 21
252.7578379491
 31
0.0
  0
LINE
  5
554
330
1B
100
AcDbEntity
  8
0
  6
Continuous
100
AcDbLine
 10
193.6483337139
 20
253.4378379491
 30
0.0
 11
197.8483337139
 21
253.4378379491
 31
0.0
  0
LINE
  5
555
330
1B
100
AcDbEntity
  8
0
  6
Continuous
100
AcDbLine
 10
178.7183337139
 20
250.1586441629
 30
0.0
 11
191.2483337139
 21
250.1221957675
 31
0.0
  0
LINE
  5
556
330
1B
100
AcDbEntity
  8
0
  6
Continuous
100
AcDbLine
 10
191.2483337139
 20
206.2378379491
 30
0.0
 11
193.6483337139
 21
203.8378379491
 31
0.0
  0
LINE
  5
557
330
1B
100
AcDbEntity
  8
0
  6
Continuous
100
AcDbLine
 10
173.2542320987
 20
195.3378379491
 30
0.0
 11
173.2542320987
 21
195.6391405338
 31
0.0
  0
LINE
  5
558
330
1B
100
AcDbEntity
  8
0
  6
Continuous
100
AcDbLine
 10
173.2542320987
 20
210.0214212987
 30
0.0
 11
173.2542320987
 21
214.2555571842
 31
0.0
  0
LINE
  5
559
330
1B
100
AcDbEntity
  8
0
  6
Continuous
100
AcDbLine
 10
173.2542320987
 20
243.020118714
 30
0.0
 11
173.2542320987
 21
247.2542545994
 31
0.0
  0
LINE
  5
55A
330
1B
100
AcDbEntity
  8
0
  6
Continuous
100
AcDbLine
 10
173.2542320987
 20
261.6365353643
 30
0.0
 11
173.2542320987
 21
261.9378379491
 31
0.0
  0
LINE
  5
55B
330
1B
100
AcDbEntity
  8
0
  6
Continuous
100
AcDbLine
 10
174.9862829063
 20
260.9378379491
 30
0.0
 11
174.9862829063
 21
260.903419144
 31
0.0
  0
LINE
  5
55C
330
1B
100
AcDbEntity
  8
0
  6
Continuous
100
AcDbLine
 10
174.9862829063
 20
246.0610484588
 30
0.0
 11
174.9862829063
 21
243.4802412663
 31
0.0
  0
LINE
  5
55D
330
1B
100
AcDbEntity
  8
0
  6
Continuous
100
AcDbLine
 10
174.9862829063
 20
213.796055728
 30
0.0
 11
174.9862829063
 21
211.2140389269
 31
0.0
  0
LINE
  5
55E
330
1B
100
AcDbEntity
  8
0
  6
Continuous
100
AcDbLine
 10
174.9862829063
 20
196.3722567573
 30
0.0
 11
174.9862829063
 21
196.3378379491
 31
0.0
  0
LINE
  5
55F
330
1B
100
AcDbEntity
  8
0
  6
Continuous
100
AcDbLine
 10
175.8523083101
 20
259.4378344915
 30
0.0
 11
175.8523083101
 21
259.0678962253
 31
0.0
  0
LINE
  5
560
330
1B
100
AcDbEntity
  8
0
  6
Continuous
100
AcDbLine
 10
175.8523083101
 20
247.9745979101
 30
0.0
 11
175.8523083101
 21
239.7311362643
 31
0.0
  0
LINE
  5
561
330
1B
100
AcDbEntity
  8
0
  6
Continuous
100
AcDbLine
 10
175.8523083101
 20
217.5445396338
 30
0.0
 11
175.8523083101
 21
209.301077988
 31
0.0
  0
LINE
  5
562
330
1B
100
AcDbEntity
  8
0
  6
Continuous
100
AcDbLine
 10
175.8523083101
 20
198.2077796728
 30
0.0
 11
175.8523083101
 21
197.8378414066
 31
0.0
  0
LINE
  5
563
330
1B
100
AcDbEntity
  8
0
  6
Continuous
100
AcDbLine
 10
174.9862829063
 20
196.3378379491
 30
0.0
 11
175.8523083101
 21
197.8378379491
 31
0.0
  0
LWPOLYLINE
  5
564
330
1B
100
AcDbEntity
  8
0
  6
Continuous
100
AcDbPolyline
 90
        5
 70
     0
 43
0.0
 10
174.9862829063
 20
196.372256945
 10
174.6684456611
 20
195.9584847701
 10
174.2542320987
 20
195.6409862134
 10
173.7718701889
 20
195.4413982769
 10
173.2542320987
 20
195.3733225486
  0
LINE
  5
56B
330
1B
100
AcDbEntity
  8
0
  6
Continuous
100
AcDbLine
 10
178.1736755712
 20
199.3250782436
 30
0.0
 11
178.1736755712
 21
257.9505976545
 31
0.0
  0
LINE
  5
56C
330
1B
100
AcDbEntity
  8
0
  6
Continuous
100
AcDbLine
 10
178.7183337139
 20
199.9207158949
 30
0.0
 11
178.7183337139
 21
257.3549600033
 31
0.0
  0
LINE
  5
56D
330
1B
100
AcDbEntity
  8
0
  6
Continuous
100
AcDbLine
 10
197.8483337139
 20
203.8378379491
 30
0.0
 11
198.2483337139
 21
204.2378379491
 31
0.0
  0
LINE
  5
56E
330
1B
100
AcDbEntity
  8
0
  6
Continuous
100
AcDbLine
 10
152.3068831047
 20
157.1059833789
 30
0.0
 11
154.2725685297
 21
159.0716688038
 31
0.0
  0
LINE
  5
56F
330
1B
100
AcDbEntity
  8
0
  6
Continuous
100
AcDbLine
 10
173.2542321071
 20
261.6365353643
 30
0.0
 11
153.9059843665
 21
261.6365353643
 31
0.0
  0
LINE
  5
570
330
1B
100
AcDbEntity
  8
0
  6
Continuous
100
AcDbLine
 10
173.2542320987
 20
261.9023533495
 30
0.0
 11
154.0277347906
 21
261.9023533495
 31
0.0
  0
LINE
  5
571
330
1B
100
AcDbEntity
  8
0
  6
Continuous
100
AcDbLine
 10
154.0277347906
 20
261.9378379491
 30
0.0
 11
173.2542320987
 21
261.9378379491
 31
0.0
  0
LWPOLYLINE
  5
572
330
1B
100
AcDbEntity
  8
0
  6
Continuous
100
AcDbPolyline
 90
        5
 70
     0
 43
0.0
 10
174.9862829063
 20
243.479616502
 10
174.6686772101
 20
243.6698400921
 10
174.25443879
 20
243.8159374658
 10
173.7719695092
 20
243.9077880129
 10
173.2542320987
 20
243.93911429
  0
LWPOLYLINE
  5
579
330
1B
100
AcDbEntity
  8
0
  6
Continuous
100
AcDbPolyline
 90
        5
 70
     0
 43
0.0
 10
174.9862829063
 20
246.0616404002
 10
174.6684456611
 20
246.2850823595
 10
174.2542320987
 20
246.456535405
 10
173.7718701889
 20
246.5643152952
 10
173.2542320987
 20
246.6010770086
  0
LINE
  5
580
330
1B
100
AcDbEntity
  8
0
  6
Continuous
100
AcDbLine
 10
191.2483337139
 20
206.2378379491
 30
0.0
 11
191.2483337139
 21
251.0378379491
 31
0.0
  0
LINE
  5
581
330
1B
100
AcDbEntity
  8
0
  6
Continuous
100
AcDbLine
 10
193.6483337139
 20
203.8378379491
 30
0.0
 11
193.6483337139
 21
253.4378379491
 31
0.0
  0
LINE
  5
582
330
1B
100
AcDbEntity
  8
0
  6
Continuous
100
AcDbLine
 10
197.8483337139
 20
203.8378379491
 30
0.0
 11
197.8483337139
 21
253.4378379491
 31
0.0
  0
LINE
  5
583
330
1B
100
AcDbEntity
  8
0
  6
Continuous
100
AcDbLine
 10
198.2483337139
 20
204.2378379491
 30
0.0
 11
198.2483337139
 21
253.0378379491
 31
0.0
  0
LINE
  5
584
330
1B
100
AcDbEntity
  8
0
  6
Continuous
100
AcDbLine
 10
206.9182066949
 20
249.3378379491
 30
0.0
 11
206.3277732885
 21
247.1343104778
 31
0.0
  0
LINE
  5
585
330
1B
100
AcDbEntity
  8
0
  6
Continuous
100
AcDbLine
 10
220.1311765985
 20
210.5206808337
 30
0.0
 11
217.6654918919
 21
208.0549961271
 31
0.0
  0
LINE
  5
586
330
1B
100
AcDbEntity
  8
0
  6
Continuous
100
AcDbLine
 10
206.2483337139
 20
249.1378379491
 30
0.0
 11
200.3587027993
 21
251.6378379491
 31
0.0
  0
LWPOLYLINE
  5
587
330
1B
100
AcDbEntity
  8
0
  6
Continuous
100
AcDbPolyline
 90
        5
 70
     0
 43
0.0
 10
174.9862829063
 20
260.9034189531
 10
174.6686772101
 20
261.3169597769
 10
174.25443879
 20
261.6345704663
 10
173.7719695092
 20
261.8342510324
 10
173.2542320987
 20
261.9023533495
  0
LINE
  5
58E
330
1B
100
AcDbEntity
  8
0
  6
Continuous
100
AcDbLine
 10
174.9862829063
 20
260.9378379491
 30
0.0
 11
175.8523083101
 21
259.4378379491
 31
0.0
  0
LINE
  5
58F
330
1B
100
AcDbEntity
  8
0
  6
Continuous
100
AcDbLine
 10
200.3587027993
 20
205.6378379491
 30
0.0
 11
200.3587027993
 21
251.6378379491
 31
0.0
  0
LINE
  5
590
330
1B
100
AcDbEntity
  8
0
  6
Continuous
100
AcDbLine
 10
206.9182066949
 20
207.9378379491
 30
0.0
 11
206.3277732885
 21
210.1413654203
 31
0.0
  0
LINE
  5
591
330
1B
100
AcDbEntity
  8
0
  6
Continuous
100
AcDbLine
 10
206.2483337139
 20
208.1384002881
 30
0.0
 11
206.2483337139
 21
249.13727561
 31
0.0
  0
LINE
  5
592
330
1B
100
AcDbEntity
  8
0
  6
Continuous
100
AcDbLine
 10
206.3277733497
 20
210.1413651934
 30
0.0
 11
206.3277733497
 21
247.1343107048
 31
0.0
  0
LINE
  5
593
330
1B
100
AcDbEntity
  8
0
  6
Continuous
100
AcDbLine
 10
206.3635528301
 20
210.0078387883
 30
0.0
 11
206.3635528301
 21
247.2678371098
 31
0.0
  0
LINE
  5
594
330
1B
100
AcDbEntity
  8
0
  6
Continuous
100
AcDbLine
 10
206.9182066949
 20
207.9378379491
 30
0.0
 11
206.9182066949
 21
249.3378379491
 31
0.0
  0
LINE
  5
595
330
1B
100
AcDbEntity
  8
0
  6
Continuous
100
AcDbLine
 10
197.8483337139
 20
253.4378379491
 30
0.0
 11
198.2483337139
 21
253.0378379491
 31
0.0
  0
LINE
  5
596
330
1B
100
AcDbEntity
  8
0
  6
Continuous
100
AcDbLine
 10
217.3826482889
 20
249.3378282886
 30
0.0
 11
217.3826482889
 21
207.9378476096
 31
0.0
  0
LINE
  5
597
330
1B
100
AcDbEntity
  8
0
  6
Continuous
100
AcDbLine
 10
217.6654919294
 20
249.2206701277
 30
0.0
 11
217.6654919294
 21
208.0550057704
 31
0.0
  0
LINE
  5
598
330
1B
100
AcDbEntity
  8
0
  6
Continuous
100
AcDbLine
 10
219.6183326457
 20
210.0078387883
 30
0.0
 11
219.6183326457
 21
247.2678371098
 31
0.0
  0
LINE
  5
599
330
1B
100
AcDbEntity
  8
0
  6
Continuous
100
AcDbLine
 10
220.1311764388
 20
246.7549952241
 30
0.0
 11
220.1311764388
 21
210.5206806741
 31
0.0
  0
LINE
  5
59A
330
1B
100
AcDbEntity
  8
0
  6
Continuous
100
AcDbLine
 10
220.2483337139
 20
246.4720625208
 30
0.0
 11
220.2483337139
 21
210.8036133773
 31
0.0
  0
LINE
  5
59B
330
1B
100
AcDbEntity
  8
0
  6
Continuous
100
AcDbLine
 10
220.1311765985
 20
246.7549950645
 30
0.0
 11
217.6654918919
 21
249.2206797711
 31
0.0
  0
ARC
  5
1B5C
330
1B
100
AcDbEntity
  8
0
  6
Continuous
100
AcDbCircle
 10
33.2897258172
 20
177.8545148662
 30
0.0
 40
1.0
100
AcDbArc
 50
180.0000000000004
 51
268.0000000000006
  0
ARC
  5
1B5D
330
1B
100
AcDbEntity
  8
0
  6
Continuous
100
AcDbCircle
 10
33.2897258172
 20
220.9231373166
 30
0.0
 40
1.0
100
AcDbArc
 50
92.0000000002002
 51
180.0000000000004
  0
ARC
  5
1B5E
330
1B
100
AcDbEntity
  8
0
  6
Continuous
100
AcDbCircle
 10
75.3897258172
 20
194.2975175903
 30
0.0
 40
1.0
100
AcDbArc
 50
0.0
 51
85.00000000000019
  0
ARC
  5
1B5F
330
1B
100
AcDbEntity
  8
0
  6
Continuous
100
AcDbCircle
 10
75.3897258172
 20
204.4801345924
 30
0.0
 40
1.0
100
AcDbArc
 50
275.0000000000007
 51
360.0000000000008
  0
ARC
  5
1B60
330
1B
100
AcDbEntity
  8
0
  6
Continuous
100
AcDbCircle
 10
178.4503845214
 20
260.9378379491
 30
0.0
 40
3.0
100
AcDbArc
 50
210.0000000000005
 51
264.7077261191006
  0
ARC
  5
1B61
330
1B
100
AcDbEntity
  8
0
  6
Continuous
100
AcDbCircle
 10
178.4503845214
 20
196.3378379491
 30
0.0
 40
3.0
100
AcDbArc
 50
95.29227388090021
 51
150.0000000000003
  0
ARC
  5
1B62
330
1B
100
AcDbEntity
  8
0
  6
Continuous
100
AcDbCircle
 10
173.2542320987
 20
259.9378379491
 30
0.0
 40
2.0
100
AcDbArc
 50
30.00000000000008
 51
90.00000000000019
  0
ARC
  5
1B63
330
1B
100
AcDbEntity
  8
0
  6
Continuous
100
AcDbCircle
 10
173.2542320987
 20
197.3378379491
 30
0.0
 40
2.0
100
AcDbArc
 50
270.0000000000006
 51
330.0000000000007
  0
ARC
  5
1B64
330
1B
100
AcDbEntity
  8
0
  6
Continuous
100
AcDbCircle
 10
178.1183337139
 20
257.3531842334
 30
0.0
 40
0.6
100
AcDbArc
 50
0.0
 51
84.70771971940022
  0
ARC
  5
1B65
330
1B
100
AcDbEntity
  8
0
  6
Continuous
100
AcDbCircle
 10
178.1183337139
 20
199.9224916647
 30
0.0
 40
0.6
100
AcDbArc
 50
275.2922802806006
 51
360.0000000000008
  0
ARC
  5
1B66
330
1B
100
AcDbEntity
  8
0
  6
Continuous
100
AcDbCircle
 10
152.1183337139
 20
199.445017626
 30
0.0
 40
0.4
100
AcDbArc
 50
180.0000000000004
 51
209.9999840890005
  0
ARC
  5
1B67
330
1B
100
AcDbEntity
  8
0
  6
Continuous
100
AcDbCircle
 10
152.1183337139
 20
257.8306582721
 30
0.0
 40
0.4
100
AcDbArc
 50
150.0000159110003
 51
180.0000000000004
  0
ARC
  5
1B68
330
1B
100
AcDbEntity
  8
0
  6
Continuous
100
AcDbCircle
 10
217.3826482889
 20
248.9378379491
 30
0.0
 40
0.4
100
AcDbArc
 50
44.9998196138001
 51
90.00000000000019
  0
ARC
  5
1B69
330
1B
100
AcDbEntity
  8
0
  6
Continuous
100
AcDbCircle
 10
217.3826482889
 20
208.3378379491
 30
0.0
 40
0.4
100
AcDbArc
 50
270.0000000000006
 51
315.0001803862007
  0
ARC
  5
1B6A
330
1B
100
AcDbEntity
  8
0
  6
Continuous
100
AcDbCircle
 10
219.8483337139
 20
210.803523374
 30
0.0
 40
0.4
100
AcDbArc
 50
315.0000348687007
 51
360.0000000000008
  0
ARC
  5
1B6B
330
1B
100
AcDbEntity
  8
0
  6
Continuous
100
AcDbCircle
 10
219.8483337139
 20
246.4721525241
 30
0.0
 40
0.4
100
AcDbArc
 50
0.0
 51
44.9999651313001
  0
ARC
  5
1B6C
330
1B
100
AcDbEntity
  8
0
  6
Continuous
100
AcDbCircle
 10
205.9414029187
 20
210.0378379491
 30
0.0
 40
0.4
100
AcDbArc
 50
14.99997823380003
 51
39.1501734162001
  0
ARC
  5
1B6D
330
1B
100
AcDbEntity
  8
0
  6
Continuous
100
AcDbCircle
 10
205.9414029187
 20
247.2378379491
 30
0.0
 40
0.4
100
AcDbArc
 50
320.8498265838007
 51
345.0000217662009
  0
CIRCLE
  5
1B6E
330
1B
100
AcDbEntity
  8
0
  6
Continuous
100
AcDbCircle
 10
106.3897258172
 20
199.3888260914
 30
0.0
 40
8.699913000000001
  0
CIRCLE
  5
1B6F
330
1B
100
AcDbEntity
  8
0
  6
Continuous
100
AcDbCircle
 10
106.3897258172
 20
199.3888260914
 30
0.0
 40
8.99991
  0
CIRCLE
  5
1B70
330
1B
100
AcDbEntity
  8
0
  6
Continuous
100
AcDbCircle
 10
108.707521119
 20
204.3362755764
 30
0.0
 40
0.2687037129
  0
ARC
  5
1B71
330
1B
100
AcDbEntity
  8
0
  6
Continuous
100
AcDbCircle
 10
106.7897258172
 20
159.3545115163
 30
0.0
 40
0.4
100
AcDbArc
 50
180.0000000000004
 51
225.0000000015005
  0
ARC
  5
1B72
330
1B
100
AcDbEntity
  8
0
  6
Continuous
100
AcDbCircle
 10
153.9897258172
 20
159.3545115163
 30
0.0
 40
0.4
100
AcDbArc
 50
314.9999999987007
 51
360.0000000000008
  0
ARC
  5
1B73
330
1B
100
AcDbEntity
  8
0
  6
Continuous
100
AcDbCircle
 10
108.7554112421
 20
157.3888260914
 30
0.0
 40
0.4
100
AcDbArc
 50
225.0000000052005
 51
270.0000000000006
  0
ARC
  5
1B74
330
1B
100
AcDbEntity
  8
0
  6
Continuous
100
AcDbCircle
 10
152.0240403922
 20
157.3888260914
 30
0.0
 40
0.4
100
AcDbArc
 50
270.0000000000006
 51
314.9999999960007
  0
ARC
  5
1B75
330
1B
100
AcDbEntity
  8
0
  6
Continuous
100
AcDbCircle
 10
85.58972581720001
 20
222.6888260914
 30
0.0
 40
2.799999999999999
100
AcDbArc
 50
270.0000000000006
 51
360.0000000000008
  0
ARC
  5
1B76
330
1B
100
AcDbEntity
  8
0
  6
Continuous
100
AcDbCircle
 10
146.637802625
 20
204.3888260914
 30
0.0
 40
2.999999999799999
100
AcDbArc
 50
132.1603532329003
 51
197.1046351781004
  0
ARC
  5
1B77
330
1B
100
AcDbEntity
  8
0
  6
Continuous
100
AcDbCircle
 10
143.9540513268
 20
250.7227158195
 30
0.0
 40
4.0
100
AcDbArc
 50
285.0000000000006
 51
330.0000000000007
  0
ARC
  5
1B78
330
1B
100
AcDbEntity
  8
0
  6
Continuous
100
AcDbCircle
 10
107.3320862124
 20
175.8888289393
 30
0.0
 40
2.9999996375
100
AcDbArc
 50
348.7497194358008
 51
90.0001285376002
  0
ARC
  5
1B79
330
1B
100
AcDbEntity
  8
0
  6
Continuous
100
AcDbCircle
 10
147.3897258172
 20
188.9849785141
 30
0.0
 40
3.0
100
AcDbArc
 50
180.0000000000004
 51
240.0000000000005
  0
ARC
  5
1B7A
330
1B
100
AcDbEntity
  8
0
  6
Continuous
100
AcDbCircle
 10
151.7904720877
 20
250.2957947269
 30
0.0
 40
3.0
100
AcDbArc
 50
135.0000000000003
 51
150.0000000000003
  0
ARC
  5
1B7B
330
1B
100
AcDbEntity
  8
0
  6
Continuous
100
AcDbCircle
 10
151.7904720877
 20
206.9798811712
 30
0.0
 40
3.0
100
AcDbArc
 50
210.0000000000005
 51
225.0000000000005
  0
ARC
  5
1B7C
330
1B
100
AcDbEntity
  8
0
  6
Continuous
100
AcDbCircle
 10
92.3897258172
 20
228.5941643304
 30
0.0
 40
4.0
100
AcDbArc
 50
104.9999750968002
 51
179.9999036329004
  0
ARC
  5
1B7D
330
1B
100
AcDbEntity
  8
0
  6
Continuous
100
AcDbCircle
 10
104.3897258172
 20
176.4741074656
 30
0.0
 40
6.0
100
AcDbArc
 50
315.0000000000007
 51
348.7497973238008
  0
ARC
  5
1B7E
330
1B
100
AcDbEntity
  8
0
  6
Continuous
100
AcDbCircle
 10
156.3897258172
 20
176.4741074656
 30
0.0
 40
6.0
100
AcDbArc
 50
180.0000000000004
 51
225.0000000000005
  0
ARC
  5
1B7F
330
1B
100
AcDbEntity
  8
0
  6
Continuous
100
AcDbCircle
 10
146.3897258172
 20
181.4794250146
 30
0.0
 40
4.0
100
AcDbArc
 50
0.0
 51
60.00000000000015
  0
ARC
  5
1B80
330
1B
100
AcDbEntity
  8
0
  6
Continuous
100
AcDbCircle
 10
78.0480382124
 20
222.8888260914
 30
0.0
 40
3.0
100
AcDbArc
 50
236.4426902381005
 51
270.0000000000006
  0
ARC
  5
1B81
330
1B
100
AcDbEntity
  8
0
  6
Continuous
100
AcDbCircle
 10
78.0480382124
 20
175.8888260914
 30
0.0
 40
3.0
100
AcDbArc
 50
90.00000000000019
 51
123.5573097619003
  0
ARC
  5
1B82
330
1B
100
AcDbEntity
  8
0
  6
Continuous
100
AcDbCircle
 10
130.3897258172
 20
199.3888260914
 30
0.0
 40
14.0
100
AcDbArc
 50
0.0
 51
17.10617363570004
  0
ARC
  5
1B83
330
1B
100
AcDbEntity
  8
0
  6
Continuous
100
AcDbCircle
 10
134.4897258172
 20
198.9888260914
 30
0.0
 40
0.6
100
AcDbArc
 50
270.0000000000006
 51
47.17474411460011
  0
ARC
  5
1B84
330
1B
100
AcDbEntity
  8
0
  6
Continuous
100
AcDbCircle
 10
130.3897258172
 20
202.7888260914
 30
0.0
 40
0.6
100
AcDbArc
 50
47.17474411460011
 51
132.8252558854003
  0
ARC
  5
1B85
330
1B
100
AcDbEntity
  8
0
  6
Continuous
100
AcDbCircle
 10
126.2897258172
 20
198.9888260914
 30
0.0
 40
0.6
100
AcDbArc
 50
132.8252558854003
 51
270.0000000000006
  0
ARC
  5
1B86
330
1B
100
AcDbEntity
  8
0
  6
Continuous
100
AcDbCircle
 10
127.7897258172
 20
197.7888260914
 30
0.0
 40
0.6
100
AcDbArc
 50
0.0
 51
90.00000000000019
  0
ARC
  5
1B87
330
1B
100
AcDbEntity
  8
0
  6
Continuous
100
AcDbCircle
 10
128.9897258172
 20
190.9888260914
 30
0.0
 40
0.6
100
AcDbArc
 50
180.0000000000004
 51
270.0000000000006
  0
ARC
  5
1B88
330
1B
100
AcDbEntity
  8
0
  6
Continuous
100
AcDbCircle
 10
131.7897258172
 20
190.9888260914
 30
0.0
 40
0.6
100
AcDbArc
 50
270.0000000000006
 51
360.0000000000008
  0
ARC
  5
1B89
330
1B
100
AcDbEntity
  8
0
  6
Continuous
100
AcDbCircle
 10
132.9897258172
 20
197.7888260914
 30
0.0
 40
0.6
100
AcDbArc
 50
90.00000000000019
 51
180.0000000000004
  0
ARC
  5
1B8A
330
1B
100
AcDbEntity
  8
0
  6
Continuous
100
AcDbCircle
 10
88.3897258172
 20
199.3888260914
 30
0.0
 40
1.5836665722
100
AcDbArc
 50
270.0000000000006
 51
90.00000000000019
  0
ARC
  5
1B8B
330
1B
100
AcDbEntity
  8
0
  6
Continuous
100
AcDbCircle
 10
88.3897258172
 20
199.3888260914
 30
0.0
 40
2.579863482399999
100
AcDbArc
 50
270.0000000000006
 51
90.00000000000019
  0
SPLINE
  5
1B91
330
1B
100
AcDbEntity
  8
0
  6
Continuous
100
AcDbSpline
210
0.0
220
0.0
230
1.0
 70
     8
 71
     3
 72
    16
 73
    12
 74
    10
 42
0.0000000001
 43
0.0000000001
 44
0.0000000001
 40
0.0
 40
0.0
 40
0.0
 40
0.0
 40
0.1706734627494884
 40
0.3415519738285948
 40
0.5131425677682904
 40
0.6857677415489378
 40
0.8594824899780039
 40
1.03431611777557
 40
1.210250431548252
 40
1.387012489425678
 40
1.529433413715008
 40
1.529433413715008
 40
1.529433413715008
 40
1.529433413715008
 10
32.2897258172
 20
186.5419029465
 30
0.0
 10
32.29254278065544
 20
186.484942838208
 30
0.0
 10
32.29818009188654
 20
186.3709541893388
 30
0.0
 10
32.34343493479652
 20
186.2046899562666
 30
0.0
 10
32.41458154702926
 20
186.0477018218484
 30
0.0
 10
32.51269769658283
 20
185.9045122497089
 30
0.0
 10
32.63465999490466
 20
185.7796284210384
 30
0.0
 10
32.77740472980128
 20
185.6770250252801
 30
0.0
 10
32.93679062198783
 20
185.6010267009035
 30
0.0
 10
33.09663055085181
 20
185.5551978553529
 30
0.0
 10
33.20284472159816
 20
185.5465456613978
 30
0.0
 10
33.2502379763
 20
185.5426850124
 30
0.0
 11
32.2897258172
 21
186.5419029465
 31
0.0
 11
32.3042905326
 21
186.3718520719
 31
0.0
 11
32.3476294105
 21
186.206560792
 31
0.0
 11
32.4188280305
 21
186.0504387614
 31
0.0
 11
32.5163266481
 21
185.9079836099
 31
0.0
 11
32.637700973
 21
185.7837053452
 31
0.0
 11
32.7797171087
 21
185.6817337089
 31
0.0
 11
32.9383568508
 21
185.6056658774
 31
0.0
 11
33.1086896627
 21
185.5584265051
 31
0.0
 11
33.2502379763
 21
185.5426850124
 31
0.0
  0
SPLINE
  5
1B92
330
1B
100
AcDbEntity
  8
0
  6
Continuous
100
AcDbSpline
210
0.0
220
0.0
230
1.0
 70
     8
 71
     3
 72
    10
 73
     6
 74
     4
 42
0.0000000001
 43
0.0000000001
 44
0.0000000001
 40
0.0
 40
0.0
 40
0.0
 40
0.0
 40
1.997526169821836
 40
4.037790612672187
 40
6.044192716032648
 40
6.044192716032648
 40
6.044192716032648
 40
6.044192716032648
 10
33.2502416701
 20
185.5426827494
 30
0.0
 10
33.91556460481998
 20
185.516395168859
 30
0.0
 10
35.26044545834463
 20
185.463257569191
 30
0.0
 10
37.27360684340717
 20
185.383747449604
 30
0.0
 10
38.62144571270633
 20
185.3305355272075
 30
0.0
 10
39.2897258172
 20
185.3041522036
 30
0.0
 11
33.2502416701
 21
185.5426827494
 31
0.0
 11
35.2462106801
 21
185.4638252181
 31
0.0
 11
37.284885709
 21
185.3833073735
 31
0.0
 11
39.2897258172
 21
185.3041522036
 31
0.0
  0
SPLINE
  5
1B93
330
1B
100
AcDbEntity
  8
0
  6
Continuous
100
AcDbSpline
210
0.0
220
0.0
230
1.0
 70
     8
 71
     3
 72
    10
 73
     6
 74
     4
 42
0.0000000001
 43
0.0000000001
 44
0.0000000001
 40
0.0
 40
0.0
 40
0.0
 40
0.0
 40
0.7514894604360981
 40
1.578294890289849
 40
1.656406353436075
 40
1.656406353436075
 40
1.656406353436075
 40
1.656406353436075
 10
40.9568884525
 20
183.8655697289
 30
0.0
 10
41.02239157925379
 20
183.6237891862142
 30
0.0
 10
41.15996270392867
 20
183.1159963092906
 30
0.0
 10
41.30417832312153
 20
182.5830278090749
 30
0.0
 10
41.38293470134795
 20
182.2918517495723
 30
0.0
 10
41.38973286809999
 20
182.266717742
 30
0.0
 11
40.9568884525
 21
183.8655697289
 31
0.0
 11
41.1533623962
 21
183.1402185046
 31
0.0
 11
41.3693381403
 21
182.3421197032
 31
0.0
 11
41.38973286809999
 21
182.266717742
 31
0.0
  0
SPLINE
  5
1B94
330
1B
100
AcDbEntity
  8
0
  6
Continuous
100
AcDbSpline
210
0.0
220
0.0
230
1.0
 70
     8
 71
     3
 72
     9
 73
     5
 74
     3
 42
0.0000000001
 43
0.0000000001
 44
0.0000000001
 40
0.0
 40
0.0
 40
0.0
 40
0.0
 40
0.1469571452505815
 40
0.1769412200652575
 40
0.1769412200652575
 40
0.1769412200652575
 40
0.1769412200652575
 10
41.21675838229999
 20
217.2340827437
 30
0.0
 10
41.21066973245303
 20
217.2940065642652
 30
0.0
 10
41.20333879845433
 20
217.3661568084993
 30
0.0
 10
41.14271976400582
 20
217.3752391527681
 30
0.0
 10
41.13244739409999
 20
217.3767782271
 30
0.0
 11
41.21675838229999
 21
217.2340827437
 31
0.0
 11
41.1617342851
 21
217.3703499491
 31
0.0
 11
41.13244739409999
 21
217.3767782271
 31
0.0
  0
SPLINE
  5
1B95
330
1B
100
AcDbEntity
  8
0
  6
Continuous
100
AcDbSpline
210
0.0
220
0.0
230
1.0
 70
    24
 71
     3
 72
     8
 73
     4
 74
     2
 42
0.0000000001
 43
0.0000000001
 44
0.0000000001
 40
0.0
 40
0.0
 40
0.0
 40
0.0
 40
0.5358760551258589
 40
0.5358760551258589
 40
0.5358760551258589
 40
0.5358760551258589
 10
41.3897130744
 20
216.593120372
 30
0.0
 10
41.34309137513333
 20
216.7655542243333
 30
0.0
 10
41.29646967586667
 20
216.9379880766667
 30
0.0
 10
41.2498479766
 20
217.110421929
 30
0.0
 11
41.3897130744
 21
216.593120372
 31
0.0
 11
41.2498479766
 21
217.110421929
 31
0.0
  0
SPLINE
  5
1B96
330
1B
100
AcDbEntity
  8
0
  6
Continuous
100
AcDbSpline
210
0.0
220
0.0
230
1.0
 70
     8
 71
     3
 72
    10
 73
     6
 74
     4
 42
0.0000000001
 43
0.0000000001
 44
0.0000000001
 40
0.0
 40
0.0
 40
0.0
 40
0.0
 40
2.008510102137485
 40
4.0201433648056
 40
6.034899755824073
 40
6.034899755824073
 40
6.034899755824073
 40
6.034899755824073
 10
39.2897258172
 20
212.4358211806
 30
0.0
 10
38.62022246905934
 20
212.4356604201045
 30
0.0
 10
37.28017471929775
 20
212.4353386491368
 30
0.0
 10
35.26854155115393
 20
212.434753838477
 30
0.0
 10
33.92641174495887
 20
212.4342948011787
 30
0.0
 10
33.2548263205
 20
212.4340651045
 30
0.0
 11
39.2897258172
 21
212.4358211806
 31
0.0
 11
37.2812157771
 21
212.4353219754
 31
0.0
 11
35.2695825995
 21
212.4347369526
 31
0.0
 11
33.2548263205
 21
212.4340651045
 31
0.0
  0
SPLINE
  5
1B97
330
1B
100
AcDbEntity
  8
0
  6
Continuous
100
AcDbSpline
210
0.0
220
0.0
230
1.0
 70
     8
 71
     3
 72
    10
 73
     6
 74
     4
 42
0.0000000001
 43
0.0000000001
 44
0.0000000001
 40
0.0
 40
0.0
 40
0.0
 40
0.0
 40
2.008511304980267
 40
4.020145852616031
 40
6.034903606928021
 40
6.034903606928021
 40
6.034903606928021
 40
6.034903606928021
 10
39.2897258172
 20
211.3329398239
 30
0.0
 10
38.62022246226977
 20
211.3321957547142
 30
0.0
 10
37.28017467216696
 20
211.330706459312
 30
0.0
 10
35.26854150307627
 20
211.3283604589631
 30
0.0
 10
33.92641173739713
 20
211.3267206193866
 30
0.0
 10
33.2548263205
 20
211.3259000636
 30
0.0
 11
39.2897258172
 21
211.3329398239
 31
0.0
 11
37.2812157731
 21
211.3306892722
 31
0.0
 11
35.2695825937
 21
211.3283430457
 31
0.0
 11
33.2548263205
 21
211.3259000636
 31
0.0
  0
SPLINE
  5
1B98
330
1B
100
AcDbEntity
  8
0
  6
Continuous
100
AcDbSpline
210
0.0
220
0.0
230
1.0
 70
     8
 71
     3
 72
    10
 73
     6
 74
     4
 42
0.0000000001
 43
0.0000000001
 44
0.0000000001
 40
0.0
 40
0.0
 40
0.0
 40
0.0
 40
2.015926502416499
 40
4.02872822739454
 40
6.038405131905004
 40
6.038405131905004
 40
6.038405131905004
 40
6.038405131905004
 10
33.2548263205
 20
207.9731740463
 30
0.0
 10
33.92641175362719
 20
207.9960668332504
 30
0.0
 10
35.26854163202466
 20
208.0418169222938
 30
0.0
 10
37.28017479677649
 20
208.1103934256693
 30
0.0
 10
38.62022247773567
 20
208.1560786281138
 30
0.0
 10
39.2897258172
 20
208.1789034843
 30
0.0
 11
33.2548263205
 21
207.9731740463
 31
0.0
 11
35.2695825937
 21
208.0418531752
 31
0.0
 11
37.2812157731
 21
208.1104296698
 31
0.0
 11
39.2897258172
 21
208.1789034843
 31
0.0
  0
SPLINE
  5
1B99
330
1B
100
AcDbEntity
  8
0
  6
Continuous
100
AcDbSpline
210
0.0
220
0.0
230
1.0
 70
     8
 71
     3
 72
    10
 73
     6
 74
     4
 42
0.0000000001
 43
0.0000000001
 44
0.0000000001
 40
0.0
 40
0.0
 40
0.0
 40
0.0
 40
2.015996706139419
 40
4.028868067191557
 40
6.038614051987326
 40
6.038614051987326
 40
6.038614051987326
 40
6.038614051987326
 10
33.2548263205
 20
207.3264323037
 30
0.0
 10
33.92641172532168
 20
207.3500028018532
 30
0.0
 10
35.26854139430283
 20
207.3971072574548
 30
0.0
 10
37.28017456270771
 20
207.4676981219211
 30
0.0
 10
38.62022244951638
 20
207.514714975503
 30
0.0
 10
39.2897258172
 20
207.5382051374
 30
0.0
 11
33.2548263205
 21
207.3264323037
 31
0.0
 11
35.2695825995
 21
207.3971419593
 31
0.0
 11
37.2812157771
 21
207.4677328576
 31
0.0
 11
39.2897258172
 21
207.5382051374
 31
0.0
  0
SPLINE
  5
1B9A
330
1B
100
AcDbEntity
  8
0
  6
Continuous
100
AcDbSpline
210
0.0
220
0.0
230
1.0
 70
     8
 71
     3
 72
    10
 73
     6
 74
     4
 42
0.0000000001
 43
0.0000000001
 44
0.0000000001
 40
0.0
 40
0.0
 40
0.0
 40
0.0
 40
2.010143098607969
 40
4.023413431718925
 40
6.039810983936064
 40
6.039810983936064
 40
6.039810983936064
 40
6.039810983936064
 10
39.2897258172
 20
185.7021613986
 30
0.0
 10
38.62022236730556
 20
185.7291623291407
 30
0.0
 10
37.2801739027197
 20
185.783206196307
 30
0.0
 10
35.26854072561046
 20
185.8643811633615
 30
0.0
 10
33.92641164144513
 20
185.9185711169702
 30
0.0
 10
33.2548263205
 20
185.9456871208
 30
0.0
 11
39.2897258172
 21
185.7021613986
 31
0.0
 11
37.2812157771
 21
185.7831718652
 31
0.0
 11
35.2695825995
 21
185.8643469412
 31
0.0
 11
33.2548263205
 21
185.9456871208
 31
0.0
  0
SPLINE
  5
1B9B
330
1B
100
AcDbEntity
  8
0
  6
Continuous
100
AcDbSpline
210
0.0
220
0.0
230
1.0
 70
     8
 71
     3
 72
    10
 73
     6
 74
     4
 42
0.0000000001
 43
0.0000000001
 44
0.0000000001
 40
0.0
 40
0.0
 40
0.0
 40
0.0
 40
2.014919375727338
 40
4.026714066781482
 40
6.035384052656333
 40
6.035384052656333
 40
6.035384052656333
 40
6.035384052656333
 10
33.2548263205
 20
182.8407233121
 30
0.0
 10
33.92641165514348
 20
182.8321706223154
 30
0.0
 10
35.26854084732361
 20
182.8150785060354
 30
0.0
 10
37.28017402496
 20
182.7895869893551
 30
0.0
 10
38.6202223816512
 20
182.7726891310465
 30
0.0
 10
39.2897258172
 20
182.7642467684
 30
0.0
 11
33.2548263205
 21
182.8407233121
 31
0.0
 11
35.2695825937
 21
182.8150864191
 31
0.0
 11
37.2812157731
 21
182.7895946461
 31
0.0
 11
39.2897258172
 21
182.7642467684
 31
0.0
  0
SPLINE
  5
1B9C
330
1B
100
AcDbEntity
  8
0
  6
Continuous
100
AcDbSpline
210
0.0
220
0.0
230
1.0
 70
     8
 71
     3
 72
    16
 73
    12
 74
    10
 42
0.0000000001
 43
0.0000000001
 44
0.0000000001
 40
0.0
 40
0.0
 40
0.0
 40
0.0
 40
0.0909924888900101
 40
0.2410048979555382
 40
0.406029122960307
 40
0.5836143842721021
 40
0.7715353560819704
 40
0.9665128029248066
 40
1.164052087229559
 40
1.359478543656407
 40
1.548409349817962
 40
1.548409349817962
 40
1.548409349817962
 40
1.548409349817962
 10
33.2203123914
 20
185.5428187442
 30
0.0
 10
33.22019269619342
 20
185.5124880680641
 30
0.0
 10
33.21987566858599
 20
185.432153508627
 30
0.0
 10
33.22053159156393
 20
185.2968100464212
 30
0.0
 10
33.22232074874339
 20
185.1326119053334
 30
0.0
 10
33.22527017855027
 20
184.9557920370988
 30
0.0
 10
33.22931102673525
 20
184.7690072134934
 30
0.0
 10
33.23438423352824
 20
184.5755937754779
 30
0.0
 10
33.24040305995823
 20
184.3797046995628
 30
0.0
 10
33.24712887111895
 20
184.1858548751582
 30
0.0
 10
33.25228957606693
 20
184.057839560724
 30
0.0
 10
33.2548263205
 20
183.994913635
 30
0.0
 11
33.2203123914
 21
185.5428187442
 31
0.0
 11
33.2200539957
 21
185.4518266222
 31
0.0
 11
33.22065137980001
 21
185.3018154026
 31
0.0
 11
33.2224283386
 21
185.1368007449
 31
0.0
 11
33.2253550983
 21
184.959239603
 31
0.0
 11
33.2294013309
 21
184.7713621971
 31
0.0
 11
33.2345068087
 21
184.5764516051
 31
0.0
 11
33.2405558994
 21
184.3790049608
 31
0.0
 11
33.2473896047
 21
184.183698022
 31
0.0
 11
33.2548263205
 21
183.994913635
 31
0.0
  0
SPLINE
  5
1B9D
330
1B
100
AcDbEntity
  8
0
  6
Continuous
100
AcDbSpline
210
0.0
220
0.0
230
1.0
 70
     8
 71
     3
 72
    10
 73
     6
 74
     4
 42
0.0000000001
 43
0.0000000001
 44
0.0000000001
 40
0.0
 40
0.0
 40
0.0
 40
0.0
 40
2.014902576129767
 40
4.026680604116869
 40
6.035334067360946
 40
6.035334067360946
 40
6.035334067360946
 40
6.035334067360946
 10
33.2548263205
 20
181.7844848153
 30
0.0
 10
33.92641166498903
 20
181.7763846230574
 30
0.0
 10
35.26854091366838
 20
181.7601967996958
 30
0.0
 10
37.2801740904787
 20
181.7360559549642
 30
0.0
 10
38.6202223907388
 20
181.7200547167527
 30
0.0
 10
39.2897258172
 20
181.7120603155
 30
0.0
 11
33.2548263205
 21
181.7844848153
 31
0.0
 11
35.2695825995
 21
181.7602046274
 31
0.0
 11
37.2812157771
 21
181.7360635282
 31
0.0
 11
39.2897258172
 21
181.7120603155
 31
0.0
  0
SPLINE
  5
1B9E
330
1B
100
AcDbEntity
  8
0
  6
Continuous
100
AcDbSpline
210
0.0
220
0.0
230
1.0
 70
     8
 71
     3
 72
    14
 73
    10
 74
     8
 42
0.0000000001
 43
0.0000000001
 44
0.0000000001
 40
0.0
 40
0.0
 40
0.0
 40
0.0
 40
0.1444520449019699
 40
0.301087507815061
 40
0.4655129156902552
 40
0.6331143645902563
 40
0.7991881546118573
 40
0.9590737721793112
 40
1.108285740468772
 40
1.108285740468772
 40
1.108285740468772
 40
1.108285740468772
 10
33.2548263205
 20
212.4340651045
 30
0.0
 10
33.25360743115284
 20
212.3859295252236
 30
0.0
 10
33.25106684852498
 20
212.2855985011014
 30
0.0
 10
33.24890978731882
 20
212.1304395738526
 30
0.0
 10
33.24773881968227
 20
211.9675555704619
 30
0.0
 10
33.24774238207881
 20
211.8015202693215
 30
0.0
 10
33.24891695394346
 20
211.6370033844953
 30
0.0
 10
33.25108772057182
 20
211.4786250858215
 30
0.0
 10
33.25360914348747
 20
211.3756227913209
 30
0.0
 10
33.2548263205
 20
211.3259000636
 30
0.0
 11
33.2548263205
 21
212.4340651045
 31
0.0
 11
33.2514333028
 21
212.2896529142
 31
0.0
 11
33.2491168648
 21
212.1330345808
 31
0.0
 11
33.24794213220001
 21
211.9686133694
 31
0.0
 11
33.24794213220001
 21
211.8010119205
 31
0.0
 11
33.2491168648
 21
211.6349422853
 31
0.0
 11
33.2514333028
 21
211.475073449
 31
0.0
 11
33.2548263205
 21
211.3259000636
 31
0.0
  0
SPLINE
  5
1B9F
330
1B
100
AcDbEntity
  8
0
  6
Continuous
100
AcDbSpline
210
0.0
220
0.0
230
1.0
 70
     8
 71
     3
 72
    23
 73
    19
 74
    17
 42
0.0000000001
 43
0.0000000001
 44
0.0000000001
 40
0.0
 40
0.0
 40
0.0
 40
0.0
 40
0.1701345230220264
 40
0.3532473440265373
 40
0.5454919506333212
 40
0.7424434052601925
 40
0.9395386378731075
 40
1.133233217820077
 40
1.32104469331632
 40
1.50022170074694
 40
1.667252972916668
 40
1.818943768230841
 40
1.953142071493116
 40
2.067997809628589
 40
2.161228882620621
 40
2.230695884827418
 40
2.275306226768708
 40
2.295552486744879
 40
2.295552486744879
 40
2.295552486744879
 40
2.295552486744879
 10
33.2548263205
 20
210.3076457109
 30
0.0
 10
33.25227245745791
 20
210.2509915328409
 30
0.0
 10
33.24696991614762
 20
210.1333614506452
 30
0.0
 10
33.240291562221
 20
209.951651611666
 30
0.0
 10
33.23428182723933
 20
209.7609760111403
 30
0.0
 10
33.22922864986921
 20
209.5656098371009
 30
0.0
 10
33.2252016073376
 20
209.3697365708579
 30
0.0
 10
33.22227602503558
 20
209.1768907538064
 30
0.0
 10
33.22048511573495
 20
208.9900037309001
 30
0.0
 10
33.21985950166271
 20
208.8119977531569
 30
0.0
 10
33.22039689107504
 20
208.6460284283679
 30
0.0
 10
33.22211682608027
 20
208.4950702893989
 30
0.0
 10
33.22485892477941
 20
208.3614917216241
 30
0.0
 10
33.22892318406806
 20
208.2475280769924
 30
0.0
 10
33.2331880456488
 20
208.1549369849439
 30
0.0
 10
33.24007391318821
 20
208.0865035109356
 30
0.0
 10
33.2434443573603
 20
208.0411928919174
 30
0.0
 10
33.25211851279956
 20
208.0212908181577
 30
0.0
 10
33.2548263205
 20
208.0150779956
 30
0.0
 11
33.2548263205
 21
210.3076457109
 31
0.0
 11
33.2473915495
 21
210.1376737129
 31
0.0
 11
33.2405589676
 21
209.9546884101
 31
0.0
 11
33.2345099651
 21
209.7625389934
 31
0.0
 11
33.2294038478
 21
209.5656537399
 31
0.0
 11
33.2253567816
 21
209.368600062
 31
0.0
 11
33.222429403
 21
209.1749276046
 31
0.0
 11
33.220651942
 21
208.9871245403
 31
0.0
 11
33.2200539957
 21
208.8079485306
 31
0.0
 11
33.22065137980001
 21
208.6409183267
 31
0.0
 11
33.2224283386
 21
208.4892379397
 31
0.0
 11
33.2253550983
 21
208.3550715554
 31
0.0
 11
33.2294013309
 21
208.2402871114
 31
0.0
 11
33.2345068087
 21
208.1471959353
 31
0.0
 11
33.2405558994
 21
208.0779928075
 31
0.0
 11
33.2473896047
 21
208.0339089887
 31
0.0
 11
33.2548263205
 21
208.0150779956
 31
0.0
  0
SPLINE
  5
1BA0
330
1B
100
AcDbEntity
  8
0
  6
Continuous
100
AcDbSpline
210
0.0
220
0.0
230
1.0
 70
     8
 71
     3
 72
    16
 73
    12
 74
    10
 42
0.0000000001
 43
0.0000000001
 44
0.0000000001
 40
0.0
 40
0.0
 40
0.0
 40
0.0
 40
0.1695631662245331
 40
0.3348919699646323
 40
0.4927166138999477
 40
0.6402172562455195
 40
0.7752754899451271
 40
0.896795320529119
 40
1.005129100285904
 40
1.102585763861333
 40
1.193745447795283
 40
1.193745447795283
 40
1.193745447795283
 40
1.193745447795283
 10
33.2548263205
 20
210.3076457109
 30
0.0
 10
33.19832168447786
 20
210.3101508221134
 30
0.0
 10
33.08672345656715
 20
210.3150984864436
 30
0.0
 10
32.92423789079201
 20
210.341422380436
 30
0.0
 10
32.77214235947569
 20
210.3808187076087
 30
0.0
 10
32.63470888821671
 20
210.4334718786212
 30
0.0
 10
32.51584188549256
 20
210.4976449713734
 30
0.0
 10
32.4184685271331
 20
210.5718173066951
 30
0.0
 10
32.34637054324689
 20
210.6543562964428
 30
0.0
 10
32.29884054750389
 20
210.7436509332944
 30
0.0
 10
32.29269567823263
 20
210.8067472455779
 30
0.0
 10
32.2897258172
 20
210.8372421627
 30
0.0
 11
33.2548263205
 21
210.3076457109
 31
0.0
 11
33.0856096042
 21
210.3184794667
 31
0.0
 11
32.9223229087
 21
210.344384455
 31
0.0
 11
32.7697100726
 21
210.384608086
 31
0.0
 11
32.63220484410001
 21
210.4379817839
 31
0.0
 11
32.513802073
 21
210.5029549344
 31
0.0
 11
32.4179416506
 21
210.5776399305
 31
0.0
 11
32.3474085709
 21
210.6598670094
 31
0.0
 11
32.3042520159
 21
210.7472472877
 31
0.0
 11
32.2897258172
 21
210.8372421627
 31
0.0
  0
SPLINE
  5
1BA1
330
1B
100
AcDbEntity
  8
0
  6
Continuous
100
AcDbSpline
210
0.0
220
0.0
230
1.0
 70
     8
 71
     3
 72
    16
 73
    12
 74
    10
 42
0.0000000001
 43
0.0000000001
 44
0.0000000001
 40
0.0
 40
0.0
 40
0.0
 40
0.0
 40
0.1704459162246349
 40
0.3408847874200425
 40
0.5113116101905164
 40
0.6817227705358177
 40
0.8521164601918704
 40
1.022492886504978
 40
1.192854248844554
 40
1.36320448476899
 40
1.533548816789562
 40
1.533548816789562
 40
1.533548816789562
 40
1.533548816789562
 10
33.2548263205
 20
208.0150779956
 30
0.0
 10
33.19807492462446
 20
208.010288332284
 30
0.0
 10
33.08457447857489
 20
208.0007092036228
 30
0.0
 10
32.92055236236933
 20
207.9499670363002
 30
0.0
 10
32.7671848347287
 20
207.8741830853466
 30
0.0
 10
32.629006031285
 20
207.772917351484
 30
0.0
 10
32.510056738096
 20
207.6498189696318
 30
0.0
 10
32.41360975786308
 20
207.5082743046356
 30
0.0
 10
32.34317465698207
 20
207.3524462278463
 30
0.0
 10
32.2981536321254
 20
207.1868484666597
 30
0.0
 10
32.292535056387
 20
207.0731461457699
 30
0.0
 10
32.2897258172
 20
207.0162959705
 30
0.0
 11
33.2548263205
 21
208.0150779956
 31
0.0
 11
33.0856094354
 21
207.9946462518
 31
0.0
 11
32.9223226046
 21
207.945791163
 31
0.0
 11
32.7697096893
 21
207.8699320831
 31
0.0
 11
32.6322044486
 21
207.769272894
 31
0.0
 11
32.5138017288
 21
207.6467379789
 31
0.0
 11
32.41794140350001
 21
207.5058872612
 31
0.0
 11
32.3474084374
 21
207.3508127808
 31
0.0
 11
32.3042519769
 21
207.1860198113
 31
0.0
 11
32.2897258172
 21
207.0162959705
 31
0.0
  0
SPLINE
  5
1BA2
330
1B
100
AcDbEntity
  8
0
  6
Continuous
100
AcDbSpline
210
0.0
220
0.0
230
1.0
 70
     8
 71
     3
 72
    14
 73
    10
 74
     8
 42
0.0000000001
 43
0.0000000001
 44
0.0000000001
 40
0.0
 40
0.0
 40
0.0
 40
0.0
 40
0.0202909888646294
 40
0.0678706398627018
 40
0.1415850704812975
 40
0.2393997904812998
 40
0.3585799265634044
 40
0.4957829136058735
 40
0.6471566009659844
 40
0.6471566009659844
 40
0.6471566009659844
 40
0.6471566009659844
 10
33.2548263205
 20
207.9731740463
 30
0.0
 10
33.25357270756381
 20
207.9665194568517
 30
0.0
 10
33.24937954020824
 20
207.9442607465002
 30
0.0
 10
33.24921695490703
 20
207.8968576921051
 30
0.0
 10
33.24743799786931
 20
207.8239437334228
 30
0.0
 10
33.24790841628817
 20
207.7269895222032
 30
0.0
 10
33.24903014648204
 20
207.6089468692339
 30
0.0
 10
33.25137984638521
 20
207.4730406881353
 30
0.0
 10
33.25364049241462
 20
207.3768758393319
 30
0.0
 10
33.2548263205
 20
207.3264323037
 30
0.0
 11
33.2548263205
 21
207.9731740463
 31
0.0
 11
33.2514333028
 21
207.9531687555
 31
0.0
 11
33.2491168648
 21
207.9056455264
 31
0.0
 11
33.24794213220001
 21
207.8319404568
 31
0.0
 11
33.24794213220001
 21
207.7341257368
 31
0.0
 11
33.2491168648
 21
207.6149513904
 31
0.0
 11
33.2514333028
 21
207.4777679593
 31
0.0
 11
33.2548263205
 21
207.3264323037
 31
0.0
  0
SPLINE
  5
1BA3
330
1B
100
AcDbEntity
  8
0
  6
Continuous
100
AcDbSpline
210
0.0
220
0.0
230
1.0
 70
     8
 71
     3
 72
    13
 73
     9
 74
     7
 42
0.0000000001
 43
0.0000000001
 44
0.0000000001
 40
0.0
 40
0.0
 40
0.0
 40
0.0
 40
0.125641297783152
 40
0.2309687953483741
 40
0.3130252481041501
 40
0.3695125632041644
 40
0.3988745395396503
 40
0.4014883451713675
 40
0.4014883451713675
 40
0.4014883451713675
 40
0.4014883451713675
 10
33.2548263205
 20
185.9456871208
 30
0.0
 10
33.25350376226827
 20
185.9037290136188
 30
0.0
 10
33.25107247823226
 20
185.8265966244939
 30
0.0
 10
33.25040937355427
 20
185.7233384829137
 30
0.0
 10
33.24477176412538
 20
185.6392987086324
 30
0.0
 10
33.25388545618972
 20
185.5892250068349
 30
0.0
 10
33.24103705004004
 20
185.5512250996924
 30
0.0
 10
33.25058262240588
 20
185.546005573357
 30
0.0
 10
33.2513629089
 20
185.5455789121
 30
0.0
 11
33.2548263205
 21
185.9456871208
 31
0.0
 11
33.2514333028
 21
185.8200916466
 31
0.0
 11
33.2491168648
 21
185.7147896245
 31
0.0
 11
33.24794213220001
 21
185.632741581
 31
0.0
 11
33.24794213220001
 21
185.5762542659
 31
0.0
 11
33.2491168648
 21
185.5469157987
 31
0.0
 11
33.2513629089
 21
185.5455789121
 31
0.0
  0
SPLINE
  5
1BA4
330
1B
100
AcDbEntity
  8
0
  6
Continuous
100
AcDbSpline
210
0.0
220
0.0
230
1.0
 70
     8
 71
     3
 72
    16
 73
    12
 74
    10
 42
0.0000000001
 43
0.0000000001
 44
0.0000000001
 40
0.0
 40
0.0
 40
0.0
 40
0.0
 40
0.169310689295004
 40
0.3331525372758326
 40
0.4871929420085104
 40
0.6274728016062442
 40
0.7506042732210292
 40
0.8540369625692366
 40
0.9365245629988029
 40
0.9992003478980233
 40
1.048213155443696
 40
1.048213155443696
 40
1.048213155443696
 40
1.048213155443696
 10
33.2548263205
 20
183.994913635
 30
0.0
 10
33.19839406504597
 20
183.9936157070634
 30
0.0
 10
33.08735235133615
 20
183.9910617750755
 30
0.0
 10
32.92542035187858
 20
183.9774670399095
 30
0.0
 10
32.77400579687031
 20
183.9571432691921
 30
0.0
 10
32.63734762083564
 20
183.9300753215319
 30
0.0
 10
32.51956727212381
 20
183.8972332018846
 30
0.0
 10
32.42292367793512
 20
183.8596533126112
 30
0.0
 10
32.35195697408247
 20
183.8180610080116
 30
0.0
 10
32.30111198072675
 20
183.7729775786052
 30
0.0
 10
32.29319851775925
 20
183.7357715006091
 30
0.0
 10
32.2897258172
 20
183.71944419
 30
0.0
 11
33.2548263205
 21
183.994913635
 31
0.0
 11
33.0856094354
 21
183.9892784503
 31
0.0
 11
32.9223226046
 21
183.9758039545
 31
0.0
 11
32.7697096893
 21
183.954881613
 31
0.0
 11
32.6322044486
 21
183.9271192682
 31
0.0
 11
32.5138017288
 21
183.8933234808
 31
0.0
 11
32.41794140350001
 21
183.8544760966
 31
0.0
 11
32.3474084374
 21
183.8117057223
 31
0.0
 11
32.3042519769
 21
183.7662549364999
 31
0.0
 11
32.2897258172
 21
183.71944419
 31
0.0
  0
SPLINE
  5
1BA5
330
1B
100
AcDbEntity
  8
0
  6
Continuous
100
AcDbSpline
210
0.0
220
0.0
230
1.0
 70
     8
 71
     3
 72
    14
 73
    10
 74
     8
 42
0.0000000001
 43
0.0000000001
 44
0.0000000001
 40
0.0
 40
0.0
 40
0.0
 40
0.0
 40
0.16451259915315
 40
0.3321267057804355
 40
0.4981374976787646
 40
0.6578854557787776
 40
0.8068881138294843
 40
0.940967198372197
 40
1.056368188277824
 40
1.056368188277824
 40
1.056368188277824
 40
1.056368188277824
 10
33.2548263205
 20
182.8407233121
 30
0.0
 10
33.25361687973492
 20
182.7858989074827
 30
0.0
 10
33.251175196975
 20
182.6752165099297
 30
0.0
 10
33.24895147726038
 20
182.5091835835737
 30
0.0
 10
33.24775994205125
 20
182.3447294935685
 30
0.0
 10
33.2477206410502
 20
182.1864737262995
 30
0.0
 10
33.24887541998357
 20
182.0388678797843
 30
0.0
 10
33.25094356240141
 20
181.9060515443678
 30
0.0
 10
33.25359832000363
 20
181.8229327432538
 30
0.0
 10
33.2548263205
 20
181.7844848153
 30
0.0
 11
33.2548263205
 21
182.8407233121
 31
0.0
 11
33.2514333028
 21
182.6762457066
 31
0.0
 11
33.2491168648
 21
182.5086476074
 31
0.0
 11
33.24794213220001
 21
182.3426409719
 31
0.0
 11
33.24794213220001
 21
182.1828930138
 31
0.0
 11
33.2491168648
 21
182.0338949866
 31
0.0
 11
33.2514333028
 21
181.8998359137
 31
0.0
 11
33.2548263205
 21
181.7844848153
 31
0.0
  0
SPLINE
  5
1BA6
330
1B
100
AcDbEntity
  8
0
  6
Continuous
100
AcDbSpline
210
0.0
220
0.0
230
1.0
 70
     8
 71
     3
 72
    35
 73
    31
 74
    29
 42
0.0000000001
 43
0.0000000001
 44
0.0000000001
 40
0.0
 40
0.0
 40
0.0
 40
0.0
 40
0.1498954457840526
 40
0.9011324423863689
 40
1.767183795281105
 40
2.74165905589176
 40
3.817330894303181
 40
4.986199566925201
 40
6.239558420617469
 40
7.568062334969515
 40
8.961799682059315
 40
10.41036780876875
 40
11.90295176783721
 40
13.42840587221662
 40
14.97533756093766
 40
16.5321930115025
 40
18.08734390236378
 40
19.62917470792652
 40
21.14616990148634
 40
22.62700044448058
 40
24.06060894769281
 40
25.43629291667951
 40
26.74378552891764
 40
27.97333345218433
 40
29.11577131390272
 40
30.16259261252786
 40
31.1060172000907
 40
31.93905619373299
 40
32.65557689266346
 40
33.25037494622131
 40
33.25037494622131
 40
33.25037494622131
 40
33.25037494622131
 10
41.38872035739999
 20
183.1016854776
 30
0.0
 10
41.38467006407167
 20
183.1514862187894
 30
0.0
 10
41.36032075378917
 20
183.4508753250156
 30
0.0
 10
41.3177200457455
 20
184.0384103032278
 30
0.0
 10
41.26328782505239
 20
184.9006220988156
 30
0.0
 10
41.20873447143754
 20
185.8711625551474
 30
0.0
 10
41.15408760470704
 20
186.942778819447
 30
0.0
 10
41.09937809218543
 20
188.1074634916737
 30
0.0
 10
41.04462205334436
 20
189.3565092357166
 30
0.0
 10
40.98983204053816
 20
190.6805771860679
 30
0.0
 10
40.93501669441051
 20
192.0697665876941
 30
0.0
 10
40.88018262859806
 20
193.5136893185078
 30
0.0
 10
40.82533497038399
 20
195.0015476702022
 30
0.0
 10
40.77047790970921
 20
196.5222152101392
 30
0.0
 10
40.71561502070222
 20
198.0643200449994
 30
0.0
 10
40.6607495182681
 20
199.6163299080997
 30
0.0
 10
40.60588446198285
 20
201.166638434587
 30
0.0
 10
40.55102293369123
 20
202.7036519865715
 30
0.0
 10
40.49616824180779
 20
204.2158763859388
 30
0.0
 10
40.44132407325749
 20
205.6920029008203
 30
0.0
 10
40.38649499070956
 20
207.1209928858689
 30
0.0
 10
40.33168600770815
 20
208.4921603231921
 30
0.0
 10
40.27690594143959
 20
209.7952521224908
 30
0.0
 10
40.22215860334902
 20
211.0205240250988
 30
0.0
 10
40.1674769370176
 20
212.1588170368906
 30
0.0
 10
40.11281623053024
 20
213.2016157429191
 30
0.0
 10
40.05841417771191
 20
214.1411483884205
 30
0.0
 10
40.0036673176502
 20
214.970335821289
 30
0.0
 10
39.95063535636994
 20
215.683195666798
 30
0.0
 10
39.90873245689096
 20
216.1182996989205
 30
0.0
 10
39.8897258172
 20
216.315657535
 30
0.0
 11
41.38872035739999
 21
183.1016854776
 31
0.0
 11
41.37664214039999
 21
183.251093514
 31
0.0
 11
41.3215711654
 21
184.0003092458
 31
0.0
 11
41.26650019049999
 21
184.8646078826
 31
0.0
 11
41.21142921559999
 21
185.8375257729
 31
0.0
 11
41.15635824059999
 21
186.911786957
 31
0.0
 11
41.1012872657
 21
188.0793575808
 31
0.0
 11
41.04621629079999
 21
189.3315059761
 31
0.0
 11
40.99114531579999
 21
190.6588679607
 31
0.0
 11
40.93607434089999
 21
192.0515168685
 31
0.0
 11
40.881003366
 21
193.4990377856
 31
0.0
 11
40.825932391
 21
194.9906054383
 31
0.0
 11
40.77086141609999
 21
196.5150651499
 31
0.0
 11
40.71579044119999
 21
198.0610162608
 31
0.0
 11
40.6607194662
 21
199.6168973879
 31
0.0
 11
40.6056484913
 21
201.1710728867
 31
0.0
 11
40.55057751639999
 21
202.7119198683
 31
0.0
 11
40.49550654139999
 21
204.2279151206
 31
0.0
 11
40.4404355665
 21
205.7077212852
 31
0.0
 11
40.3853645916
 21
207.1402716432
 31
0.0
 11
40.3302936166
 21
208.5148528777
 31
0.0
 11
40.27522264169999
 21
209.8211851933
 31
0.0
 11
40.2201516668
 21
211.0494991936
 31
0.0
 11
40.1650806919
 21
212.190608941
 31
0.0
 11
40.1100097169
 21
213.2359806543
 31
0.0
 11
40.05493874199999
 21
214.1777965281
 31
0.0
 11
39.9998677671
 21
215.0090131982
 31
0.0
 11
39.9447967921
 21
215.7234144158
 31
0.0
 11
39.8897258172
 21
216.315657535
 31
0.0
  0
SPLINE
  5
1BA7
330
1B
100
AcDbEntity
  8
0
  6
Continuous
100
AcDbSpline
210
0.0
220
0.0
230
1.0
 70
     8
 71
     3
 72
    12
 73
     8
 74
     6
 42
0.0000000001
 43
0.0000000001
 44
0.0000000001
 40
0.0
 40
0.0
 40
0.0
 40
0.0
 40
0.0811669064434152
 40
0.6191084651299283
 40
1.028498674502749
 40
1.307166135177125
 40
1.309467552793403
 40
1.309467552793403
 40
1.309467552793403
 40
1.309467552793403
 10
41.3905558025
 20
215.9371354663
 30
0.0
 10
41.38804104673616
 20
215.9640750735942
 30
0.0
 10
41.3688595028121
 20
216.1695595457021
 30
0.0
 10
41.33135086066602
 20
216.5100756787345
 30
0.0
 10
41.29059581399866
 20
216.9175862181194
 30
0.0
 10
41.2282331804704
 20
217.1403575419954
 30
0.0
 10
41.21685160881557
 20
217.233321277237
 30
0.0
 10
41.21675838229999
 20
217.2340827437
 30
0.0
 11
41.3905558025
 21
215.9371354663
 31
0.0
 11
41.38295314909999
 21
216.0179455298
 31
0.0
 11
41.3276484331
 21
216.5530366519
 31
0.0
 11
41.2723437171
 21
216.9586740909
 31
0.0
 11
41.21703900109999
 21
217.2317984985
 31
0.0
 11
41.21675838229999
 21
217.2340827437
 31
0.0
  0
SPLINE
  5
1BA8
330
1B
100
AcDbEntity
  8
0
  6
Continuous
100
AcDbSpline
210
0.0
220
0.0
230
1.0
 70
    24
 71
     3
 72
     8
 73
     4
 74
     2
 42
0.0000000001
 43
0.0000000001
 44
0.0000000001
 40
0.0
 40
0.0
 40
0.0
 40
0.0
 40
0.4973368516689831
 40
0.4973368516689831
 40
0.4973368516689831
 40
0.4973368516689831
 10
39.8897258172
 20
203.3595542055
 30
0.0
 10
39.89663969380001
 20
203.1939194906667
 30
0.0
 10
39.90355357040001
 20
203.0282847758334
 30
0.0
 10
39.910467447
 20
202.862650061
 30
0.0
 11
39.8897258172
 21
203.3595542055
 31
0.0
 11
39.910467447
 21
202.862650061
 31
0.0
  0
SPLINE
  5
1BA9
330
1B
100
AcDbEntity
  8
0
  6
Continuous
100
AcDbSpline
210
0.0
220
0.0
230
1.0
 70
     8
 71
     3
 72
    26
 73
    22
 74
    20
 42
0.0000000001
 43
0.0000000001
 44
0.0000000001
 40
0.0
 40
0.0
 40
0.0
 40
0.0
 40
0.8776898208397126
 40
2.27351844392448
 40
3.678970077307831
 40
5.082805482979963
 40
6.473799015663061
 40
7.840829900994666
 40
9.172971884211506
 40
10.45957598455674
 40
11.69036228647146
 40
12.85550362419702
 40
13.94570335701868
 40
14.9522688636766
 40
15.86718698047923
 40
16.68319776822399
 40
17.39386496644648
 40
17.99364447154257
 40
18.47798016932586
 40
18.84347561060777
 40
19.03314103456391
 40
19.03314103456391
 40
19.03314103456391
 40
19.03314103456391
 10
39.910467447
 20
202.862650061
 30
0.0
 10
39.92257458190167
 20
202.5703374042106
 30
0.0
 10
39.95393622453267
 20
201.8131471066548
 30
0.0
 10
40.00388998658419
 20
200.5878415115028
 30
0.0
 10
40.06066757803323
 20
199.1872867003859
 30
0.0
 10
40.11742645990484
 20
197.7883441230855
 30
0.0
 10
40.17418603489239
 20
196.4022190733636
 30
0.0
 10
40.23093621419955
 20
195.0400117030406
 30
0.0
 10
40.28767417974709
 20
193.7126310862246
 30
0.0
 10
40.34439400160841
 20
192.4307071718052
 30
0.0
 10
40.40108948295556
 20
191.2045056155859
 30
0.0
 10
40.45775015716438
 20
190.0438435354195
 30
0.0
 10
40.51436932176031
 20
188.9580145968161
 30
0.0
 10
40.57091132714412
 20
187.9557078263934
 30
0.0
 10
40.62740931089334
 20
187.0449605678909
 30
0.0
 10
40.68363330647757
 20
186.2330111554355
 30
0.0
 10
40.74009685683985
 20
185.5264817479406
 30
0.0
 10
40.79495414280112
 20
184.9305713929072
 30
0.0
 10
40.85278470068393
 20
184.4511065513953
 30
0.0
 10
40.89818312471096
 20
184.1068816138271
 30
0.0
 10
40.9448024762177
 20
183.9276807220984
 30
0.0
 10
40.9607295338
 20
183.8664584436
 30
0.0
 11
39.910467447
 21
202.862650061
 31
0.0
 11
39.9467156205
 21
201.9857090758
 31
0.0
 11
40.0037063505
 21
200.5910443843
 31
0.0
 11
40.0606971969
 21
199.1867487113
 31
0.0
 11
40.1176880763
 21
197.7840705993
 31
0.0
 11
40.1746789302
 21
196.3942450525
 31
0.0
 11
40.23166976
 21
195.0284026433
 31
0.0
 11
40.2886606352
 21
193.6974802926
 31
0.0
 11
40.345651464
 21
192.4121390319
 31
0.0
 11
40.4026422313
 21
191.1826728984
 31
0.0
 11
40.4596330302
 21
190.0189261967
 31
0.0
 11
40.5166239677
 21
188.9302171031
 31
0.0
 11
40.5736149864
 21
187.9252662869
 31
0.0
 11
40.6306059265
 21
187.0121248996
 31
0.0
 11
40.6875967072
 21
186.1981066832
 31
0.0
 11
40.7445874722
 21
185.4897283102
 31
0.0
 11
40.8015782498
 21
184.8926625634
 31
0.0
 11
40.8585689939
 21
184.4116915422
 31
0.0
 11
40.91555976179999
 21
184.0506666539
 31
0.0
 11
40.9607295338
 21
183.8664584436
 31
0.0
  0
SPLINE
  5
1BAA
330
1B
100
AcDbEntity
  8
0
  6
Continuous
100
AcDbSpline
210
0.0
220
0.0
230
1.0
 70
     8
 71
     3
 72
    13
 73
     9
 74
     7
 42
0.0000000001
 43
0.0000000001
 44
0.0000000001
 40
0.0
 40
0.0
 40
0.0
 40
0.0
 40
0.1327564465090971
 40
0.317239645308057
 40
0.547377976694407
 40
0.8338665764342703
 40
1.185601659726515
 40
1.606479656233664
 40
1.606479656233664
 40
1.606479656233664
 40
1.606479656233664
 10
47.2750273421
 20
216.28830443
 30
0.0
 10
47.25536107713107
 20
216.2485124951608
 30
0.0
 10
47.20836585326558
 20
216.1534242367262
 30
0.0
 10
47.08599883488626
 20
216.0151872712821
 30
0.0
 10
46.9010706910679
 20
215.8706375480021
 30
0.0
 10
46.64179371483671
 20
215.7385968474283
 30
0.0
 10
46.3025276285161
 20
215.63153948781
 30
0.0
 10
46.0448879306272
 20
215.612347023072
 30
0.0
 10
45.9045396985
 20
215.6018920019
 30
0.0
 11
47.2750273421
 21
216.28830443
 31
0.0
 11
47.2118389553
 21
216.1715504071
 31
0.0
 11
47.0929041834
 21
216.0305235633
 31
0.0
 11
46.9123645401
 21
215.8878032467
 31
0.0
 11
46.65847778629999
 21
215.7550733178
 31
0.0
 11
46.322573705
 21
215.6507372407
 31
0.0
 11
45.9045396985
 21
215.6018920019
 31
0.0
  0
SPLINE
  5
1BAB
330
1B
100
AcDbEntity
  8
0
  6
Continuous
100
AcDbSpline
210
0.0
220
0.0
230
1.0
 70
     8
 71
     3
 72
    20
 73
    16
 74
    14
 42
0.0000000001
 43
0.0000000001
 44
0.0000000001
 40
0.0
 40
0.0
 40
0.0
 40
0.0
 40
0.2699913022051513
 40
0.5101804604667413
 40
0.7167239338504015
 40
0.889993012748905
 40
1.030011522717623
 40
1.139064127204972
 40
1.221326416459204
 40
1.283215039331162
 40
1.330498767460731
 40
1.366944465049302
 40
1.393606495321551
 40
1.409827630291045
 40
1.410759010701461
 40
1.410759010701461
 40
1.410759010701461
 40
1.410759010701461
 10
45.9045396985
 20
178.3334018011
 30
0.0
 10
45.9944979998817
 20
178.3307193588761
 30
0.0
 10
46.16448483740896
 20
178.3256505674084
 30
0.0
 10
46.40315933835937
 20
178.3149144806313
 30
0.0
 10
46.60952281535604
 20
178.3036740358953
 30
0.0
 10
46.78245406531855
 20
178.2926996133552
 30
0.0
 10
46.92288500425142
 20
178.2827782320715
 30
0.0
 10
47.03300889235557
 20
178.2743631115017
 30
0.0
 10
47.11713588998798
 20
178.2675631644919
 30
0.0
 10
47.18072274269002
 20
178.2622118506413
 30
0.0
 10
47.22908081495092
 20
178.2580203178727
 30
0.0
 10
47.2657343738796
 20
178.2547725073164
 30
0.0
 10
47.2920707311583
 20
178.2524004914488
 30
0.0
 10
47.30661541789874
 20
178.2510762064737
 30
0.0
 10
47.31230916037357
 20
178.2505554747945
 30
0.0
 10
47.3126183302
 20
178.2505271991
 30
0.0
 11
45.9045396985
 21
178.3334018011
 31
0.0
 11
46.17438859109999
 21
178.3246337666
 31
0.0
 11
46.41434240449999
 21
178.3140036593
 31
0.0
 11
46.6205782967
 21
178.302735866
 31
0.0
 11
46.7934999963
 21
178.2917695763
 31
0.0
 11
46.9331702843
 21
178.2819007474
 31
0.0
 11
47.0419059107
 21
178.2735920714
 31
0.0
 11
47.1239007831
 21
178.2669644675
 31
0.0
 11
47.18557140259999
 21
178.2617744452
 31
0.0
 11
47.2326785076
 21
178.2576913576
 31
0.0
 11
47.26898196559999
 21
178.2544745564
 31
0.0
 11
47.295536513
 21
178.2520829313
 31
0.0
 11
47.3116908201
 21
178.2506120194
 31
0.0
 11
47.3126183302
 21
178.2505271991
 31
0.0
  0
SPLINE
  5
1BAC
330
1B
100
AcDbEntity
  8
0
  6
Continuous
100
AcDbSpline
210
0.0
220
0.0
230
1.0
 70
    24
 71
     3
 72
     8
 73
     4
 74
     2
 42
0.0000000001
 43
0.0000000001
 44
0.0000000001
 40
0.0
 40
0.0
 40
0.0
 40
0.0
 40
0.0044574934057207
 40
0.0044574934057207
 40
0.0044574934057207
 40
0.0044574934057207
 10
47.3126183302
 20
178.2505271991
 30
0.0
 10
47.31409797033333
 20
178.2503917028333
 30
0.0
 10
47.31557761046666
 20
178.2502562065666
 30
0.0
 10
47.3170572506
 20
178.2501207103
 30
0.0
 11
47.3126183302
 21
178.2505271991
 31
0.0
 11
47.3170572506
 21
178.2501207103
 31
0.0
  0
SPLINE
  5
1BAD
330
1B
100
AcDbEntity
  8
0
  6
Continuous
100
AcDbSpline
210
0.0
220
0.0
230
1.0
 70
     8
 71
     3
 72
    10
 73
     6
 74
     4
 42
0.0000000001
 43
0.0000000001
 44
0.0000000001
 40
0.0
 40
0.0
 40
0.0
 40
0.0
 40
1.504673857080318
 40
3.010129924297206
 40
4.516368201479652
 40
4.516368201479652
 40
4.516368201479652
 40
4.516368201479652
 10
41.3897258172
 20
178.4518811181
 30
0.0
 10
41.89111115378838
 20
178.4387234652008
 30
0.0
 10
42.89414247394241
 20
178.4124013193491
 30
0.0
 10
44.39908043439908
 20
178.3729082145695
 30
0.0
 10
45.40263306149181
 20
178.3465728855641
 30
0.0
 10
45.9045396985
 20
178.3334018011
 30
0.0
 11
41.3897258172
 21
178.4518811181
 31
0.0
 11
42.8938818286
 21
178.4124082217
 31
0.0
 11
44.3988197891
 21
178.3729151164
 31
0.0
 11
45.9045396985
 21
178.3334018011
 31
0.0
  0
SPLINE
  5
1BAE
330
1B
100
AcDbEntity
  8
0
  6
Continuous
100
AcDbSpline
210
0.0
220
0.0
230
1.0
 70
     8
 71
     3
 72
    10
 73
     6
 74
     4
 42
0.0000000001
 43
0.0000000001
 44
0.0000000001
 40
0.0
 40
0.0
 40
0.0
 40
0.0
 40
1.506058792937074
 40
3.011335464719748
 40
4.515830015160812
 40
4.515830015160812
 40
4.515830015160812
 40
4.515830015160812
 10
45.9045396985
 20
215.6018920019
 30
0.0
 10
45.40263306178465
 20
215.5912428497546
 30
0.0
 10
44.39908043674293
 20
215.5699500757439
 30
0.0
 10
42.8941424762992
 20
215.538018999332
 30
0.0
 10
41.89111115408312
 20
215.5167370037923
 30
0.0
 10
41.3897258172
 20
215.5060987712
 30
0.0
 11
45.9045396985
 21
215.6018920019
 31
0.0
 11
44.3988197891
 21
215.5699445103
 31
0.0
 11
42.8938818286
 21
215.5380134336
 31
0.0
 11
41.3897258172
 21
215.5060987712
 31
0.0
  0
SPLINE
  5
1BAF
330
1B
100
AcDbEntity
  8
0
  6
Continuous
100
AcDbSpline
210
0.0
220
0.0
230
1.0
 70
     8
 71
     3
 72
    22
 73
    18
 74
    16
 42
0.0000000001
 43
0.0000000001
 44
0.0000000001
 40
0.0
 40
0.0
 40
0.0
 40
0.0
 40
0.4255590878934102
 40
0.7961208758735903
 40
1.119736823012031
 40
1.403488418265689
 40
1.653519069086473
 40
1.871300642764924
 40
2.067656845344766
 40
2.258761709722441
 40
2.453319016620173
 40
2.668288187257075
 40
2.912566865704812
 40
3.189737533514985
 40
3.507116331978795
 40
3.873476477596308
 40
4.298419863361739
 40
4.298419863361739
 40
4.298419863361739
 40
4.298419863361739
 10
45.9045396985
 20
194.2109586766
 30
0.0
 10
46.04680830489205
 20
194.1979524938537
 30
0.0
 10
46.3129593770988
 20
194.1736209876203
 30
0.0
 10
46.65673468098417
 20
194.0124952970059
 30
0.0
 10
46.91550056858976
 20
193.8109032698793
 30
0.0
 10
47.09858516465325
 20
193.5885530203241
 30
0.0
 10
47.21789154707238
 20
193.3666608206389
 30
0.0
 10
47.28697699697204
 20
193.1552246014039
 30
0.0
 10
47.31818257085369
 20
192.9551009133993
 30
0.0
 10
47.31835782132355
 20
192.7603369020235
 30
0.0
 10
47.28748427852371
 20
192.5616971590735
 30
0.0
 10
47.21865356961593
 20
192.3537512046735
 30
0.0
 10
47.09934045379353
 20
192.1375051118045
 30
0.0
 10
46.91595861672806
 20
191.9233505891211
 30
0.0
 10
46.65638968905279
 20
191.7319593767099
 30
0.0
 10
46.31163865474602
 20
191.5826723655359
 30
0.0
 10
46.04677562639395
 20
191.5638393143534
 30
0.0
 10
45.9045396985
 20
191.5537256472
 30
0.0
 11
45.9045396985
 21
194.2109586766
 31
0.0
 11
46.3251363731
 21
194.1461591812
 31
0.0
 11
46.6627588663
 21
193.9934270929
 31
0.0
 11
46.9172428612
 21
193.7935141679
 31
0.0
 11
47.09752118589999
 21
193.5743916144
 31
0.0
 11
47.21569765189999
 21
193.354051765
 31
0.0
 11
47.2831977723
 21
193.1469948946
 31
0.0
 11
47.3133527374
 21
192.9529679986
 31
0.0
 11
47.3134606673
 21
192.7618631647
 31
0.0
 11
47.28355379159999
 21
192.5696182052
 31
0.0
 11
47.21602963659999
 21
192.3655294186
 31
0.0
 11
47.0981926867
 21
192.1515515553
 31
0.0
 11
46.9180928049
 21
191.9408678785
 31
0.0
 11
46.6636062091
 21
191.7512211694
 31
0.0
 11
46.3258250176
 21
191.6093634133
 31
0.0
 11
45.9045396985
 21
191.5537256472
 31
0.0
  0
SPLINE
  5
1BB0
330
1B
100
AcDbEntity
  8
0
  6
Continuous
100
AcDbSpline
210
0.0
220
0.0
230
1.0
 70
     8
 71
     3
 72
    10
 73
     6
 74
     4
 42
0.0000000001
 43
0.0000000001
 44
0.0000000001
 40
0.0
 40
0.0
 40
0.0
 40
0.0
 40
1.504495381712698
 40
3.009772882005357
 40
4.515832500703575
 40
4.515832500703575
 40
4.515832500703575
 40
4.515832500703575
 10
41.3897258172
 20
217.1482419989
 30
0.0
 10
41.89111115387005
 20
217.158893295875
 30
0.0
 10
42.8941424745955
 20
217.1802014269488
 30
0.0
 10
44.39908043504929
 20
217.2121715363882
 30
0.0
 10
45.40263306157306
 20
217.2334902198671
 30
0.0
 10
45.9045396985
 20
217.2441523301
 30
0.0
 11
41.3897258172
 21
217.1482419989
 31
0.0
 11
42.8938818286
 21
217.1801958244
 31
0.0
 11
44.3988197891
 21
217.2121659344
 31
0.0
 11
45.9045396985
 21
217.2441523301
 31
0.0
  0
SPLINE
  5
1BB1
330
1B
100
AcDbEntity
  8
0
  6
Continuous
100
AcDbSpline
210
0.0
220
0.0
230
1.0
 70
     8
 71
     3
 72
    17
 73
    13
 74
    11
 42
0.0000000001
 43
0.0000000001
 44
0.0000000001
 40
0.0
 40
0.0
 40
0.0
 40
0.0
 40
0.4237871346147345
 40
0.7720734444983005
 40
1.049316297786412
 40
1.267485298089564
 40
1.440835698020264
 40
1.580703641747779
 40
1.701476635416185
 40
1.820835112009319
 40
1.945229591109086
 40
1.960520479749739
 40
1.960520479749739
 40
1.960520479749739
 40
1.960520479749739
 10
45.9045396985
 20
217.2441523301
 30
0.0
 10
46.04608643368911
 20
217.2409142823612
 30
0.0
 10
46.30396230218214
 20
217.2350150691314
 30
0.0
 10
46.64718985320118
 20
217.1568454693179
 30
0.0
 10
46.90892393714238
 20
217.0503047405905
 30
0.0
 10
47.09609821257952
 20
216.9260790578427
 30
0.0
 10
47.21883362105641
 20
216.7959386886204
 30
0.0
 10
47.28904525173196
 20
216.6676028080764
 30
0.0
 10
47.31935889546043
 20
216.5431746721266
 30
0.0
 10
47.31699114722521
 20
216.420458793674
 30
0.0
 10
47.2944742150803
 20
216.3361568318505
 30
0.0
 10
47.27694608743618
 20
216.2930258354912
 30
0.0
 10
47.2750273421
 20
216.28830443
 30
0.0
 11
45.9045396985
 21
217.2441523301
 31
0.0
 11
46.3275730132
 21
217.2188867385
 31
0.0
 11
46.6671556933
 21
217.1415113094
 31
0.0
 11
46.9225425712
 21
217.033617184
 31
0.0
 11
47.1026960405
 21
216.9105625612
 31
0.0
 11
47.2199289432
 21
216.7828644497
 31
0.0
 11
47.28597912139999
 21
216.659574484
 31
0.0
 11
47.3142316092
 21
216.54215254
 31
0.0
 11
47.31232315319999
 21
216.4228093218
 31
0.0
 11
47.2807190353
 21
216.3024965371
 31
0.0
 11
47.2750273421
 21
216.28830443
 31
0.0
  0
SPLINE
  5
1BB2
330
1B
100
AcDbEntity
  8
0
  6
Continuous
100
AcDbSpline
210
0.0
220
0.0
230
1.0
 70
     8
 71
     3
 72
    10
 73
     6
 74
     4
 42
0.0000000001
 43
0.0000000001
 44
0.0000000001
 40
0.0
 40
0.0
 40
0.0
 40
0.0
 40
1.505769672377366
 40
3.010757371773464
 40
4.51496309799483
 40
4.51496309799483
 40
4.51496309799483
 40
4.51496309799483
 10
45.9045396985
 20
191.5537256472
 30
0.0
 10
45.40263306191601
 20
191.5578062194353
 30
0.0
 10
44.39908043779423
 20
191.565965244792
 30
0.0
 10
42.89414247735567
 20
191.578200863719
 30
0.0
 10
41.89111115421524
 20
191.5863559982412
 30
0.0
 10
41.3897258172
 20
191.5904325059
 30
0.0
 11
45.9045396985
 21
191.5537256472
 31
0.0
 11
44.3988197891
 21
191.5659674072
 31
0.0
 11
42.8938818286
 21
191.5782030265
 31
0.0
 11
41.3897258172
 21
191.5904325059
 31
0.0
  0
SPLINE
  5
1BB3
330
1B
100
AcDbEntity
  8
0
  6
Continuous
100
AcDbSpline
210
0.0
220
0.0
230
1.0
 70
     8
 71
     3
 72
    10
 73
     6
 74
     4
 42
0.0000000001
 43
0.0000000001
 44
0.0000000001
 40
0.0
 40
0.0
 40
0.0
 40
0.0
 40
1.504205212367775
 40
3.009192399618045
 40
4.514961561549196
 40
4.514961561549196
 40
4.514961561549196
 40
4.514961561549196
 10
41.3897258172
 20
194.2474760627
 30
0.0
 10
41.89111115434703
 20
194.2434206936928
 30
0.0
 10
42.89414247840939
 20
194.2353078474576
 30
0.0
 10
44.39908043884154
 20
194.2231353852798
 30
0.0
 10
45.40263306204683
 20
194.2150182822368
 30
0.0
 10
45.9045396985
 20
194.2109586766
 30
0.0
 11
41.3897258172
 21
194.2474760627
 31
0.0
 11
42.8938818286
 21
194.2353099506
 31
0.0
 11
44.3988197891
 21
194.2231374885
 31
0.0
 11
45.9045396985
 21
194.2109586766
 31
0.0
  0
SPLINE
  5
1BB4
330
1B
100
AcDbEntity
  8
0
  6
Continuous
100
AcDbSpline
210
0.0
220
0.0
230
1.0
 70
     8
 71
     3
 72
    10
 73
     6
 74
     4
 42
0.0000000001
 43
0.0000000001
 44
0.0000000001
 40
0.0
 40
0.0
 40
0.0
 40
0.0
 40
0.153801380600217
 40
0.2511873439985249
 40
0.2926354360813686
 40
0.2926354360813686
 40
0.2926354360813686
 40
0.2926354360813686
 10
153.9059843665
 20
261.6365353643
 30
0.0
 10
153.9284933371925
 20
261.6825545447131
 30
0.0
 10
153.9652548314153
 20
261.7577127497685
 30
0.0
 10
154.0090797443829
 20
261.8451786437304
 30
0.0
 10
154.023445868575
 20
261.8892084957163
 30
0.0
 10
154.0277347906
 20
261.9023533495
 30
0.0
 11
153.9059843665
 21
261.6365353643
 31
0.0
 11
153.9738322662
 21
261.774562634
 31
0.0
 11
154.0142953213
 21
261.8631446132
 31
0.0
 11
154.0277347906
 21
261.9023533495
 31
0.0
  0
SPLINE
  5
1BB5
330
1B
100
AcDbEntity
  8
0
  6
Continuous
100
AcDbSpline
210
0.0
220
0.0
230
1.0
 70
     8
 71
     3
 72
     9
 73
     5
 74
     3
 42
0.0000000001
 43
0.0000000001
 44
0.0000000001
 40
0.0
 40
0.0
 40
0.0
 40
0.0
 40
1.033224109306556
 40
2.030151961273752
 40
2.030151961273752
 40
2.030151961273752
 40
2.030151961273752
 10
174.9862829063
 20
260.903419144
 30
0.0
 10
175.1443482312817
 20
260.5972827900683
 30
0.0
 10
175.4549261849227
 20
259.9957643839902
 30
0.0
 10
175.7214358743187
 20
259.373477071337
 30
0.0
 10
175.8523083101
 20
259.0678962253
 30
0.0
 11
174.9862829063
 21
260.903419144
 31
0.0
 11
175.4490643544
 21
259.9796305365
 31
0.0
 11
175.8523083101
 21
259.0678962253
 31
0.0
  0
SPLINE
  5
1BB6
330
1B
100
AcDbEntity
  8
0
  6
Continuous
100
AcDbSpline
210
0.0
220
0.0
230
1.0
 70
     8
 71
     3
 72
     9
 73
     5
 74
     3
 42
0.0000000001
 43
0.0000000001
 44
0.0000000001
 40
0.0
 40
0.0
 40
0.0
 40
0.0
 40
1.030251769996801
 40
2.020227210007473
 40
2.020227210007473
 40
2.020227210007473
 40
2.020227210007473
 10
173.2542321071
 20
261.6365353643
 30
0.0
 10
173.4122717526068
 20
261.3315081261814
 30
0.0
 10
173.7221726927564
 20
260.7333782862854
 30
0.0
 10
173.9893380161707
 20
260.1149886652376
 30
0.0
 10
174.1202575025
 20
259.8119581278
 30
0.0
 11
173.2542321071
 21
261.6365353643
 31
0.0
 11
173.7172368929
 21
260.7161847366
 31
0.0
 11
174.1202575025
 21
259.8119581278
 31
0.0
  0
SPLINE
  5
1BB7
330
1B
100
AcDbEntity
  8
0
  6
Continuous
100
AcDbSpline
210
0.0
220
0.0
230
1.0
 70
     8
 71
     3
 72
    11
 73
     7
 74
     5
 42
0.0000000001
 43
0.0000000001
 44
0.0000000001
 40
0.0
 40
0.0
 40
0.0
 40
0.0
 40
0.4664956463978728
 40
0.9488411307982667
 40
1.454873117387646
 40
1.98479374530719
 40
1.98479374530719
 40
1.98479374530719
 40
1.98479374530719
 10
174.9862829067
 20
260.9034189524
 30
0.0
 10
174.8930370377188
 20
261.029701620886
 30
0.0
 10
174.7033771417484
 20
261.2865575870494
 30
0.0
 10
174.2737022903491
 20
261.5345923026887
 30
0.0
 10
173.7784783886162
 20
261.6698433063833
 30
0.0
 10
173.4316467933314
 20
261.6478073915066
 30
0.0
 10
173.2542320987
 20
261.6365353645
 30
0.0
 11
174.9862829067
 21
260.9034189524
 31
0.0
 11
174.6846538999
 21
261.2592814685
 31
0.0
 11
174.2734392868
 21
261.5113919766
 31
0.0
 11
173.7841383532
 21
261.6404383552
 31
0.0
 11
173.2542320987
 21
261.6365353645
 31
0.0
  0
SPLINE
  5
1BB8
330
1B
100
AcDbEntity
  8
0
  6
Continuous
100
AcDbSpline
210
0.0
220
0.0
230
1.0
 70
     8
 71
     3
 72
    15
 73
    11
 74
     9
 42
0.0000000001
 43
0.0000000001
 44
0.0000000001
 40
0.0
 40
0.0
 40
0.0
 40
0.0
 40
1.400467094327559
 40
2.784171585038111
 40
4.111871707767611
 40
5.400630277540511
 40
6.69515794048488
 40
8.076762629874828
 40
9.64513427898582
 40
11.43088453699734
 40
11.43088453699734
 40
11.43088453699734
 40
11.43088453699734
 10
175.8523083101
 20
259.0678962253
 30
0.0
 10
176.0136871530371
 20
258.6298715930108
 30
0.0
 10
176.3345132479534
 20
257.7590651744197
 30
0.0
 10
176.8048284773537
 20
256.4714152040706
 30
0.0
 10
177.1228279094193
 20
255.170304408415
 30
0.0
 10
177.171336689974
 20
253.8574175039952
 30
0.0
 10
176.9647502794544
 20
252.5476153931063
 30
0.0
 10
176.629616681526
 20
251.1731077303246
 30
0.0
 10
176.2228344707428
 20
249.6475598057991
 30
0.0
 10
175.9810405364492
 20
248.5558365169964
 30
0.0
 10
175.8523083101
 20
247.9745979101
 30
0.0
 11
175.8523083101
 21
259.0678962253
 31
0.0
 11
176.3358444255
 21
257.7535519373
 31
0.0
 11
176.7866017189
 21
256.4453256648
 31
0.0
 11
177.0807207675
 21
255.1506127232
 31
0.0
 11
177.129790898
 21
253.8627886772
 31
0.0
 11
176.9524718226
 21
252.5804627375
 31
0.0
 11
176.6398729965
 21
251.2346865705
 31
0.0
 11
176.2516327165
 21
249.7151277152
 31
0.0
 11
175.8523083101
 21
247.9745979101
 31
0.0
  0
SPLINE
  5
1BB9
330
1B
100
AcDbEntity
  8
0
  6
Continuous
100
AcDbSpline
210
0.0
220
0.0
230
1.0
 70
     8
 71
     3
 72
    15
 73
    11
 74
     9
 42
0.0000000001
 43
0.0000000001
 44
0.0000000001
 40
0.0
 40
0.0
 40
0.0
 40
0.0
 40
1.879271184889276
 40
3.548484836402441
 40
4.969677231476538
 40
6.197513810796543
 40
7.383735960149259
 40
8.649039012257447
 40
10.06697165916877
 40
11.63729927952163
 40
11.63729927952163
 40
11.63729927952163
 40
11.63729927952163
 10
174.1202575025
 20
259.8119581278
 30
0.0
 10
174.3832434706387
 20
259.2430594210563
 30
0.0
 10
174.8798198709105
 20
258.1688512649579
 30
0.0
 10
175.6649607646027
 20
256.7117515226867
 30
0.0
 10
176.2203508142008
 20
255.3724793546169
 30
0.0
 10
176.3249949284541
 20
254.0688333658735
 30
0.0
 10
175.9737304648875
 20
252.8770800066954
 30
0.0
 10
175.4200700569801
 20
251.7125403864467
 30
0.0
 10
174.7491678436538
 20
250.4625372566631
 30
0.0
 10
174.3369025039317
 20
249.5554862064913
 30
0.0
 10
174.1202575025
 20
249.0788318358
 30
0.0
 11
174.1202575025
 21
259.8119581278
 31
0.0
 11
174.9271757363
 21
258.1147418333
 31
0.0
 11
175.6776637538
 21
256.6237549286
 31
0.0
 11
176.167958803
 21
255.2898139297
 31
0.0
 11
176.2494705508
 21
254.064685977
 31
0.0
 11
175.9539497251
 21
252.9158646553
 31
0.0
 11
175.4331724511
 21
251.7627025485
 31
0.0
 11
174.78650306
 21
250.5008183661
 31
0.0
 11
174.1202575025
 21
249.0788318358
 31
0.0
  0
SPLINE
  5
1BBA
330
1B
100
AcDbEntity
  8
0
  6
Continuous
100
AcDbSpline
210
0.0
220
0.0
230
1.0
 70
     8
 71
     3
 72
    11
 73
     7
 74
     5
 42
0.0000000001
 43
0.0000000001
 44
0.0000000001
 40
0.0
 40
0.0
 40
0.0
 40
0.0
 40
0.4656882957656585
 40
0.9486172306512448
 40
1.453465057982053
 40
1.978436304633013
 40
1.978436304633013
 40
1.978436304633013
 40
1.978436304633013
 10
175.8523049377
 20
259.0678943016
 30
0.0
 10
175.7563342636127
 20
259.1915821423424
 30
0.0
 10
175.5608399041792
 20
259.4435369756875
 30
0.0
 10
175.1321479973553
 20
259.6898596417063
 30
0.0
 10
174.6412399444088
 20
259.831219308521
 30
0.0
 10
174.2961659824941
 20
259.8184616195704
 30
0.0
 10
174.1202575025
 20
259.8119581278
 30
0.0
 11
175.8523049377
 21
259.0678943016
 31
0.0
 11
175.5440781358
 21
259.416981436
 31
0.0
 11
175.1316313528
 21
259.6681945076
 31
0.0
 11
174.6451547822
 21
259.8031458878
 31
0.0
 11
174.1202575025
 21
259.8119581278
 31
0.0
  0
SPLINE
  5
1BBB
330
1B
100
AcDbEntity
  8
0
  6
Continuous
100
AcDbSpline
210
0.0
220
0.0
230
1.0
 70
     8
 71
     3
 72
    10
 73
     6
 74
     4
 42
0.0000000001
 43
0.0000000001
 44
0.0000000001
 40
0.0
 40
0.0
 40
0.0
 40
0.0
 40
0.74380120191144
 40
1.442769597174723
 40
2.101034574835416
 40
2.101034574835416
 40
2.101034574835416
 40
2.101034574835416
 10
175.8523083101
 20
247.9745979101
 30
0.0
 10
175.7584222099762
 20
247.7451065938501
 30
0.0
 10
175.5763090182958
 20
247.2999566088136
 30
0.0
 10
175.2849185679358
 20
246.662875964063
 30
0.0
 10
175.0838177899571
 20
246.2576062824234
 30
0.0
 10
174.9862829063
 20
246.0610484588
 30
0.0
 11
175.8523083101
 21
247.9745979101
 31
0.0
 11
175.565870482
 21
247.2881624808
 31
0.0
 11
175.2758607616
 21
246.6521977179
 31
0.0
 11
174.9862829063
 21
246.0610484588
 31
0.0
  0
SPLINE
  5
1BBC
330
1B
100
AcDbEntity
  8
0
  6
Continuous
100
AcDbSpline
210
0.0
220
0.0
230
1.0
 70
     8
 71
     3
 72
    11
 73
     7
 74
     5
 42
0.0000000001
 43
0.0000000001
 44
0.0000000001
 40
0.0
 40
0.0
 40
0.0
 40
0.0
 40
0.529884416058774
 40
1.077350354039468
 40
1.631037751553428
 40
2.178216716341031
 40
2.178216716341031
 40
2.178216716341031
 40
2.178216716341031
 10
174.9862829063
 20
246.0616404002
 30
0.0
 10
174.8928979849768
 20
246.2127520387696
 30
0.0
 10
174.7030296382196
 20
246.519989187813
 30
0.0
 10
174.2820443079837
 20
246.8750871244423
 30
0.0
 10
173.7951471220709
 20
247.1430700555957
 30
0.0
 10
173.4338250490037
 20
247.2173394475051
 30
0.0
 10
173.2542320987
 20
247.2542545994
 30
0.0
 11
174.9862829063
 21
246.0616404002
 31
0.0
 11
174.684790654
 21
246.4973925272
 31
0.0
 11
174.2735033186
 21
246.8587257266
 31
0.0
 11
173.7840825583
 21
247.117640874
 31
0.0
 11
173.2542320987
 21
247.2542545994
 31
0.0
  0
SPLINE
  5
1BBD
330
1B
100
AcDbEntity
  8
0
  6
Continuous
100
AcDbSpline
210
0.0
220
0.0
230
1.0
 70
     8
 71
     3
 72
    10
 73
     6
 74
     4
 42
0.0000000001
 43
0.0000000001
 44
0.0000000001
 40
0.0
 40
0.0
 40
0.0
 40
0.0
 40
0.71530109698342
 40
1.387672467175964
 40
2.020327527444217
 40
2.020327527444217
 40
2.020327527444217
 40
2.020327527444217
 10
174.1202575025
 20
249.0788318358
 30
0.0
 10
174.0262270085296
 20
248.8597010026964
 30
0.0
 10
173.8438093831296
 20
248.4345907587872
 30
0.0
 10
173.5525319206089
 20
247.8271569587284
 30
0.0
 10
173.3516273067573
 20
247.4413078268798
 30
0.0
 10
173.2542320988
 20
247.2542545994
 30
0.0
 11
174.1202575025
 21
249.0788318358
 31
0.0
 11
173.8334768637
 21
248.4235360823
 31
0.0
 11
173.5434202176
 21
247.8169469285
 31
0.0
 11
173.2542320988
 21
247.2542545994
 31
0.0
  0
SPLINE
  5
1BBE
330
1B
100
AcDbEntity
  8
0
  6
Continuous
100
AcDbSpline
210
0.0
220
0.0
230
1.0
 70
     8
 71
     3
 72
    11
 73
     7
 74
     5
 42
0.0000000001
 43
0.0000000001
 44
0.0000000001
 40
0.0
 40
0.0
 40
0.0
 40
0.0
 40
0.5154786041856555
 40
1.048082426762005
 40
1.588832093539392
 40
2.126823887346773
 40
2.126823887346773
 40
2.126823887346773
 40
2.126823887346773
 10
175.8523082056
 20
247.974597872
 30
0.0
 10
175.7562860714082
 20
248.118273699942
 30
0.0
 10
175.5610517578801
 20
248.4103985508938
 30
0.0
 10
175.1387462836108
 20
248.7413707992164
 30
0.0
 10
174.6538939673657
 20
248.9860522256409
 30
0.0
 10
174.2978328929945
 20
249.0479580545112
 30
0.0
 10
174.1202575025
 20
249.0788318358
 30
0.0
 11
175.8523082056
 21
247.974597872
 31
0.0
 11
175.5440816329
 21
248.3877740708
 31
0.0
 11
175.1316343866
 21
248.7247519645
 31
0.0
 11
174.6451566587
 21
248.9608655439
 31
0.0
 11
174.1202575025
 21
249.0788318358
 31
0.0
  0
SPLINE
  5
1BBF
330
1B
100
AcDbEntity
  8
0
  6
Continuous
100
AcDbSpline
210
0.0
220
0.0
230
1.0
 70
     8
 71
     3
 72
    10
 73
     6
 74
     4
 42
0.0000000001
 43
0.0000000001
 44
0.0000000001
 40
0.0
 40
0.0
 40
0.0
 40
0.0
 40
0.041448092177456
 40
0.1388340555757639
 40
0.2926354360862482
 40
0.2926354360862482
 40
0.2926354360862482
 40
0.2926354360862482
 10
154.0277347906
 20
195.3733225486
 30
0.0
 10
154.0234458685772
 20
195.3864674024179
 30
0.0
 10
154.0090797444157
 20
195.4304972544475
 30
0.0
 10
153.9652548314247
 20
195.5179631484044
 30
0.0
 10
153.9284933371929
 20
195.5931213534211
 30
0.0
 10
153.9059843665
 20
195.6391405338
 30
0.0
 11
154.0277347906
 21
195.3733225486
 31
0.0
 11
154.0142953213
 21
195.412531285
 31
0.0
 11
153.9738322662
 21
195.5011132642
 31
0.0
 11
153.9059843665
 21
195.6391405338
 31
0.0
  0
SPLINE
  5
1BC0
330
1B
100
AcDbEntity
  8
0
  6
Continuous
100
AcDbSpline
210
0.0
220
0.0
230
1.0
 70
     8
 71
     3
 72
    10
 73
     6
 74
     4
 42
0.0000000001
 43
0.0000000001
 44
0.0000000001
 40
0.0
 40
0.0
 40
0.0
 40
0.0
 40
0.1950996455913674
 40
0.4182573050824319
 40
0.6694139091752129
 40
0.6694139091752129
 40
0.6694139091752129
 40
0.6694139091752129
 10
153.9059843665
 20
210.0214212987
 30
0.0
 10
153.9308072959568
 20
210.081711169405
 30
0.0
 10
153.984023033727
 20
210.2109614239012
 30
0.0
 10
154.0204925268639
 20
210.4329226470233
 30
0.0
 10
154.0252275329733
 20
210.590931044167
 30
0.0
 10
154.0277347906
 20
210.6745988895
 30
0.0
 11
153.9059843665
 21
210.0214212987
 31
0.0
 11
153.9738322662
 21
210.2043435068
 31
0.0
 11
154.0142953213
 21
210.4238021183
 31
0.0
 11
154.0277347906
 21
210.6745988895
 31
0.0
  0
SPLINE
  5
1BC1
330
1B
100
AcDbEntity
  8
0
  6
Continuous
100
AcDbSpline
210
0.0
220
0.0
230
1.0
 70
     8
 71
     3
 72
    10
 73
     6
 74
     4
 42
0.0000000001
 43
0.0000000001
 44
0.0000000001
 40
0.0
 40
0.0
 40
0.0
 40
0.0
 40
1.192353711395213
 40
2.471664960214738
 40
3.848238670887617
 40
3.848238670887617
 40
3.848238670887617
 40
3.848238670887617
 10
174.9862829063
 20
243.4802412663
 30
0.0
 10
175.0840009282865
 20
243.0949859413857
 30
0.0
 10
175.2865634805035
 20
242.2963788852524
 30
0.0
 10
175.5779683305056
 20
241.047030805956
 30
0.0
 10
175.7586559668063
 20
240.1803475223009
 30
0.0
 10
175.8523083101
 20
239.7311362643
 30
0.0
 11
174.9862829063
 21
243.4802412663
 31
0.0
 11
175.2758536499
 21
242.3235839456
 31
0.0
 11
175.5658636033
 21
241.0775777264
 31
0.0
 11
175.8523083101
 21
239.7311362643
 31
0.0
  0
SPLINE
  5
1BC2
330
1B
100
AcDbEntity
  8
0
  6
Continuous
100
AcDbSpline
210
0.0
220
0.0
230
1.0
 70
     8
 71
     3
 72
    10
 73
     6
 74
     4
 42
0.0000000001
 43
0.0000000001
 44
0.0000000001
 40
0.0
 40
0.0
 40
0.0
 40
0.0
 40
1.161916120258832
 40
2.40928542785703
 40
3.750918829942719
 40
3.750918829942719
 40
3.750918829942719
 40
3.750918829942719
 10
173.2542320988
 20
243.020118714
 30
0.0
 10
173.3518034856024
 20
242.6453011283558
 30
0.0
 10
173.554122152415
 20
241.8680999763516
 30
0.0
 10
173.8454515230646
 20
240.6520683891904
 30
0.0
 10
174.0264587201606
 20
239.8082400579791
 30
0.0
 10
174.1202575025
 20
239.3709642411
 30
0.0
 11
173.2542320988
 21
243.020118714
 31
0.0
 11
173.5434128158
 21
241.894763844
 31
0.0
 11
173.8334696105
 21
240.6815873336
 31
0.0
 11
174.1202575025
 21
239.3709642411
 31
0.0
  0
SPLINE
  5
1BC3
330
1B
100
AcDbEntity
  8
0
  6
Continuous
100
AcDbSpline
210
0.0
220
0.0
230
1.0
 70
     8
 71
     3
 72
    15
 73
    11
 74
     9
 42
0.0000000001
 43
0.0000000001
 44
0.0000000001
 40
0.0
 40
0.0
 40
0.0
 40
0.0
 40
2.863454706953096
 40
5.489962335642472
 40
7.933820506545702
 40
10.38615272688821
 40
13.00482048558983
 40
15.84988652906539
 40
18.97151452524051
 40
22.35286871029399
 40
22.35286871029399
 40
22.35286871029399
 40
22.35286871029399
 10
175.8523083101
 20
239.7311362643
 30
0.0
 10
175.9827448733348
 20
238.7855846646561
 30
0.0
 10
176.2328245472375
 20
236.9727246058446
 30
0.0
 10
176.6411816844438
 20
234.3597592892686
 30
0.0
 10
176.9762241960891
 20
231.8743800105951
 30
0.0
 10
177.1752255590357
 20
229.3745726715207
 30
0.0
 10
177.1151606974359
 20
226.7316110443409
 30
0.0
 10
176.7889026493414
 20
223.8863629586672
 30
0.0
 10
176.3084072964836
 20
220.8076851913112
 30
0.0
 10
176.0083362070935
 20
218.660836214415
 30
0.0
 10
175.8523083101
 20
217.5445396338
 30
0.0
 11
175.8523083101
 21
239.7311362643
 31
0.0
 11
176.2524570476
 21
236.8957784656
 31
0.0
 11
176.6411501213
 21
234.29819112
 31
0.0
 11
176.953821216
 21
231.8744172968
 31
0.0
 11
177.1304170894
 21
229.428451799
 31
0.0
 11
177.0787066158
 21
226.8102946499
 31
0.0
 11
176.781235497
 21
223.9808226629
 31
0.0
 11
176.3296348593
 21
220.8920335457
 31
0.0
 11
175.8523083101
 21
217.5445396338
 31
0.0
  0
SPLINE
  5
1BC4
330
1B
100
AcDbEntity
  8
0
  6
Continuous
100
AcDbSpline
210
0.0
220
0.0
230
1.0
 70
     8
 71
     3
 72
    15
 73
    11
 74
     9
 42
0.0000000001
 43
0.0000000001
 44
0.0000000001
 40
0.0
 40
0.0
 40
0.0
 40
0.0
 40
2.926610217266529
 40
5.535068783201657
 40
7.902833504161106
 40
10.22598334044663
 40
12.68702392027798
 40
15.41106037511223
 40
18.48820350452666
 40
21.93535717992759
 40
21.93535717992759
 40
21.93535717992759
 40
21.93535717992759
 10
174.1202575025
 20
239.3709642411
 30
0.0
 10
174.3363278123186
 20
238.4195512543696
 30
0.0
 10
174.7449794393093
 20
236.6201533394322
 30
0.0
 10
175.4276255177045
 20
234.0755202116602
 30
0.0
 10
175.9881773611899
 20
231.7074046553007
 30
0.0
 10
176.3256397210873
 20
229.3392505420214
 30
0.0
 10
176.2232002635477
 20
226.8237719770159
 30
0.0
 10
175.6706230343499
 20
224.1198669053137
 30
0.0
 10
174.867268660194
 20
221.1439992577164
 30
0.0
 10
174.3785010010682
 20
219.0245409317175
 30
0.0
 10
174.1202575025
 20
217.9047116571
 30
0.0
 11
174.1202575025
 21
239.3709642411
 31
0.0
 11
174.7878890539
 21
236.5215229844
 31
0.0
 11
175.4353103928
 21
233.9946866818
 31
0.0
 11
175.9562155142
 21
231.6849317969
 31
0.0
 11
176.2505132934
 21
229.3804982485
 31
0.0
 11
176.1646027526
 21
226.9209576177
 31
0.0
 11
175.6686759784
 21
224.2424447389
 31
0.0
 11
174.9167524361
 21
221.2585846843
 31
0.0
 11
174.1202575025
 21
217.9047116571
 31
0.0
  0
SPLINE
  5
1BC5
330
1B
100
AcDbEntity
  8
0
  6
Continuous
100
AcDbSpline
210
0.0
220
0.0
230
1.0
 70
     8
 71
     3
 72
     9
 73
     5
 74
     3
 42
0.0000000001
 43
0.0000000001
 44
0.0000000001
 40
0.0
 40
0.0
 40
0.0
 40
0.0
 40
1.903670625209498
 40
3.847572763843838
 40
3.847572763843838
 40
3.847572763843838
 40
3.847572763843838
 10
175.8523083101
 20
217.5445396338
 30
0.0
 10
175.7220134271605
 20
216.9234310980474
 30
0.0
 10
175.4586700545059
 20
215.6680877345966
 30
0.0
 10
175.1448391295633
 20
214.4244011982804
 30
0.0
 10
174.9862829063
 20
213.796055728
 30
0.0
 11
175.8523083101
 21
217.5445396338
 31
0.0
 11
175.4490643506
 21
215.6840676081
 31
0.0
 11
174.9862829063
 21
213.796055728
 31
0.0
  0
SPLINE
  5
1BC6
330
1B
100
AcDbEntity
  8
0
  6
Continuous
100
AcDbSpline
210
0.0
220
0.0
230
1.0
 70
     8
 71
     3
 72
     9
 73
     5
 74
     3
 42
0.0000000001
 43
0.0000000001
 44
0.0000000001
 40
0.0
 40
0.0
 40
0.0
 40
0.0
 40
1.85281747332416
 40
3.750856068639207
 40
3.750856068639207
 40
3.750856068639207
 40
3.750856068639207
 10
174.1202575025
 20
217.9047116571
 30
0.0
 10
173.9899474117236
 20
217.3009378155294
 30
0.0
 10
173.7261467935673
 20
216.078654017829
 30
0.0
 10
173.4127962761801
 20
214.868120943851
 30
0.0
 10
173.2542321071
 20
214.2555571842
 30
0.0
 11
174.1202575025
 21
217.9047116571
 31
0.0
 11
173.7172366469
 21
216.0962574057
 31
0.0
 11
173.2542321071
 21
214.2555571842
 31
0.0
  0
SPLINE
  5
1BC7
330
1B
100
AcDbEntity
  8
0
  6
Continuous
100
AcDbSpline
210
0.0
220
0.0
230
1.0
 70
     8
 71
     3
 72
     9
 73
     5
 74
     3
 42
0.0000000001
 43
0.0000000001
 44
0.0000000001
 40
0.0
 40
0.0
 40
0.0
 40
0.0
 40
1.069577194542469
 40
2.100407132856972
 40
2.100407132856972
 40
2.100407132856972
 40
2.100407132856972
 10
174.9862829063
 20
211.2140389269
 30
0.0
 10
175.1443199508368
 20
210.8943214806403
 30
0.0
 10
175.4546688787071
 20
210.2664688973491
 30
0.0
 10
175.7214020193218
 20
209.6188929055276
 30
0.0
 10
175.8523083101
 20
209.301077988
 30
0.0
 11
174.9862829063
 21
211.2140389269
 31
0.0
 11
175.4490840813
 21
210.2497721342
 31
0.0
 11
175.8523083101
 21
209.301077988
 31
0.0
  0
SPLINE
  5
1BC8
330
1B
100
AcDbEntity
  8
0
  6
Continuous
100
AcDbSpline
210
0.0
220
0.0
230
1.0
 70
     8
 71
     3
 72
     9
 73
     5
 74
     3
 42
0.0000000001
 43
0.0000000001
 44
0.0000000001
 40
0.0
 40
0.0
 40
0.0
 40
0.0
 40
1.029753837781013
 40
2.020227195563987
 40
2.020227195563987
 40
2.020227195563987
 40
2.020227195563987
 10
173.2542321069
 20
210.0214212987
 30
0.0
 10
173.4121968553686
 20
209.7165423381998
 30
0.0
 10
173.7221007072293
 20
209.1184141790615
 30
0.0
 10
173.9892701489097
 20
208.5000262060593
 30
0.0
 10
174.1202575025
 20
208.1968440623
 30
0.0
 11
173.2542321069
 21
210.0214212987
 31
0.0
 11
173.7170232555
 21
209.1015205871
 31
0.0
 11
174.1202575025
 21
208.1968440623
 31
0.0
  0
SPLINE
  5
1BC9
330
1B
100
AcDbEntity
  8
0
  6
Continuous
100
AcDbSpline
210
0.0
220
0.0
230
1.0
 70
     8
 71
     3
 72
    11
 73
     7
 74
     5
 42
0.0000000001
 43
0.0000000001
 44
0.0000000001
 40
0.0
 40
0.0
 40
0.0
 40
0.0
 40
0.5301486637182042
 40
1.077495305187166
 40
1.63103252103947
 40
2.178257030043553
 40
2.178257030043553
 40
2.178257030043553
 40
2.178257030043553
 10
174.9862829067
 20
211.2140354983
 30
0.0
 10
174.8928610316454
 20
211.0628410351719
 30
0.0
 10
174.7029866838216
 20
210.755547373337
 30
0.0
 10
174.2819856873179
 20
210.4004686838697
 30
0.0
 10
173.7951410412052
 20
210.1325464233102
 30
0.0
 10
173.4338444185099
 20
210.0583211166254
 30
0.0
 10
173.2542320987
 20
210.0214212989
 30
0.0
 11
174.9862829067
 21
211.2140354983
 31
0.0
 11
174.6846539269
 21
210.7780566408
 31
0.0
 11
174.273439322
 21
210.4168214063
 31
0.0
 11
173.7841383798
 21
210.1580009332
 31
0.0
 11
173.2542320987
 21
210.0214212989
 31
0.0
  0
SPLINE
  5
1BCA
330
1B
100
AcDbEntity
  8
0
  6
Continuous
100
AcDbSpline
210
0.0
220
0.0
230
1.0
 70
     8
 71
     3
 72
    13
 73
     9
 74
     7
 42
0.0000000001
 43
0.0000000001
 44
0.0000000001
 40
0.0
 40
0.0
 40
0.0
 40
0.0
 40
1.418701831389021
 40
2.683140980515045
 40
3.806034705197003
 40
4.796579228459989
 40
5.668298933633069
 40
6.440396946522949
 40
6.440396946522949
 40
6.440396946522949
 40
6.440396946522949
 10
175.8523083101
 20
209.301077988
 30
0.0
 10
175.9529121168644
 20
208.8389464442561
 30
0.0
 10
176.1431805656342
 20
207.964933275334
 30
0.0
 10
176.4615054057163
 20
206.7367163253754
 30
0.0
 10
176.7434259155784
 20
205.6464873805556
 30
0.0
 10
176.9646816149447
 20
204.6765256676497
 30
0.0
 10
177.1135859522809
 20
203.8090475635764
 30
0.0
 10
177.1334055918886
 20
203.2609339190634
 30
0.0
 10
177.1427148384
 20
203.003485997
 30
0.0
 11
175.8523083101
 21
209.301077988
 31
0.0
 11
176.1636646533
 21
207.9169637897
 31
0.0
 11
176.4732259375
 21
206.6910036871
 31
0.0
 11
176.7488982438
 21
205.6024748191
 31
0.0
 11
176.9642185414
 21
204.6356161831
 31
0.0
 11
177.0986610875
 21
203.7743261935
 31
0.0
 11
177.1427148384
 21
203.003485997
 31
0.0
  0
SPLINE
  5
1BCB
330
1B
100
AcDbEntity
  8
0
  6
Continuous
100
AcDbSpline
210
0.0
220
0.0
230
1.0
 70
     8
 71
     3
 72
    13
 73
     9
 74
     7
 42
0.0000000001
 43
0.0000000001
 44
0.0000000001
 40
0.0
 40
0.0
 40
0.0
 40
0.0
 40
1.243016981793955
 40
2.377467104012192
 40
3.401271955016679
 40
4.309477329526919
 40
5.108303697447195
 40
5.82281300597225
 40
5.82281300597225
 40
5.82281300597225
 40
5.82281300597225
 10
174.1202575025
 20
208.1968440623
 30
0.0
 10
174.2892446797895
 20
207.8183888883164
 30
0.0
 10
174.6124594555248
 20
207.0945333500029
 30
0.0
 10
175.1399945308946
 20
206.0907349582707
 30
0.0
 10
175.6067044639656
 20
205.1808039982001
 30
0.0
 10
175.974085241152
 20
204.3483911786508
 30
0.0
 10
176.2231551313798
 20
203.5738348035129
 30
0.0
 10
176.2556111844264
 20
203.068751805158
 30
0.0
 10
176.2709350497
 20
202.8302809163
 30
0.0
 11
174.1202575025
 21
208.1968440623
 31
0.0
 11
174.6396645126
 21
207.067548895
 31
0.0
 11
175.1554256075
 21
206.0571194948
 31
0.0
 11
175.6147131796
 21
205.1421160527
 31
0.0
 11
175.9734949265
 21
204.3077823902
 31
0.0
 11
176.1975000576
 21
203.541006499
 31
0.0
 11
176.2709350497
 21
202.8302809163
 31
0.0
  0
SPLINE
  5
1BCC
330
1B
100
AcDbEntity
  8
0
  6
Continuous
100
AcDbSpline
210
0.0
220
0.0
230
1.0
 70
     8
 71
     3
 72
    11
 73
     7
 74
     5
 42
0.0000000001
 43
0.0000000001
 44
0.0000000001
 40
0.0
 40
0.0
 40
0.0
 40
0.0
 40
0.5154788695550943
 40
1.048083652983732
 40
1.588834613917213
 40
2.126827744349246
 40
2.126827744349246
 40
2.126827744349246
 40
2.126827744349246
 10
175.8523150922
 20
209.3010755297
 30
0.0
 10
175.7562922321108
 20
209.1574000915288
 30
0.0
 10
175.5610563147607
 20
208.8652758416784
 30
0.0
 10
175.1387491538215
 20
208.5343044813426
 30
0.0
 10
174.6538953266651
 20
208.289623492988
 30
0.0
 10
174.2978333507386
 20
208.2277177848089
 30
0.0
 10
174.1202575025
 20
208.1968440623
 30
0.0
 11
175.8523150922
 21
209.3010755297
 31
0.0
 11
175.5440865151
 21
208.8879004951
 31
0.0
 11
175.1316374352
 21
208.550923327
 31
0.0
 11
174.6451580755
 21
208.3148101458
 31
0.0
 11
174.1202575025
 21
208.1968440623
 31
0.0
  0
SPLINE
  5
1BCD
330
1B
100
AcDbEntity
  8
0
  6
Continuous
100
AcDbSpline
210
0.0
220
0.0
230
1.0
 70
     8
 71
     3
 72
    13
 73
     9
 74
     7
 42
0.0000000001
 43
0.0000000001
 44
0.0000000001
 40
0.0
 40
0.0
 40
0.0
 40
0.0
 40
0.7494592651038269
 40
1.536136011473978
 40
2.361054294998782
 40
3.217867498806415
 40
4.096609629086673
 40
4.993677344525069
 40
4.993677344525069
 40
4.993677344525069
 40
4.993677344525069
 10
177.1427148384
 20
203.003485997
 30
0.0
 10
177.1339487394155
 20
202.7535084914775
 30
0.0
 10
177.115981224759
 20
202.2411398195947
 30
0.0
 10
176.9687413063009
 20
201.4653437147578
 30
0.0
 10
176.7468520991678
 20
200.6726777285622
 30
0.0
 10
176.4670471747501
 20
199.8659332126935
 30
0.0
 10
176.1544322284915
 20
199.045979990012
 30
0.0
 10
175.9537067494409
 20
198.4890953808475
 30
0.0
 10
175.8523083101
 20
198.2077796728
 30
0.0
 11
177.1427148384
 21
203.003485997
 31
0.0
 11
177.0978907134
 21
202.2553683673
 31
0.0
 11
176.960554592
 21
201.4807722835
 31
0.0
 11
176.741874509
 21
200.6853672321
 31
0.0
 11
176.4654386395
 21
199.8743727338
 31
0.0
 11
176.159092709
 21
199.0507588058
 31
0.0
 11
175.8523083101
 21
198.2077796728
 31
0.0
  0
SPLINE
  5
1BCE
330
1B
100
AcDbEntity
  8
0
  6
Continuous
100
AcDbSpline
210
0.0
220
0.0
230
1.0
 70
     8
 71
     3
 72
    13
 73
     9
 74
     7
 42
0.0000000001
 43
0.0000000001
 44
0.0000000001
 40
0.0
 40
0.0
 40
0.0
 40
0.0
 40
0.7209668445377888
 40
1.530815131253384
 40
2.448687806644269
 40
3.473631851804504
 40
4.596968609880238
 40
5.82277499938925
 40
5.82277499938925
 40
5.82277499938925
 40
5.82277499938925
 10
176.2709350497
 20
202.8302809163
 30
0.0
 10
176.2553178538965
 20
202.589652479425
 30
0.0
 10
176.2221581603201
 20
202.0787307151734
 30
0.0
 10
175.9681059991641
 20
201.2960868567462
 30
0.0
 10
175.5959934254088
 20
200.4578821449369
 30
0.0
 10
175.1286655123953
 20
199.5483936928509
 30
0.0
 10
174.6058914890494
 20
198.5523289129098
 30
0.0
 10
174.2867754456201
 20
197.8369891914644
 30
0.0
 10
174.1202575025
 20
197.4637177703
 30
0.0
 11
176.2709350497
 21
202.8302809163
 31
0.0
 11
176.1962099246
 21
202.1131969975
 31
0.0
 11
175.967381645
 21
201.3363496084
 31
0.0
 11
175.6029949029
 21
200.4939052183
 31
0.0
 11
175.1424283578
 21
199.5782695084
 31
0.0
 11
174.6320247849
 21
198.5775829117
 31
0.0
 11
174.1202575025
 21
197.4637177703
 31
0.0
  0
SPLINE
  5
1BCF
330
1B
100
AcDbEntity
  8
0
  6
Continuous
100
AcDbSpline
210
0.0
220
0.0
230
1.0
 70
     8
 71
     3
 72
     9
 73
     5
 74
     3
 42
0.0000000001
 43
0.0000000001
 44
0.0000000001
 40
0.0
 40
0.0
 40
0.0
 40
0.0
 40
0.9968816427637526
 40
2.030151959824698
 40
2.030151959824698
 40
2.030151959824698
 40
2.030151959824698
 10
175.8523083101
 20
198.2077796728
 30
0.0
 10
175.7214421324783
 20
197.9022129152308
 30
0.0
 10
175.4549328343064
 20
197.2799254488705
 30
0.0
 10
175.1443551588117
 20
196.6784068835173
 30
0.0
 10
174.9862829063
 20
196.3722567573
 30
0.0
 11
175.8523083101
 21
198.2077796728
 31
0.0
 11
175.4490840867
 21
197.2960871614
 31
0.0
 11
174.9862829063
 21
196.3722567573
 31
0.0
  0
SPLINE
  5
1BD0
330
1B
100
AcDbEntity
  8
0
  6
Continuous
100
AcDbSpline
210
0.0
220
0.0
230
1.0
 70
     8
 71
     3
 72
    11
 73
     7
 74
     5
 42
0.0000000001
 43
0.0000000001
 44
0.0000000001
 40
0.0
 40
0.0
 40
0.0
 40
0.0
 40
0.4662902687181033
 40
0.9487403935687775
 40
1.454908193722469
 40
1.984793961489361
 40
1.984793961489361
 40
1.984793961489361
 40
1.984793961489361
 10
174.9862829067
 20
196.3722569457
 30
0.0
 10
174.8930840034005
 20
196.2460270672722
 30
0.0
 10
174.7034562755056
 20
195.9891926605217
 30
0.0
 10
174.2737925434065
 20
195.7411080371124
 30
0.0
 10
173.7784996047337
 20
195.6058297705658
 30
0.0
 10
173.4316348138747
 20
195.6278687692733
 30
0.0
 10
173.2542320987
 20
195.6391405337
 30
0.0
 11
174.9862829067
 21
196.3722569457
 31
0.0
 11
174.6848122228
 21
196.0165294637
 31
0.0
 11
174.2735332303
 21
195.7643237673
 31
0.0
 11
173.784103461
 21
195.6352333229
 31
0.0
 11
173.2542320987
 21
195.6391405337
 31
0.0
  0
SPLINE
  5
1BD1
330
1B
100
AcDbEntity
  8
0
  6
Continuous
100
AcDbSpline
210
0.0
220
0.0
230
1.0
 70
     8
 71
     3
 72
     9
 73
     5
 74
     3
 42
0.0000000001
 43
0.0000000001
 44
0.0000000001
 40
0.0
 40
0.0
 40
0.0
 40
0.0
 40
0.9904737051322652
 40
2.020227195624581
 40
2.020227195624581
 40
2.020227195624581
 40
2.020227195624581
 10
174.1202575025
 20
197.4637177703
 30
0.0
 10
173.9892701013831
 20
197.1605355208624
 30
0.0
 10
173.7221006564505
 20
196.5421475491569
 30
0.0
 10
173.4121968029337
 20
195.9440193909795
 30
0.0
 10
173.2542321069
 20
195.6391405338
 30
0.0
 11
174.1202575025
 21
197.4637177703
 31
0.0
 11
173.7170231061
 21
196.5590409318
 31
0.0
 11
173.2542321069
 21
195.6391405338
 31
0.0
  0
SPLINE
  5
1BD2
330
1B
100
AcDbEntity
  8
0
  6
Continuous
100
AcDbSpline
210
0.0
220
0.0
230
1.0
 70
     8
 71
     3
 72
    11
 73
     7
 74
     5
 42
0.0000000001
 43
0.0000000001
 44
0.0000000001
 40
0.0
 40
0.0
 40
0.0
 40
0.0
 40
0.4656843186792836
 40
0.9486128436003898
 40
1.453462189994393
 40
1.978435375731985
 40
1.978435375731985
 40
1.978435375731985
 40
1.978435375731985
 10
175.8523086251
 20
198.207779493
 30
0.0
 10
175.7563377576897
 20
198.0840935282451
 30
0.0
 10
175.5608422389763
 20
197.8321415297919
 30
0.0
 10
175.1321502407278
 20
197.585821469855
 30
0.0
 10
174.6412418097102
 20
197.4444606770348
 30
0.0
 10
174.2961666514204
 20
197.4572156572035
 30
0.0
 10
174.1202575025
 20
197.4637177703
 30
0.0
 11
175.8523086251
 21
198.207779493
 31
0.0
 11
175.5440818461
 21
197.8586976439
 31
0.0
 11
175.1316344466
 21
197.6074863726
 31
0.0
 11
174.6451566597
 21
197.4725336942
 31
0.0
 11
174.1202575025
 21
197.4637177703
 31
0.0
  0
SPLINE
  5
1BD3
330
1B
100
AcDbEntity
  8
0
  6
Continuous
100
AcDbSpline
210
0.0
220
0.0
230
1.0
 70
     8
 71
     3
 72
    10
 73
     6
 74
     4
 42
0.0000000001
 43
0.0000000001
 44
0.0000000001
 40
0.0
 40
0.0
 40
0.0
 40
0.0
 40
0.2903167473181644
 40
0.6010035096451496
 40
0.9290460446826054
 40
0.9290460446826054
 40
0.9290460446826054
 40
0.9290460446826054
 10
154.0277347906
 20
213.3365616082
 30
0.0
 10
154.0248840598694
 20
213.4333363048189
 30
0.0
 10
154.0189825774714
 20
213.6336758747888
 30
0.0
 10
153.9774828886359
 20
213.9412551914024
 30
0.0
 10
153.9302450613887
 20
214.148909039282
 30
0.0
 10
153.9059843665
 20
214.2555571842
 30
0.0
 11
154.0277347906
 21
213.3365616082
 31
0.0
 11
154.0142953213
 21
213.6265671158
 31
0.0
 11
153.9738322662
 21
213.9346077064
 31
0.0
 11
153.9059843665
 21
214.2555571842
 31
0.0
  0
SPLINE
  5
1BD4
330
1B
100
AcDbEntity
  8
0
  6
Continuous
100
AcDbSpline
210
0.0
220
0.0
230
1.0
 70
     8
 71
     3
 72
    11
 73
     7
 74
     5
 42
0.0000000001
 43
0.0000000001
 44
0.0000000001
 40
0.0
 40
0.0
 40
0.0
 40
0.0
 40
1.789607830960905
 40
3.610823472282172
 40
5.499445071649247
 40
7.50263949693578
 40
7.50263949693578
 40
7.50263949693578
 40
7.50263949693578
 10
152.0070088485
 20
202.8302809163
 30
0.0
 10
152.0310905259375
 20
202.2332365864928
 30
0.0
 10
152.0796792081275
 20
201.0286030110445
 30
0.0
 10
152.4688223939045
 20
199.2296184440256
 30
0.0
 10
153.0639743598391
 20
197.4166197588233
 30
0.0
 10
153.6198593857724
 20
196.2431490431769
 30
0.0
 10
153.9059843665
 20
195.6391405338
 30
0.0
 11
152.0070088485
 21
202.8302809163
 31
0.0
 11
152.1300809161
 21
201.0449099591
 31
0.0
 11
152.4939269321
 21
199.2604093318
 31
0.0
 11
153.0874710129
 21
197.4674796149
 31
0.0
 11
153.9059843665
 21
195.6391405338
 31
0.0
  0
SPLINE
  5
1BD5
330
1B
100
AcDbEntity
  8
0
  6
Continuous
100
AcDbSpline
210
0.0
220
0.0
230
1.0
 70
     8
 71
     3
 72
    10
 73
     6
 74
     4
 42
0.0000000001
 43
0.0000000001
 44
0.0000000001
 40
0.0
 40
0.0
 40
0.0
 40
0.0
 40
0.3280425349396025
 40
0.6387292973657237
 40
0.9290460446838881
 40
0.9290460446838881
 40
0.9290460446838881
 40
0.9290460446838881
 10
153.9059843665
 20
243.020118714
 30
0.0
 10
153.9302450613911
 20
243.1267668588843
 30
0.0
 10
153.977482888657
 20
243.3344207067606
 30
0.0
 10
154.0189825774642
 20
243.6420000233789
 30
0.0
 10
154.0248840598673
 20
243.8423395933813
 30
0.0
 10
154.0277347906
 20
243.93911429
 30
0.0
 11
153.9059843665
 21
243.020118714
 31
0.0
 11
153.9738322662
 21
243.3410681917
 31
0.0
 11
154.0142953213
 21
243.6491087824
 31
0.0
 11
154.0277347906
 21
243.93911429
 31
0.0
  0
SPLINE
  5
1BD6
330
1B
100
AcDbEntity
  8
0
  6
Continuous
100
AcDbSpline
210
0.0
220
0.0
230
1.0
 70
     8
 71
     3
 72
    11
 73
     7
 74
     5
 42
0.0000000001
 43
0.0000000001
 44
0.0000000001
 40
0.0
 40
0.0
 40
0.0
 40
0.0
 40
2.00342878823135
 40
3.892120259397332
 40
5.713221140078785
 40
7.502639680412818
 40
7.502639680412818
 40
7.502639680412818
 40
7.502639680412818
 10
153.9059843665
 20
210.0214212987
 30
0.0
 10
153.6198273841252
 20
209.4173412697191
 30
0.0
 10
153.0639017655
 20
208.2437771615737
 30
0.0
 10
152.4687583293074
 20
206.4307080378454
 30
0.0
 10
152.0796649154628
 20
204.6317939590958
 30
0.0
 10
152.0310854423834
 20
203.4272620043247
 30
0.0
 10
152.0070088485
 20
202.8302809163
 30
0.0
 11
153.9059843665
 21
210.0214212987
 31
0.0
 11
153.0873855631
 21
208.1928636954
 31
0.0
 11
152.4938477816
 21
206.3998582924
 31
0.0
 11
152.1300550959
 21
204.6154639135
 31
0.0
 11
152.0070088485
 21
202.8302809163
 31
0.0
  0
SPLINE
  5
1BD7
330
1B
100
AcDbEntity
  8
0
  6
Continuous
100
AcDbSpline
210
0.0
220
0.0
230
1.0
 70
     8
 71
     3
 72
    15
 73
    11
 74
     9
 42
0.0000000001
 43
0.0000000001
 44
0.0000000001
 40
0.0
 40
0.0
 40
0.0
 40
0.0
 40
3.763582669904718
 40
7.401103717084988
 40
10.98185897839667
 40
14.54323414448553
 40
18.10450789201614
 40
21.68502254205825
 40
25.32146373939329
 40
29.0843625462347
 40
29.0843625462347
 40
29.0843625462347
 40
29.0843625462347
 10
153.9059843665
 20
243.020118714
 30
0.0
 10
153.6176138015495
 20
241.7988712697674
 30
0.0
 10
153.0505316759943
 20
239.3972822011209
 30
0.0
 10
152.4584040645646
 20
235.7818245325834
 30
0.0
 10
152.0889686091975
 20
232.2054293942096
 30
0.0
 10
151.9661050320112
 20
228.6368174983427
 30
0.0
 10
152.0891079962811
 20
225.0682910694463
 30
0.0
 10
152.458617349517
 20
221.4923807167286
 30
0.0
 10
153.0507097421394
 20
217.8775969354431
 30
0.0
 10
153.6176630074953
 20
215.4765818629438
 30
0.0
 10
153.9059843665
 20
214.2555571842
 30
0.0
 11
153.9059843665
 21
243.020118714
 31
0.0
 11
153.0843218707
 21
239.3473234221
 31
0.0
 11
152.4913577951
 21
235.7584582848
 31
0.0
 11
152.1292225741
 21
232.1960621357
 31
0.0
 11
152.0070088592
 21
228.6367845571
 31
0.0
 11
152.1293595559
 21
225.0776131631
 31
0.0
 11
152.4915924761
 21
221.515468799
 31
0.0
 11
153.0844529796
 21
217.9276810398
 31
0.0
 11
153.9059843665
 21
214.2555571842
 31
0.0
  0
SPLINE
  5
1BD8
330
1B
100
AcDbEntity
  8
0
  6
Continuous
100
AcDbSpline
210
0.0
220
0.0
230
1.0
 70
     8
 71
     3
 72
    15
 73
    11
 74
     9
 42
0.0000000001
 43
0.0000000001
 44
0.0000000001
 40
0.0
 40
0.0
 40
0.0
 40
0.0
 40
2.011836367817099
 40
3.901702669586436
 40
5.719340834593792
 40
7.503171099078298
 40
9.286957786423482
 40
11.1044920519401
 40
12.99381437168245
 40
15.00529075045961
 40
15.00529075045961
 40
15.00529075045961
 40
15.00529075045961
 10
153.9059843665
 20
261.6365353643
 30
0.0
 10
153.6189730852128
 20
261.0298895491828
 30
0.0
 10
153.0623509362581
 20
259.853376571189
 30
0.0
 10
152.4634897430156
 20
258.0380252878362
 30
0.0
 10
152.0904693853149
 20
256.2414929056679
 30
0.0
 10
151.9656350402392
 20
254.4448810438654
 30
0.0
 10
152.0906104920287
 20
252.6483145923486
 30
0.0
 10
152.4637034149258
 20
250.8520343183761
 30
0.0
 10
153.0625238725138
 20
249.0370282363014
 30
0.0
 10
153.619021930229
 20
247.8607904950494
 30
0.0
 10
153.9059843665
 20
247.2542545994
 30
0.0
 11
153.9059843665
 21
261.6365353643
 31
0.0
 11
153.0843218707
 21
259.8001377184
 31
0.0
 11
152.4913577951
 21
258.0057051497
 31
0.0
 11
152.1292225741
 21
256.2245070752
 31
0.0
 11
152.0070088592
 21
254.4448682859
 31
0.0
 11
152.1293595559
 21
252.6652825889
 31
0.0
 11
152.4915924761
 21
250.8842104068
 31
0.0
 11
153.0844529796
 21
249.0903165272
 31
0.0
 11
153.9059843665
 21
247.2542545994
 31
0.0
  0
SPLINE
  5
1BD9
330
1B
100
AcDbEntity
  8
0
  6
Continuous
100
AcDbSpline
210
0.0
220
0.0
230
1.0
 70
     8
 71
     3
 72
    10
 73
     6
 74
     4
 42
0.0000000001
 43
0.0000000001
 44
0.0000000001
 40
0.0
 40
0.0
 40
0.0
 40
0.0
 40
0.2511566041926253
 40
0.4743142635853596
 40
0.6694139091767537
 40
0.6694139091767537
 40
0.6694139091767537
 40
0.6694139091767537
 10
154.0277347906
 20
246.6010770086
 30
0.0
 10
154.025227532978
 20
246.6847448539669
 30
0.0
 10
154.0204925268791
 20
246.8427532511124
 30
0.0
 10
153.9840230337112
 20
247.0647144742288
 30
0.0
 10
153.9308072959557
 20
247.1939647286949
 30
0.0
 10
153.9059843665
 20
247.2542545994
 30
0.0
 11
154.0277347906
 21
246.6010770086
 31
0.0
 11
154.0142953213
 21
246.8518737799
 31
0.0
 11
153.9738322662
 21
247.0713323913
 31
0.0
 11
153.9059843665
 21
247.2542545994
 31
0.0
  0
SPLINE
  5
1BDA
330
1B
100
AcDbEntity
  8
0
  6
Continuous
100
AcDbSpline
210
0.0
220
0.0
230
1.0
 70
     8
 71
     3
 72
    18
 73
    14
 74
    12
 42
0.0000000001
 43
0.0000000001
 44
0.0000000001
 40
0.0
 40
0.0
 40
0.0
 40
0.0
 40
0.1044092995715576
 40
0.2088176699615883
 40
0.2596846554079114
 40
0.3103423061901857
 40
0.3615940716472497
 40
0.4132066176060886
 40
0.5152113859489848
 40
0.6169228034853774
 40
0.7202491284893016
 40
0.8231690501336255
 40
0.8577187312219201
 40
0.8577187312219201
 40
0.8577187312219201
 40
0.8577187312219201
 10
111.1141265727
 20
204.2369456097
 30
0.0
 10
111.1277059733696
 20
204.2047570226129
 30
0.0
 10
111.1548646538601
 20
204.1403801348981
 30
0.0
 10
111.1619289074288
 20
204.05201171235
 30
0.0
 10
111.1486055754107
 20
203.9842055685753
 30
0.0
 10
111.126770437627
 20
203.9376404716999
 30
0.0
 10
111.0954592391735
 20
203.8967460678802
 30
0.0
 10
111.0446562258967
 20
203.8507184306879
 30
0.0
 10
110.967936182075
 20
203.8098874035352
 30
0.0
 10
110.8646466686943
 20
203.7953158538488
 30
0.0
 10
110.7623482454045
 20
203.8128449958561
 30
0.0
 10
110.6874874928599
 20
203.8439719008421
 30
0.0
 10
110.6487515660365
 20
203.8684779700218
 30
0.0
 10
110.6390162217
 20
203.8746369816
 30
0.0
 11
111.1141265727
 21
204.2369456097
 31
0.0
 11
111.149495184
 21
204.1387093477
 31
0.0
 11
111.1569335213
 21
204.0345662781
 31
0.0
 11
111.1465984004
 21
203.9847602997
 31
0.0
 11
111.1253185339
 21
203.9387889514
 31
0.0
 11
111.0944085891
 21
203.8979071856
 31
0.0
 11
111.0562420323
 21
203.8631628502
 31
0.0
 11
110.9660130982
 21
203.8155843654
 31
0.0
 11
110.8654027429
 21
203.8006589219
 31
0.0
 11
110.76331556
 21
203.8166131228
 31
0.0
 11
110.6684750293
 21
203.8565854133
 31
0.0
 11
110.6390162217
 21
203.8746369816
 31
0.0
  0
SPLINE
  5
1BDB
330
1B
100
AcDbEntity
  8
0
  6
Continuous
100
AcDbSpline
210
0.0
220
0.0
230
1.0
 70
     8
 71
     3
 72
     9
 73
     5
 74
     3
 42
0.0000000001
 43
0.0000000001
 44
0.0000000001
 40
0.0
 40
0.0
 40
0.0
 40
0.0
 40
0.1081217638101429
 40
0.5358430237592189
 40
0.5358430237592189
 40
0.5358430237592189
 40
0.5358430237592189
 10
110.6390162217
 20
203.8746369816
 30
0.0
 10
110.6092524394298
 20
203.8951408341574
 30
0.0
 10
110.4617454572259
 20
203.9967563273376
 30
0.0
 10
110.3550186308921
 20
204.1431193291022
 30
0.0
 10
110.2698270158
 20
204.2599493796
 30
0.0
 11
110.6390162217
 21
203.8746369816
 31
0.0
 11
110.5513852261
 21
203.93797042
 31
0.0
 11
110.2698270158
 21
204.2599493796
 31
0.0
  0
SPLINE
  5
1BDC
330
1B
100
AcDbEntity
  8
0
  6
Continuous
100
AcDbSpline
210
0.0
220
0.0
230
1.0
 70
     8
 71
     3
 72
    14
 73
    10
 74
     8
 42
0.0000000001
 43
0.0000000001
 44
0.0000000001
 40
0.0
 40
0.0
 40
0.0
 40
0.0
 40
0.3476066349436833
 40
0.5222604517440829
 40
0.6990524064517772
 40
0.8730015523711802
 40
1.048998825236396
 40
1.232469161648069
 40
1.33879865428372
 40
1.33879865428372
 40
1.33879865428372
 40
1.33879865428372
 10
110.2698270158
 20
204.2599493796
 30
0.0
 10
110.1827462776425
 20
204.3390450797114
 30
0.0
 10
110.0519121074153
 20
204.4578821556431
 30
0.0
 10
109.8270629514543
 20
204.5317113025487
 30
0.0
 10
109.6507911416632
 20
204.545469602012
 30
0.0
 10
109.4755259426205
 20
204.4990161725938
 30
0.0
 10
109.3399081077978
 20
204.3766338144413
 30
0.0
 10
109.2589936262178
 20
204.2417948594759
 30
0.0
 10
109.2288390825511
 20
204.1498903596486
 30
0.0
 10
109.2177751791
 20
204.1161699849
 30
0.0
 11
110.2698270158
 21
204.2599493796
 31
0.0
 11
109.9921273702
 21
204.469026589
 31
0.0
 11
109.8265481306
 21
204.5245916062
 31
0.0
 11
109.6500839199
 21
204.5353516058
 31
0.0
 11
109.4829943733
 21
204.4869843774
 31
0.0
 11
109.3487474495
 21
204.3731739934
 31
0.0
 11
109.2536844904
 21
204.2162523628
 31
0.0
 11
109.2177751791
 21
204.1161699849
 31
0.0
  0
SPLINE
  5
1BDD
330
1B
100
AcDbEntity
  8
0
  6
Continuous
100
AcDbSpline
210
0.0
220
0.0
230
1.0
 70
     8
 71
     3
 72
    10
 73
     6
 74
     4
 42
0.0000000001
 43
0.0000000001
 44
0.0000000001
 40
0.0
 40
0.0
 40
0.0
 40
0.0
 40
0.0745366018539859
 40
0.3585471231874235
 40
0.643735677731606
 40
0.643735677731606
 40
0.643735677731606
 40
0.643735677731606
 10
109.2177751791
 20
204.1161699849
 30
0.0
 10
109.2118845687741
 20
204.0920226785424
 30
0.0
 10
109.1835486729375
 20
203.9758656897359
 30
0.0
 10
109.1768094858339
 20
203.7581558878129
 30
0.0
 10
109.2084889539867
 20
203.5710271961783
 30
0.0
 10
109.2243614705
 20
203.4772692065
 30
0.0
 11
109.2177751791
 21
204.1161699849
 31
0.0
 11
109.2011657025
 21
204.0435075441
 31
0.0
 11
109.1861924953
 21
203.7598919957
 31
0.0
 11
109.2243614705
 21
203.4772692065
 31
0.0
  0
SPLINE
  5
1BDE
330
1B
100
AcDbEntity
  8
0
  6
Continuous
100
AcDbSpline
210
0.0
220
0.0
230
1.0
 70
    24
 71
     3
 72
     8
 73
     4
 74
     2
 42
0.0000000001
 43
0.0000000001
 44
0.0000000001
 40
0.0
 40
0.0
 40
0.0
 40
0.0
 40
0.8517753885796455
 40
0.8517753885796455
 40
0.8517753885796455
 40
0.8517753885796455
 10
109.2243614705
 20
203.4772692065
 30
0.0
 10
109.2651970621667
 20
203.1962960162667
 30
0.0
 10
109.3060326538333
 20
202.9153228260333
 30
0.0
 10
109.3468682455
 20
202.6343496358
 30
0.0
 11
109.2243614705
 21
203.4772692065
 31
0.0
 11
109.3468682455
 21
202.6343496358
 31
0.0
  0
SPLINE
  5
1BDF
330
1B
100
AcDbEntity
  8
0
  6
Continuous
100
AcDbSpline
210
0.0
220
0.0
230
1.0
 70
     8
 71
     3
 72
     9
 73
     5
 74
     3
 42
0.0000000001
 43
0.0000000001
 44
0.0000000001
 40
0.0
 40
0.0
 40
0.0
 40
0.0
 40
0.2827377410243119
 40
0.5654841984646609
 40
0.5654841984646609
 40
0.5654841984646609
 40
0.5654841984646609
 10
109.3468682455
 20
202.6343496358
 30
0.0
 10
109.3696046468746
 20
202.5427935508863
 30
0.0
 10
109.4150781505558
 20
202.3596785585107
 30
0.0
 10
109.4386920682564
 20
202.172485274974
 30
0.0
 10
109.4504992091
 20
202.0788871905
 30
0.0
 11
109.3468682455
 21
202.6343496358
 31
0.0
 11
109.4096127216
 21
202.3586618397
 31
0.0
 11
109.4504992091
 21
202.0788871905
 31
0.0
  0
SPLINE
  5
1BE0
330
1B
100
AcDbEntity
  8
0
  6
Continuous
100
AcDbSpline
210
0.0
220
0.0
230
1.0
 70
     8
 71
     3
 72
    11
 73
     7
 74
     5
 42
0.0000000001
 43
0.0000000001
 44
0.0000000001
 40
0.0
 40
0.0
 40
0.0
 40
0.0
 40
0.1415759634811232
 40
0.2831126858999956
 40
0.4271953337931451
 40
0.57114595579398
 40
0.57114595579398
 40
0.57114595579398
 40
0.57114595579398
 10
109.4504992091
 20
202.0788871905
 30
0.0
 10
109.4441963628663
 20
202.0316166691392
 30
0.0
 10
109.4315924173789
 20
201.937088728539
 30
0.0
 10
109.3549090452875
 20
201.813319988875
 30
0.0
 10
109.2582955863756
 20
201.7075195064868
 30
0.0
 10
109.1845340837649
 20
201.6458516326554
 30
0.0
 10
109.1476702375
 20
201.6150318291
 30
0.0
 11
109.4504992091
 21
202.0788871905
 31
0.0
 11
109.4220340265
 21
201.9402023434
 31
0.0
 11
109.3521815847
 21
201.8171036831
 31
0.0
 11
109.25601866
 21
201.7098073582
 31
0.0
 11
109.1476702375
 21
201.6150318291
 31
0.0
  0
SPLINE
  5
1BE1
330
1B
100
AcDbEntity
  8
0
  6
Continuous
100
AcDbSpline
210
0.0
220
0.0
230
1.0
 70
     8
 71
     3
 72
    14
 73
    10
 74
     8
 42
0.0000000001
 43
0.0000000001
 44
0.0000000001
 40
0.0
 40
0.0
 40
0.0
 40
0.0
 40
0.3545970613534118
 40
0.5318747381588356
 40
0.7092315255938979
 40
0.8869329022928291
 40
1.065302008348408
 40
1.242960497939654
 40
1.419472854881101
 40
1.419472854881101
 40
1.419472854881101
 40
1.419472854881101
 10
109.1476702375
 20
201.6150318291
 30
0.0
 10
109.0557172570126
 20
201.5406765205242
 30
0.0
 10
108.917793194041
 20
201.4291479305
 30
0.0
 10
108.7230085426865
 20
201.2949057130134
 30
0.0
 10
108.5706988459514
 20
201.2035748601023
 30
0.0
 10
108.41084703359
 20
201.1251044503962
 30
0.0
 10
108.2457744181651
 20
201.0589678099542
 30
0.0
 10
108.0809833797393
 20
200.991731647827
 30
0.0
 10
107.9804316020752
 20
200.9294667141364
 30
0.0
 10
107.9303184111
 20
200.8984349951
 30
0.0
 11
109.1476702375
 21
201.6150318291
 31
0.0
 11
108.868188348
 21
201.3967912523
 31
0.0
 11
108.7220134579
 21
201.2964903241
 31
0.0
 11
108.5695966966
 21
201.2058009591
 31
0.0
 11
108.4101946689
 21
201.1272594233
 31
0.0
 11
108.2455401786
 21
201.0586705261
 31
0.0
 11
108.082904398
 21
200.9871712828
 31
0.0
 11
107.9303184111
 21
200.8984349951
 31
0.0
  0
SPLINE
  5
1BE2
330
1B
100
AcDbEntity
  8
0
  6
Continuous
100
AcDbSpline
210
0.0
220
0.0
230
1.0
 70
     8
 71
     3
 72
     9
 73
     5
 74
     3
 42
0.0000000001
 43
0.0000000001
 44
0.0000000001
 40
0.0
 40
0.0
 40
0.0
 40
0.0
 40
0.273920060182102
 40
0.5481647530821594
 40
0.5481647530821594
 40
0.5481647530821594
 40
0.5481647530821594
 10
107.9303184111
 20
200.8984349951
 30
0.0
 10
107.859635502568
 20
200.8369847648777
 30
0.0
 10
107.7181859165945
 20
200.7140114775098
 30
0.0
 10
107.6721865344767
 20
200.5323058059248
 30
0.0
 10
107.6491732226
 20
200.4413991655
 30
0.0
 11
107.9303184111
 21
200.8984349951
 31
0.0
 11
107.7421039812
 21
200.6994185944
 31
0.0
 11
107.6491732226
 21
200.4413991655
 31
0.0
  0
SPLINE
  5
1BE3
330
1B
100
AcDbEntity
  8
0
  6
Continuous
100
AcDbSpline
210
0.0
220
0.0
230
1.0
 70
     8
 71
     3
 72
    22
 73
    18
 74
    16
 42
0.0000000001
 43
0.0000000001
 44
0.0000000001
 40
0.0
 40
0.0
 40
0.0
 40
0.0
 40
0.1762329191627009
 40
0.2650575638713959
 40
0.3532537587586566
 40
0.442004353156219
 40
0.5323637154825831
 40
0.5763244276505259
 40
0.6191887727614566
 40
0.7063884484247918
 40
0.799188393502321
 40
0.8934200242757923
 40
0.9841358731567469
 40
1.072112112583223
 40
1.15930531421644
 40
1.247588662038239
 40
1.425050630044529
 40
1.425050630044529
 40
1.425050630044529
 40
1.425050630044529
 10
107.6491732226
 20
200.4413991655
 30
0.0
 10
107.6428805103796
 20
200.3814954390815
 30
0.0
 10
107.6334161550298
 20
200.2913991286602
 30
0.0
 10
107.6825010174438
 20
200.1818315266568
 30
0.0
 10
107.7294461063164
 20
200.1069986038808
 30
0.0
 10
107.7785719435351
 20
200.0325817478487
 30
0.0
 10
107.8095780577678
 20
199.9641896414507
 30
0.0
 10
107.8214527375398
 20
199.9059769376271
 30
0.0
 10
107.8201513145816
 20
199.8474500011079
 30
0.0
 10
107.7937634727849
 20
199.7761170388515
 30
0.0
 10
107.7405197040978
 20
199.7012860192579
 30
0.0
 10
107.6764809399595
 20
199.6341549762152
 30
0.0
 10
107.6074512154331
 20
199.5746280564215
 30
0.0
 10
107.5333329966722
 20
199.5255700395938
 30
0.0
 10
107.4536910915299
 20
199.4876624714231
 30
0.0
 10
107.3407740335029
 20
199.4540931065503
 30
0.0
 10
107.257524722308
 20
199.4238174879541
 30
0.0
 10
107.201931695
 20
199.4035997436
 30
0.0
 11
107.6491732226
 21
200.4413991655
 31
0.0
 11
107.6507605278
 21
200.2651733948
 31
0.0
 11
107.6842680218
 21
200.1829112203
 31
0.0
 11
107.7296622327
 21
200.1072941957
 31
0.0
 11
107.7763068137
 21
200.031789553
 31
0.0
 11
107.8116520457
 21
199.9486298937
 31
0.0
 11
107.8198680642
 21
199.9054437703
 31
0.0
 11
107.818915887
 21
199.8625900022
 31
0.0
 11
107.7912265002
 21
199.779903357
 31
0.0
 11
107.7391212632
 21
199.7031122502
 31
0.0
 11
107.6745966892
 21
199.6344378038
 31
0.0
 11
107.6055685841
 21
199.5755779198
 31
0.0
 11
107.5320745924
 21
199.5272203776
 31
0.0
 11
107.4532566545
 21
199.4899324831
 31
0.0
 11
107.369500841
 21
199.4620234665
 31
0.0
 11
107.201931695
 21
199.4035997436
 31
0.0
  0
SPLINE
  5
1BE4
330
1B
100
AcDbEntity
  8
0
  6
Continuous
100
AcDbSpline
210
0.0
220
0.0
230
1.0
 70
     8
 71
     3
 72
     9
 73
     5
 74
     3
 42
0.0000000001
 43
0.0000000001
 44
0.0000000001
 40
0.0
 40
0.0
 40
0.0
 40
0.0
 40
0.2701994877219113
 40
0.5402857143572639
 40
0.5402857143572639
 40
0.5402857143572639
 40
0.5402857143572639
 10
107.201931695
 20
199.4035997436
 30
0.0
 10
107.1317185437762
 20
199.3456293501234
 30
0.0
 10
106.9913216729826
 20
199.2297128629561
 30
0.0
 10
106.9065422820411
 20
199.0685917617479
 30
0.0
 10
106.8641614728
 20
198.9880480992
 30
0.0
 11
107.201931695
 21
199.4035997436
 31
0.0
 11
107.0052024415
 21
199.218382671
 31
0.0
 11
106.8641614728
 21
198.9880480992
 31
0.0
  0
SPLINE
  5
1BE5
330
1B
100
AcDbEntity
  8
0
  6
Continuous
100
AcDbSpline
210
0.0
220
0.0
230
1.0
 70
     8
 71
     3
 72
    21
 73
    17
 74
    15
 42
0.0000000001
 43
0.0000000001
 44
0.0000000001
 40
0.0
 40
0.0
 40
0.0
 40
0.0
 40
0.0873810832393779
 40
0.1754592931797951
 40
0.2586158399858898
 40
0.3414923621632366
 40
0.4264456354071091
 40
0.5101029853530981
 40
0.5942492367462805
 40
0.6785659828031869
 40
0.762295578376707
 40
0.8460387665497566
 40
1.013683988699958
 40
1.097433546247764
 40
1.181272709027109
 40
1.349062951730203
 40
1.349062951730203
 40
1.349062951730203
 40
1.349062951730203
 10
106.8641614728
 20
198.9880480992
 30
0.0
 10
106.8497172978653
 20
198.9627060895006
 30
0.0
 10
106.8207137122989
 20
198.9118198914269
 30
0.0
 10
106.791382426889
 20
198.8302835265137
 30
0.0
 10
106.7849965383551
 20
198.7432703471278
 30
0.0
 10
106.8217170401913
 20
198.6646481799907
 30
0.0
 10
106.8829761370315
 20
198.6054288185446
 30
0.0
 10
106.9604980397238
 20
198.5684657104952
 30
0.0
 10
107.0451421341425
 20
198.5588641480443
 30
0.0
 10
107.1290960133899
 20
198.5675598672729
 30
0.0
 10
107.2109646146667
 20
198.5861629512282
 30
0.0
 10
107.3209327385307
 20
198.6062230621463
 30
0.0
 10
107.432348937502
 20
198.6157143915469
 30
0.0
 10
107.5432327404862
 20
198.6297796996124
 30
0.0
 10
107.6530482344808
 20
198.6512950674902
 30
0.0
 10
107.7336376293475
 20
198.6747297080523
 30
0.0
 10
107.7873758405
 20
198.6903562761
 30
0.0
 11
106.8641614728
 21
198.9880480992
 31
0.0
 11
106.8230868036
 21
198.9109227126
 31
0.0
 11
106.7948240232
 21
198.8275021737
 31
0.0
 11
106.792129497
 21
198.7443892938
 31
0.0
 11
106.8253945407
 21
198.6684817527
 31
0.0
 11
106.8859934554
 21
198.6089432763
 31
0.0
 11
106.961558569
 21
198.5730480704
 31
0.0
 11
107.0449658202
 21
198.5619205338
 31
0.0
 11
107.1289636496
 21
198.5692470829
 31
0.0
 11
107.2110858002
 21
198.5855748983
 31
0.0
 11
107.2935204908
 21
198.6003208588
 31
0.0
 11
107.4600517592
 21
198.6196148256
 31
0.0
 11
107.5430638005
 21
198.6307048837
 31
0.0
 11
107.6253593429
 21
198.6467189062
 31
0.0
 11
107.7873758405
 21
198.6903562761
 31
0.0
  0
SPLINE
  5
1BE6
330
1B
100
AcDbEntity
  8
0
  6
Continuous
100
AcDbSpline
210
0.0
220
0.0
230
1.0
 70
    24
 71
     3
 72
     8
 73
     4
 74
     2
 42
0.0000000001
 43
0.0000000001
 44
0.0000000001
 40
0.0
 40
0.0
 40
0.0
 40
0.0
 40
0.283847035797159
 40
0.283847035797159
 40
0.283847035797159
 40
0.283847035797159
 10
107.7873758405
 20
198.6903562761
 30
0.0
 10
107.8801589126667
 20
198.7088880908
 30
0.0
 10
107.9729419848333
 20
198.7274199055
 30
0.0
 10
108.065725057
 20
198.7459517202
 30
0.0
 11
107.7873758405
 21
198.6903562761
 31
0.0
 11
108.065725057
 21
198.7459517202
 31
0.0
  0
SPLINE
  5
1BE7
330
1B
100
AcDbEntity
  8
0
  6
Continuous
100
AcDbSpline
210
0.0
220
0.0
230
1.0
 70
     8
 71
     3
 72
    15
 73
    11
 74
     9
 42
0.0000000001
 43
0.0000000001
 44
0.0000000001
 40
0.0
 40
0.0
 40
0.0
 40
0.0
 40
0.3144510767497852
 40
0.4718072956718302
 40
0.6286259119803702
 40
0.7855900832425171
 40
0.9449593548636326
 40
1.104148807796006
 40
1.260604857759713
 40
1.27005009844101
 40
1.27005009844101
 40
1.27005009844101
 40
1.27005009844101
 10
108.065725057
 20
198.7459517202
 30
0.0
 10
108.169150820768
 20
198.7636838376157
 30
0.0
 10
108.3243324484175
 20
198.7902893829073
 30
0.0
 10
108.5336314555767
 20
198.8030270487708
 30
0.0
 10
108.690387589837
 20
198.8121208243899
 30
0.0
 10
108.8478445142881
 20
198.8211681882939
 30
0.0
 10
109.0062703383701
 20
198.8276055145762
 30
0.0
 10
109.1647762812255
 20
198.8210971114057
 30
0.0
 10
109.2715314051196
 20
198.7948922102555
 30
0.0
 10
109.322139646246
 20
198.7725982222667
 30
0.0
 10
109.3250209199
 20
198.771328961
 30
0.0
 11
108.065725057
 21
198.7459517202
 31
0.0
 11
108.3768485983
 21
198.791576513
 31
0.0
 11
108.5337923645
 21
198.8029622007
 31
0.0
 11
108.6903442981
 21
198.8121038913
 31
0.0
 11
108.8470736078
 21
198.8206872788
 31
0.0
 11
109.0063721088
 21
198.8254362067
 31
0.0
 11
109.1652628169
 21
198.81568814
 31
0.0
 11
109.3163645505
 21
198.7751078286
 31
0.0
 11
109.3250209199
 21
198.771328961
 31
0.0
  0
SPLINE
  5
1BE8
330
1B
100
AcDbEntity
  8
0
  6
Continuous
100
AcDbSpline
210
0.0
220
0.0
230
1.0
 70
     8
 71
     3
 72
    14
 73
    10
 74
     8
 42
0.0000000001
 43
0.0000000001
 44
0.0000000001
 40
0.0
 40
0.0
 40
0.0
 40
0.0
 40
0.2734067227300976
 40
0.5560586863252581
 40
0.8387234670537762
 40
1.121360085098648
 40
1.403247540555603
 40
1.68733175301168
 40
2.252638706570958
 40
2.252638706570958
 40
2.252638706570958
 40
2.252638706570958
 10
109.3250152691
 20
198.7713163565
 30
0.0
 10
109.4034161161488
 20
198.72221253972
 30
0.0
 10
109.5628689327489
 20
198.6223444619361
 30
0.0
 10
109.7011496112766
 20
198.368080454022
 30
0.0
 10
109.7722434830051
 20
198.0942392375757
 30
0.0
 10
109.7903300900152
 20
197.8097034722354
 30
0.0
 10
109.7433195179962
 20
197.5293305500415
 30
0.0
 10
109.645590153044
 20
197.1651641087632
 30
0.0
 10
109.5958069712441
 20
196.8862022720936
 30
0.0
 10
109.5626740874
 20
196.7005409745
 30
0.0
 11
109.3250152691
 21
198.7713163565
 31
0.0
 11
109.5438327555
 21
198.6073952057
 31
0.0
 11
109.6896962997
 21
198.3652878762
 31
0.0
 11
109.7634131535
 21
198.0924047442
 31
0.0
 11
109.7794860442
 21
197.8102255103
 31
0.0
 11
109.7390901573
 21
197.5312475365
 31
0.0
 11
109.6725238297
 21
197.2550722954
 31
0.0
 11
109.5626740874
 21
196.7005409745
 31
0.0
  0
SPLINE
  5
1BE9
330
1B
100
AcDbEntity
  8
0
  6
Continuous
100
AcDbSpline
210
0.0
220
0.0
230
1.0
 70
     8
 71
     3
 72
    22
 73
    18
 74
    16
 42
0.0000000001
 43
0.0000000001
 44
0.0000000001
 40
0.0
 40
0.0
 40
0.0
 40
0.0
 40
0.1256409272198564
 40
0.2320129941060998
 40
0.3389282410268452
 40
0.4449410979184293
 40
0.5505991122393186
 40
0.6572532343468895
 40
0.7640630285983796
 40
0.870035834558524
 40
0.9760262708113122
 40
1.082299887998739
 40
1.188511409352491
 40
1.294381685498321
 40
1.400108321388146
 40
1.611966085402964
 40
1.615622861078336
 40
1.615622861078336
 40
1.615622861078336
 40
1.615622861078336
 10
109.183617466
 20
194.952753512
 30
0.0
 10
109.1757710754102
 20
194.9115978172172
 30
0.0
 10
109.1612816521472
 20
194.8355982509742
 30
0.0
 10
109.1500238486439
 20
194.7230231766614
 30
0.0
 10
109.1495407749196
 20
194.6163835736141
 30
0.0
 10
109.1645830627028
 20
194.5106352112613
 30
0.0
 10
109.2016666852969
 20
194.4103399568902
 30
0.0
 10
109.2575526085391
 20
194.3192144568453
 30
0.0
 10
109.3264239484611
 20
194.237576914807
 30
0.0
 10
109.4048184344662
 20
194.1655146700662
 30
0.0
 10
109.4894958313197
 20
194.1014563784624
 30
0.0
 10
109.5777835843362
 20
194.0424460931597
 30
0.0
 10
109.6686091762672
 20
193.9874685642244
 30
0.0
 10
109.7630132724752
 20
193.9391118965435
 30
0.0
 10
109.8944681926649
 20
193.8870656392849
 30
0.0
 10
109.9992777425914
 20
193.8625271791543
 30
0.0
 10
110.069980237286
 20
193.8498129369353
 30
0.0
 10
110.0711798926
 20
193.8495972061
 30
0.0
 11
109.183617466
 21
194.952753512
 31
0.0
 11
109.1620673794
 21
194.8289745301
 31
0.0
 11
109.1517237523
 21
194.7231065652
 31
0.0
 11
109.1521553688
 21
194.6161921895
 31
0.0
 11
109.1682782765
 21
194.511412527
 31
0.0
 11
109.2046333669
 21
194.4122060585
 31
0.0
 11
109.2596823668
 21
194.3208566777
 31
0.0
 11
109.3282301859
 21
194.2389449652
 31
0.0
 11
109.4058820685
 21
194.1668310225
 31
0.0
 11
109.490009898
 21
194.1023602471
 31
0.0
 11
109.5782300754
 21
194.0431041756
 31
0.0
 11
109.6693315803
 21
193.9885019497
 31
0.0
 11
109.763765079
 21
193.940639337
 31
0.0
 11
109.8620786049
 21
193.9017475363
 31
0.0
 11
110.0675810383
 21
193.8502454777
 31
0.0
 11
110.0711798926
 21
193.8495972061
 31
0.0
  0
SPLINE
  5
1BEA
330
1B
100
AcDbEntity
  8
0
  6
Continuous
100
AcDbSpline
210
0.0
220
0.0
230
1.0
 70
     8
 71
     3
 72
    10
 73
     6
 74
     4
 42
0.0000000001
 43
0.0000000001
 44
0.0000000001
 40
0.0
 40
0.0
 40
0.0
 40
0.0
 40
0.0675578818881853
 40
0.1391419821334362
 40
0.2820697913866226
 40
0.2820697913866226
 40
0.2820697913866226
 40
0.2820697913866226
 10
110.0711798926
 20
193.8495972061
 30
0.0
 10
110.0932577524547
 20
193.8451235169639
 30
0.0
 10
110.138729236989
 20
193.8359095221428
 30
0.0
 10
110.228148029136
 20
193.8052061304005
 30
0.0
 10
110.2887870558527
 20
193.7667017640516
 30
0.0
 10
110.3291904221
 20
193.7410465697
 30
0.0
 11
110.0711798926
 21
193.8495972061
 31
0.0
 11
110.1370923548
 21
193.8347778022
 31
0.0
 11
110.2047114218
 21
193.8112842885
 31
0.0
 11
110.3291904221
 21
193.7410465697
 31
0.0
  0
SPLINE
  5
1BEB
330
1B
100
AcDbEntity
  8
0
  6
Continuous
100
AcDbSpline
210
0.0
220
0.0
230
1.0
 70
     8
 71
     3
 72
    13
 73
     9
 74
     7
 42
0.0000000001
 43
0.0000000001
 44
0.0000000001
 40
0.0
 40
0.0
 40
0.0
 40
0.0
 40
0.0581219004867583
 40
0.1173560145092486
 40
0.1490530029723251
 40
0.1816652085868715
 40
0.2122447568274403
 40
0.240767619875287
 40
0.240767619875287
 40
0.240767619875287
 40
0.240767619875287
 10
110.3291904221
 20
193.7410465697
 30
0.0
 10
110.3446661068638
 20
193.7293543904073
 30
0.0
 10
110.3759136171908
 20
193.7057462917176
 30
0.0
 10
110.4109347598653
 20
193.6702948678176
 30
0.0
 10
110.4372897674769
 20
193.6385192268781
 30
0.0
 10
110.4552674427969
 20
193.6127600391785
 30
0.0
 10
110.4691705264445
 20
193.584185931819
 30
0.0
 10
110.4664985564154
 20
193.5642577753725
 30
0.0
 10
110.4652090619
 20
193.5546404338
 30
0.0
 11
110.3291904221
 21
193.7410465697
 31
0.0
 11
110.3747163484
 21
193.7049142386
 31
0.0
 11
110.4165701388
 21
193.6629983646
 31
0.0
 11
110.4367216785
 21
193.6385317644
 31
0.0
 11
110.4550151782
 21
193.6115335455
 31
0.0
 11
110.4663685653
 21
193.5831397192
 31
0.0
 11
110.4652090619
 21
193.5546404338
 31
0.0
  0
SPLINE
  5
1BEC
330
1B
100
AcDbEntity
  8
0
  6
Continuous
100
AcDbSpline
210
0.0
220
0.0
230
1.0
 70
     8
 71
     3
 72
    13
 73
     9
 74
     7
 42
0.0000000001
 43
0.0000000001
 44
0.0000000001
 40
0.0
 40
0.0
 40
0.0
 40
0.0
 40
0.031872765789588
 40
0.0684070986771332
 40
0.1085067760202154
 40
0.1461815885965865
 40
0.2141711806035937
 40
0.2805865681240876
 40
0.2805865681240876
 40
0.2805865681240876
 40
0.2805865681240876
 10
110.4652090619
 20
193.5546404338
 30
0.0
 10
110.4600690279993
 20
193.5448944980695
 30
0.0
 10
110.4490372020017
 20
193.5239772299663
 30
0.0
 10
110.4120532336069
 20
193.5126745800709
 30
0.0
 10
110.3750598639539
 20
193.5066564897649
 30
0.0
 10
110.3263628050734
 20
193.5029262074738
 30
0.0
 10
110.2689523174304
 20
193.5046547449839
 30
0.0
 10
110.2244983440813
 20
193.5104173112159
 30
0.0
 10
110.2025316887
 20
193.5132648476
 30
0.0
 11
110.4652090619
 21
193.5546404338
 31
0.0
 11
110.4471221612
 21
193.5283966303
 31
0.0
 11
110.4135683578
 21
193.5139432654
 31
0.0
 11
110.3740589611
 21
193.5070882165
 31
0.0
 11
110.3364965083
 21
193.5041807017
 31
0.0
 11
110.2685261944
 21
193.5057996673
 31
0.0
 11
110.2025316887
 21
193.5132648476
 31
0.0
  0
SPLINE
  5
1BED
330
1B
100
AcDbEntity
  8
0
  6
Continuous
100
AcDbSpline
210
0.0
220
0.0
230
1.0
 70
     8
 71
     3
 72
     9
 73
     5
 74
     3
 42
0.0000000001
 43
0.0000000001
 44
0.0000000001
 40
0.0
 40
0.0
 40
0.0
 40
0.0
 40
0.1419308804403305
 40
0.2838955956286942
 40
0.2838955956286942
 40
0.2838955956286942
 40
0.2838955956286942
 10
110.2025316887
 20
193.5132648476
 30
0.0
 10
110.1556865225076
 20
193.5199736582818
 30
0.0
 10
110.0619850227545
 20
193.5333928789515
 30
0.0
 10
109.9693043458202
 20
193.5526371002068
 30
0.0
 10
109.9229584845
 20
193.5622603576
 30
0.0
 11
110.2025316887
 21
193.5132648476
 31
0.0
 11
110.062251335
 21
193.5348471827
 31
0.0
 11
109.9229584845
 21
193.5622603576
 31
0.0
  0
SPLINE
  5
1BEE
330
1B
100
AcDbEntity
  8
0
  6
Continuous
100
AcDbSpline
210
0.0
220
0.0
230
1.0
 70
     8
 71
     3
 72
     9
 73
     5
 74
     3
 42
0.0000000001
 43
0.0000000001
 44
0.0000000001
 40
0.0
 40
0.0
 40
0.0
 40
0.0
 40
0.2839178325143638
 40
0.5678325220138232
 40
0.5678325220138232
 40
0.5678325220138232
 40
0.5678325220138232
 10
109.9229584845
 20
193.5622603576
 30
0.0
 10
109.8302742198734
 20
193.5815412097241
 30
0.0
 10
109.6449067166494
 20
193.6201027005301
 30
0.0
 10
109.4573819448265
 20
193.6462285399131
 30
0.0
 10
109.3636200779
 20
193.6592913872999
 30
0.0
 11
109.9229584845
 21
193.5622603576
 31
0.0
 11
109.6443663675
 21
193.6169939667
 31
0.0
 11
109.3636200779
 21
193.6592913872999
 31
0.0
  0
SPLINE
  5
1BEF
330
1B
100
AcDbEntity
  8
0
  6
Continuous
100
AcDbSpline
210
0.0
220
0.0
230
1.0
 70
     8
 71
     3
 72
    10
 73
     6
 74
     4
 42
0.0000000001
 43
0.0000000001
 44
0.0000000001
 40
0.0
 40
0.0
 40
0.0
 40
0.0
 40
0.2826634338562995
 40
0.5653412696118385
 40
0.5793952818315125
 40
0.5793952818315125
 40
0.5793952818315125
 40
0.5793952818315125
 10
109.3636200779
 20
193.6592913872999
 30
0.0
 10
109.268929973962
 20
193.6660192219584
 30
0.0
 10
109.0795449415592
 20
193.6794752340631
 30
0.0
 10
108.8913314499946
 20
193.6266189925993
 30
0.0
 10
108.7942733091721
 20
193.6076399389318
 30
0.0
 10
108.7896763766
 20
193.6067410403
 30
0.0
 11
109.3636200779
 21
193.6592913872999
 31
0.0
 11
109.0809839211
 21
193.663218181
 31
0.0
 11
108.8034656795
 21
193.6094558856
 31
0.0
 11
108.7896763766
 21
193.6067410403
 31
0.0
  0
SPLINE
  5
1BF0
330
1B
100
AcDbEntity
  8
0
  6
Continuous
100
AcDbSpline
210
0.0
220
0.0
230
1.0
 70
     8
 71
     3
 72
    23
 73
    19
 74
    17
 42
0.0000000001
 43
0.0000000001
 44
0.0000000001
 40
0.0
 40
0.0
 40
0.0
 40
0.0
 40
0.0961477870534856
 40
0.205492686574791
 40
0.2585799569061111
 40
0.311774155484238
 40
0.3658643281821845
 40
0.4202601482339027
 40
0.5276051462014535
 40
0.6343738767360501
 40
0.8481355202527992
 40
0.9546663267037661
 40
1.061593511318949
 40
1.168621629649312
 40
1.275614686729834
 40
1.382308116025631
 40
1.489067057249947
 40
1.703183046657341
 40
1.703183046657341
 40
1.703183046657341
 40
1.703183046657341
 10
108.7896763766
 20
193.6067410403
 30
0.0
 10
108.757987485775
 20
193.6018193726306
 30
0.0
 10
108.6902601307336
 20
193.5913004959845
 30
0.0
 10
108.6027253032564
 20
193.5973634368413
 30
0.0
 10
108.534519790406
 20
193.6217284442186
 30
0.0
 10
108.4896742755128
 20
193.6518077198079
 30
0.0
 10
108.4523469790222
 20
193.6911929445408
 30
0.0
 10
108.4134083659548
 20
193.7521297691402
 30
0.0
 10
108.3868293304835
 20
193.839614233791
 30
0.0
 10
108.3890197621535
 20
193.9839077608273
 30
0.0
 10
108.4344377882097
 20
194.1202234020081
 30
0.0
 10
108.4570220137767
 20
194.2609519080423
 30
0.0
 10
108.4684456255857
 20
194.3671658844929
 30
0.0
 10
108.4829264199677
 20
194.4732115374012
 30
0.0
 10
108.5033678258194
 20
194.5781668343357
 30
0.0
 10
108.5203212489904
 20
194.6836493686502
 30
0.0
 10
108.5280563817366
 20
194.8266285073809
 30
0.0
 10
108.508774993809
 20
194.9323555587654
 30
0.0
 10
108.4959087551
 20
195.002905951
 30
0.0
 11
108.7896763766
 21
193.6067410403
 31
0.0
 11
108.694207701
 21
193.5953336333
 31
0.0
 11
108.5853155758
 21
193.6052740619
 31
0.0
 11
108.5355262137
 21
193.6236935541
 31
0.0
 11
108.4912109643
 21
193.6531177182
 31
0.0
 11
108.4537783582
 21
193.6921631633
 31
0.0
 11
108.424450663
 21
193.7379757329
 31
0.0
 11
108.3923749886
 21
193.840416446
 31
0.0
 11
108.392072274
 21
193.9471847474
 31
0.0
 11
108.4382111777
 21
194.1559076302
 31
0.0
 11
108.4560856059
 21
194.2609281879
 31
0.0
 11
108.4689483098
 21
194.3670788999
 31
0.0
 11
108.4839245055
 21
194.4730540464
 31
0.0
 11
108.5028066762
 21
194.5783677582
 31
0.0
 11
108.5184610968
 21
194.6839065045
 31
0.0
 11
108.5233371984
 21
194.7905540322
 31
0.0
 11
108.4959087551
 21
195.002905951
 31
0.0
  0
SPLINE
  5
1BF1
330
1B
100
AcDbEntity
  8
0
  6
Continuous
100
AcDbSpline
210
0.0
220
0.0
230
1.0
 70
     8
 71
     3
 72
    10
 73
     6
 74
     4
 42
0.0000000001
 43
0.0000000001
 44
0.0000000001
 40
0.0
 40
0.0
 40
0.0
 40
0.0
 40
1.01549251578848
 40
1.711415474013863
 40
2.021018890330759
 40
2.021018890330759
 40
2.021018890330759
 40
2.021018890330759
 10
108.4959087551
 20
195.002905951
 30
0.0
 10
108.3966858059917
 20
195.3292574169972
 30
0.0
 10
108.2294647897448
 20
195.8792594506813
 30
0.0
 10
108.3227688632341
 20
196.5766577453861
 30
0.0
 10
108.4934264655218
 20
196.8664353629723
 30
0.0
 10
108.5459722545
 20
196.9556584233
 30
0.0
 11
108.4959087551
 21
195.002905951
 31
0.0
 11
108.2849333936
 21
195.9962409632
 31
0.0
 11
108.400112864
 21
196.6825662894
 31
0.0
 11
108.5459722545
 21
196.9556584233
 31
0.0
  0
SPLINE
  5
1BF2
330
1B
100
AcDbEntity
  8
0
  6
Continuous
100
AcDbSpline
210
0.0
220
0.0
230
1.0
 70
     8
 71
     3
 72
    13
 73
     9
 74
     7
 42
0.0000000001
 43
0.0000000001
 44
0.0000000001
 40
0.0
 40
0.0
 40
0.0
 40
0.0
 40
0.0711652479598064
 40
0.1431712758874597
 40
0.181519870480009
 40
0.2213460291141907
 40
0.2589401571764536
 40
0.2938851675833197
 40
0.2938851675833197
 40
0.2938851675833197
 40
0.2938851675833197
 10
108.5459722545
 20
196.9556584233
 30
0.0
 10
108.5582558560799
 20
196.9759488154512
 30
0.0
 10
108.5829681835305
 20
197.0167693200628
 30
0.0
 10
108.6094593540851
 20
197.0714537445993
 30
0.0
 10
108.6233973976605
 20
197.1197923369958
 30
0.0
 10
108.6290042934452
 20
197.1577543128237
 30
0.0
 10
108.6277343668946
 20
197.196760485133
 30
0.0
 10
108.613176675854
 20
197.2167067847273
 30
0.0
 10
108.6061636526
 20
197.2263157167
 30
0.0
 11
108.5459722545
 21
196.9556584233
 31
0.0
 11
108.5818797902
 21
197.0171006026
 31
0.0
 11
108.6118749909
 21
197.0825617055
 31
0.0
 11
108.622425459
 21
197.119430423
 31
0.0
 11
108.6278886226
 21
197.1588800967
 31
0.0
 11
108.6240145266
 21
197.1962740781
 31
0.0
 11
108.6061636526
 21
197.2263157167
 31
0.0
  0
SPLINE
  5
1BF3
330
1B
100
AcDbEntity
  8
0
  6
Continuous
100
AcDbSpline
210
0.0
220
0.0
230
1.0
 70
     8
 71
     3
 72
    28
 73
    24
 74
    22
 42
0.0000000001
 43
0.0000000001
 44
0.0000000001
 40
0.0
 40
0.0
 40
0.0
 40
0.0
 40
0.087542752132716
 40
0.1752458498357308
 40
0.3501410332083486
 40
0.5251962314369323
 40
0.7002299657107047
 40
0.7878869426685884
 40
0.8755782091716313
 40
1.051050113580036
 40
1.226147679666619
 40
1.401316477775865
 40
1.57515124969232
 40
1.753339320585144
 40
1.84315775233706
 40
1.930425963148922
 40
2.016956868733984
 40
2.10515099237258
 40
2.192881256427063
 40
2.280682250080846
 40
2.456752610626593
 40
2.632466106073172
 40
2.807629742025312
 40
2.807629742025312
 40
2.807629742025312
 40
2.807629742025312
 10
108.6061636526
 20
197.2263157167
 30
0.0
 10
108.5803114547049
 20
197.2408694716588
 30
0.0
 10
108.5285597073601
 20
197.2700036386106
 30
0.0
 10
108.4089755133229
 20
197.2707480523969
 30
0.0
 10
108.2648537183282
 20
197.250500415552
 30
0.0
 10
108.0982418132784
 20
197.1906510496146
 30
0.0
 10
107.9752140883767
 20
197.1115944030205
 30
0.0
 10
107.8740838275088
 20
197.0530850403081
 30
0.0
 10
107.7680899328981
 20
197.0033734304847
 30
0.0
 10
107.6296161106295
 20
196.9554066485665
 30
0.0
 10
107.4583078806538
 20
196.9176038939919
 30
0.0
 10
107.285653445933
 20
196.8899704180084
 30
0.0
 10
107.1103542691808
 20
196.8764535977874
 30
0.0
 10
106.9632077585889
 20
196.8687360381028
 30
0.0
 10
106.8458351924253
 20
196.8518114868003
 30
0.0
 10
106.7612951443402
 20
196.8250488912231
 30
0.0
 10
106.6878512317834
 20
196.7752499404825
 30
0.0
 10
106.6325313076588
 20
196.7059687750759
 30
0.0
 10
106.5962326826247
 20
196.6251227444473
 30
0.0
 10
106.5693455413657
 20
196.5105537563551
 30
0.0
 10
106.5680628263891
 20
196.3620694086262
 30
0.0
 10
106.6076047665067
 20
196.1899324798331
 30
0.0
 10
106.6488526153346
 20
196.0804374448607
 30
0.0
 10
106.66944422
 20
196.0257757222
 30
0.0
 11
108.6061636526
 21
197.2263157167
 31
0.0
 11
108.5265857051
 21
197.2627997368
 31
0.0
 11
108.4391124661
 21
197.2691452711
 31
0.0
 11
108.2659500686
 21
197.2445869882
 31
0.0
 11
108.1014139671
 21
197.1848191563
 31
0.0
 11
107.9497729306
 21
197.0974017428
 31
0.0
 11
107.873502019
 21
197.0541988071
 31
0.0
 11
107.7942071148
 21
197.0167544966
 31
0.0
 11
107.62862999
 21
196.9586631463
 31
0.0
 11
107.4580171672
 21
196.9192877435
 31
0.0
 11
107.2849427055
 21
196.892281475
 31
0.0
 11
107.1117575842
 21
196.8772667593
 31
0.0
 11
106.9340930049
 21
196.8636181011
 31
0.0
 11
106.8454336204
 21
196.8492353259
 31
0.0
 11
106.7628274382
 21
196.8210935548
 31
0.0
 11
106.6912979049
 21
196.7723993715
 31
0.0
 11
106.6356673213
 21
196.7039636965
 31
0.0
 11
106.5989244568
 21
196.6242983895
 31
0.0
 11
106.57824438
 21
196.5389675691
 31
0.0
 11
106.5749317617
 21
196.3629283734
 31
0.0
 11
106.6113872665
 21
196.1910382089
 31
0.0
 11
106.66944422
 21
196.0257757222
 31
0.0
  0
SPLINE
  5
1BF4
330
1B
100
AcDbEntity
  8
0
  6
Continuous
100
AcDbSpline
210
0.0
220
0.0
230
1.0
 70
    24
 71
     3
 72
     8
 73
     4
 74
     2
 42
0.0000000001
 43
0.0000000001
 44
0.0000000001
 40
0.0
 40
0.0
 40
0.0
 40
0.0
 40
0.7429424464576027
 40
0.7429424464576027
 40
0.7429424464576027
 40
0.7429424464576027
 10
106.66944422
 20
196.0257757222
 30
0.0
 10
106.7384967294667
 20
195.7879501004667
 30
0.0
 10
106.8075492389333
 20
195.5501244787333
 30
0.0
 10
106.8766017484
 20
195.312298857
 30
0.0
 11
106.66944422
 21
196.0257757222
 31
0.0
 11
106.8766017484
 21
195.312298857
 31
0.0
  0
SPLINE
  5
1BF5
330
1B
100
AcDbEntity
  8
0
  6
Continuous
100
AcDbSpline
210
0.0
220
0.0
230
1.0
 70
    24
 71
     3
 72
     8
 73
     4
 74
     2
 42
0.0000000001
 43
0.0000000001
 44
0.0000000001
 40
0.0
 40
0.0
 40
0.0
 40
0.0
 40
0.5906267877470217
 40
0.5906267877470217
 40
0.5906267877470217
 40
0.5906267877470217
 10
106.8766017484
 20
195.312298857
 30
0.0
 10
106.9136093783
 20
195.1189327907
 30
0.0
 10
106.9506170082
 20
194.9255667244
 30
0.0
 10
106.9876246381
 20
194.7322006581
 30
0.0
 11
106.8766017484
 21
195.312298857
 31
0.0
 11
106.9876246381
 21
194.7322006581
 31
0.0
  0
SPLINE
  5
1BF6
330
1B
100
AcDbEntity
  8
0
  6
Continuous
100
AcDbSpline
210
0.0
220
0.0
230
1.0
 70
     8
 71
     3
 72
    18
 73
    14
 74
    12
 42
0.0000000001
 43
0.0000000001
 44
0.0000000001
 40
0.0
 40
0.0
 40
0.0
 40
0.0
 40
0.3673180334620351
 40
0.5512916781456954
 40
0.735130936216041
 40
0.9196689072312804
 40
1.014559563708181
 40
1.107591399760599
 40
1.198202538422938
 40
1.290195257099545
 40
1.384747132466006
 40
1.478621598089592
 40
1.49947531183384
 40
1.49947531183384
 40
1.49947531183384
 40
1.49947531183384
 10
106.9876246381
 20
194.7322006581
 30
0.0
 10
107.0210269767234
 20
194.6137483947043
 30
0.0
 10
107.0711590955854
 20
194.4359685387794
 30
0.0
 10
107.0785529508344
 20
194.1897394671048
 30
0.0
 10
107.0615349065313
 20
194.0062244495544
 30
0.0
 10
107.0316781247443
 20
193.8541921075889
 30
0.0
 10
106.9920452828008
 20
193.7362645067681
 30
0.0
 10
106.9489564634233
 20
193.65335638227
 30
0.0
 10
106.8866852218957
 20
193.5838598879913
 30
0.0
 10
106.8052723457538
 20
193.5375540054216
 30
0.0
 10
106.7155043086799
 20
193.509980297099
 30
0.0
 10
106.6461063825033
 20
193.5002855603702
 30
0.0
 10
106.6079059601548
 20
193.4985108725022
 30
0.0
 10
106.6009624117
 20
193.4981882941
 30
0.0
 11
106.9876246381
 21
194.7322006581
 31
0.0
 11
107.0680376906
 21
194.3737926801
 31
0.0
 11
107.074793604
 21
194.1899431232
 31
0.0
 11
107.0584703067
 21
194.0068299812
 31
0.0
 11
107.0207868089
 21
193.8261805507
 31
0.0
 11
106.989533662
 21
193.7365843594
 31
0.0
 11
106.9452254597
 21
193.6547815127
 31
0.0
 11
106.8839477225
 21
193.5880325998
 31
0.0
 11
106.8048274871
 21
193.5411002161
 31
0.0
 11
106.7147426757
 21
193.5123811651
 31
0.0
 11
106.6217878965
 21
193.4992729875
 31
0.0
 11
106.6009624117
 21
193.4981882941
 31
0.0
  0
SPLINE
  5
1BF7
330
1B
100
AcDbEntity
  8
0
  6
Continuous
100
AcDbSpline
210
0.0
220
0.0
230
1.0
 70
     8
 71
     3
 72
     9
 73
     5
 74
     3
 42
0.0000000001
 43
0.0000000001
 44
0.0000000001
 40
0.0
 40
0.0
 40
0.0
 40
0.0
 40
0.2730574717143205
 40
0.5672178601422613
 40
0.5672178601422613
 40
0.5672178601422613
 40
0.5672178601422613
 10
106.6009570844
 20
193.4983320023
 30
0.0
 10
106.5099303950976
 20
193.5010476197225
 30
0.0
 10
106.320842128815
 20
193.5066887277782
 30
0.0
 10
106.132998081222
 20
193.5291461206186
 30
0.0
 10
106.0355817587
 20
193.5407925723
 30
0.0
 11
106.6009570844
 21
193.4983320023
 31
0.0
 11
106.3281653566
 21
193.5103759262
 31
0.0
 11
106.0355817587
 21
193.5407925723
 31
0.0
  0
SPLINE
  5
1BF8
330
1B
100
AcDbEntity
  8
0
  6
Continuous
100
AcDbSpline
210
0.0
220
0.0
230
1.0
 70
    24
 71
     3
 72
     8
 73
     4
 74
     2
 42
0.0000000001
 43
0.0000000001
 44
0.0000000001
 40
0.0
 40
0.0
 40
0.0
 40
0.0
 40
0.5907631173721262
 40
0.5907631173721262
 40
0.5907631173721262
 40
0.5907631173721262
 10
106.0355817587
 20
193.5407925723
 30
0.0
 10
105.8386713278
 20
193.5428365518667
 30
0.0
 10
105.6417608969
 20
193.5448805314333
 30
0.0
 10
105.444850466
 20
193.546924511
 30
0.0
 11
106.0355817587
 21
193.5407925723
 31
0.0
 11
105.444850466
 21
193.546924511
 31
0.0
  0
SPLINE
  5
1BF9
330
1B
100
AcDbEntity
  8
0
  6
Continuous
100
AcDbSpline
210
0.0
220
0.0
230
1.0
 70
     8
 71
     3
 72
     9
 73
     5
 74
     3
 42
0.0000000001
 43
0.0000000001
 44
0.0000000001
 40
0.0
 40
0.0
 40
0.0
 40
0.0
 40
0.5914314537913705
 40
1.182855719925239
 40
1.182855719925239
 40
1.182855719925239
 40
1.182855719925239
 10
105.444850466
 20
193.546924511
 30
0.0
 10
105.2476612598901
 20
193.5367707760064
 30
0.0
 10
104.8532852441078
 20
193.5164634294173
 30
0.0
 10
104.4602883364835
 20
193.5551707115411
 30
0.0
 10
104.2637910767
 20
193.574524235
 30
0.0
 11
105.444850466
 21
193.546924511
 31
0.0
 11
104.8536276289
 21
193.5312171425
 31
0.0
 11
104.2637910767
 21
193.574524235
 31
0.0
  0
SPLINE
  5
1BFA
330
1B
100
AcDbEntity
  8
0
  6
Continuous
100
AcDbSpline
210
0.0
220
0.0
230
1.0
 70
     8
 71
     3
 72
    12
 73
     8
 74
     6
 42
0.0000000001
 43
0.0000000001
 44
0.0000000001
 40
0.0
 40
0.0
 40
0.0
 40
0.0
 40
0.4428622468635073
 40
0.8857098791610431
 40
1.328559959802031
 40
1.771437301097461
 40
1.790268064601854
 40
1.790268064601854
 40
1.790268064601854
 40
1.790268064601854
 10
104.2637910767
 20
193.574524235
 30
0.0
 10
104.1174579018403
 20
193.594123373838
 30
0.0
 10
103.8247963811525
 20
193.6333210047373
 30
0.0
 10
103.380000964509
 20
193.6426755696249
 30
0.0
 10
102.9411975912416
 20
193.5746071378848
 30
0.0
 10
102.6391407915935
 20
193.5715602534942
 30
0.0
 10
102.4856558133235
 20
193.5602239355878
 30
0.0
 10
102.479395929
 20
193.5597615839
 30
0.0
 11
104.2637910767
 21
193.574524235
 31
0.0
 11
103.8238240598
 21
193.6250810717
 31
0.0
 11
103.3810012734
 21
193.6297720499
 31
0.0
 11
102.9403992525
 21
193.5852068942
 31
0.0
 11
102.4981767331
 21
193.5611323689
 31
0.0
 11
102.479395929
 21
193.5597615839
 31
0.0
  0
SPLINE
  5
1BFB
330
1B
100
AcDbEntity
  8
0
  6
Continuous
100
AcDbSpline
210
0.0
220
0.0
230
1.0
 70
     8
 71
     3
 72
     9
 73
     5
 74
     3
 42
0.0000000001
 43
0.0000000001
 44
0.0000000001
 40
0.0
 40
0.0
 40
0.0
 40
0.0
 40
0.2760394690648437
 40
0.2828538414336112
 40
0.2828538414336112
 40
0.2828538414336112
 40
0.2828538414336112
 10
102.479395929
 20
193.5597615839
 30
0.0
 10
102.3872024937372
 20
193.5451270304988
 30
0.0
 10
102.2927331506126
 20
193.5301312052234
 30
0.0
 10
102.2081000058228
 20
193.4885237486988
 30
0.0
 10
102.2060610667
 20
193.4875213628
 30
0.0
 11
102.479395929
 21
193.5597615839
 31
0.0
 11
102.212183593
 21
193.4905130751
 31
0.0
 11
102.2060610667
 21
193.4875213628
 31
0.0
  0
SPLINE
  5
1BFC
330
1B
100
AcDbEntity
  8
0
  6
Continuous
100
AcDbSpline
210
0.0
220
0.0
230
1.0
 70
     8
 71
     3
 72
    15
 73
    11
 74
     9
 42
0.0000000001
 43
0.0000000001
 44
0.0000000001
 40
0.0
 40
0.0
 40
0.0
 40
0.0
 40
0.1232031009803334
 40
0.2538387684118119
 40
0.3180880147938152
 40
0.3826744934287752
 40
0.4165150516008765
 40
0.4513975724236738
 40
0.4848835253859328
 40
0.5165650903990441
 40
0.5165650903990441
 40
0.5165650903990441
 40
0.5165650903990441
 10
102.2060610667
 20
193.4875213628
 30
0.0
 10
102.1691307547665
 20
193.4690566765272
 30
0.0
 10
102.0930422081009
 20
193.431013370918
 30
0.0
 10
101.9840973679354
 20
193.421157479837
 30
0.0
 10
101.8988906768979
 20
193.4383552572333
 30
0.0
 10
101.8486404617444
 20
193.4595024427479
 30
0.0
 10
101.809705566984
 20
193.481080031174
 30
0.0
 10
101.7811599618983
 20
193.4993365715998
 30
0.0
 10
101.7548622803572
 20
193.5214123718672
 30
0.0
 10
101.7470421055977
 20
193.5420428388813
 30
0.0
 10
101.7432402825
 20
193.5520724595
 30
0.0
 11
102.2060610667
 21
193.4875213628
 31
0.0
 11
102.0927139201
 21
193.4392364951
 31
0.0
 11
101.9625959604
 21
193.427617796
 31
0.0
 11
101.8996258472
 21
193.4403743827
 31
0.0
 11
101.8398565434
 21
193.4648497488
 31
0.0
 11
101.8102228036
 21
193.4811906436
 31
0.0
 11
101.7810625327
 21
193.50033402
 31
0.0
 11
101.7568458629
 21
193.5234611026
 31
0.0
 11
101.7432402825
 21
193.5520724595
 31
0.0
  0
SPLINE
  5
1BFD
330
1B
100
AcDbEntity
  8
0
  6
Continuous
100
AcDbSpline
210
0.0
220
0.0
230
1.0
 70
     8
 71
     3
 72
    15
 73
    11
 74
     9
 42
0.0000000001
 43
0.0000000001
 44
0.0000000001
 40
0.0
 40
0.0
 40
0.0
 40
0.0
 40
0.016757956083921
 40
0.0339541614546353
 40
0.0534807214347475
 40
0.0749837598472668
 40
0.1182061582213121
 40
0.1556405691007922
 40
0.2256755470269996
 40
0.2989025695697642
 40
0.2989025695697642
 40
0.2989025695697642
 40
0.2989025695697642
 10
101.7432402825
 20
193.5520724595
 30
0.0
 10
101.7424089039911
 20
193.5577460597876
 30
0.0
 10
101.7407244049998
 20
193.569241634739
 30
0.0
 10
101.750017746123
 20
193.5855678602907
 30
0.0
 10
101.7638315242769
 20
193.5991578616363
 30
0.0
 10
101.7871353742735
 20
193.615092392096
 30
0.0
 10
101.8179133602069
 20
193.6299640535524
 30
0.0
 10
101.865525010923
 20
193.6462330259394
 30
0.0
 10
101.9245422393151
 20
193.6586980253728
 30
0.0
 10
101.9711504282184
 20
193.6690327432644
 30
0.0
 10
101.9949737651
 20
193.674315237
 30
0.0
 11
101.7432402825
 21
193.5520724595
 31
0.0
 11
101.7425936924
 21
193.5688179369
 31
0.0
 11
101.7501239322
 21
193.5842777224
 31
0.0
 11
101.7637283119
 21
193.5982851275
 31
0.0
 11
101.7813041416
 21
193.6106734636
 31
0.0
 11
101.819997166
 21
193.629935488
 31
0.0
 11
101.8553636839
 21
193.6422051469
 31
0.0
 11
101.9234560496
 21
193.6585858632
 31
0.0
 11
101.9949737651
 21
193.674315237
 31
0.0
  0
SPLINE
  5
1BFE
330
1B
100
AcDbEntity
  8
0
  6
Continuous
100
AcDbSpline
210
0.0
220
0.0
230
1.0
 70
     8
 71
     3
 72
     9
 73
     5
 74
     3
 42
0.0000000001
 43
0.0000000001
 44
0.0000000001
 40
0.0
 40
0.0
 40
0.0
 40
0.0
 40
0.700160051508096
 40
0.8905026552947793
 40
0.8905026552947793
 40
0.8905026552947793
 40
0.8905026552947793
 10
101.9949737651
 20
193.674315237
 30
0.0
 10
102.2277396497766
 20
193.7461436286002
 30
0.0
 10
102.5237843011676
 20
193.8374989884323
 30
0.0
 10
102.7106221168102
 20
194.0718144472706
 30
0.0
 10
102.7505582092
 20
194.1218987612
 30
0.0
 11
101.9949737651
 21
193.674315237
 31
0.0
 11
102.6257604967
 21
193.9781773718
 31
0.0
 11
102.7505582092
 21
194.1218987612
 31
0.0
  0
SPLINE
  5
1BFF
330
1B
100
AcDbEntity
  8
0
  6
Continuous
100
AcDbSpline
210
0.0
220
0.0
230
1.0
 70
     8
 71
     3
 72
    19
 73
    15
 74
    13
 42
0.0000000001
 43
0.0000000001
 44
0.0000000001
 40
0.0
 40
0.0
 40
0.0
 40
0.0
 40
0.1921033515663937
 40
0.2875816935989025
 40
0.3834473346385934
 40
0.4795268096186862
 40
0.5757461924571543
 40
0.6713037852801038
 40
0.7664266869200783
 40
0.8625790108002419
 40
0.9589554906813405
 40
1.149739298643303
 40
1.341736928090843
 40
1.533355050398567
 40
1.533355050398567
 40
1.533355050398567
 40
1.533355050398567
 10
102.7505582092
 20
194.1218987612
 30
0.0
 10
102.7911501534344
 20
194.1716284126823
 30
0.0
 10
102.851916922854
 20
194.2460744714248
 30
0.0
 10
102.9501492473925
 20
194.3288195784919
 30
0.0
 10
103.0344436767249
 20
194.3757254932998
 30
0.0
 10
103.1271215784574
 20
194.4039826932932
 30
0.0
 10
103.2237652305277
 20
194.409705986662
 30
0.0
 10
103.3189189072554
 20
194.3941942662882
 30
0.0
 10
103.4084987946854
 20
194.3595589552032
 30
0.0
 10
103.4937733669796
 20
194.3157009134818
 30
0.0
 10
103.6063219912547
 20
194.2551294327554
 30
0.0
 10
103.754222164671
 20
194.1938998955851
 30
0.0
 10
103.9454791286778
 20
194.1564051553809
 30
0.0
 10
104.072569855478
 20
194.1771432938698
 30
0.0
 10
104.1360523541
 20
194.1875021051
 30
0.0
 11
102.7505582092
 21
194.1218987612
 31
0.0
 11
102.8780931582
 21
194.2655599406
 31
0.0
 11
102.9518172829
 21
194.3262300917
 31
0.0
 11
103.0357377942
 21
194.3725719617
 31
0.0
 11
103.127754458
 21
194.4002161129
 31
0.0
 11
103.2237907435
 21
194.4061491982
 31
0.0
 11
103.3181362277
 21
194.39097741
 31
0.0
 11
103.4074272144
 21
194.3581828051
 31
0.0
 11
103.4935710282
 21
194.3154684898
 31
0.0
 11
103.5790886903
 21
194.27102577
 31
0.0
 11
103.7561583268
 21
194.1999989778
 31
0.0
 11
103.9454448659
 21
194.1678478374
 31
0.0
 11
104.1360523541
 21
194.1875021051
 31
0.0
  0
SPLINE
  5
1C00
330
1B
100
AcDbEntity
  8
0
  6
Continuous
100
AcDbSpline
210
0.0
220
0.0
230
1.0
 70
     8
 71
     3
 72
    19
 73
    15
 74
    13
 42
0.0000000001
 43
0.0000000001
 44
0.0000000001
 40
0.0
 40
0.0
 40
0.0
 40
0.0
 40
0.2005728972178618
 40
0.4763213308405879
 40
1.094318113016268
 40
1.271601182605109
 40
1.438297987025604
 40
1.580734451863962
 40
1.776494648220981
 40
2.038705010799141
 40
2.340212063109059
 40
4.839059926681848
 40
4.938041072945639
 40
5.185975237359289
 40
5.185975237359289
 40
5.185975237359289
 40
5.185975237359289
 10
104.1360523541
 20
194.1875021051
 30
0.0
 10
104.1991560897141
 20
194.2111440239541
 30
0.0
 10
104.3490150973151
 20
194.2672889488589
 30
0.0
 10
104.6302183931113
 20
194.4983990597853
 30
0.0
 10
105.0166330554993
 20
194.6159779146619
 30
0.0
 10
105.3132011907537
 20
194.5291020140564
 30
0.0
 10
105.4902984007313
 20
194.4524180500912
 30
0.0
 10
105.601136745135
 20
194.6361530656384
 30
0.0
 10
105.491193537029
 20
194.826177629766
 30
0.0
 10
105.3183209819652
 20
195.0046901055702
 30
0.0
 10
104.8219065629176
 20
195.9044758624142
 30
0.0
 10
104.3023599171054
 20
196.8169962531999
 30
0.0
 10
104.3585610622774
 20
197.7662679594254
 30
0.0
 10
104.3848006880934
 20
197.8792034246264
 30
0.0
 10
104.4035536791
 20
197.9599163806
 30
0.0
 11
104.1360523541
 21
194.1875021051
 31
0.0
 11
104.3204944504
 21
194.2663094665
 31
0.0
 11
104.5511048211
 21
194.4174916598
 31
0.0
 11
105.1504261333
 21
194.5682696009
 31
0.0
 11
105.3215628246
 21
194.5219930447
 31
0.0
 11
105.4861370484
 21
194.4954760791
 31
0.0
 11
105.5652764741
 21
194.6139036849
 31
0.0
 11
105.4996373606
 21
194.7983313435
 31
0.0
 11
105.3352580442
 21
195.0026196559
 31
0.0
 11
105.1775206021
 21
195.2595737412
 31
0.0
 11
104.3505053104
 21
197.6175996851999
 31
0.0
 11
104.3571977162
 21
197.7163543257
 31
0.0
 11
104.4035536791
 21
197.9599163806
 31
0.0
  0
SPLINE
  5
1C01
330
1B
100
AcDbEntity
  8
0
  6
Continuous
100
AcDbSpline
210
0.0
220
0.0
230
1.0
 70
     8
 71
     3
 72
     9
 73
     5
 74
     3
 42
0.0000000001
 43
0.0000000001
 44
0.0000000001
 40
0.0
 40
0.0
 40
0.0
 40
0.0
 40
0.5905875512063132
 40
1.181174809053972
 40
1.181174809053972
 40
1.181174809053972
 40
1.181174809053972
 10
104.4035536791
 20
197.9599163806
 30
0.0
 10
104.4655780210122
 20
198.1469804830108
 30
0.0
 10
104.5896266740276
 20
198.5211085949134
 30
0.0
 10
104.7596070844814
 20
198.8767299838787
 30
0.0
 10
104.8445972686
 20
199.0545406342
 30
0.0
 11
104.4035536791
 21
197.9599163806
 31
0.0
 11
104.6011096499
 21
198.5164820048
 31
0.0
 11
104.8445972686
 21
199.0545406342
 31
0.0
  0
SPLINE
  5
1C02
330
1B
100
AcDbEntity
  8
0
  6
Continuous
100
AcDbSpline
210
0.0
220
0.0
230
1.0
 70
     8
 71
     3
 72
    10
 73
     6
 74
     4
 42
0.0000000001
 43
0.0000000001
 44
0.0000000001
 40
0.0
 40
0.0
 40
0.0
 40
0.0
 40
0.2941807191666886
 40
0.5883575600739153
 40
0.5971312353271493
 40
0.5971312353271493
 40
0.5971312353271493
 40
0.5971312353271493
 10
104.8445972686
 20
199.0545406342
 30
0.0
 10
104.8928567195869
 20
199.1400411439452
 30
0.0
 10
104.9893749853441
 20
199.3110410362606
 30
0.0
 10
105.0501005149422
 20
199.5031020240399
 30
0.0
 10
105.0677482704024
 20
199.6025280522937
 30
0.0
 10
105.0682593627
 20
199.605407505
 30
0.0
 11
104.8445972686
 21
199.0545406342
 31
0.0
 11
104.9802042559
 21
199.3156020073
 31
0.0
 11
105.0667150474
 21
199.5967708119
 31
0.0
 11
105.0682593627
 21
199.605407505
 31
0.0
  0
SPLINE
  5
1C03
330
1B
100
AcDbEntity
  8
0
  6
Continuous
100
AcDbSpline
210
0.0
220
0.0
230
1.0
 70
     8
 71
     3
 72
    11
 73
     7
 74
     5
 42
0.0000000001
 43
0.0000000001
 44
0.0000000001
 40
0.0
 40
0.0
 40
0.0
 40
0.0
 40
0.3086556302040563
 40
0.6306583769605223
 40
0.948955856590724
 40
1.267654758780569
 40
1.267654758780569
 40
1.267654758780569
 40
1.267654758780569
 10
105.0682593627
 20
199.605407505
 30
0.0
 10
105.0742824202783
 20
199.7085317056577
 30
0.0
 10
105.0865889889748
 20
199.919239480433
 30
0.0
 10
105.0267704982227
 20
200.2314698747072
 30
0.0
 10
104.9950860747375
 20
200.5500479160126
 30
0.0
 10
105.0012138522443
 20
200.7625175348161
 30
0.0
 10
105.0042796718
 20
200.8688192913
 30
0.0
 11
105.0682593627
 21
199.605407505
 31
0.0
 11
105.0738584021
 21
199.9140123475
 31
0.0
 11
105.0313944483
 21
200.2332028573
 31
0.0
 11
105.0018841617
 21
200.5501293922
 31
0.0
 11
105.0042796718
 21
200.8688192913
 31
0.0
  0
SPLINE
  5
1C04
330
1B
100
AcDbEntity
  8
0
  6
Continuous
100
AcDbSpline
210
0.0
220
0.0
230
1.0
 70
     8
 71
     3
 72
    11
 73
     7
 74
     5
 42
0.0000000001
 43
0.0000000001
 44
0.0000000001
 40
0.0
 40
0.0
 40
0.0
 40
0.0
 40
0.590022762732622
 40
1.180033726559303
 40
1.770055077168097
 40
2.360076085967653
 40
2.360076085967653
 40
2.360076085967653
 40
2.360076085967653
 10
105.0042796718
 20
200.8688192913
 30
0.0
 10
105.0157198622207
 20
201.065338397232
 30
0.0
 10
105.0386000142884
 20
201.4583726792297
 30
0.0
 10
104.9712457859139
 20
202.0491830188903
 30
0.0
 10
104.7827045100109
 20
202.6110587055641
 30
0.0
 10
104.734175242318
 20
203.0023742722374
 30
0.0
 10
104.7099106155
 20
203.1980319989
 30
0.0
 11
105.0042796718
 21
200.8688192913
 31
0.0
 11
105.0216541899
 21
201.4585861831
 31
0.0
 11
104.9510487397
 21
202.0443573055
 31
0.0
 11
104.8019958952
 21
202.6152412199
 31
0.0
 11
104.7099106155
 21
203.1980319989
 31
0.0
  0
SPLINE
  5
1C05
330
1B
100
AcDbEntity
  8
0
  6
Continuous
100
AcDbSpline
210
0.0
220
0.0
230
1.0
 70
     8
 71
     3
 72
    15
 73
    11
 74
     9
 42
0.0000000001
 43
0.0000000001
 44
0.0000000001
 40
0.0
 40
0.0
 40
0.0
 40
0.0
 40
0.6071139686286808
 40
0.9937666662387393
 40
1.464372839479673
 40
3.006070761694493
 40
3.715963644702863
 40
4.35990525088585
 40
5.527882329735936
 40
6.272509615650096
 40
6.272509615650096
 40
6.272509615650096
 40
6.272509615650096
 10
104.7099106155
 20
203.1980319989
 30
0.0
 10
104.6730285938446
 20
203.3994542666879
 30
0.0
 10
104.6126575175746
 20
203.7291563422601
 30
0.0
 10
104.8211361095542
 20
204.2221750325112
 30
0.0
 10
105.6434971630691
 20
204.4481026106859
 30
0.0
 10
106.4711033782768
 20
204.7101504916751
 30
0.0
 10
107.378931545666
 20
205.1167481844151
 30
0.0
 10
107.888419702649
 20
205.8039281664057
 30
0.0
 10
108.4456023180385
 20
206.4456934414689
 30
0.0
 10
108.9273870651188
 20
206.8648464035719
 30
0.0
 10
109.1149585646
 20
207.0280336985
 30
0.0
 11
104.7099106155
 21
203.1980319989
 31
0.0
 11
104.6746004696
 21
203.8041182671
 31
0.0
 11
104.8441379654
 21
204.1516198442
 31
0.0
 11
105.2720596768
 21
204.3474595215
 31
0.0
 11
106.7340244508
 21
204.8368381918
 31
0.0
 11
107.3581066002
 21
205.1751714242
 31
0.0
 11
107.7861886919
 21
205.6562187347
 31
0.0
 11
108.5620881096
 21
206.5292310773
 31
0.0
 11
109.1149585646
 21
207.0280336985
 31
0.0
  0
SPLINE
  5
1C06
330
1B
100
AcDbEntity
  8
0
  6
Continuous
100
AcDbSpline
210
0.0
220
0.0
230
1.0
 70
     8
 71
     3
 72
    14
 73
    10
 74
     8
 42
0.0000000001
 43
0.0000000001
 44
0.0000000001
 40
0.0
 40
0.0
 40
0.0
 40
0.0
 40
0.161340721981121
 40
0.3227379853549893
 40
0.4830060454771598
 40
0.6439778472920958
 40
0.8044236238367272
 40
0.9650292937726137
 40
1.283800324352402
 40
1.283800324352402
 40
1.283800324352402
 40
1.283800324352402
 10
109.1149585646
 20
207.0280336985
 30
0.0
 10
109.1614996446195
 20
207.0552205761246
 30
0.0
 10
109.2545981148463
 20
207.1096038589368
 30
0.0
 10
109.4106485346536
 20
207.1566169511613
 30
0.0
 10
109.5736593036175
 20
207.1601316118571
 30
0.0
 10
109.7304789925448
 20
207.115239021924
 30
0.0
 10
109.867225371852
 20
207.027577051247
 30
0.0
 10
110.0144023220187
 20
206.8687314595356
 30
0.0
 10
110.0691386520488
 20
206.7162712594004
 30
0.0
 10
110.1055366587
 20
206.61488983
 30
0.0
 11
109.1149585646
 21
207.0280336985
 31
0.0
 11
109.2573738937
 21
207.1038538977
 31
0.0
 11
109.4122012392
 21
207.1494342631
 31
0.0
 11
109.5724472583
 21
207.1520921679
 31
0.0
 11
109.7272746356
 21
207.1080421484
 31
0.0
 11
109.8628770175
 21
207.0222817774
 31
0.0
 11
109.9717865082
 21
206.9042440544
 31
0.0
 11
110.1055366587
 21
206.61488983
 31
0.0
  0
SPLINE
  5
1C07
330
1B
100
AcDbEntity
  8
0
  6
Continuous
100
AcDbSpline
210
0.0
220
0.0
230
1.0
 70
     8
 71
     3
 72
    10
 73
     6
 74
     4
 42
0.0000000001
 43
0.0000000001
 44
0.0000000001
 40
0.0
 40
0.0
 40
0.0
 40
0.0
 40
0.7378961212635895
 40
1.106891256683673
 40
1.476119841254641
 40
1.476119841254641
 40
1.476119841254641
 40
1.476119841254641
 10
110.1055366587
 20
206.61488983
 30
0.0
 10
110.1483268023394
 20
206.3727761605197
 30
0.0
 10
110.2125147476365
 20
206.0095902104262
 30
0.0
 10
110.2950777058487
 20
205.5238114976902
 30
0.0
 10
110.3677713544236
 20
205.2884234929502
 30
0.0
 10
110.4041296727
 20
205.1706922721
 30
0.0
 11
110.1055366587
 21
206.61488983
 31
0.0
 11
110.2328952485
 21
205.8880676541
 31
0.0
 11
110.3029104359
 21
205.5257759436
 31
0.0
 11
110.4041296727
 21
205.1706922721
 31
0.0
  0
SPLINE
  5
1C08
330
1B
100
AcDbEntity
  8
0
  6
Continuous
100
AcDbSpline
210
0.0
220
0.0
230
1.0
 70
     8
 71
     3
 72
    11
 73
     7
 74
     5
 42
0.0000000001
 43
0.0000000001
 44
0.0000000001
 40
0.0
 40
0.0
 40
0.0
 40
0.0
 40
0.2946035384627802
 40
0.5891279836035694
 40
0.8836526391229883
 40
1.17818312940347
 40
1.17818312940347
 40
1.17818312940347
 40
1.17818312940347
 10
110.4041296727
 20
205.1706922721
 30
0.0
 10
110.4495978425112
 20
205.0833773215817
 30
0.0
 10
110.5405219751227
 20
204.9087708623187
 30
0.0
 10
110.7298468147777
 20
204.6806213751276
 30
0.0
 10
110.9505834177737
 20
204.4834920682648
 30
0.0
 10
111.0596118277386
 20
204.319128305245
 30
0.0
 10
111.1141265727
 20
204.2369456097
 30
0.0
 11
110.4041296727
 21
205.1706922721
 31
0.0
 11
110.5493610632
 21
204.9143739386
 31
0.0
 11
110.7350846331
 21
204.6857882777
 31
0.0
 11
110.9410496874
 21
204.4752575932
 31
0.0
 11
111.1141265727
 21
204.2369456097
 31
0.0
  0
SPLINE
  5
1C09
330
1B
100
AcDbEntity
  8
0
  6
Continuous
100
AcDbSpline
210
0.0
220
0.0
230
1.0
 70
     8
 71
     3
 72
    14
 73
    10
 74
     8
 42
0.0000000001
 43
0.0000000001
 44
0.0000000001
 40
0.0
 40
0.0
 40
0.0
 40
0.0
 40
0.1075429381107997
 40
0.3766299672321194
 40
1.878700398802302
 40
2.125723909987965
 40
2.341739704033202
 40
3.172445047338519
 40
3.510352697022138
 40
3.510352697022138
 40
3.510352697022138
 40
3.510352697022138
 10
107.7050866065
 20
204.5691889214
 30
0.0
 10
107.674084452792
 20
204.5890095699082
 30
0.0
 10
107.5655107022483
 20
204.6584241714552
 30
0.0
 10
106.906735831858
 20
204.4594491827293
 30
0.0
 10
106.3998973240717
 20
204.0643881170133
 30
0.0
 10
105.8320654119728
 20
203.7220878149702
 30
0.0
 10
105.5815447896864
 20
203.351520665995
 30
0.0
 10
105.7083224657953
 20
202.8400942802477
 30
0.0
 10
105.8459387374057
 20
202.4816268640328
 30
0.0
 10
105.8857308595
 20
202.3779750282
 30
0.0
 11
107.7050866065
 21
204.5691889214
 31
0.0
 11
107.6101646661
 21
204.6197389834
 31
0.0
 11
107.3431555602
 21
204.5863628451
 31
0.0
 11
106.0359234793
 21
203.8465251142
 31
0.0
 11
105.8356666498
 21
203.7018951819
 31
0.0
 11
105.7132874763
 21
203.5238891113
 31
0.0
 11
105.7689143734
 21
202.6950483451
 31
0.0
 11
105.8857308595
 21
202.3779750282
 31
0.0
  0
SPLINE
  5
1C0A
330
1B
100
AcDbEntity
  8
0
  6
Continuous
100
AcDbSpline
210
0.0
220
0.0
230
1.0
 70
     8
 71
     3
 72
    18
 73
    14
 74
    12
 42
0.0000000001
 43
0.0000000001
 44
0.0000000001
 40
0.0
 40
0.0
 40
0.0
 40
0.0
 40
0.2371820219483587
 40
0.5543041269337017
 40
0.7583115533661108
 40
0.9027273776735663
 40
1.68832806620124
 40
2.469029321269419
 40
3.220816082112869
 40
3.321560677498209
 40
3.378289204154928
 40
3.438458893038943
 40
3.512121303524378
 40
3.512121303524378
 40
3.512121303524378
 40
3.512121303524378
 10
105.8857308595
 20
202.3779750282
 30
0.0
 10
105.9404295060687
 20
202.3129795869177
 30
0.0
 10
106.0682624897055
 20
202.1610825711205
 30
0.0
 10
106.3886427856307
 20
202.2879760240444
 30
0.0
 10
106.4204439493014
 20
202.5293481612538
 30
0.0
 10
106.2825681832697
 20
202.8826688235742
 30
0.0
 10
106.3490579572389
 20
203.4937862455446
 30
0.0
 10
106.7884615040607
 20
204.1614184657814
 30
0.0
 10
107.320349968706
 20
204.4009693678777
 30
0.0
 10
107.6163480663926
 20
204.4363848141992
 30
0.0
 10
107.6930694727829
 20
204.4383480513344
 30
0.0
 10
107.7338424968696
 20
204.5022177316596
 30
0.0
 10
107.7152952052806
 20
204.5454135488718
 30
0.0
 10
107.7050866065
 20
204.5691889214
 30
0.0
 11
105.8857308595
 21
202.3779750282
 31
0.0
 11
106.0692996175
 21
202.2277824098
 31
0.0
 11
106.3641221719
 21
202.3445988936
 31
0.0
 11
106.4030609998
 21
202.544855723
 31
0.0
 11
106.3641221719
 21
202.6839229657
 31
0.0
 11
106.4086236896
 21
203.4682622142
 31
0.0
 11
106.8480761763
 21
204.1135342201
 31
0.0
 11
107.5322870102
 21
204.4250448436
 31
0.0
 11
107.6324154249
 21
204.4361702231
 31
0.0
 11
107.6880423219
 21
204.4472956025
 31
0.0
 11
107.7214184602
 21
204.4973598098
 31
0.0
 11
107.7050866065
 21
204.5691889214
 31
0.0
  0
SPLINE
  5
1C0B
330
1B
100
AcDbEntity
  8
0
  6
Continuous
100
AcDbSpline
210
0.0
220
0.0
230
1.0
 70
     8
 71
     3
 72
    11
 73
     7
 74
     5
 42
0.0000000001
 43
0.0000000001
 44
0.0000000001
 40
0.0
 40
0.0
 40
0.0
 40
0.0
 40
0.0765247659725012
 40
0.1530488470195212
 40
0.2295731480528341
 40
0.3060981157298373
 40
0.3060981157298373
 40
0.3060981157298373
 40
0.3060981157298373
 10
108.7798739155
 20
202.8068719106
 30
0.0
 10
108.7793990523619
 20
202.8334161190404
 30
0.0
 10
108.7784493303358
 20
202.8865042983406
 30
0.0
 10
108.714717415662
 20
202.9419894746887
 30
0.0
 10
108.6304546063226
 20
202.9483071333884
 30
0.0
 10
108.5920289152984
 20
202.9116644615316
 30
0.0
 10
108.5728159861
 20
202.8933430458
 30
0.0
 11
108.7798739155
 21
202.8068719106
 31
0.0
 11
108.7680646722
 21
202.8824799894
 31
0.0
 11
108.7112956917
 21
202.9337948784
 31
0.0
 11
108.634892225
 21
202.9380935904
 31
0.0
 11
108.5728159861
 21
202.8933430458
 31
0.0
  0
SPLINE
  5
1C0C
330
1B
100
AcDbEntity
  8
0
  6
Continuous
100
AcDbSpline
210
0.0
220
0.0
230
1.0
 70
     8
 71
     3
 72
     9
 73
     5
 74
     3
 42
0.0000000001
 43
0.0000000001
 44
0.0000000001
 40
0.0
 40
0.0
 40
0.0
 40
0.0
 40
0.7727468994830077
 40
1.545493817198384
 40
1.545493817198384
 40
1.545493817198384
 40
1.545493817198384
 10
108.5728159861
 20
202.8933430458
 30
0.0
 10
108.3968317069952
 20
202.6946718407635
 30
0.0
 10
108.0448631446334
 20
202.2973294260031
 30
0.0
 10
107.5233340427286
 20
202.198484801523
 30
0.0
 10
107.2625694887
 20
202.1490624887
 30
0.0
 11
108.5728159861
 21
202.8933430458
 31
0.0
 11
108.0024730149
 21
202.3719538765
 31
0.0
 11
107.2625694887
 21
202.1490624887
 31
0.0
  0
SPLINE
  5
1C0D
330
1B
100
AcDbEntity
  8
0
  6
Continuous
100
AcDbSpline
210
0.0
220
0.0
230
1.0
 70
     8
 71
     3
 72
    11
 73
     7
 74
     5
 42
0.0000000001
 43
0.0000000001
 44
0.0000000001
 40
0.0
 40
0.0
 40
0.0
 40
0.0
 40
0.0927301718626696
 40
0.1854591792156748
 40
0.2781880564969381
 40
0.369687603249672
 40
0.369687603249672
 40
0.369687603249672
 40
0.369687603249672
 10
107.2625694887
 20
202.1490624887
 30
0.0
 10
107.2315484554377
 20
202.139966156513
 30
0.0
 10
107.1695067784766
 20
202.1217736063712
 30
0.0
 10
107.1291039579041
 20
202.0262526091886
 30
0.0
 10
107.1584113039077
 20
201.9273185925418
 30
0.0
 10
107.2173548366215
 20
201.9020256869725
 30
0.0
 10
107.246629942
 20
201.8894636222
 30
0.0
 11
107.2625694887
 21
202.1490624887
 31
0.0
 11
107.1782830977
 21
202.1104012799
 31
0.0
 11
107.1407439689
 21
202.0256104631
 31
0.0
 11
107.1685356156
 21
201.9371442602
 31
0.0
 11
107.246629942
 21
201.8894636222
 31
0.0
  0
SPLINE
  5
1C0E
330
1B
100
AcDbEntity
  8
0
  6
Continuous
100
AcDbSpline
210
0.0
220
0.0
230
1.0
 70
     8
 71
     3
 72
    11
 73
     7
 74
     5
 42
0.0000000001
 43
0.0000000001
 44
0.0000000001
 40
0.0
 40
0.0
 40
0.0
 40
0.0
 40
0.6988322777685705
 40
1.30614621178229
 40
1.64811540454191
 40
1.994404686671328
 40
1.994404686671328
 40
1.994404686671328
 40
1.994404686671328
 10
107.246629942
 20
201.8894636222
 30
0.0
 10
107.4810435273504
 20
201.8777501160585
 30
0.0
 10
107.9191721402322
 20
201.8558570922814
 30
0.0
 10
108.4502876421455
 20
202.1018772722813
 30
0.0
 10
108.6990795189291
 20
202.4697330637196
 30
0.0
 10
108.7528299889158
 20
202.6940230174753
 30
0.0
 10
108.7798739155
 20
202.8068719106
 30
0.0
 11
107.246629942
 21
201.8894636222
 31
0.0
 11
107.944942764
 21
201.9164034641
 31
0.0
 11
108.4852000504
 21
202.1938062019
 31
0.0
 11
108.6788908925
 21
202.4756337848
 31
0.0
 11
108.7798739155
 21
202.8068719106
 31
0.0
  0
SPLINE
  5
1C0F
330
1B
100
AcDbEntity
  8
0
  6
Continuous
100
AcDbSpline
210
0.0
220
0.0
230
1.0
 70
     8
 71
     3
 72
     9
 73
     5
 74
     3
 42
0.0000000001
 43
0.0000000001
 44
0.0000000001
 40
0.0
 40
0.0
 40
0.0
 40
0.0
 40
2.584054886960849
 40
3.913498557494603
 40
3.913498557494603
 40
3.913498557494603
 40
3.913498557494603
 10
111.3289364246
 20
203.4377656016
 30
0.0
 10
111.7743957119462
 20
202.6923647156463
 30
0.0
 10
112.449034740416
 20
201.5634702379573
 30
0.0
 10
112.7729270672787
 20
200.2948483542785
 30
0.0
 10
112.8829556255
 20
199.8638883555
 30
0.0
 11
111.3289364246
 21
203.4377656016
 31
0.0
 11
112.5123934351
 21
201.1406436712
 31
0.0
 11
112.8829556255
 21
199.8638883555
 31
0.0
  0
SPLINE
  5
1C10
330
1B
100
AcDbEntity
  8
0
  6
Continuous
100
AcDbSpline
210
0.0
220
0.0
230
1.0
 70
    24
 71
     3
 72
     8
 73
     4
 74
     2
 42
0.0000000001
 43
0.0000000001
 44
0.0000000001
 40
0.0
 40
0.0
 40
0.0
 40
0.0
 40
1.259929983981306
 40
1.259929983981306
 40
1.259929983981306
 40
1.259929983981306
 10
112.8829556255
 20
199.8638883555
 30
0.0
 10
112.9474673999667
 20
199.4488960338667
 30
0.0
 10
113.0119791744333
 20
199.0339037122333
 30
0.0
 10
113.0764909489
 20
198.6189113906
 30
0.0
 11
112.8829556255
 21
199.8638883555
 31
0.0
 11
113.0764909489
 21
198.6189113906
 31
0.0
  0
SPLINE
  5
1C11
330
1B
100
AcDbEntity
  8
0
  6
Continuous
100
AcDbSpline
210
0.0
220
0.0
230
1.0
 70
     8
 71
     3
 72
    15
 73
    11
 74
     9
 42
0.0000000001
 43
0.0000000001
 44
0.0000000001
 40
0.0
 40
0.0
 40
0.0
 40
0.0
 40
0.3183343104935607
 40
0.6651994936459407
 40
1.032442287947057
 40
1.248091177908944
 40
1.46696792011542
 40
3.524958002750753
 40
5.499204935665318
 40
6.215717163943332
 40
6.215717163943332
 40
6.215717163943332
 40
6.215717163943332
 10
113.0764909489
 20
198.6189113906
 30
0.0
 10
113.0616417265473
 20
198.5074037111452
 30
0.0
 10
113.0306124128213
 20
198.2743944203905
 30
0.0
 10
112.6560564300791
 20
198.115977384013
 30
0.0
 10
112.3327714855342
 20
198.283804935663
 30
0.0
 10
112.2672291599841
 20
198.55450946834
 30
0.0
 10
112.2478088913303
 20
199.3807958261803
 30
0.0
 10
112.2236720869305
 20
200.8150753560859
 30
0.0
 10
111.6852069574869
 20
202.328057141056
 30
0.0
 10
111.2784451092269
 20
203.1267655100063
 30
0.0
 10
111.1701300127
 20
203.3394505847
 30
0.0
 11
113.0764909489
 21
198.6189113906
 31
0.0
 11
112.9837824395
 21
198.3143758992
 31
0.0
 11
112.6659894167
 21
198.1753685255
 31
0.0
 11
112.3415981638
 21
198.3475242254
 31
0.0
 11
112.2754080314
 21
198.5527638661
 31
0.0
 11
112.2621826926
 21
198.7712406811
 31
0.0
 11
112.1100583937
 21
200.8236006344
 31
0.0
 11
111.4878671717
 21
202.6972412177
 31
0.0
 11
111.1701300127
 21
203.3394505847
 31
0.0
  0
SPLINE
  5
1C12
330
1B
100
AcDbEntity
  8
0
  6
Continuous
100
AcDbSpline
210
0.0
220
0.0
230
1.0
 70
     8
 71
     3
 72
    11
 73
     7
 74
     5
 42
0.0000000001
 43
0.0000000001
 44
0.0000000001
 40
0.0
 40
0.0
 40
0.0
 40
0.0
 40
0.0694145763669768
 40
0.1388279088482856
 40
0.2082411810309013
 40
0.277655903142764
 40
0.277655903142764
 40
0.277655903142764
 40
0.277655903142764
 10
111.1701300127
 20
203.3394505847
 30
0.0
 10
111.16349884579
 20
203.3628372674079
 30
0.0
 10
111.1502366307983
 20
203.4096102137422
 30
0.0
 10
111.1978713483305
 20
203.4720589462778
 30
0.0
 10
111.2750093035818
 20
203.4868594364843
 30
0.0
 10
111.3109605924347
 20
203.4541303271698
 30
0.0
 10
111.3289364246
 20
203.4377656016
 30
0.0
 11
111.1701300127
 21
203.3394505847
 31
0.0
 11
111.161491413
 21
203.4083255294
 31
0.0
 11
111.2027885336
 21
203.4641176306
 31
0.0
 11
111.2711403026
 21
203.4762105223
 31
0.0
 11
111.3289364246
 21
203.4377656016
 31
0.0
  0
SPLINE
  5
1C13
330
1B
100
AcDbEntity
  8
0
  6
Continuous
100
AcDbSpline
210
0.0
220
0.0
230
1.0
 70
     8
 71
     3
 72
     9
 73
     5
 74
     3
 42
0.0000000001
 43
0.0000000001
 44
0.0000000001
 40
0.0
 40
0.0
 40
0.0
 40
0.0
 40
1.876898580685645
 40
3.753797107345567
 40
3.753797107345567
 40
3.753797107345567
 40
3.753797107345567
 10
112.1366243476
 20
203.2550434288
 30
0.0
 10
112.5579466448648
 20
202.7754683053882
 30
0.0
 10
113.4005912272668
 20
201.8163180723689
 30
0.0
 10
113.6305999153257
 20
200.5604856540315
 30
0.0
 10
113.7456042577
 20
199.9325694539
 30
0.0
 11
112.1366243476
 21
203.2550434288
 31
0.0
 11
113.2474322614
 21
201.7421475101
 31
0.0
 11
113.7456042577
 21
199.9325694539
 31
0.0
  0
SPLINE
  5
1C14
330
1B
100
AcDbEntity
  8
0
  6
Continuous
100
AcDbSpline
210
0.0
220
0.0
230
1.0
 70
     8
 71
     3
 72
    19
 73
    15
 74
    13
 42
0.0000000001
 43
0.0000000001
 44
0.0000000001
 40
0.0
 40
0.0
 40
0.0
 40
0.0
 40
0.032669868698338
 40
0.0653891626291571
 40
0.1311410682262138
 40
0.1969599646510523
 40
0.2625370658054356
 40
0.3945411342577383
 40
0.5281108007339618
 40
0.6615440096716787
 40
0.794282459278725
 40
0.9249498116941179
 40
1.055592859619761
 40
1.0588553750771
 40
1.0588553750771
 40
1.0588553750771
 40
1.0588553750771
 10
113.7456042577
 20
199.9325694539
 30
0.0
 10
113.7461927827504
 20
199.9216900610235
 30
0.0
 10
113.7473707232127
 20
199.899914816174
 30
0.0
 10
113.745094975297
 20
199.8561626030755
 30
0.0
 10
113.7328086321007
 20
199.8023407246824
 30
0.0
 10
113.7060598221946
 20
199.7419102115704
 30
0.0
 10
113.6555051780952
 20
199.6694218740391
 30
0.0
 10
113.5643079871361
 20
199.6016168949774
 30
0.0
 10
113.4319191218737
 20
199.5675044777719
 30
0.0
 10
113.2969951256315
 20
199.5915923061294
 30
0.0
 10
113.1822335565968
 20
199.6644357379833
 30
0.0
 10
113.1076588255188
 20
199.7769282492861
 30
0.0
 10
113.0905996812553
 20
199.8662218951777
 30
0.0
 10
113.091404410436
 20
199.9108465263522
 30
0.0
 10
113.0914240171
 20
199.9119337743
 30
0.0
 11
113.7456042577
 21
199.9325694539
 31
0.0
 11
113.7467925398
 21
199.8999212027
 31
0.0
 11
113.7450438302
 21
199.8672486728
 31
0.0
 11
113.7308126981
 21
199.8030553089
 31
0.0
 11
113.7041723826
 21
199.7428687596
 31
0.0
 11
113.6664379857
 21
199.6892360132
 31
0.0
 11
113.5610384975
 21
199.609762609
 31
0.0
 11
113.4314908146
 21
199.5772317981
 31
0.0
 11
113.2999940588
 21
199.5998818414
 31
0.0
 11
113.1883194924
 21
199.6716334074
 31
0.0
 11
113.1158069581
 21
199.7803343244
 31
0.0
 11
113.0913708001
 21
199.9086716929
 31
0.0
 11
113.0914240171
 21
199.9119337743
 31
0.0
  0
SPLINE
  5
1C15
330
1B
100
AcDbEntity
  8
0
  6
Continuous
100
AcDbSpline
210
0.0
220
0.0
230
1.0
 70
     8
 71
     3
 72
     9
 73
     5
 74
     3
 42
0.0000000001
 43
0.0000000001
 44
0.0000000001
 40
0.0
 40
0.0
 40
0.0
 40
0.0
 40
1.714817782205048
 40
3.432846360077201
 40
3.432846360077201
 40
3.432846360077201
 40
3.432846360077201
 10
113.0914240171
 20
199.9119337743
 30
0.0
 10
113.0460250886861
 20
200.4924772525688
 30
0.0
 10
112.9551422276764
 20
201.6546512088469
 30
0.0
 10
112.3004048623741
 20
202.6191916596865
 30
0.0
 10
111.9727299866
 20
203.1019129601
 30
0.0
 11
113.0914240171
 21
199.9119337743
 31
0.0
 11
112.8145271735
 21
201.6042482144
 31
0.0
 11
111.9727299866
 21
203.1019129601
 31
0.0
  0
SPLINE
  5
1C16
330
1B
100
AcDbEntity
  8
0
  6
Continuous
100
AcDbSpline
210
0.0
220
0.0
230
1.0
 70
     8
 71
     3
 72
    11
 73
     7
 74
     5
 42
0.0000000001
 43
0.0000000001
 44
0.0000000001
 40
0.0
 40
0.0
 40
0.0
 40
0.0
 40
0.0826489623467926
 40
0.1652966239175808
 40
0.2479441639497985
 40
0.3305929543336081
 40
0.3305929543336081
 40
0.3305929543336081
 40
0.3305929543336081
 10
111.9727299866
 20
203.1019129601
 30
0.0
 10
111.9598691620233
 20
203.1278130594806
 30
0.0
 10
111.9341477152809
 20
203.1796128506113
 30
0.0
 10
111.9754605252786
 20
203.2632634809626
 30
0.0
 10
112.0617206805966
 20
203.2988074570345
 30
0.0
 10
112.1116563326894
 20
203.2696315117767
 30
0.0
 10
112.1366243476
 20
203.2550434288
 30
0.0
 11
111.9727299866
 21
203.1019129601
 31
0.0
 11
111.9474635739
 21
203.1806051412
 31
0.0
 11
111.9829517496
 21
203.2552457826
 31
0.0
 11
112.0598274655
 21
203.2855894834
 31
0.0
 11
112.1366243476
 21
203.2550434288
 31
0.0
  0
SPLINE
  5
1C17
330
1B
100
AcDbEntity
  8
0
  6
Continuous
100
AcDbSpline
210
0.0
220
0.0
230
1.0
 70
     8
 71
     3
 72
    20
 73
    16
 74
    14
 42
0.0000000001
 43
0.0000000001
 44
0.0000000001
 40
0.0
 40
0.0
 40
0.0
 40
0.0
 40
1.896077315109854
 40
3.796390171022996
 40
5.665625340223139
 40
7.469419297699526
 40
9.175109510663679
 40
10.75242027824032
 40
12.17418115746282
 40
13.41678825428314
 40
14.46036069299705
 40
15.28860860430855
 40
15.88868431307548
 40
16.25183641712098
 40
16.37341969064025
 40
16.37341969064025
 40
16.37341969064025
 40
16.37341969064025
 10
92.54383333840001
 20
216.1277109357
 30
0.0
 10
92.49785169406977
 20
216.7580618425197
 30
0.0
 10
92.40578568959217
 20
218.0201717617068
 30
0.0
 10
92.26867948708151
 20
219.9037300855471
 30
0.0
 10
92.13373183638575
 20
221.7566030204147
 30
0.0
 10
92.0035195882496
 20
223.5447747955193
 30
0.0
 10
91.88037462208661
 20
225.2358954166073
 30
0.0
 10
91.76647340665303
 20
226.8000076168883
 30
0.0
 10
91.66378063150764
 20
228.2101662489966
 30
0.0
 10
91.57400319221902
 20
229.4428815095479
 30
0.0
 10
91.49860470748331
 20
230.4782823410958
 30
0.0
 10
91.43874514140063
 20
231.3000704740641
 30
0.0
 10
91.39539423840374
 20
231.8956534345363
 30
0.0
 10
91.36912179841076
 20
232.2563014507534
 30
0.0
 10
91.35739180167491
 20
232.4174535703646
 30
0.0
 10
91.35444963679998
 20
232.457874392
 30
0.0
 11
92.54383333840001
 21
216.1277109357
 31
0.0
 11
92.40593696089999
 21
218.0187671945
 31
0.0
 11
92.26791458210001
 21
219.9140610433
 31
0.0
 11
92.13215137109999
 21
221.7783594283
 31
0.0
 11
92.00114464290002
 21
223.5773896888
 31
0.0
 11
91.8772658127
 21
225.2785754923
 31
0.0
 11
91.76270705180001
 21
226.8517206057
 31
0.0
 11
91.65944187700001
 21
228.2697263537
 31
0.0
 11
91.569186008
 21
229.5090512809
 31
0.0
 11
91.49338796669998
 21
230.549867351
 31
0.0
 11
91.43322817439999
 21
231.3759275195
 31
0.0
 11
91.3896535762
 21
231.9744190488
 31
0.0
 11
91.36327673169998
 21
232.3366119708
 31
0.0
 11
91.35444963679998
 21
232.457874392
 31
0.0
  0
SPLINE
  5
1C18
330
1B
100
AcDbEntity
  8
0
  6
Continuous
100
AcDbSpline
210
0.0
220
0.0
230
1.0
 70
     8
 71
     3
 72
    18
 73
    14
 74
    12
 42
0.0000000001
 43
0.0000000001
 44
0.0000000001
 40
0.0
 40
0.0
 40
0.0
 40
0.0
 40
0.7358183241665772
 40
1.473481368252831
 40
2.220961984637853
 40
2.973372114579313
 40
3.687457883621564
 40
4.342005706859745
 40
4.932740746720634
 40
5.46013963223453
 40
5.929421665194329
 40
6.348833725500731
 40
6.727953028698749
 40
6.727953028698749
 40
6.727953028698749
 40
6.727953028698749
 10
88.38973698700001
 20
220.5517702435
 30
0.0
 10
88.40181472924047
 20
220.3062113719774
 30
0.0
 10
88.42600049300501
 20
219.8144780050386
 30
0.0
 10
88.6182741341336
 20
219.0943042020497
 30
0.0
 10
88.91526146411898
 20
218.4076693223721
 30
0.0
 10
89.31274338838504
 20
217.7820073943115
 30
0.0
 10
89.77967059107363
 20
217.2475880005845
 30
0.0
 10
90.28050243394897
 20
216.8244715951183
 30
0.0
 10
90.78549773238808
 20
216.5135845150051
 30
0.0
 10
91.27351030837106
 20
216.304015020445
 30
0.0
 10
91.73053500676157
 20
216.1812571062083
 30
0.0
 10
92.15070426011872
 20
216.122510153761
 30
0.0
 10
92.41715108304061
 20
216.1260304658341
 30
0.0
 10
92.5436522306
 20
216.1277018069
 30
0.0
 11
88.38973698700001
 21
220.5517702435
 31
0.0
 11
88.45174974569999
 21
219.8185697089
 31
0.0
 11
88.63433558209999
 21
219.103860552
 31
0.0
 11
88.93204239840001
 21
218.4182236777
 31
0.0
 11
89.3352997654
 21
217.7830036374
 31
0.0
 11
89.8059919598
 21
217.2460051796
 31
0.0
 11
90.30688292609999
 21
216.8246489256
 31
0.0
 11
90.8105783179
 21
216.5160086178
 31
0.0
 11
91.2956497432
 21
216.3089934087
 31
0.0
 11
91.74877988660001
 21
216.1869331793
 31
0.0
 11
92.16455531399998
 21
216.131821744
 31
0.0
 11
92.5436522306
 21
216.1277018069
 31
0.0
  0
SPLINE
  5
1C19
330
1B
100
AcDbEntity
  8
0
  6
Continuous
100
AcDbSpline
210
0.0
220
0.0
230
1.0
 70
     8
 71
     3
 72
    14
 73
    10
 74
     8
 42
0.0000000001
 43
0.0000000001
 44
0.0000000001
 40
0.0
 40
0.0
 40
0.0
 40
0.0
 40
0.626314326100796
 40
1.247301596785761
 40
1.858573655702886
 40
2.457510777654755
 40
3.043853820349411
 40
3.619898517248442
 40
4.190148105212495
 40
4.190148105212495
 40
4.190148105212495
 40
4.190148105212495
 10
85.58972581720001
 20
218.0085838213
 30
0.0
 10
85.79885885970629
 20
218.0208768767407
 30
0.0
 10
86.21534618402268
 20
218.0453584302379
 30
0.0
 10
86.81030119530708
 20
218.2407164428232
 30
0.0
 10
87.34494588157794
 20
218.5426323984321
 30
0.0
 10
87.79354966040287
 20
218.9480105928574
 30
0.0
 10
88.12953657209529
 20
219.4342973522369
 30
0.0
 10
88.34838373162194
 20
219.9781760756052
 30
0.0
 10
88.37599164609046
 20
220.3612176782339
 30
0.0
 10
88.3897258172
 20
220.5517702431
 30
0.0
 11
85.58972581720001
 21
218.0085838213
 31
0.0
 11
86.2127858894
 21
218.0723473023
 31
0.0
 11
86.8046021489
 21
218.2604395811
 31
0.0
 11
87.33549878279999
 21
218.5634285151
 31
0.0
 11
87.778854835
 21
218.9661208133
 31
0.0
 11
88.1124389459
 21
219.4483238874
 31
0.0
 11
88.31952400020001
 21
219.9858583264
 31
0.0
 11
88.3897258172
 21
220.5517702431
 31
0.0
  0
SPLINE
  5
1C1A
330
1B
100
AcDbEntity
  8
0
  6
Continuous
100
AcDbSpline
210
0.0
220
0.0
230
1.0
 70
     8
 71
     3
 72
    12
 73
     8
 74
     6
 42
0.0000000001
 43
0.0000000001
 44
0.0000000001
 40
0.0
 40
0.0
 40
0.0
 40
0.0
 40
0.5937371872268334
 40
1.294251148354129
 40
2.115250222675159
 40
3.046837813614395
 40
3.279658084561744
 40
3.279658084561744
 40
3.279658084561744
 40
3.279658084561744
 10
85.58972581720001
 20
218.0085838215
 30
0.0
 10
85.61361358408382
 20
217.8105881500311
 30
0.0
 10
85.66568505675917
 20
217.3789895729492
 30
0.0
 10
86.01041529547277
 20
216.7483568413744
 30
0.0
 10
86.51802323501453
 20
216.1069197441447
 30
0.0
 10
87.00991943930066
 20
215.6582128808111
 30
0.0
 10
87.31898310110776
 20
215.4235199174281
 30
0.0
 10
87.3807795625
 20
215.3765936804
 30
0.0
 11
85.58972581720001
 21
218.0085838215
 31
0.0
 11
85.69482086269998
 21
217.4242218798
 31
0.0
 11
86.0049545999
 21
216.796100176
 31
0.0
 11
86.5108431119
 21
216.1494810505
 31
0.0
 11
87.19621273670001
 21
215.5185104355
 31
0.0
 11
87.3807795625
 21
215.3765936804
 31
0.0
  0
SPLINE
  5
1C1B
330
1B
100
AcDbEntity
  8
0
  6
Continuous
100
AcDbSpline
210
0.0
220
0.0
230
1.0
 70
     8
 71
     3
 72
    14
 73
    10
 74
     8
 42
0.0000000001
 43
0.0000000001
 44
0.0000000001
 40
0.0
 40
0.0
 40
0.0
 40
0.0
 40
0.740682203327484
 40
1.701990976792548
 40
2.62064384074511
 40
3.475700488984435
 40
4.257745725030063
 40
4.967331592133024
 40
5.611913025305595
 40
5.611913025305595
 40
5.611913025305595
 40
5.611913025305595
 10
87.3807795625
 20
215.3765936804
 30
0.0
 10
87.58340964235993
 20
215.2352189241711
 30
0.0
 10
88.04902710420662
 20
214.9103581966327
 30
0.0
 10
88.82866527984905
 20
214.5097167757449
 30
0.0
 10
89.67940952734215
 20
214.1784906168792
 30
0.0
 10
90.5028217378751
 20
213.953697871202
 30
0.0
 10
91.27449447043009
 20
213.8206313515742
 30
0.0
 10
91.98487171594918
 20
213.7566429919185
 30
0.0
 10
92.43644999750606
 20
213.7605170156857
 30
0.0
 10
92.65140052530001
 20
213.7623610447
 30
0.0
 11
87.3807795625
 21
215.3765936804
 31
0.0
 11
87.9963821307
 21
214.9647155378
 31
0.0
 11
88.8480196533
 21
214.5188141047
 31
0.0
 11
89.70448404219999
 21
214.1865614373
 31
0.0
 11
90.52931670709999
 21
213.9612329069
 31
0.0
 11
91.2998410263
 21
213.8274905249
 31
0.0
 11
92.0068350538
 21
213.766897226
 31
0.0
 11
92.65140052530001
 21
213.7623610447
 31
0.0
  0
SPLINE
  5
1C1C
330
1B
100
AcDbEntity
  8
0
  6
Continuous
100
AcDbSpline
210
0.0
220
0.0
230
1.0
 70
     8
 71
     3
 72
    12
 73
     8
 74
     6
 42
0.0000000001
 43
0.0000000001
 44
0.0000000001
 40
0.0
 40
0.0
 40
0.0
 40
0.0
 40
4.569715155561317
 40
9.244842572724762
 40
14.02473498603365
 40
18.90916645808074
 40
23.89796344170069
 40
23.89796344170069
 40
23.89796344170069
 40
23.89796344170069
 10
92.54383333840001
 20
216.1277109357
 30
0.0
 10
94.06287608543042
 20
216.240832559564
 30
0.0
 10
97.13600221681411
 20
216.469685249194
 30
0.0
 10
101.7938419226439
 20
216.8698770116976
 30
0.0
 10
106.5532618148343
 20
217.3111646225569
 30
0.0
 10
111.4139107560318
 20
217.7924491442436
 30
0.0
 10
114.6867166357681
 20
218.1388111705147
 30
0.0
 10
116.3404172641
 20
218.3138228032
 30
0.0
 11
92.54383333840001
 21
216.1277109357
 31
0.0
 11
97.10028589229999
 21
216.4756142657
 31
0.0
 11
101.7585734801
 21
216.8720649134
 31
0.0
 11
106.5180993041
 21
217.3128431042
 31
0.0
 11
111.3787320769
 21
217.7944236822
 31
0.0
 11
116.3404172641
 21
218.3138228032
 31
0.0
  0
SPLINE
  5
1C1D
330
1B
100
AcDbEntity
  8
0
  6
Continuous
100
AcDbSpline
210
0.0
220
0.0
230
1.0
 70
     8
 71
     3
 72
    11
 73
     7
 74
     5
 42
0.0000000001
 43
0.0000000001
 44
0.0000000001
 40
0.0
 40
0.0
 40
0.0
 40
0.0
 40
0.508320924558491
 40
1.093405793997417
 40
1.724373758826303
 40
2.36790686197861
 40
2.36790686197861
 40
2.36790686197861
 40
2.36790686197861
 10
92.65140052530001
 20
213.7623609806
 30
0.0
 10
92.64072105719936
 20
213.9314663655167
 30
0.0
 10
92.61774936405456
 20
214.2952145386314
 30
0.0
 10
92.58988815426702
 20
214.8693455359859
 30
0.0
 10
92.5639428738356
 20
215.4886702757261
 30
0.0
 10
92.55046047667172
 20
215.9132928130018
 30
0.0
 10
92.5436528175
 20
216.1276972305
 30
0.0
 11
92.65140052530001
 21
213.7623609806
 31
0.0
 11
92.6205087327
 21
214.2697423554
 31
0.0
 11
92.59125024920002
 21
214.8540951988
 31
0.0
 11
92.5651720127
 21
215.4845240197
 31
0.0
 11
92.5436528175
 21
216.1276972305
 31
0.0
  0
SPLINE
  5
1C1E
330
1B
100
AcDbEntity
  8
0
  6
Continuous
100
AcDbSpline
210
0.0
220
0.0
230
1.0
 70
     8
 71
     3
 72
    12
 73
     8
 74
     6
 42
0.0000000001
 43
0.0000000001
 44
0.0000000001
 40
0.0
 40
0.0
 40
0.0
 40
0.0
 40
4.603158327232045
 40
9.308676951895999
 40
14.11647740572106
 40
19.02666299847287
 40
24.03933192629402
 40
24.03933192629402
 40
24.03933192629402
 40
24.03933192629402
 10
92.65140052530001
 20
213.7623610447
 30
0.0
 10
94.18494151086182
 20
213.8136267088306
 30
0.0
 10
97.28612478814245
 20
213.9172980301693
 30
0.0
 10
101.9868949924939
 20
214.1301963447125
 30
0.0
 10
106.788174455616
 20
214.381532974164
 30
0.0
 10
111.6899515807435
 20
214.6701628265382
 30
0.0
 10
114.9904048292224
 20
214.8878635733241
 30
0.0
 10
116.6576750096
 20
214.9978381544
 30
0.0
 11
92.65140052530001
 21
213.7623610447
 31
0.0
 11
97.2516799359
 21
213.9251367492
 31
0.0
 11
101.9525560281
 21
214.1341092183
 31
0.0
 11
106.7538106532
 21
214.3849064048
 31
0.0
 11
111.6554871003
 21
214.6738537412
 31
0.0
 11
116.6576750096
 21
214.9978381544
 31
0.0
  0
SPLINE
  5
1C1F
330
1B
100
AcDbEntity
  8
0
  6
Continuous
100
AcDbSpline
210
0.0
220
0.0
230
1.0
 70
     8
 71
     3
 72
    13
 73
     9
 74
     7
 42
0.0000000001
 43
0.0000000001
 44
0.0000000001
 40
0.0
 40
0.0
 40
0.0
 40
0.0
 40
1.024162335365299
 40
2.025831882467974
 40
2.971188813055511
 40
3.832962698159837
 40
4.599329847567476
 40
5.281273507699142
 40
5.281273507699142
 40
5.281273507699142
 40
5.281273507699142
 10
116.3404172641
 20
218.3138228032
 30
0.0
 10
116.6816150397433
 20
218.33675196493
 30
0.0
 10
117.3565171604884
 20
218.3821067151166
 30
0.0
 10
118.3456267128244
 20
218.2707348256064
 30
0.0
 10
119.2564914179716
 20
218.0404514738113
 30
0.0
 10
120.0474886635249
 20
217.7023083787586
 30
0.0
 10
120.7106414890447
 20
217.2998824422706
 30
0.0
 10
121.0586577911474
 20
216.9635209161503
 30
0.0
 10
121.2225228326
 20
216.8051435784
 30
0.0
 11
116.3404172641
 21
218.3138228032
 31
0.0
 11
117.3638822519
 21
218.3516104722
 31
0.0
 11
118.3599359401
 21
218.2456910131
 31
0.0
 11
119.2752254883
 21
218.009164547
 31
0.0
 11
120.0675562741
 21
217.6702454491
 31
0.0
 11
120.7159076456
 21
217.2616391511
 31
0.0
 11
121.2225228326
 21
216.8051435784
 31
0.0
  0
SPLINE
  5
1C20
330
1B
100
AcDbEntity
  8
0
  6
Continuous
100
AcDbSpline
210
0.0
220
0.0
230
1.0
 70
     8
 71
     3
 72
    13
 73
     9
 74
     7
 42
0.0000000001
 43
0.0000000001
 44
0.0000000001
 40
0.0
 40
0.0
 40
0.0
 40
0.0
 40
0.4456001142780744
 40
0.9698472564028471
 40
1.54833789827496
 40
2.154007356299191
 40
2.758470462222882
 40
3.33340052219097
 40
3.33340052219097
 40
3.33340052219097
 40
3.33340052219097
 10
116.6576750082
 20
214.997827061
 30
0.0
 10
116.6330703807167
 20
215.1443218881702
 30
0.0
 10
116.579518485879
 20
215.4631674217682
 30
0.0
 10
116.5151754608045
 20
215.9753737091769
 30
0.0
 10
116.4549252840599
 20
216.5416622543162
 30
0.0
 10
116.4045436453174
 20
217.1357749481407
 30
0.0
 10
116.3643599607746
 20
217.72949705304
 30
0.0
 10
116.3482672455264
 20
218.122313636278
 30
0.0
 10
116.3404223758
 20
218.3138036909
 30
0.0
 11
116.6576750082
 21
214.997827061
 31
0.0
 11
116.5866579063
 21
215.4377316337
 31
0.0
 11
116.5189970998
 21
215.9575941937
 31
0.0
 11
116.4578900306
 21
216.5328483539
 31
0.0
 11
116.4062244343
 21
217.1363101659
 31
0.0
 11
116.3664418759
 21
217.7394627125
 31
0.0
 11
116.3404223758
 21
218.3138036909
 31
0.0
  0
SPLINE
  5
1C21
330
1B
100
AcDbEntity
  8
0
  6
Continuous
100
AcDbSpline
210
0.0
220
0.0
230
1.0
 70
     8
 71
     3
 72
    13
 73
     9
 74
     7
 42
0.0000000001
 43
0.0000000001
 44
0.0000000001
 40
0.0
 40
0.0
 40
0.0
 40
0.0
 40
0.5371942551878189
 40
1.066964237333088
 40
1.577970815788468
 40
2.056374706100402
 40
2.492470513930507
 40
2.88820895039247
 40
2.88820895039247
 40
2.88820895039247
 40
2.88820895039247
 10
116.6576750096
 20
214.9978381544
 30
0.0
 10
116.8367322955013
 20
215.0115454275925
 30
0.0
 10
117.1923722128041
 20
215.0387705331226
 30
0.0
 10
117.7162656273804
 20
214.9566794228967
 30
0.0
 10
118.199444242428
 20
214.7984924759618
 30
0.0
 10
118.6211671876648
 20
214.5759164222327
 30
0.0
 10
118.9770997764517
 20
214.3183297917976
 30
0.0
 10
119.1659210311365
 20
214.1145371153062
 30
0.0
 10
119.255751221
 20
214.0175843922
 30
0.0
 11
116.6576750096
 21
214.9978381544
 31
0.0
 11
117.1944912223
 21
215.0179881318
 31
0.0
 11
117.7187327661
 21
214.9416530957
 31
0.0
 11
118.2039515258
 21
214.7813705999
 31
0.0
 11
118.6276306726
 21
214.5591854005
 31
0.0
 11
118.9778523459
 21
214.2993309544
 31
0.0
 11
119.255751221
 21
214.0175843922
 31
0.0
  0
SPLINE
  5
1C22
330
1B
100
AcDbEntity
  8
0
  6
Continuous
100
AcDbSpline
210
0.0
220
0.0
230
1.0
 70
     8
 71
     3
 72
    10
 73
     6
 74
     4
 42
0.0000000001
 43
0.0000000001
 44
0.0000000001
 40
0.0
 40
0.0
 40
0.0
 40
0.0
 40
0.9997634528432108
 40
1.870523904475828
 40
2.637311357305714
 40
2.637311357305714
 40
2.637311357305714
 40
2.637311357305714
 10
121.2225228326
 20
216.8051435784
 30
0.0
 10
121.4513261249915
 20
216.5627941386127
 30
0.0
 10
121.8794094147176
 20
216.1093664612263
 30
0.0
 10
122.5169532728697
 20
215.5032384320258
 30
0.0
 10
122.9321905839652
 20
215.1488517478538
 30
0.0
 10
123.1266268867
 20
214.982908961
 30
0.0
 11
121.2225228326
 21
216.8051435784
 31
0.0
 11
121.915816641
 21
216.0848168075
 31
0.0
 11
122.547566462
 21
215.4855539872
 31
0.0
 11
123.1266268867
 21
214.982908961
 31
0.0
  0
SPLINE
  5
1C23
330
1B
100
AcDbEntity
  8
0
  6
Continuous
100
AcDbSpline
210
0.0
220
0.0
230
1.0
 70
     8
 71
     3
 72
    13
 73
     9
 74
     7
 42
0.0000000001
 43
0.0000000001
 44
0.0000000001
 40
0.0
 40
0.0
 40
0.0
 40
0.0
 40
0.4761338206966477
 40
1.014090242249704
 40
1.608567982710131
 40
2.244744280475302
 40
2.902102451443188
 40
3.557547241346983
 40
3.557547241346983
 40
3.557547241346983
 40
3.557547241346983
 10
119.2557517707
 20
214.0175846366
 30
0.0
 10
119.2635942803679
 20
214.1769704917926
 30
0.0
 10
119.2802975939812
 20
214.5164373254382
 30
0.0
 10
119.4765857915905
 20
215.02352235981
 30
0.0
 10
119.7767670548105
 20
215.5324627204939
 30
0.0
 10
120.1836069993826
 20
216.0158727412621
 30
0.0
 10
120.6658539141063
 20
216.4557869224053
 30
0.0
 10
121.0371468544979
 20
216.6888047734437
 30
0.0
 10
121.2225227491
 20
216.8051438898
 30
0.0
 11
119.2557517707
 21
214.0175846366
 31
0.0
 11
119.3028765874
 21
214.4913806548
 31
0.0
 11
119.4818786976
 21
214.9986826911
 31
0.0
 11
119.7828300818
 21
215.5113541729
 31
0.0
 11
120.1890390288
 21
216.0009607223
 31
0.0
 11
120.6779759112
 21
216.440347215
 31
0.0
 11
121.2225227491
 21
216.8051438898
 31
0.0
  0
SPLINE
  5
1C24
330
1B
100
AcDbEntity
  8
0
  6
Continuous
100
AcDbSpline
210
0.0
220
0.0
230
1.0
 70
     8
 71
     3
 72
    10
 73
     6
 74
     4
 42
0.0000000001
 43
0.0000000001
 44
0.0000000001
 40
0.0
 40
0.0
 40
0.0
 40
0.0
 40
1.16143480441272
 40
2.171069503033664
 40
3.058172288291116
 40
3.058172288291116
 40
3.058172288291116
 40
3.058172288291116
 10
119.255751221
 20
214.0175843922
 30
0.0
 10
119.4996067198177
 20
213.7168528172905
 30
0.0
 10
119.9554456826407
 20
213.1546954336778
 30
0.0
 10
120.6319601649542
 20
212.3915591465491
 30
0.0
 10
121.0710943936431
 20
211.9366471345828
 30
0.0
 10
121.2764771631
 20
211.723885107
 30
0.0
 11
119.255751221
 21
214.0175843922
 31
0.0
 11
119.9943105204
 21
213.1212245503
 31
0.0
 11
120.6646045925
 21
212.36619602
 31
0.0
 11
121.2764771631
 21
211.723885107
 31
0.0
  0
SPLINE
  5
1C25
330
1B
100
AcDbEntity
  8
0
  6
Continuous
100
AcDbSpline
210
0.0
220
0.0
230
1.0
 70
     8
 71
     3
 72
    13
 73
     9
 74
     7
 42
0.0000000001
 43
0.0000000001
 44
0.0000000001
 40
0.0
 40
0.0
 40
0.0
 40
0.0
 40
0.0227531376484762
 40
0.0484704057856376
 40
0.0771005990096884
 40
0.1083227559326683
 40
0.1415959072930315
 40
0.1761722262308057
 40
0.1761722262308057
 40
0.1761722262308057
 40
0.1761722262308057
 10
123.1266268867
 20
214.982908961
 30
0.0
 10
123.1328344708314
 20
214.9785041552333
 30
0.0
 10
123.1460583226995
 20
214.9691207143112
 30
0.0
 10
123.1703615206789
 20
214.9600533803698
 30
0.0
 10
123.1982045542149
 20
214.9536894230737
 30
0.0
 10
123.2291894978667
 20
214.9507859062148
 30
0.0
 10
123.2622860237108
 20
214.9509908839648
 30
0.0
 10
123.2847385774674
 20
214.9538525404845
 30
0.0
 10
123.2961804746
 20
214.9553108503
 30
0.0
 11
123.1266268867
 21
214.982908961
 31
0.0
 11
123.1457024102
 21
214.9705061518
 31
0.0
 11
123.1695670941
 21
214.9609220638
 31
0.0
 11
123.1974616625
 21
214.9544737293
 31
0.0
 11
123.2285274032
 21
214.9513523774
 31
0.0
 11
123.2617992886
 21
214.9516426245
 31
0.0
 11
123.2961804746
 21
214.9553108503
 31
0.0
  0
SPLINE
  5
1C26
330
1B
100
AcDbEntity
  8
0
  6
Continuous
100
AcDbSpline
210
0.0
220
0.0
230
1.0
 70
     8
 71
     3
 72
    13
 73
     9
 74
     7
 42
0.0000000001
 43
0.0000000001
 44
0.0000000001
 40
0.0
 40
0.0
 40
0.0
 40
0.0
 40
0.5882854839321796
 40
1.221158285064088
 40
1.893033564756592
 40
2.590218834844464
 40
3.294383728974557
 40
3.985992287824721
 40
3.985992287824721
 40
3.985992287824721
 40
3.985992287824721
 10
121.2764813311
 20
211.7238870221
 30
0.0
 10
121.2553774916609
 20
211.9199771011623
 30
0.0
 10
121.2115703111653
 20
212.3270193131598
 30
0.0
 10
121.3517704213999
 20
212.9522413961493
 30
0.0
 10
121.6224875291615
 20
213.565642645874
 30
0.0
 10
122.026151751969
 20
214.1313086839579
 30
0.0
 10
122.5267815548693
 20
214.626035750175
 30
0.0
 10
122.9278811998012
 20
214.8646668077561
 30
0.0
 10
123.1266268822
 20
214.9829089777
 30
0.0
 11
121.2764813311
 21
211.7238870221
 31
0.0
 11
121.244325583
 21
212.3112930303
 31
0.0
 11
121.3676586574
 21
212.9320320537
 31
0.0
 11
121.6386756502
 21
213.5468215958
 31
0.0
 11
122.0402257144
 21
214.1167556681
 31
0.0
 11
122.5468974215
 21
214.6057668943
 31
0.0
 11
123.1266268822
 21
214.9829089777
 31
0.0
  0
SPLINE
  5
1C27
330
1B
100
AcDbEntity
  8
0
  6
Continuous
100
AcDbSpline
210
0.0
220
0.0
230
1.0
 70
     8
 71
     3
 72
    13
 73
     9
 74
     7
 42
0.0000000001
 43
0.0000000001
 44
0.0000000001
 40
0.0
 40
0.0
 40
0.0
 40
0.0
 40
0.4494488469032316
 40
0.9182378690435908
 40
1.405914037857808
 40
1.909676186014333
 40
2.425101415248322
 40
2.947054070677958
 40
2.947054070677958
 40
2.947054070677958
 40
2.947054070677958
 10
121.2764771631
 20
211.723885107
 30
0.0
 10
121.3724992971579
 20
211.6083401436354
 30
0.0
 10
121.5686754813129
 20
211.3722782165224
 30
0.0
 10
121.9453568807711
 20
211.0873520595883
 30
0.0
 10
122.3741426834433
 20
210.8538481625813
 30
0.0
 10
122.8491244500469
 20
210.685335505071
 30
0.0
 10
123.3542008819372
 20
210.5788883613398
 30
0.0
 10
123.7003764708421
 20
210.5677411786138
 30
0.0
 10
123.8745533745
 20
210.5621325169
 30
0.0
 11
121.2764771631
 21
211.723885107
 31
0.0
 11
121.5764851614
 21
211.3892218928
 31
0.0
 11
121.9462053723
 21
211.1010030299
 31
0.0
 11
122.3745931598
 21
210.867953788
 31
0.0
 11
122.8485647966
 21
210.6972868919
 31
0.0
 11
123.3535913881
 21
210.5942756847
 31
0.0
 11
123.8745533745
 21
210.5621325169
 31
0.0
  0
SPLINE
  5
1C28
330
1B
100
AcDbEntity
  8
0
  6
Continuous
100
AcDbSpline
210
0.0
220
0.0
230
1.0
 70
     8
 71
     3
 72
     9
 73
     5
 74
     3
 42
0.0000000001
 43
0.0000000001
 44
0.0000000001
 40
0.0
 40
0.0
 40
0.0
 40
0.0
 40
1.421534210277682
 40
2.829092282714418
 40
2.829092282714418
 40
2.829092282714418
 40
2.829092282714418
 10
123.2961804746
 20
214.9553108503
 30
0.0
 10
123.7645240129282
 20
215.0273050491019
 30
0.0
 10
124.6966064632583
 20
215.1705856193184
 30
0.0
 10
125.628689506972
 20
215.3138623293453
 30
0.0
 10
126.0924287142
 20
215.3851467802
 30
0.0
 11
123.2961804746
 21
214.9553108503
 31
0.0
 11
124.7012112394
 21
215.1712924721
 31
0.0
 11
126.0924287142
 21
215.3851467802
 31
0.0
  0
SPLINE
  5
1C29
330
1B
100
AcDbEntity
  8
0
  6
Continuous
100
AcDbSpline
210
0.0
220
0.0
230
1.0
 70
     8
 71
     3
 72
    15
 73
    11
 74
     9
 42
0.0000000001
 43
0.0000000001
 44
0.0000000001
 40
0.0
 40
0.0
 40
0.0
 40
0.0
 40
0.4515612152293705
 40
0.9913893480340423
 40
1.593124498862372
 40
2.22672569544179
 40
2.860326891741137
 40
3.462062041750861
 40
4.001890173407297
 40
4.453451386916451
 40
4.453451386916451
 40
4.453451386916451
 40
4.453451386916451
 10
123.8745533745
 20
210.5621325618
 30
0.0
 10
123.8275584913127
 20
210.7051914750151
 30
0.0
 10
123.7243826094328
 20
211.0192731054107
 30
0.0
 10
123.6032031652372
 20
211.5368633619284
 30
0.0
 10
123.4904696507476
 20
212.1177872546123
 30
0.0
 10
123.3977598283325
 20
212.7340227456872
 30
0.0
 10
123.3278171594137
 20
213.3532555890911
 30
0.0
 10
123.2863552055077
 20
213.9435625599693
 30
0.0
 10
123.2694433440819
 20
214.474879902956
 30
0.0
 10
123.2878132848055
 20
214.8049633436146
 30
0.0
 10
123.2961804846
 20
214.9553108128
 30
0.0
 11
123.8745533745
 21
210.5621325618
 31
0.0
 11
123.7393293691
 21
210.9929712781
 31
0.0
 11
123.6111178405
 21
211.5173530254
 31
0.0
 11
123.496567611
 21
212.1080842982
 31
0.0
 11
123.4016190519
 21
212.7345308222
 31
0.0
 11
123.3311960267
 21
213.3642061937
 31
0.0
 11
123.288950548
 21
213.9644565667
 31
0.0
 11
123.2770733913
 21
214.5041540235
 31
0.0
 11
123.2961804846
 21
214.9553108128
 31
0.0
  0
SPLINE
  5
1C2A
330
1B
100
AcDbEntity
  8
0
  6
Continuous
100
AcDbSpline
210
0.0
220
0.0
230
1.0
 70
     8
 71
     3
 72
     9
 73
     5
 74
     3
 42
0.0000000001
 43
0.0000000001
 44
0.0000000001
 40
0.0
 40
0.0
 40
0.0
 40
0.0
 40
1.421534320248635
 40
2.82909481459296
 40
2.82909481459296
 40
2.82909481459296
 40
2.82909481459296
 10
123.8745533745
 20
210.5621325169
 30
0.0
 10
124.3455719734617
 20
210.6138079339382
 30
0.0
 10
125.2829790109972
 20
210.7166507934472
 30
0.0
 10
126.2203859444236
 20
210.8194946019006
 30
0.0
 10
126.6867743312
 20
210.8706625165
 30
0.0
 11
123.8745533745
 21
210.5621325169
 31
0.0
 11
125.2876091451
 21
210.7171590076
 31
0.0
 11
126.6867743312
 21
210.8706625165
 31
0.0
  0
SPLINE
  5
1C2B
330
1B
100
AcDbEntity
  8
0
  6
Continuous
100
AcDbSpline
210
0.0
220
0.0
230
1.0
 70
     8
 71
     3
 72
    11
 73
     7
 74
     5
 42
0.0000000001
 43
0.0000000001
 44
0.0000000001
 40
0.0
 40
0.0
 40
0.0
 40
0.0
 40
0.9313051696100176
 40
1.959902377642852
 40
3.08688955329961
 40
4.313879194457452
 40
4.313879194457452
 40
4.313879194457452
 40
4.313879194457452
 10
126.0924302622
 20
215.3851427991
 30
0.0
 10
126.3995756637886
 20
215.4304218468401
 30
0.0
 10
127.0459534811774
 20
215.5257101757564
 30
0.0
 10
128.0695904084101
 20
215.6326686368442
 30
0.0
 10
129.1944347298575
 20
215.7154689422277
 30
0.0
 10
129.9790041015064
 20
215.7335989130906
 30
0.0
 10
130.3879539624
 20
215.7430490004
 30
0.0
 11
126.0924302622
 21
215.3851427991
 31
0.0
 11
127.01466607
 21
215.5147978559
 31
0.0
 11
128.0374214793
 21
215.6242674367
 31
0.0
 11
129.1615868307
 21
215.7039691105
 31
0.0
 11
130.3879539624
 21
215.7430490004
 31
0.0
  0
SPLINE
  5
1C2C
330
1B
100
AcDbEntity
  8
0
  6
Continuous
100
AcDbSpline
210
0.0
220
0.0
230
1.0
 70
     8
 71
     3
 72
    15
 73
    11
 74
     9
 42
0.0000000001
 43
0.0000000001
 44
0.0000000001
 40
0.0
 40
0.0
 40
0.0
 40
0.0
 40
0.4560821617193736
 40
1.010005503914479
 40
1.63294547211274
 40
2.291516375877739
 40
2.950087627407791
 40
3.573028617169008
 40
4.126953589141772
 40
4.583037875643026
 40
4.583037875643026
 40
4.583037875643026
 40
4.583037875643026
 10
126.6867743312
 20
210.8706627341
 30
0.0
 10
126.6353134215005
 20
211.0138039522686
 30
0.0
 10
126.5213519329893
 20
211.3307938069964
 30
0.0
 10
126.390587645582
 20
211.859958073059
 30
0.0
 10
126.2694117563693
 20
212.4596830093312
 30
0.0
 10
126.1717786128105
 20
213.0992231661857
 30
0.0
 10
126.1005593761577
 20
213.7422411294304
 30
0.0
 10
126.0623855417297
 20
214.3528945337984
 30
0.0
 10
126.0517358555918
 20
214.8978738254919
 30
0.0
 10
126.0797707157024
 20
215.2335592095508
 30
0.0
 10
126.0924302622
 20
215.3851427991
 30
0.0
 11
126.6867743312
 21
210.8706627341
 31
0.0
 11
126.5391372485
 21
211.3021882027
 31
0.0
 11
126.3997797362
 21
211.838295051
 31
0.0
 11
126.2765170412
 21
212.4489181033
 31
0.0
 11
126.1762618041
 21
213.0998132736
 31
0.0
 11
126.1046363945
 21
213.7544779924
 31
0.0
 11
126.0656576049
 21
214.3761982918
 31
0.0
 11
126.061511387
 21
214.930107746
 31
0.0
 11
126.0924302622
 21
215.3851427991
 31
0.0
  0
SPLINE
  5
1C2D
330
1B
100
AcDbEntity
  8
0
  6
Continuous
100
AcDbSpline
210
0.0
220
0.0
230
1.0
 70
     8
 71
     3
 72
    11
 73
     7
 74
     5
 42
0.0000000001
 43
0.0000000001
 44
0.0000000001
 40
0.0
 40
0.0
 40
0.0
 40
0.0
 40
0.7992299750002151
 40
1.683502958464566
 40
2.653543091325976
 40
3.710061876142563
 40
3.710061876142563
 40
3.710061876142563
 40
3.710061876142563
 10
126.6867743312
 20
210.8706625165
 30
0.0
 10
126.9518124090614
 20
210.8978133225401
 30
0.0
 10
127.5100902541652
 20
210.955003948171
 30
0.0
 10
128.3925866735739
 20
211.0165426692192
 30
0.0
 10
129.3619863512415
 20
211.061698698499
 30
0.0
 10
130.0375368176156
 20
211.0677246752221
 30
0.0
 10
130.3897258172
 20
211.0708662358
 30
0.0
 11
126.6867743312
 21
210.8706625165
 31
0.0
 11
127.4822513258
 21
210.9480246778
 31
0.0
 11
128.3642563884
 21
211.0113159002
 31
0.0
 11
129.333333265
 21
211.0545347225
 31
0.0
 11
130.3897258172
 21
211.0708662358
 31
0.0
  0
SPLINE
  5
1C2E
330
1B
100
AcDbEntity
  8
0
  6
Continuous
100
AcDbSpline
210
0.0
220
0.0
230
1.0
 70
     8
 71
     3
 72
    10
 73
     6
 74
     4
 42
0.0000000001
 43
0.0000000001
 44
0.0000000001
 40
0.0
 40
0.0
 40
0.0
 40
0.0
 40
1.772343985175221
 40
3.559178726064949
 40
5.356419812791119
 40
5.356419812791119
 40
5.356419812791119
 40
5.356419812791119
 10
130.387953965
 20
215.7430455762
 30
0.0
 10
130.9789456754299
 20
215.732484915794
 30
0.0
 10
132.1657610682865
 20
215.7112772505978
 30
0.0
 10
133.9404884649461
 20
215.4686629175966
 30
0.0
 10
135.0974491271268
 20
215.1682966385839
 30
0.0
 10
135.6776090729
 20
215.0176774431
 30
0.0
 11
130.387953965
 21
215.7430455762
 31
0.0
 11
132.1590537624
 21
215.676647463
 31
0.0
 11
133.9294495772
 21
215.4348271781
 31
0.0
 11
135.6776090729
 21
215.0176774431
 31
0.0
  0
SPLINE
  5
1C2F
330
1B
100
AcDbEntity
  8
0
  6
Continuous
100
AcDbSpline
210
0.0
220
0.0
230
1.0
 70
     8
 71
     3
 72
    10
 73
     6
 74
     4
 42
0.0000000001
 43
0.0000000001
 44
0.0000000001
 40
0.0
 40
0.0
 40
0.0
 40
0.0
 40
1.273665668615685
 40
2.562838113210492
 40
3.865462412466107
 40
3.865462412466107
 40
3.865462412466107
 40
3.865462412466107
 10
130.3897258172
 20
211.0708662358
 30
0.0
 10
130.8143347222801
 20
211.0573797407219
 30
0.0
 10
131.6687221113432
 20
211.0302425535843
 30
0.0
 10
132.9454766331342
 20
210.8245228241764
 30
0.0
 10
133.7753150565935
 20
210.5825077249509
 30
0.0
 10
134.1923877678
 20
210.4608721261
 30
0.0
 11
130.3897258172
 21
211.0708662358
 31
0.0
 11
131.6616045526
 21
211.0034220526
 31
0.0
 11
132.9345446793
 21
210.7994881767
 31
0.0
 11
134.1923877678
 21
210.4608721261
 31
0.0
  0
SPLINE
  5
1C30
330
1B
100
AcDbEntity
  8
0
  6
Continuous
100
AcDbSpline
210
0.0
220
0.0
230
1.0
 70
     8
 71
     3
 72
    12
 73
     8
 74
     6
 42
0.0000000001
 43
0.0000000001
 44
0.0000000001
 40
0.0
 40
0.0
 40
0.0
 40
0.0
 40
1.833473222174118
 40
3.540573159289307
 40
5.068146324598168
 40
6.390517208521682
 40
7.507459710831991
 40
7.507459710831991
 40
7.507459710831991
 40
7.507459710831991
 10
135.6776113843
 20
215.0176875081
 30
0.0
 10
136.2585724523869
 20
214.827561144095
 30
0.0
 10
137.3804514846977
 20
214.4604129942731
 30
0.0
 10
138.9522757245065
 20
213.8387266378177
 30
0.0
 10
140.342661149994
 20
213.2265030220968
 30
0.0
 10
141.5345553155273
 20
212.6531395258292
 30
0.0
 10
142.2545124567416
 20
212.2751660440663
 30
0.0
 10
142.5841751952
 20
212.1020949459
 30
0.0
 11
135.6776113843
 21
215.0176875081
 31
0.0
 11
137.4141087445
 21
214.4292990527
 31
0.0
 11
139.003421214
 21
213.8061810305
 31
0.0
 11
140.401465716
 21
213.1905907887
 31
0.0
 11
141.5924694941
 21
212.6159824393
 31
0.0
 11
142.5841751952
 21
212.1020949459
 31
0.0
  0
SPLINE
  5
1C31
330
1B
100
AcDbEntity
  8
0
  6
Continuous
100
AcDbSpline
210
0.0
220
0.0
230
1.0
 70
     8
 71
     3
 72
    16
 73
    12
 74
    10
 42
0.0000000001
 43
0.0000000001
 44
0.0000000001
 40
0.0
 40
0.0
 40
0.0
 40
0.0
 40
0.4090579485568704
 40
0.9184933793842708
 40
1.501859755598288
 40
2.128850646953497
 40
2.766885280927167
 40
3.382807380890974
 40
3.944613077686604
 40
4.423120741539767
 40
4.793501911189287
 40
4.793501911189287
 40
4.793501911189287
 40
4.793501911189287
 10
134.192388617
 20
210.4608745987
 30
0.0
 10
134.2302313379881
 20
210.5918724414679
 30
0.0
 10
134.3152028898381
 20
210.8860132880653
 30
0.0
 10
134.4616109936464
 20
211.3647626533922
 30
0.0
 10
134.63252502583
 20
211.9119553694587
 30
0.0
 10
134.82013547209
 20
212.4988337188918
 30
0.0
 10
135.0144220133543
 20
213.0949564670551
 30
0.0
 10
135.2052527808362
 20
213.669346612037
 30
0.0
 10
135.3830442551837
 20
214.1920117691237
 30
0.0
 10
135.5372533249372
 20
214.6362603688256
 30
0.0
 10
135.634974495132
 20
214.9018189830579
 30
0.0
 10
135.6776115047
 20
215.0176856387
 30
0.0
 11
134.192388617
 21
210.4608745987
 31
0.0
 11
134.3068226835
 21
210.8536000113
 31
0.0
 11
134.454854157
 21
211.3410537435
 31
0.0
 11
134.6287853044
 21
211.8978879063
 31
0.0
 11
134.8195715938
 21
212.4951467862
 31
0.0
 11
135.0172920156
 21
213.1017725596
 31
0.0
 11
135.2116649812
 21
213.686220319
 31
0.0
 11
135.392582972
 21
214.2180984268
 31
0.0
 11
135.5506381366
 21
214.6697488993
 31
0.0
 11
135.6776115047
 21
215.0176856387
 31
0.0
  0
SPLINE
  5
1C32
330
1B
100
AcDbEntity
  8
0
  6
Continuous
100
AcDbSpline
210
0.0
220
0.0
230
1.0
 70
     8
 71
     3
 72
    12
 73
     8
 74
     6
 42
0.0000000001
 43
0.0000000001
 44
0.0000000001
 40
0.0
 40
0.0
 40
0.0
 40
0.0
 40
1.535783295554802
 40
2.971354313774127
 40
4.26026646743073
 40
5.378815155760179
 40
6.326160602470606
 40
6.326160602470606
 40
6.326160602470606
 40
6.326160602470606
 10
134.1923877678
 20
210.4608721261
 30
0.0
 10
134.6766821369329
 20
210.2945449686674
 30
0.0
 10
135.6136699053405
 20
209.9727437626212
 30
0.0
 10
136.9230168646461
 20
209.420431033375
 30
0.0
 10
138.0814489302552
 20
208.8731550946282
 30
0.0
 10
139.0745700286214
 20
208.3583802611408
 30
0.0
 10
139.6735330413845
 20
208.0185143331451
 30
0.0
 10
139.9481961392
 20
207.8626639273
 30
0.0
 11
134.1923877678
 21
210.4608721261
 31
0.0
 11
135.638919696
 21
209.9449499308
 31
0.0
 11
136.9636263214
 21
209.3917623451
 31
0.0
 11
138.1290711594
 21
208.8412781315
 31
0.0
 11
139.1215568245
 21
208.3254066623
 31
0.0
 11
139.9481961392
 21
207.8626639273
 31
0.0
  0
SPLINE
  5
1C33
330
1B
100
AcDbEntity
  8
0
  6
Continuous
100
AcDbSpline
210
0.0
220
0.0
230
1.0
 70
     8
 71
     3
 72
    13
 73
     9
 74
     7
 42
0.0000000001
 43
0.0000000001
 44
0.0000000001
 40
0.0
 40
0.0
 40
0.0
 40
0.0
 40
0.0675922522617748
 40
0.1462686580789524
 40
0.2327869395021123
 40
0.3234236572328418
 40
0.4142217564133864
 40
0.5009377257687426
 40
0.5009377257687426
 40
0.5009377257687426
 40
0.5009377257687426
 10
142.5841751952
 20
212.1020949459
 30
0.0
 10
142.6042520166943
 20
212.0918606847329
 30
0.0
 10
142.6476979685629
 20
212.0697138913171
 30
0.0
 10
142.7188109504441
 20
212.0385756304115
 30
0.0
 10
142.7978211417855
 20
212.0064769279435
 30
0.0
 10
142.8815418750102
 20
211.9753251193062
 30
0.0
 10
142.9660334599623
 20
211.9461106118755
 30
0.0
 10
143.0226154354896
 20
211.9287839904996
 30
0.0
 10
143.0502558411
 20
211.9203199021
 30
0.0
 11
142.5841751952
 21
212.1020949459
 31
0.0
 11
142.6446698094
 21
212.0719434249
 31
0.0
 11
142.716540963
 21
212.0399353929
 31
0.0
 11
142.7967016891
 21
212.0073828045
 31
0.0
 11
142.8816111832
 21
211.975674881
 31
0.0
 11
142.9674895213
 21
211.9461925836
 31
0.0
 11
143.0502558411
 21
211.9203199021
 31
0.0
  0
SPLINE
  5
1C34
330
1B
100
AcDbEntity
  8
0
  6
Continuous
100
AcDbSpline
210
0.0
220
0.0
230
1.0
 70
     8
 71
     3
 72
    16
 73
    12
 74
    10
 42
0.0000000001
 43
0.0000000001
 44
0.0000000001
 40
0.0
 40
0.0
 40
0.0
 40
0.0
 40
0.5186169115704555
 40
1.105870686684256
 40
1.748512523602845
 40
2.424747522323452
 40
3.108380641724143
 40
3.772309806138848
 40
4.391895723751141
 40
4.948676822853333
 40
5.435038320387915
 40
5.435038320387915
 40
5.435038320387915
 40
5.435038320387915
 10
139.9478147954
 20
207.8628866563
 30
0.0
 10
139.9180268643395
 20
208.033945640458
 30
0.0
 10
139.8545086892824
 20
208.3987025777155
 30
0.0
 10
139.9228036975793
 20
208.9843173843208
 30
0.0
 10
140.0891509718404
 20
209.5986531925826
 30
0.0
 10
140.3610522507089
 20
210.2114117379688
 30
0.0
 10
140.7178997830307
 20
210.7859972690912
 30
0.0
 10
141.1404100553394
 20
211.2915141602946
 30
0.0
 10
141.6053195182888
 20
211.6932507018158
 30
0.0
 10
142.0843466139434
 20
211.9878433093259
 30
0.0
 10
142.4252365069019
 20
212.0657644860066
 30
0.0
 10
142.5841751979
 20
212.1020949554
 30
0.0
 11
139.9478147954
 21
207.8628866563
 31
0.0
 11
139.8819202456
 21
208.3773003121
 31
0.0
 11
139.9341587448
 21
208.9622260643
 31
0.0
 11
140.1014097602
 21
209.5827223402
 31
0.0
 11
140.3736822901
 21
210.201722698
 31
0.0
 11
140.7347116886
 21
210.7822500577
 31
0.0
 11
141.1629312606
 21
211.2896255927
 31
0.0
 11
141.6327605849
 21
211.6935403304
 31
0.0
 11
142.1161336041
 21
211.9698657122
 31
0.0
 11
142.5841751979
 21
212.1020949554
 31
0.0
  0
SPLINE
  5
1C35
330
1B
100
AcDbEntity
  8
0
  6
Continuous
100
AcDbSpline
210
0.0
220
0.0
230
1.0
 70
     8
 71
     3
 72
    13
 73
     9
 74
     7
 42
0.0000000001
 43
0.0000000001
 44
0.0000000001
 40
0.0
 40
0.0
 40
0.0
 40
0.0
 40
0.319475055538505
 40
0.746635075777667
 40
1.263133619246311
 40
1.846197560294771
 40
2.469847878136374
 40
3.106043417080658
 40
3.106043417080658
 40
3.106043417080658
 40
3.106043417080658
 10
139.9478147954
 20
207.8628866563
 30
0.0
 10
140.0261125326697
 20
207.9350710067641
 30
0.0
 10
140.209099704864
 20
208.1037707754765
 30
0.0
 10
140.52527441343
 20
208.3818631440836
 30
0.0
 10
140.9098163536814
 20
208.7152103458021
 30
0.0
 10
141.3498752297792
 20
209.0844099777146
 30
0.0
 10
141.8256213214887
 20
209.4731273968999
 30
0.0
 10
142.1578130345417
 20
209.7300716146821
 30
0.0
 10
142.3255628309
 20
209.8598230158
 30
0.0
 11
139.9478147954
 21
207.8628866563
 31
0.0
 11
140.183422576
 21
208.0786487587
 31
0.0
 11
140.5032145923
 21
208.3618425955
 31
0.0
 11
140.893898681
 21
208.699683813
 31
0.0
 11
141.3402933445
 21
209.0747776196
 31
0.0
 11
141.8240890931
 21
209.4683273529
 31
0.0
 11
142.3255628309
 21
209.8598230158
 31
0.0
  0
SPLINE
  5
1C36
330
1B
100
AcDbEntity
  8
0
  6
Continuous
100
AcDbSpline
210
0.0
220
0.0
230
1.0
 70
     8
 71
     3
 72
     9
 73
     5
 74
     3
 42
0.0000000001
 43
0.0000000001
 44
0.0000000001
 40
0.0
 40
0.0
 40
0.0
 40
0.0
 40
1.023746874240053
 40
2.024655406488026
 40
2.024655406488026
 40
2.024655406488026
 40
2.024655406488026
 10
143.0502558411
 20
211.9203199021
 30
0.0
 10
143.3773733336926
 20
211.8231314897292
 30
0.0
 10
144.0243107911827
 20
211.6309228007398
 30
0.0
 10
144.6700833978763
 20
211.434836256514
 30
0.0
 10
144.9893275072
 20
211.3378989236
 30
0.0
 11
143.0502558411
 21
211.9203199021
 31
0.0
 11
144.0313104993
 21
211.6277632065
 31
0.0
 11
144.9893275072
 21
211.3378989236
 31
0.0
  0
SPLINE
  5
1C37
330
1B
100
AcDbEntity
  8
0
  6
Continuous
100
AcDbSpline
210
0.0
220
0.0
230
1.0
 70
     8
 71
     3
 72
    12
 73
     8
 74
     6
 42
0.0000000001
 43
0.0000000001
 44
0.0000000001
 40
0.0
 40
0.0
 40
0.0
 40
0.0
 40
0.5793275948797009
 40
1.110130835919915
 40
1.567962567917353
 40
1.9318183093181
 40
2.185237301722257
 40
2.185237301722257
 40
2.185237301722257
 40
2.185237301722257
 10
142.3255634374
 20
209.8598214281
 30
0.0
 10
142.3837341719891
 20
210.043960783044
 30
0.0
 10
142.4952032730404
 20
210.3968160204545
 30
0.0
 10
142.6600865460762
 20
210.8928323298627
 30
0.0
 10
142.8097014274081
 20
211.3180659612597
 30
0.0
 10
142.9333590612829
 20
211.6546113276079
 30
0.0
 10
143.0162325542237
 20
211.8429843348316
 30
0.0
 10
143.0502558439
 20
211.9203199118
 30
0.0
 11
142.3255634374
 21
209.8598214281
 31
0.0
 11
142.5015107426
 21
210.4117842964
 31
0.0
 11
142.6693172742
 21
210.915364527
 31
0.0
 11
142.8212189329
 21
211.3472624095
 31
0.0
 11
142.9501875041
 21
211.6874948421
 31
0.0
 11
143.0502558439
 21
211.9203199118
 31
0.0
  0
SPLINE
  5
1C38
330
1B
100
AcDbEntity
  8
0
  6
Continuous
100
AcDbSpline
210
0.0
220
0.0
230
1.0
 70
     8
 71
     3
 72
     9
 73
     5
 74
     3
 42
0.0000000001
 43
0.0000000001
 44
0.0000000001
 40
0.0
 40
0.0
 40
0.0
 40
0.0
 40
0.9931874783995734
 40
1.963431223539237
 40
1.963431223539237
 40
1.963431223539237
 40
1.963431223539237
 10
142.3255595781
 20
209.8598220424
 30
0.0
 10
142.6526095035799
 20
209.8084321099556
 30
0.0
 10
143.2991541382125
 20
209.7068394095527
 30
0.0
 10
143.9453244473829
 20
209.6028925444687
 30
0.0
 10
144.2646341809
 20
209.551526449
 30
0.0
 11
142.3255595781
 21
209.8598220424
 31
0.0
 11
143.3066135733
 21
209.7050498687
 31
0.0
 11
144.2646341809
 21
209.551526449
 31
0.0
  0
SPLINE
  5
1C39
330
1B
100
AcDbEntity
  8
0
  6
Continuous
100
AcDbSpline
210
0.0
220
0.0
230
1.0
 70
     8
 71
     3
 72
    12
 73
     8
 74
     6
 42
0.0000000001
 43
0.0000000001
 44
0.0000000001
 40
0.0
 40
0.0
 40
0.0
 40
0.0
 40
0.6282080143473595
 40
1.257626484353505
 40
1.888622773692197
 40
2.521588701307283
 40
3.158807240619757
 40
3.158807240619757
 40
3.158807240619757
 40
3.158807240619757
 10
144.9893275072
 20
211.3378989236
 30
0.0
 10
145.1892068919401
 20
211.2740676982843
 30
0.0
 10
145.5893507968005
 20
211.146282255163
 30
0.0
 10
146.1426196214298
 20
210.8371398559502
 30
0.0
 10
146.6420101944359
 20
210.448747833879
 30
0.0
 10
147.0807329425137
 20
209.9855687062077
 30
0.0
 10
147.3054288461319
 20
209.6257099673756
 30
0.0
 10
147.4181529419
 20
209.4451781896
 30
0.0
 11
144.9893275072
 21
211.3378989236
 31
0.0
 11
145.5810498292
 21
211.1269249846
 31
0.0
 11
146.1329818266
 21
210.824371385
 31
0.0
 11
146.6310977665
 21
210.4370255091
 31
0.0
 11
147.0627619191
 21
209.9740871494
 31
0.0
 11
147.4181529419
 21
209.4451781896
 31
0.0
  0
SPLINE
  5
1C3A
330
1B
100
AcDbEntity
  8
0
  6
Continuous
100
AcDbSpline
210
0.0
220
0.0
230
1.0
 70
     8
 71
     3
 72
    11
 73
     7
 74
     5
 42
0.0000000001
 43
0.0000000001
 44
0.0000000001
 40
0.0
 40
0.0
 40
0.0
 40
0.0
 40
0.6399447099750866
 40
1.1958799963075
 40
1.634441267831395
 40
1.930192959643434
 40
1.930192959643434
 40
1.930192959643434
 40
1.930192959643434
 10
144.2646341809
 20
209.5515261806
 30
0.0
 10
144.334139524954
 20
209.7532409026491
 30
0.0
 10
144.4640258249657
 20
210.1301900316898
 30
0.0
 10
144.6604863354336
 20
210.6381905383901
 30
0.0
 10
144.8239259721794
 20
211.0367395587919
 30
0.0
 10
144.9418325782279
 20
211.2514127743015
 30
0.0
 10
144.9893206111999
 20
211.3378745009
 30
0.0
 11
144.2646341809
 21
209.5515261806
 31
0.0
 11
144.4771188423
 21
210.1551647318
 31
0.0
 11
144.6766062601
 21
210.6740759118
 31
0.0
 11
144.8508938863
 21
211.076518221
 31
0.0
 11
144.9893206111999
 21
211.3378745009
 31
0.0
  0
SPLINE
  5
1C3B
330
1B
100
AcDbEntity
  8
0
  6
Continuous
100
AcDbSpline
210
0.0
220
0.0
230
1.0
 70
     8
 71
     3
 72
    12
 73
     8
 74
     6
 42
0.0000000001
 43
0.0000000001
 44
0.0000000001
 40
0.0
 40
0.0
 40
0.0
 40
0.0
 40
0.1811853256742025
 40
0.3556658368077427
 40
0.5208682693202589
 40
0.6753593738392181
 40
0.8188782048533698
 40
0.8188782048533698
 40
0.8188782048533698
 40
0.8188782048533698
 10
144.2646341809
 20
209.551526449
 30
0.0
 10
144.3240098327654
 20
209.5402196678048
 30
0.0
 10
144.4405639236011
 20
209.5180245160703
 30
0.0
 10
144.6059376989186
 20
209.463259164067
 30
0.0
 10
144.7554625760347
 20
209.3937002155299
 30
0.0
 10
144.8871762329694
 20
209.3112372700253
 30
0.0
 10
144.9587922157858
 20
209.2420718005395
 30
0.0
 10
144.9932818113
 20
209.2087623496
 30
0.0
 11
144.2646341809
 21
209.551526449
 31
0.0
 11
144.4418187132
 21
209.513661376
 31
0.0
 11
144.6075461866
 21
209.4590916653
 31
0.0
 11
144.7571475417
 21
209.3890111526
 31
0.0
 11
144.8867694952
 21
209.3049537285
 31
0.0
 11
144.9932818113
 21
209.2087623496
 31
0.0
  0
SPLINE
  5
1C3C
330
1B
100
AcDbEntity
  8
0
  6
Continuous
100
AcDbSpline
210
0.0
220
0.0
230
1.0
 70
     8
 71
     3
 72
    15
 73
    11
 74
     9
 42
0.0000000001
 43
0.0000000001
 44
0.0000000001
 40
0.0
 40
0.0
 40
0.0
 40
0.0
 40
0.9113040676961091
 40
1.662298804290927
 40
2.268694776005605
 40
2.744900443827211
 40
3.105968180692696
 40
3.369273747094453
 40
3.552547911490616
 40
3.671830846352454
 40
3.671830846352454
 40
3.671830846352454
 40
3.671830846352454
 10
147.4181529419
 20
209.4451781896
 30
0.0
 10
147.5495660914844
 20
209.171299214849
 30
0.0
 10
147.7892752392494
 20
208.6717198665421
 30
0.0
 10
148.1033788198484
 20
207.9837652840288
 30
0.0
 10
148.3506592983629
 20
207.4248091510885
 30
0.0
 10
148.539928485328
 20
206.9823608134359
 30
0.0
 10
148.6803684692137
 20
206.6434274887214
 30
0.0
 10
148.7797359565668
 20
206.3932289060267
 30
0.0
 10
148.8472749087071
 20
206.2170728550883
 30
0.0
 10
148.8796437433153
 20
206.1215485030617
 30
0.0
 10
148.8924051348
 20
206.0838880909
 30
0.0
 11
147.4181529419
 21
209.4451781896
 31
0.0
 11
147.8095186361
 21
208.6221909496
 31
0.0
 11
148.1219069268
 21
207.9392512376
 31
0.0
 11
148.3669404237
 21
207.3845669491
 31
0.0
 11
148.5540761657
 21
206.946671925
 31
0.0
 11
148.6918887616
 21
206.6129390992
 31
0.0
 11
148.7890115596
 21
206.368200497
 31
0.0
 11
148.8535391625
 21
206.1966615574
 31
0.0
 11
148.8924051348
 21
206.0838880909
 31
0.0
  0
SPLINE
  5
1C3D
330
1B
100
AcDbEntity
  8
0
  6
Continuous
100
AcDbSpline
210
0.0
220
0.0
230
1.0
 70
     8
 71
     3
 72
    12
 73
     8
 74
     6
 42
0.0000000001
 43
0.0000000001
 44
0.0000000001
 40
0.0
 40
0.0
 40
0.0
 40
0.0
 40
0.6674501787552534
 40
1.274935672054901
 40
1.793630597739781
 40
2.205531311382335
 40
2.513588390911974
 40
2.513588390911974
 40
2.513588390911974
 40
2.513588390911974
 10
144.9932818112
 20
209.2087643744
 30
0.0
 10
145.2016130740009
 20
209.2869421549149
 30
0.0
 10
145.5995588188719
 20
209.4362741115359
 30
0.0
 10
146.1838148112023
 20
209.5776433729776
 30
0.0
 10
146.691489012056
 20
209.6298842308131
 30
0.0
 10
147.1160336281852
 20
209.6152459103581
 30
0.0
 10
147.3276161866175
 20
209.4961393536761
 30
0.0
 10
147.418148584
 20
209.4451757856
 30
0.0
 11
144.9932818112
 21
209.2087643744
 31
0.0
 11
145.6230309627
 21
209.429910813
 31
0.0
 11
146.2141564647
 21
209.5699439
 31
0.0
 11
146.7304036786
 21
209.6202752031
 31
0.0
 11
147.1401103663
 21
209.5778178368
 31
0.0
 11
147.418148584
 21
209.4451757856
 31
0.0
  0
SPLINE
  5
1C3E
330
1B
100
AcDbEntity
  8
0
  6
Continuous
100
AcDbSpline
210
0.0
220
0.0
230
1.0
 70
     8
 71
     3
 72
    15
 73
    11
 74
     9
 42
0.0000000001
 43
0.0000000001
 44
0.0000000001
 40
0.0
 40
0.0
 40
0.0
 40
0.0
 40
0.5830609946715528
 40
1.058543932801086
 40
1.439430813243711
 40
1.736295155495955
 40
1.959694087513165
 40
2.121246850464375
 40
2.232520189616666
 40
2.303912247640805
 40
2.303912247640805
 40
2.303912247640805
 40
2.303912247640805
 10
144.9932818113
 20
209.2087623496
 30
0.0
 10
145.1244846903007
 20
209.0653671362283
 30
0.0
 10
145.3626827738654
 20
208.805033938682
 30
0.0
 10
145.6774701454091
 20
208.4428643144829
 30
0.0
 10
145.9250330773587
 20
208.1487606817981
 30
0.0
 10
146.1144996390126
 20
207.9156557999557
 30
0.0
 10
146.2550380619929
 20
207.7370153828638
 30
0.0
 10
146.3545044429926
 20
207.6048695249075
 30
0.0
 10
146.4219708468658
 20
207.5119949455603
 30
0.0
 10
146.4547692029562
 20
207.4606834897584
 30
0.0
 10
146.4675879534
 20
207.4406291692
 30
0.0
 11
144.9932818113
 21
209.2087623496
 31
0.0
 11
145.3848557517
 21
208.7767554368
 31
0.0
 11
145.6970958499
 21
208.4181607554
 31
0.0
 11
145.9421242272
 21
208.126551582
 31
0.0
 11
146.1292468015
 21
207.8960877456
 31
0.0
 11
146.2670499547
 21
207.7202543762
 31
0.0
 11
146.3641573317
 21
207.5911441421
 31
0.0
 11
146.4286728541
 21
207.5004826653
 31
0.0
 11
146.4675879534
 21
207.4406291692
 31
0.0
  0
SPLINE
  5
1C3F
330
1B
100
AcDbEntity
  8
0
  6
Continuous
100
AcDbSpline
210
0.0
220
0.0
230
1.0
 70
     8
 71
     3
 72
    10
 73
     6
 74
     4
 42
0.0000000001
 43
0.0000000001
 44
0.0000000001
 40
0.0
 40
0.0
 40
0.0
 40
0.0
 40
0.0526456001906902
 40
0.1002420442438227
 40
0.1307370047848583
 40
0.1307370047848583
 40
0.1307370047848583
 40
0.1307370047848583
 10
148.8924051348
 20
206.0838880909
 30
0.0
 10
148.8976661497571
 20
206.0671566434726
 30
0.0
 10
148.9076836040588
 20
206.0352984352423
 30
0.0
 10
148.9214125308905
 20
205.9938177808999
 30
0.0
 10
148.9257515894819
 20
205.9681219685096
 30
0.0
 10
148.9274460067
 20
205.9580876659
 30
0.0
 11
148.8924051348
 21
206.0838880909
 31
0.0
 11
148.9083286108
 21
206.0337083925
 31
0.0
 11
148.9217739098
 21
205.9880504751
 31
0.0
 11
148.9274460067
 21
205.9580876659
 31
0.0
  0
SPLINE
  5
1C40
330
1B
100
AcDbEntity
  8
0
  6
Continuous
100
AcDbSpline
210
0.0
220
0.0
230
1.0
 70
     8
 71
     3
 72
    12
 73
     8
 74
     6
 42
0.0000000001
 43
0.0000000001
 44
0.0000000001
 40
0.0
 40
0.0
 40
0.0
 40
0.0
 40
0.2922575825278252
 40
0.5932457527438872
 40
0.8988572061149941
 40
1.208209501115466
 40
1.516368757451971
 40
1.516368757451971
 40
1.516368757451971
 40
1.516368757451971
 10
76.8402544536
 20
202.8378938486
 30
0.0
 10
76.92426897797748
 20
202.7877960473735
 30
0.0
 10
77.09480778598599
 20
202.6861038772598
 30
0.0
 10
77.38722358708534
 20
202.6072445912106
 30
0.0
 10
77.69125303396922
 20
202.5744530326872
 30
0.0
 10
78.00005540112927
 20
202.5820033616945
 30
0.0
 10
78.20347323669277
 20
202.6144230307428
 30
0.0
 10
78.3049856518
 20
202.6306015477
 30
0.0
 11
76.8402544536
 21
202.8378938486
 31
0.0
 11
77.0977479118
 21
202.6996490891
 31
0.0
 11
77.38670639430001
 21
202.6154061428
 31
0.0
 11
77.69040499419999
 21
202.5812664174
 31
0.0
 11
77.9996635397
 21
202.5888818266
 31
0.0
 11
78.3049856518
 21
202.6306015477
 31
0.0
  0
SPLINE
  5
1C41
330
1B
100
AcDbEntity
  8
0
  6
Continuous
100
AcDbSpline
210
0.0
220
0.0
230
1.0
 70
     8
 71
     3
 72
     9
 73
     5
 74
     3
 42
0.0000000001
 43
0.0000000001
 44
0.0000000001
 40
0.0
 40
0.0
 40
0.0
 40
0.0
 40
0.4712761126111739
 40
0.9582421602229292
 40
0.9582421602229292
 40
0.9582421602229292
 40
0.9582421602229292
 10
76.84049857869999
 20
202.8377628528
 30
0.0
 10
76.75141535366868
 20
202.9677707704019
 30
0.0
 10
76.57028310505828
 20
203.2321148873117
 30
0.0
 10
76.45056460782878
 20
203.5294037940308
 30
0.0
 10
76.38972524400001
 20
203.6804821017
 30
0.0
 11
76.84049857869999
 21
202.8377628528
 31
0.0
 11
76.5881036736
 21
203.2357552977
 31
0.0
 11
76.38972524400001
 21
203.6804821017
 31
0.0
  0
SPLINE
  5
1C42
330
1B
100
AcDbEntity
  8
0
  6
Continuous
100
AcDbSpline
210
0.0
220
0.0
230
1.0
 70
     8
 71
     3
 72
    12
 73
     8
 74
     6
 42
0.0000000001
 43
0.0000000001
 44
0.0000000001
 40
0.0
 40
0.0
 40
0.0
 40
0.0
 40
0.2756477481570515
 40
0.5786893122272295
 40
0.9101686857202945
 40
1.270727593636023
 40
1.660117019370128
 40
1.660117019370128
 40
1.660117019370128
 40
1.660117019370128
 10
76.3897258172
 20
203.6804822791
 30
0.0
 10
76.48156734623836
 20
203.6832410096641
 30
0.0
 10
76.6743775963799
 20
203.6890326328624
 30
0.0
 10
76.97753973978431
 20
203.7008781698095
 30
0.0
 10
77.30889839960501
 20
203.715792133474
 30
0.0
 10
77.66891547687202
 20
203.7340504046221
 30
0.0
 10
77.91846611399978
 20
203.7487580625159
 30
0.0
 10
78.0480382124
 20
203.7563945972
 30
0.0
 11
76.3897258172
 21
203.6804822791
 31
0.0
 11
76.6652371524
 21
203.6891532214
 31
0.0
 11
76.9680550691
 21
203.70079362
 31
0.0
 11
77.2992010279
 21
203.7156573013
 31
0.0
 11
77.65929119599998
 21
203.7340365536
 31
0.0
 11
78.0480382124
 21
203.7563945972
 31
0.0
  0
SPLINE
  5
1C43
330
1B
100
AcDbEntity
  8
0
  6
Continuous
100
AcDbSpline
210
0.0
220
0.0
230
1.0
 70
     8
 71
     3
 72
    11
 73
     7
 74
     5
 42
0.0000000001
 43
0.0000000001
 44
0.0000000001
 40
0.0
 40
0.0
 40
0.0
 40
0.0
 40
0.2559259493718251
 40
0.4950919575485137
 40
0.7375400132197824
 40
0.9947990603464283
 40
0.9947990603464283
 40
0.9947990603464283
 40
0.9947990603464283
 10
76.84027184990001
 20
195.9397692796
 30
0.0
 10
76.77255087282848
 20
195.8872507215343
 30
0.0
 10
76.64154379368019
 20
195.7856529125424
 30
0.0
 10
76.49633520676829
 20
195.5834147153522
 30
0.0
 10
76.40475977957513
 20
195.35076322737
 30
0.0
 10
76.39483519076387
 20
195.183574913125
 30
0.0
 10
76.3897258172
 20
195.0975030799
 30
0.0
 11
76.84027184990001
 21
195.9397692796
 31
0.0
 11
76.6460691517
 21
195.7730857364
 31
0.0
 11
76.50564468449998
 21
195.5794847331
 31
0.0
 11
76.41883830490001
 21
195.3531095751
 31
0.0
 11
76.3897258172
 21
195.0975030799
 31
0.0
  0
SPLINE
  5
1C44
330
1B
100
AcDbEntity
  8
0
  6
Continuous
100
AcDbSpline
210
0.0
220
0.0
230
1.0
 70
     8
 71
     3
 72
     9
 73
     5
 74
     3
 42
0.0000000001
 43
0.0000000001
 44
0.0000000001
 40
0.0
 40
0.0
 40
0.0
 40
0.0
 40
0.4713816076175649
 40
0.9585063467575445
 40
0.9585063467575445
 40
0.9585063467575445
 40
0.9585063467575445
 10
76.84057755080001
 20
195.9400318405
 30
0.0
 10
76.75146962051873
 20
195.8099977802951
 30
0.0
 10
76.57027774679943
 20
195.5455868020412
 30
0.0
 10
76.45053343813018
 20
195.2482123207647
 30
0.0
 10
76.38967790460001
 20
195.0970829442
 30
0.0
 11
76.84057755080001
 21
195.9400318405
 31
0.0
 11
76.588115168
 21
195.541957268
 31
0.0
 11
76.38967790460001
 21
195.0970829442
 31
0.0
  0
SPLINE
  5
1C45
330
1B
100
AcDbEntity
  8
0
  6
Continuous
100
AcDbSpline
210
0.0
220
0.0
230
1.0
 70
     8
 71
     3
 72
    11
 73
     7
 74
     5
 42
0.0000000001
 43
0.0000000001
 44
0.0000000001
 40
0.0
 40
0.0
 40
0.0
 40
0.0
 40
0.2574183439504943
 40
0.5074011110135499
 40
0.7508125232686138
 40
0.9947518541172213
 40
0.9947518541172213
 40
0.9947518541172213
 40
0.9947518541172213
 10
76.3897258172
 20
203.6801482577
 30
0.0
 10
76.39484696188949
 20
203.5940268977656
 30
0.0
 10
76.40494132604876
 20
203.4242718094449
 30
0.0
 10
76.49914050171559
 20
203.1880382355463
 30
0.0
 10
76.64652312338481
 20
202.9874522983233
 30
0.0
 10
76.77563072528697
 20
202.8877826539424
 30
0.0
 10
76.8402544536
 20
202.8378938486
 30
0.0
 11
76.3897258172
 21
203.6801482577
 31
0.0
 11
76.41887603189998
 21
203.4243857335
 31
0.0
 11
76.50939108910001
 21
203.191365545
 31
0.0
 11
76.6543237004
 21
202.9958056979
 31
0.0
 11
76.8402544536
 21
202.8378938486
 31
0.0
  0
SPLINE
  5
1C46
330
1B
100
AcDbEntity
  8
0
  6
Continuous
100
AcDbSpline
210
0.0
220
0.0
230
1.0
 70
     8
 71
     3
 72
    12
 73
     8
 74
     6
 42
0.0000000001
 43
0.0000000001
 44
0.0000000001
 40
0.0
 40
0.0
 40
0.0
 40
0.0
 40
0.3045009154473231
 40
0.6127028287113666
 40
0.9193576891894109
 40
1.221431065940386
 40
1.516339474185905
 40
1.516339474185905
 40
1.516339474185905
 40
1.516339474185905
 10
78.3049886962
 20
196.1470500797
 30
0.0
 10
78.20468858942149
 20
196.1630673375123
 30
0.0
 10
78.00286929750584
 20
196.1952965318166
 30
0.0
 10
77.69535439713641
 20
196.2033232657724
 30
0.0
 10
77.39093508993847
 20
196.1711458020533
 30
0.0
 10
77.09677685010497
 20
196.0924997087443
 30
0.0
 10
76.92508664200182
 20
195.9902704378041
 30
0.0
 10
76.84027184990001
 20
195.9397692796
 30
0.0
 11
78.3049886962
 21
196.1470500797
 31
0.0
 11
78.00331703560001
 21
196.1884628398
 31
0.0
 11
77.6952216783
 21
196.1965665519
 31
0.0
 11
77.3904137305
 21
196.1629612188
 31
0.0
 11
77.10024204689999
 21
196.0790045694
 31
0.0
 11
76.84027184990001
 21
195.9397692796
 31
0.0
  0
SPLINE
  5
1C47
330
1B
100
AcDbEntity
  8
0
  6
Continuous
100
AcDbSpline
210
0.0
220
0.0
230
1.0
 70
     8
 71
     3
 72
    10
 73
     6
 74
     4
 42
0.0000000001
 43
0.0000000001
 44
0.0000000001
 40
0.0
 40
0.0
 40
0.0
 40
0.0
 40
0.3256133124837056
 40
0.7174868255411623
 40
1.15481898754426
 40
1.15481898754426
 40
1.15481898754426
 40
1.15481898754426
 10
78.3049878969
 20
196.1470462202
 30
0.0
 10
78.2787604445075
 20
196.0417224742462
 30
0.0
 10
78.22096842299709
 20
195.8096422820635
 30
0.0
 10
78.13605349444386
 20
195.4341558896626
 30
0.0
 10
78.07842965797317
 20
195.1638280574104
 30
0.0
 10
78.04803821500001
 20
195.0212541956
 30
0.0
 11
78.3049878969
 21
196.1470462202
 31
0.0
 11
78.22734243799999
 21
195.8308260248
 31
0.0
 11
78.1401439533
 21
195.4487772393
 31
0.0
 11
78.04803821500001
 21
195.0212541956
 31
0.0
  0
SPLINE
  5
1C48
330
1B
100
AcDbEntity
  8
0
  6
Continuous
100
AcDbSpline
210
0.0
220
0.0
230
1.0
 70
     8
 71
     3
 72
    12
 73
     8
 74
     6
 42
0.0000000001
 43
0.0000000001
 44
0.0000000001
 40
0.0
 40
0.0
 40
0.0
 40
0.0
 40
0.3895414744010008
 40
0.750164903060257
 40
1.081633344914298
 40
1.384599096927594
 40
1.660117019113997
 40
1.660117019113997
 40
1.660117019113997
 40
1.660117019113997
 10
78.0480382124
 20
195.0212575855
 30
0.0
 10
77.91841550513775
 20
195.0288968649787
 30
0.0
 10
77.6687927768331
 20
195.0436083135053
 30
0.0
 10
77.30870722832928
 20
195.0618698590098
 30
0.0
 10
76.97735586886773
 20
195.0767812862068
 30
0.0
 10
76.67426583943566
 20
195.0886233818625
 30
0.0
 10
76.48152409490461
 20
195.0944126255537
 30
0.0
 10
76.3897258172
 20
195.0971699037
 30
0.0
 11
78.0480382124
 21
195.0212575855
 31
0.0
 11
77.65913935899999
 21
195.0436236782
 31
0.0
 11
77.2989847162
 21
195.0620054781
 31
0.0
 11
76.9678496025
 21
195.0768669861
 31
0.0
 11
76.6651074071
 21
195.0885035671
 31
0.0
 11
76.3897258172
 21
195.0971699037
 31
0.0
  0
SPLINE
  5
1C49
330
1B
100
AcDbEntity
  8
0
  6
Continuous
100
AcDbSpline
210
0.0
220
0.0
230
1.0
 70
     8
 71
     3
 72
    10
 73
     6
 74
     4
 42
0.0000000001
 43
0.0000000001
 44
0.0000000001
 40
0.0
 40
0.0
 40
0.0
 40
0.0
 40
0.2294838561789608
 40
0.4591906068293742
 40
0.6886238962029077
 40
0.6886238962029077
 40
0.6886238962029077
 40
0.6886238962029077
 10
78.9897258172
 20
196.0829172965
 30
0.0
 10
78.91322869701985
 20
196.0843446537144
 30
0.0
 10
78.76016015607276
 20
196.0872007545154
 30
0.0
 10
78.53132308244473
 20
196.1086303741889
 30
0.0
 10
78.38040352933027
 20
196.1342485972205
 30
0.0
 10
78.3049886962
 20
196.1470500797
 30
0.0
 11
78.9897258172
 21
196.0829172965
 31
0.0
 11
78.7603529913
 21
196.0900550122
 31
0.0
 11
78.5316470983
 21
196.1114747648
 31
0.0
 11
78.3049886962
 21
196.1470500797
 31
0.0
  0
SPLINE
  5
1C4A
330
1B
100
AcDbEntity
  8
0
  6
Continuous
100
AcDbSpline
210
0.0
220
0.0
230
1.0
 70
     8
 71
     3
 72
    10
 73
     6
 74
     4
 42
0.0000000001
 43
0.0000000001
 44
0.0000000001
 40
0.0
 40
0.0
 40
0.0
 40
0.0
 40
0.315747927077364
 40
0.6310330419479666
 40
0.9466682245925051
 40
0.9466682245925051
 40
0.9466682245925051
 40
0.9466682245925051
 10
78.9897258172
 20
194.9361422458
 30
0.0
 10
78.88447337654282
 20
194.9380377040503
 30
0.0
 10
78.67412277055428
 20
194.9418258422549
 30
0.0
 10
78.35946634294564
 20
194.9702338008609
 30
0.0
 10
78.15188598141702
 20
195.0042433671881
 30
0.0
 10
78.0480382124
 20
195.0212575855
 30
0.0
 11
78.9897258172
 21
194.9361422458
 31
0.0
 11
78.6741202046
 21
194.9456212093
 31
0.0
 11
78.36011381509999
 21
194.9739882855
 31
0.0
 11
78.0480382124
 21
195.0212575855
 31
0.0
  0
SPLINE
  5
1C4B
330
1B
100
AcDbEntity
  8
0
  6
Continuous
100
AcDbSpline
210
0.0
220
0.0
230
1.0
 70
     8
 71
     3
 72
    26
 73
    22
 74
    20
 42
0.0000000001
 43
0.0000000001
 44
0.0000000001
 40
0.0
 40
0.0
 40
0.0
 40
0.0
 40
0.3375984624293886
 40
0.7207431871069616
 40
1.146431392558028
 40
1.610885597130937
 40
2.109867806454894
 40
2.634762007490782
 40
3.163998123125243
 40
3.684041060802915
 40
4.196779232946681
 40
4.706366496900603
 40
5.217742756549019
 40
5.735817649484305
 40
6.263251740006771
 40
6.796173989773339
 40
7.312452070552236
 40
7.800047298852467
 40
8.250399271010378
 40
8.655906343687365
 40
9.0094724454563
 40
9.0094724454563
 40
9.0094724454563
 40
9.0094724454563
 10
88.3897258172
 20
202.2835287207
 30
0.0
 10
88.5023228901668
 20
202.2795659096616
 30
0.0
 10
88.74270779193738
 20
202.2711056547269
 30
0.0
 10
89.11922426740432
 20
202.1963461487554
 30
0.0
 10
89.52186683326107
 20
202.0579245181311
 30
0.0
 10
89.93207192461753
 20
201.8383940480512
 30
0.0
 10
90.32582090958107
 20
201.5325016612828
 30
0.0
 10
90.67350086440197
 20
201.1449936356211
 30
0.0
 10
90.94873834134894
 20
200.6948208038704
 30
0.0
 10
91.13729012561797
 20
200.20653056335
 30
0.0
 10
91.23596803508357
 20
199.6992954247809
 30
0.0
 10
91.24527610673698
 20
199.1855800997612
 30
0.0
 10
91.1653605953659
 20
198.6762000312285
 30
0.0
 10
90.99569099723455
 20
198.1828774889684
 30
0.0
 10
90.73714875579626
 20
197.7213197129873
 30
0.0
 10
90.39911250600896
 20
197.3149523503313
 30
0.0
 10
90.00315000847445
 20
196.9856261846911
 30
0.0
 10
89.57973896525573
 20
196.7444261579096
 30
0.0
 10
89.1574368704035
 20
196.5907147645258
 30
0.0
 10
88.76083640779046
 20
196.5078144763839
 30
0.0
 10
88.50765453645808
 20
196.4984740890977
 30
0.0
 10
88.3897258172
 20
196.494123462
 30
0.0
 11
88.3897258172
 21
202.2835287207
 31
0.0
 11
88.72671073940001
 21
202.2631845804
 31
0.0
 11
89.1030373453
 21
202.1912251075
 31
0.0
 11
89.50534826160001
 21
202.0520979179
 31
0.0
 11
89.91499304990001
 21
201.8332170015
 31
0.0
 11
90.3090690363
 21
201.5271330879
 31
0.0
 11
90.65971818440001
 21
201.1365449452
 31
0.0
 11
90.9358950438
 21
200.6850837526
 31
0.0
 11
91.1233159431
 21
200.1999878203
 31
0.0
 11
91.2212777517
 21
199.6966947474
 31
0.0
 11
91.23051447810001
 21
199.1871912023
 31
0.0
 11
91.1512151812
 21
198.6820008417
 31
0.0
 11
90.98263847090001
 21
198.1921197465
 31
0.0
 11
90.724770916
 21
197.7320207963
 31
0.0
 11
90.38383641750001
 21
197.3224236869
 31
0.0
 11
89.9868637908
 21
196.9923391669
 31
0.0
 11
89.56301929069998
 21
196.7512894907
 31
0.0
 11
89.14012117570002
 21
196.5964538257
 31
0.0
 11
88.74258709199999
 21
196.5164373381
 31
0.0
 11
88.3897258172
 21
196.494123462
 31
0.0
  0
SPLINE
  5
1C4C
330
1B
100
AcDbEntity
  8
0
  6
Continuous
100
AcDbSpline
210
0.0
220
0.0
230
1.0
 70
     8
 71
     3
 72
    26
 73
    22
 74
    20
 42
0.0000000001
 43
0.0000000001
 44
0.0000000001
 40
0.0
 40
0.0
 40
0.0
 40
0.0
 40
0.5693370369660575
 40
1.214400599022486
 40
1.927074730695918
 40
2.697559744309293
 40
3.514893619036775
 40
4.361917120129496
 40
5.202946558195062
 40
6.018563895153227
 40
6.815610736251663
 40
7.605027977581703
 40
8.399067258475306
 40
9.209814308636124
 40
10.04550389743168
 40
10.90284127421243
 40
11.74630411984456
 40
12.55372279615113
 40
13.3069576426086
 40
13.98938845214888
 40
14.58541365232144
 40
14.58541365232144
 40
14.58541365232144
 40
14.58541365232144
 10
88.3897258172
 20
203.8415099369
 30
0.0
 10
88.57959243762394
 20
203.8355141034728
 30
0.0
 10
88.98457950610256
 20
203.8227249412843
 30
0.0
 10
89.61930351462041
 20
203.7096691662646
 30
0.0
 10
90.29902462272715
 20
203.5000800882436
 30
0.0
 10
90.99328804597508
 20
203.1669905111301
 30
0.0
 10
91.66252625809419
 20
202.7010964062773
 30
0.0
 10
92.25691277635997
 20
202.1077258847425
 30
0.0
 10
92.73034738775921
 20
201.4142827558442
 30
0.0
 10
93.05619692525298
 20
200.6585741994776
 30
0.0
 10
93.2272247057505
 20
199.8712459935133
 30
0.0
 10
93.24337385241169
 20
199.0729483859584
 30
0.0
 10
93.1047968744699
 20
198.2819509661616
 30
0.0
 10
92.81131703184539
 20
197.5178289901584
 30
0.0
 10
92.36599623543171
 20
196.8059455074294
 30
0.0
 10
91.78712968208376
 20
196.1828120420409
 30
0.0
 10
91.11324978967896
 20
195.6807623107566
 30
0.0
 10
90.3961809831671
 20
195.3147307911719
 30
0.0
 10
89.68323563695691
 20
195.0820896413355
 30
0.0
 10
89.0148669437427
 20
194.9568264726059
 30
0.0
 10
88.58850074389372
 20
194.9427191697816
 30
0.0
 10
88.3897258172
 20
194.9361422458
 30
0.0
 11
88.3897258172
 21
203.8415099369
 31
0.0
 11
88.95822719479999
 21
203.8106741569
 31
0.0
 11
89.59397366180001
 21
203.7014339226
 31
0.0
 11
90.2745352198
 21
203.4899146948
 31
0.0
 11
90.9690810896
 21
203.1563683098
 31
0.0
 11
91.6392677914
 21
202.6885174281
 31
0.0
 11
92.23787152529999
 21
202.0892492234
 31
0.0
 11
92.71111601959998
 21
201.3940009481
 31
0.0
 11
93.03325287920001
 21
200.6446949465
 31
0.0
 11
93.20197322709998
 21
199.8657102797
 31
0.0
 11
93.21789351339999
 21
199.076453588
 31
0.0
 11
93.0812576595
 21
198.2942585848
 31
0.0
 11
92.79131886010001
 21
197.5371282975
 31
0.0
 11
92.3490746434
 21
196.828046397
 31
0.0
 11
91.76648086340001
 21
196.1990695571
 31
0.0
 11
91.0908107376
 21
195.6941938763
 31
0.0
 11
90.37184298920001
 21
195.3267564046
 31
0.0
 11
89.65633264429999
 21
195.0913680441
 31
0.0
 11
88.9847920559
 21
194.9699388551
 31
0.0
 11
88.3897258172
 21
194.9361422458
 31
0.0
  0
SPLINE
  5
1C4D
330
1B
100
AcDbEntity
  8
0
  6
Continuous
100
AcDbSpline
210
0.0
220
0.0
230
1.0
 70
     8
 71
     3
 72
    10
 73
     6
 74
     4
 42
0.0000000001
 43
0.0000000001
 44
0.0000000001
 40
0.0
 40
0.0
 40
0.0
 40
0.0
 40
0.2294300004829662
 40
0.45913757527188
 40
0.6886269851673957
 40
0.6886269851673957
 40
0.6886269851673957
 40
0.6886269851673957
 10
78.3049856518
 20
202.6306015477
 30
0.0
 10
78.38039938775128
 20
202.6434029450124
 30
0.0
 10
78.53131809844291
 20
202.6690212273197
 30
0.0
 10
78.76015618551355
 20
202.6904510813848
 30
0.0
 10
78.91322684797353
 20
202.6933074120767
 30
0.0
 10
78.9897258172
 20
202.6947348989
 30
0.0
 11
78.3049856518
 21
202.6306015477
 31
0.0
 11
78.53164075860001
 21
202.6661766469
 31
0.0
 11
78.7603474493
 21
202.6875967203
 31
0.0
 11
78.9897258172
 21
202.6947348989
 31
0.0
  0
SPLINE
  5
1C4E
330
1B
100
AcDbEntity
  8
0
  6
Continuous
100
AcDbSpline
210
0.0
220
0.0
230
1.0
 70
     8
 71
     3
 72
    10
 73
     6
 74
     4
 42
0.0000000001
 43
0.0000000001
 44
0.0000000001
 40
0.0
 40
0.0
 40
0.0
 40
0.0
 40
0.3256167759014444
 40
0.7174907338498113
 40
1.154823818178136
 40
1.154823818178136
 40
1.154823818178136
 40
1.154823818178136
 10
78.3049864565
 20
202.6305976629
 30
0.0
 10
78.27875868773964
 20
202.7359225205773
 30
0.0
 10
78.22096626901971
 20
202.9680039580839
 30
0.0
 10
78.13605199901721
 20
203.3434921579688
 30
0.0
 10
78.0784291489943
 20
203.6138206661115
 30
0.0
 10
78.0480382123
 20
203.75639495
 30
0.0
 11
78.3049864565
 21
202.6305976629
 31
0.0
 11
78.22734021159999
 21
202.9468212316
 31
0.0
 11
78.14014253249999
 21
203.3288706573
 31
0.0
 11
78.0480382123
 21
203.75639495
 31
0.0
  0
SPLINE
  5
1C4F
330
1B
100
AcDbEntity
  8
0
  6
Continuous
100
AcDbSpline
210
0.0
220
0.0
230
1.0
 70
     8
 71
     3
 72
    10
 73
     6
 74
     4
 42
0.0000000001
 43
0.0000000001
 44
0.0000000001
 40
0.0
 40
0.0
 40
0.0
 40
0.0
 40
0.315593379185774
 40
0.630880229151022
 40
0.9466682272128411
 40
0.9466682272128411
 40
0.9466682272128411
 40
0.9466682272128411
 10
78.0480382124
 20
203.7563945972
 30
0.0
 10
78.15187217955604
 20
203.7734068014168
 30
0.0
 10
78.35943926211671
 20
203.8074146862537
 30
0.0
 10
78.67409546423605
 20
203.8358251972903
 30
0.0
 10
78.88446001476439
 20
203.8396140207721
 30
0.0
 10
78.9897258172
 20
203.8415099369
 30
0.0
 11
78.0480382124
 21
203.7563945972
 31
0.0
 11
78.36007228859999
 21
203.8036589207
 31
0.0
 11
78.67408018769999
 21
203.8320285711
 31
0.0
 11
78.9897258172
 21
203.8415099369
 31
0.0
  0
SPLINE
  5
1C50
330
1B
100
AcDbEntity
  8
0
  6
Continuous
100
AcDbSpline
210
0.0
220
0.0
230
1.0
 70
     8
 71
     3
 72
    12
 73
     8
 74
     6
 42
0.0000000001
 43
0.0000000001
 44
0.0000000001
 40
0.0
 40
0.0
 40
0.0
 40
0.0
 40
0.5852815669779135
 40
1.168610566773748
 40
1.749650545800545
 40
2.328461477453966
 40
2.905493633897018
 40
2.905493633897018
 40
2.905493633897018
 40
2.905493633897018
 10
146.467535019
 20
207.4406981875
 30
0.0
 10
146.6630646202496
 20
207.4310826117135
 30
0.0
 10
147.0534715133237
 20
207.4118835388163
 30
0.0
 10
147.6151493023291
 20
207.2315151134601
 30
0.0
 10
148.124440885195
 20
206.9467648908959
 30
0.0
 10
148.5687513964453
 20
206.5648679688796
 30
0.0
 10
148.7846313941972
 20
206.2440501992043
 30
0.0
 10
148.8924052797
 20
206.0838881743
 30
0.0
 11
146.467535019
 21
207.4406981875
 31
0.0
 11
147.0502970145
 21
207.386449047
 31
0.0
 11
147.6074500089
 21
207.2136680792
 31
0.0
 11
148.1145104815
 21
206.9299479101
 31
0.0
 11
148.5491961776
 21
206.5477562825
 31
0.0
 11
148.8924052797
 21
206.0838881743
 31
0.0
  0
SPLINE
  5
1C51
330
1B
100
AcDbEntity
  8
0
  6
Continuous
100
AcDbSpline
210
0.0
220
0.0
230
1.0
 70
     8
 71
     3
 72
    10
 73
     6
 74
     4
 42
0.0000000001
 43
0.0000000001
 44
0.0000000001
 40
0.0
 40
0.0
 40
0.0
 40
0.0
 40
0.501085683956509
 40
1.013134854049159
 40
1.522983648427921
 40
1.522983648427921
 40
1.522983648427921
 40
1.522983648427921
 10
146.467535019
 20
207.4406981875
 30
0.0
 10
146.3019087080775
 20
207.4171689046851
 30
0.0
 10
145.9670322713407
 20
207.3695955309613
 30
0.0
 10
145.4841072155324
 20
207.1997378822103
 30
0.0
 10
145.1882343789659
 20
207.030194888095
 30
0.0
 10
145.040616501
 20
206.9456059231
 30
0.0
 11
146.467535019
 21
207.4406981875
 31
0.0
 11
145.9739878067
 21
207.3541071262
 31
0.0
 11
145.4904804091
 21
207.1855397834
 31
0.0
 11
145.040616501
 21
206.9456059231
 31
0.0
  0
SPLINE
  5
1C52
330
1B
100
AcDbEntity
  8
0
  6
Continuous
100
AcDbSpline
210
0.0
220
0.0
230
1.0
 70
     8
 71
     3
 72
    14
 73
    10
 74
     8
 42
0.0000000001
 43
0.0000000001
 44
0.0000000001
 40
0.0
 40
0.0
 40
0.0
 40
0.0
 40
0.6368333318226158
 40
1.274037636298499
 40
1.911269956875314
 40
2.548481559817586
 40
3.185627943459946
 40
3.822677931811316
 40
4.459620051765923
 40
4.459620051765923
 40
4.459620051765923
 40
4.459620051765923
 10
145.0408782472
 20
206.9457520164
 30
0.0
 10
145.2296975544435
 20
207.0447445267768
 30
0.0
 10
145.6074461612878
 20
207.2427872133472
 30
0.0
 10
146.2407105266061
 20
207.3678312300405
 30
0.0
 10
146.8820308612891
 20
207.356217063909
 30
0.0
 10
147.505803568308
 20
207.1977428026425
 30
0.0
 10
148.0748178007458
 20
206.9018576904635
 30
0.0
 10
148.5715314479622
 20
206.4896792557333
 30
0.0
 10
148.8088094728655
 20
206.1352718701344
 30
0.0
 10
148.9274384402
 20
205.9580831811
 30
0.0
 11
145.0408782472
 21
206.9457520164
 31
0.0
 11
145.6184248277
 21
207.2140739124
 31
0.0
 11
146.2420229632
 21
207.3450498302
 31
0.0
 11
146.8791162351
 21
207.3317384333
 31
0.0
 11
147.4967068053
 21
207.1748291776
 31
0.0
 11
148.0628069657
 21
206.8824490781
 31
0.0
 11
148.5480959209
 21
206.4697417755
 31
0.0
 11
148.9274384402
 21
205.9580831811
 31
0.0
  0
SPLINE
  5
1C53
330
1B
100
AcDbEntity
  8
0
  6
Continuous
100
AcDbSpline
210
0.0
220
0.0
230
1.0
 70
     8
 71
     3
 72
    20
 73
    16
 74
    14
 42
0.0000000001
 43
0.0000000001
 44
0.0000000001
 40
0.0
 40
0.0
 40
0.0
 40
0.0
 40
0.8229456074496013
 40
1.535960230543803
 40
2.148814524289446
 40
2.673515354944203
 40
3.125417608345147
 40
3.51338858638913
 40
3.834295241613698
 40
4.097292434351933
 40
4.309984593565693
 40
4.479971458750713
 40
4.614417779345506
 40
4.718747540969649
 40
4.797640947287698
 40
4.797640947287698
 40
4.797640947287698
 40
4.797640947287698
 10
142.3255595781
 20
209.8598220424
 30
0.0
 10
142.5668076120191
 20
209.7292353440047
 30
0.0
 10
143.0170772075334
 20
209.4855060214862
 30
0.0
 10
143.6391747601394
 20
209.1303896274556
 30
0.0
 10
144.1712565945558
 20
208.8182856910412
 30
0.0
 10
144.6255720656874
 20
208.5456807850377
 30
0.0
 10
145.014088245944
 20
208.3091384467872
 30
0.0
 10
145.3438444005635
 20
208.1067196416164
 30
0.0
 10
145.6198227145882
 20
207.9370588339586
 30
0.0
 10
145.8463460139307
 20
207.7985129047104
 30
0.0
 10
146.0305691099576
 20
207.6872290423297
 30
0.0
 10
146.1788797765742
 20
207.5993703741581
 30
0.0
 10
146.2970611328507
 20
207.5315595564285
 30
0.0
 10
146.3897067037853
 20
207.4802440354932
 30
0.0
 10
146.444146791437
 20
207.4525526873961
 30
0.0
 10
146.4675879534
 20
207.4406291692
 30
0.0
 11
142.3255595781
 21
209.8598220424
 31
0.0
 11
143.0476967247
 21
209.4651609038
 31
0.0
 11
143.6674111377
 21
209.1125366008
 31
0.0
 11
144.1960438784
 21
208.8024756216
 31
0.0
 11
144.6460659477
 21
208.5326773658
 31
0.0
 11
145.0321362225
 21
208.2978042308
 31
0.0
 11
145.3628713623
 21
208.0949847369
 31
0.0
 11
145.6363373761
 21
207.9270638607
 31
0.0
 11
145.8607896731
 21
207.7899920191
 31
0.0
 11
146.0429286845
 21
207.6801588041
 31
0.0
 11
146.1892930674
 21
207.5937122787
 31
0.0
 11
146.3059593273
 21
207.5268931428
 31
0.0
 11
146.3974507303
 21
207.4767531155
 31
0.0
 11
146.4675879534
 21
207.4406291692
 31
0.0
  0
SPLINE
  5
1C54
330
1B
100
AcDbEntity
  8
0
  6
Continuous
100
AcDbSpline
210
0.0
220
0.0
230
1.0
 70
     8
 71
     3
 72
    25
 73
    21
 74
    19
 42
0.0000000001
 43
0.0000000001
 44
0.0000000001
 40
0.0
 40
0.0
 40
0.0
 40
0.0
 40
0.907075965907449
 40
1.708394217702611
 40
2.40936563443989
 40
3.017113880463191
 40
3.544081909323608
 40
4.001816443810105
 40
4.390334565701084
 40
4.711369110831239
 40
4.973660713654558
 40
5.184828271200702
 40
5.352606813859181
 40
5.483896301401225
 40
5.584137982428678
 40
5.658345080693425
 40
5.711410415520154
 40
5.747746714468206
 40
5.771225919423213
 40
5.785405985316809
 40
5.785405985316809
 40
5.785405985316809
 40
5.785405985316809
 10
139.9481961392
 20
207.8626639273
 30
0.0
 10
140.1556688024869
 20
207.6426978732643
 30
0.0
 10
140.5464244961803
 20
207.2284120262908
 30
0.0
 10
141.0804380104084
 20
206.6284328882787
 30
0.0
 10
141.5401527228678
 20
206.0961038200273
 30
0.0
 10
141.9341237498533
 20
205.627893490047
 30
0.0
 10
142.2723665619511
 20
205.2187943500668
 30
0.0
 10
142.5620746018781
 20
204.8643983351839
 30
0.0
 10
142.8075947168794
 20
204.5625451395495
 30
0.0
 10
143.0121664344993
 20
204.3113624344478
 30
0.0
 10
143.1801863432869
 20
204.1066532294603
 30
0.0
 10
143.3169885814107
 20
203.9424186793304
 30
0.0
 10
143.4272999979768
 20
203.8129534646602
 30
0.0
 10
143.5152659050169
 20
203.7130648493717
 30
0.0
 10
143.5843478496373
 20
203.6380865792017
 30
0.0
 10
143.6375815502496
 20
203.5841303714558
 30
0.0
 10
143.6776161547634
 20
203.5468648881664
 30
0.0
 10
143.7071891628172
 20
203.5239101803829
 30
0.0
 10
143.7280645889946
 20
203.5098826923278
 30
0.0
 10
143.7404608918554
 20
203.5074057919944
 30
0.0
 10
143.7451285444
 20
203.5064731502
 30
0.0
 11
139.9481961392
 21
207.8626639273
 31
0.0
 11
140.5672013262
 21
207.1996259296
 31
0.0
 11
141.1010674233
 21
206.602049214
 31
0.0
 11
141.5592420643
 21
206.0715429224
 31
0.0
 11
141.9507400231
 21
205.6066910333
 31
0.0
 11
142.286667579
 21
205.2006762791
 31
0.0
 11
142.5765197508
 21
204.8464071405
 31
0.0
 11
142.8218238017
 21
204.5451228003
 31
0.0
 11
143.0247052388
 21
204.2963210687
 31
0.0
 11
143.1912684151
 21
204.0937042056
 31
0.0
 11
143.3265813208
 21
203.9315864863
 31
0.0
 11
143.435574537
 21
203.8040321128
 31
0.0
 11
143.5225266786
 21
203.7056641576
 31
0.0
 11
143.5906928456
 21
203.6321674346
 31
0.0
 11
143.6429920075
 21
203.5795224814
 31
0.0
 11
143.6822542034
 21
203.5438236056
 31
0.0
 11
143.7110019204
 21
203.5215998483
 31
0.0
 11
143.7313768158
 21
203.5099320849
 31
0.0
 11
143.7451285444
 21
203.5064731502
 31
0.0
  0
SPLINE
  5
1C55
330
1B
100
AcDbEntity
  8
0
  6
Continuous
100
AcDbSpline
210
0.0
220
0.0
230
1.0
 70
     8
 71
     3
 72
    11
 73
     7
 74
     5
 42
0.0000000001
 43
0.0000000001
 44
0.0000000001
 40
0.0
 40
0.0
 40
0.0
 40
0.0
 40
0.1916406110838151
 40
0.3641968754420693
 40
0.4848983812988313
 40
0.5342495267014539
 40
0.5342495267014539
 40
0.5342495267014539
 40
0.5342495267014539
 10
145.0408949302
 20
206.9457749312
 30
0.0
 10
144.9880837384997
 20
206.9097868075252
 30
0.0
 10
144.8877205070487
 20
206.841394403007
 30
0.0
 10
144.7622862046775
 20
206.7391981926123
 30
0.0
 10
144.677024076938
 20
206.6631838322143
 30
0.0
 10
144.6360610886832
 20
206.6240000125385
 30
0.0
 10
144.62417318
 20
206.6126284381
 30
0.0
 11
145.0408949302
 21
206.9457749312
 31
0.0
 11
144.8841648172
 21
206.8354944003
 31
0.0
 11
144.7498694213
 21
206.7271412231
 31
0.0
 11
144.6599511579
 21
206.6466206703
 31
0.0
 11
144.62417318
 21
206.6126284381
 31
0.0
  0
SPLINE
  5
1C56
330
1B
100
AcDbEntity
  8
0
  6
Continuous
100
AcDbSpline
210
0.0
220
0.0
230
1.0
 70
     8
 71
     3
 72
    13
 73
     9
 74
     7
 42
0.0000000001
 43
0.0000000001
 44
0.0000000001
 40
0.0
 40
0.0
 40
0.0
 40
0.0
 40
0.6580803092312499
 40
1.31620323137157
 40
1.974250463165353
 40
2.632118060697617
 40
3.289736177246008
 40
3.947166406673839
 40
3.947166406673839
 40
3.947166406673839
 40
3.947166406673839
 10
143.7451285383
 20
203.5064731483
 30
0.0
 10
143.6939549019777
 20
203.7206975265236
 30
0.0
 10
143.5916043156682
 20
204.1491601547183
 30
0.0
 10
143.6202005149726
 20
204.8145052634437
 30
0.0
 10
143.7822317250324
 20
205.456968770151
 30
0.0
 10
144.0842988550921
 20
206.046496581481
 30
0.0
 10
144.5016544086322
 20
206.5649150389427
 30
0.0
 10
144.8611652113418
 20
206.8188337266319
 30
0.0
 10
145.0408949302
 20
206.9457749312
 30
0.0
 11
143.7451285383
 21
203.5064731483
 31
0.0
 11
143.621959475
 21
204.1529242874
 31
0.0
 11
143.6424463017
 21
204.8107282632
 31
0.0
 11
143.8056030847
 21
205.4482280855
 31
0.0
 11
144.1035778605
 21
206.034743907
 31
0.0
 11
144.5220305145
 21
206.5420494989
 31
0.0
 11
145.0408949302
 21
206.9457749312
 31
0.0
  0
SPLINE
  5
1C57
330
1B
100
AcDbEntity
  8
0
  6
Continuous
100
AcDbSpline
210
0.0
220
0.0
230
1.0
 70
     8
 71
     3
 72
    11
 73
     7
 74
     5
 42
0.0000000001
 43
0.0000000001
 44
0.0000000001
 40
0.0
 40
0.0
 40
0.0
 40
0.0
 40
0.0114495758000146
 40
0.0194082053999978
 40
0.0240059205000024
 40
0.0240092515000186
 40
0.0240092515000186
 40
0.0240092515000186
 40
0.0240092515000186
 10
143.7451285444
 20
203.5064731502
 30
0.0
 10
143.7489450696671
 20
203.50647314995
 30
0.0
 10
143.7554144714678
 20
203.5064731495262
 30
0.0
 10
143.7634164449643
 20
203.5064731516677
 30
0.0
 10
143.7676030035364
 20
203.5064731506282
 30
0.0
 10
143.7691366855667
 20
203.5064731506
 30
0.0
 10
143.7691377959
 20
203.5064731506
 30
0.0
 11
143.7451285444
 21
203.5064731502
 31
0.0
 11
143.7565781202
 21
203.5064731502
 31
0.0
 11
143.7645367498
 21
203.5064731511
 31
0.0
 11
143.7691344649
 21
203.5064731506
 31
0.0
 11
143.7691377959
 21
203.5064731506
 31
0.0
  0
SPLINE
  5
1C58
330
1B
100
AcDbEntity
  8
0
  6
Continuous
100
AcDbSpline
210
0.0
220
0.0
230
1.0
 70
     8
 71
     3
 72
    22
 73
    18
 74
    16
 42
0.0000000001
 43
0.0000000001
 44
0.0000000001
 40
0.0
 40
0.0
 40
0.0
 40
0.0
 40
2.129580165987075
 40
4.328408304458086
 40
6.553482220221037
 40
8.762316328977821
 40
10.9133229244031
 40
12.9736725673166
 40
14.9030870003467
 40
16.66985832900684
 40
18.21146902946705
 40
19.43746695237373
 40
20.37757353806709
 40
21.09079598307426
 40
21.59685768238817
 40
21.89983344488276
 40
21.99830363824418
 40
21.99830363824418
 40
21.99830363824418
 40
21.99830363824418
 10
126.4539106501
 20
222.6229745203
 30
0.0
 10
126.4936906809501
 20
223.3317569382883
 30
0.0
 10
126.5745442776512
 20
224.7723693900164
 30
0.0
 10
126.7692915461379
 20
226.9485796913737
 30
0.0
 10
127.0278447802213
 20
229.1446277082258
 30
0.0
 10
127.3575082867654
 20
231.3151791542705
 30
0.0
 10
127.757236072179
 20
233.4181425708824
 30
0.0
 10
128.2247935373102
 20
235.411685611184
 30
0.0
 10
128.7549864388353
 20
237.2567839654491
 30
0.0
 10
129.3352715652251
 20
238.9047427441716
 30
0.0
 10
129.9373887973838
 20
240.2927642221217
 30
0.0
 10
130.5222340698163
 20
241.3833606205891
 30
0.0
 10
131.0523836058554
 20
242.1851337749056
 30
0.0
 10
131.5064179884569
 20
242.7452208799222
 30
0.0
 10
131.8630493295685
 20
243.1071241234712
 30
0.0
 10
132.0916064659226
 20
243.3056703257941
 30
0.0
 10
132.1969114147612
 20
243.3882443752904
 30
0.0
 10
132.2227415384
 20
243.4084988641
 30
0.0
 11
126.4539106501
 21
222.6229745203
 31
0.0
 11
126.5848146646
 21
224.748527583
 31
0.0
 11
126.7786370048
 21
226.9387965352
 31
0.0
 11
127.0408521897
 21
229.1483659791
 31
0.0
 11
127.374053252
 21
231.331923895
 31
0.0
 11
127.7781285084
 21
233.4446360289
 31
0.0
 11
128.2517471901
 21
235.4498108331
 31
0.0
 11
128.7887853017
 21
237.3029784243
 31
0.0
 11
129.3809750381
 21
238.9675481116
 31
0.0
 11
130.0007218625
 21
240.3790995366
 31
0.0
 11
130.5856387489
 21
241.4565702522
 31
0.0
 11
131.1081302422
 21
242.2381091392
 31
0.0
 11
131.5599956657
 21
242.789927855
 31
0.0
 11
131.9161907766
 21
243.1494045392
 31
0.0
 11
132.1455038789
 21
243.3474192199
 31
0.0
 11
132.2227415384
 21
243.4084988641
 31
0.0
  0
SPLINE
  5
1C59
330
1B
100
AcDbEntity
  8
0
  6
Continuous
100
AcDbSpline
210
0.0
220
0.0
230
1.0
 70
     8
 71
     3
 72
    10
 73
     6
 74
     4
 42
0.0000000001
 43
0.0000000001
 44
0.0000000001
 40
0.0
 40
0.0
 40
0.0
 40
0.0
 40
2.263984045011946
 40
4.573625750440009
 40
6.901058681289451
 40
6.901058681289451
 40
6.901058681289451
 40
6.901058681289451
 10
133.3252579287
 20
223.22466484
 30
0.0
 10
132.5711460540837
 20
223.1941937901022
 30
0.0
 10
131.0477141659231
 20
223.1326371820676
 30
0.0
 10
128.7550875909089
 20
222.9307305307416
 30
0.0
 10
127.2229290896939
 20
222.7258220510758
 30
0.0
 10
126.4539105962
 20
222.6229747215
 30
0.0
 11
133.3252579287
 21
223.22466484
 31
0.0
 11
131.0639050196
 21
223.1155466629
 31
0.0
 11
128.7630674711
 21
222.9140736303
 31
0.0
 11
126.4539105962
 21
222.6229747215
 31
0.0
  0
SPLINE
  5
1C5A
330
1B
100
AcDbEntity
  8
0
  6
Continuous
100
AcDbSpline
210
0.0
220
0.0
230
1.0
 70
     8
 71
     3
 72
    22
 73
    18
 74
    16
 42
0.0000000001
 43
0.0000000001
 44
0.0000000001
 40
0.0
 40
0.0
 40
0.0
 40
0.0
 40
2.144479668386777
 40
4.360739999843229
 40
6.60202086336276
 40
8.819265810772498
 40
10.96157775374965
 40
12.98462777861914
 40
14.83578288644363
 40
16.47162364101138
 40
17.82575946234852
 40
18.82646333261938
 40
19.52383370786694
 40
19.99326931355866
 40
20.28296059131483
 40
20.43437762831309
 40
20.47953291690519
 40
20.47953291690519
 40
20.47953291690519
 40
20.47953291690519
 10
133.3252578305
 20
223.2246647085
 30
0.0
 10
133.2979121941004
 20
223.9389688476502
 30
0.0
 10
133.2423056000034
 20
225.3914865271435
 30
0.0
 10
133.1688439103184
 20
227.5909425824355
 30
0.0
 10
133.1035677786915
 20
229.8149198951224
 30
0.0
 10
133.0496594769202
 20
232.0145484763668
 30
0.0
 10
133.008879510474
 20
234.1417046440095
 30
0.0
 10
132.9828140251247
 20
236.1470560073378
 30
0.0
 10
132.9724770671411
 20
237.9837290843871
 30
0.0
 10
132.9782563743428
 20
239.5974587268567
 30
0.0
 10
132.9990263089912
 20
240.927565471852
 30
0.0
 10
133.0311193813328
 20
241.9445206557739
 30
0.0
 10
133.0689693599585
 20
242.66609350626
 30
0.0
 10
133.107410226241
 20
243.1501515690401
 30
0.0
 10
133.1420780266911
 20
243.451746775256
 30
0.0
 10
133.1666507581257
 20
243.6120077822693
 30
0.0
 10
133.1786742584017
 20
243.6764204130255
 30
0.0
 10
133.181436217
 20
243.6912168546
 30
0.0
 11
133.3252578305
 21
223.2246647085
 31
0.0
 11
133.244934092
 21
225.3676395439
 31
0.0
 11
133.170607299
 21
227.5826531747
 31
0.0
 11
133.1051496302
 21
229.8229779732
 31
0.0
 11
133.0510521286
 21
232.0395628728
 31
0.0
 11
133.0103838758
 21
234.1814887712
 31
0.0
 11
132.9846641709
 21
236.2043752979
 31
0.0
 11
132.9750899301
 21
238.0555056464
 31
0.0
 11
132.9821822805
 21
239.6913310261
 31
0.0
 11
133.0050006841
 21
241.0452745785
 31
0.0
 11
133.038406136
 21
242.0454207237
 31
0.0
 11
133.0766717895
 21
242.7417404635
 31
0.0
 11
133.1155450956
 21
243.2095637784
 31
0.0
 11
133.14971317
 21
243.4972329966
 31
0.0
 11
133.1732606247
 21
243.646807849
 31
0.0
 11
133.181436217
 21
243.6912168546
 31
0.0
  0
SPLINE
  5
1C5B
330
1B
100
AcDbEntity
  8
0
  6
Continuous
100
AcDbSpline
210
0.0
220
0.0
230
1.0
 70
     8
 71
     3
 72
    13
 73
     9
 74
     7
 42
0.0000000001
 43
0.0000000001
 44
0.0000000001
 40
0.0
 40
0.0
 40
0.0
 40
0.0
 40
1.048667254660348
 40
2.268644527409835
 40
3.646228984356164
 40
5.16420905804752
 40
6.802223756015856
 40
8.537509412880747
 40
8.537509412880747
 40
8.537509412880747
 40
8.537509412880747
 10
135.6776113843
 20
215.0176875081
 30
0.0
 10
135.5832776879298
 20
215.354273933091
 30
0.0
 10
135.3791999663555
 20
216.0824314565216
 30
0.0
 10
135.0488953896692
 20
217.2520986914837
 30
0.0
 10
134.6738129927869
 20
218.5716746977063
 30
0.0
 10
134.2572212728851
 20
220.0243132471218
 30
0.0
 10
133.8043624803648
 20
221.5905893064737
 30
0.0
 10
133.4880002067943
 20
222.6696016047608
 30
0.0
 10
133.3252578305
 20
223.2246647085
 30
0.0
 11
135.6776113843
 21
215.0176875081
 31
0.0
 11
135.3943038419
 21
216.027360647
 31
0.0
 11
135.0628575481
 21
217.2014508907
 31
0.0
 11
134.6861153774
 21
218.5265185391
 31
0.0
 11
134.2677440907
 21
219.9857063168
 31
0.0
 11
133.8124144057
 21
221.5591633479
 31
0.0
 11
133.3252578305
 21
223.2246647085
 31
0.0
  0
SPLINE
  5
1C5C
330
1B
100
AcDbEntity
  8
0
  6
Continuous
100
AcDbSpline
210
0.0
220
0.0
230
1.0
 70
     8
 71
     3
 72
    13
 73
     9
 74
     7
 42
0.0000000001
 43
0.0000000001
 44
0.0000000001
 40
0.0
 40
0.0
 40
0.0
 40
0.0
 40
0.9266095027618141
 40
1.978501514054317
 40
3.147562164318528
 40
4.423630162002867
 40
5.794620210718714
 40
7.246849896380212
 40
7.246849896380212
 40
7.246849896380212
 40
7.246849896380212
 10
126.0924287142
 20
215.3851467802
 30
0.0
 10
126.108083131245
 20
215.6936196547381
 30
0.0
 10
126.141508525365
 20
216.3522725689369
 30
0.0
 10
126.1943785978622
 20
217.4001270308274
 30
0.0
 10
126.25278255003
 20
218.5643365579815
 30
0.0
 10
126.3163520029269
 20
219.8347867209953
 30
0.0
 10
126.3840300776128
 20
221.1995389859353
 30
0.0
 10
126.4301745157556
 20
222.1394802403909
 30
0.0
 10
126.4539106501
 20
222.6229745203
 30
0.0
 11
126.0924287142
 21
215.3851467802
 31
0.0
 11
126.1393498061
 21
216.3105675395
 31
0.0
 11
126.192362627
 21
217.3611228423
 31
0.0
 11
126.2509714257
 21
218.5287134438
 31
0.0
 11
126.3146794717
 21
219.8031901284
 31
0.0
 11
126.382578915
 21
221.1724977561
 31
0.0
 11
126.4539106501
 21
222.6229745203
 31
0.0
  0
SPLINE
  5
1C5D
330
1B
100
AcDbEntity
  8
0
  6
Continuous
100
AcDbSpline
210
0.0
220
0.0
230
1.0
 70
     8
 71
     3
 72
    10
 73
     6
 74
     4
 42
0.0000000001
 43
0.0000000001
 44
0.0000000001
 40
0.0
 40
0.0
 40
0.0
 40
0.0
 40
2.0257006483294
 40
3.980819274000581
 40
5.849209884995338
 40
5.849209884995338
 40
5.849209884995338
 40
5.849209884995338
 10
128.389725817
 20
197.7418226677
 30
0.0
 10
127.8685007681805
 20
197.3125619138911
 30
0.0
 10
126.844211852568
 20
196.468997252082
 30
0.0
 10
125.3391635196481
 20
195.2295205736628
 30
0.0
 10
124.3553179552554
 20
194.4193317044962
 30
0.0
 10
123.8745533745
 20
194.0234259586
 30
0.0
 11
128.389725817
 21
197.7418226677
 31
0.0
 11
126.8260486978
 21
196.4540428016
 31
0.0
 11
125.3168408708
 21
195.2111507808
 31
0.0
 11
123.8745533745
 21
194.0234259586
 31
0.0
  0
SPLINE
  5
1C5E
330
1B
100
AcDbEntity
  8
0
  6
Continuous
100
AcDbSpline
210
0.0
220
0.0
230
1.0
 70
     8
 71
     3
 72
    10
 73
     6
 74
     4
 42
0.0000000001
 43
0.0000000001
 44
0.0000000001
 40
0.0
 40
0.0
 40
0.0
 40
0.0
 40
0.5392920619047802
 40
1.088054464313613
 40
1.627434241536002
 40
1.627434241536002
 40
1.627434241536002
 40
1.627434241536002
 10
123.8745533745
 20
194.0233899621
 30
0.0
 10
124.0093606048284
 20
193.9044311233276
 30
0.0
 10
124.2813423734132
 20
193.6644244465397
 30
0.0
 10
124.6652845768508
 20
193.2804857660746
 30
0.0
 10
124.9053112028454
 20
193.0084825620135
 30
0.0
 10
125.0242896879
 20
192.8736536487
 30
0.0
 11
123.8745533745
 21
194.0233899621
 31
0.0
 11
124.2752189766
 21
193.6624148891
 31
0.0
 11
124.663254242
 21
193.2743829225
 31
0.0
 11
125.0242896879
 21
192.8736536487
 31
0.0
  0
SPLINE
  5
1C5F
330
1B
100
AcDbEntity
  8
0
  6
Continuous
100
AcDbSpline
210
0.0
220
0.0
230
1.0
 70
     8
 71
     3
 72
     9
 73
     5
 74
     3
 42
0.0000000001
 43
0.0000000001
 44
0.0000000001
 40
0.0
 40
0.0
 40
0.0
 40
0.0
 40
2.725139837231485
 40
5.293802210649631
 40
5.293802210649631
 40
5.293802210649631
 40
5.293802210649631
 10
128.3897270908
 20
196.960201891
 30
0.0
 10
127.8122551937545
 20
196.2590026796269
 30
0.0
 10
126.6904698220824
 20
194.8968670987079
 30
0.0
 10
125.5687193731101
 20
193.5347027579936
 30
0.0
 10
125.0244228437
 20
192.8737524336
 30
0.0
 11
128.3897270908
 21
196.960201891
 31
0.0
 11
126.6573206541
 21
194.8565966356
 31
0.0
 11
125.0244228437
 21
192.8737524336
 31
0.0
  0
SPLINE
  5
1C60
330
1B
100
AcDbEntity
  8
0
  6
Continuous
100
AcDbSpline
210
0.0
220
0.0
230
1.0
 70
     8
 71
     3
 72
    14
 73
    10
 74
     8
 42
0.0000000001
 43
0.0000000001
 44
0.0000000001
 40
0.0
 40
0.0
 40
0.0
 40
0.0
 40
0.3353043013199469
 40
0.796760950377117
 40
1.364154082581135
 40
2.001629737406563
 40
2.676526295811475
 40
3.354669148069814
 40
4.001645425527973
 40
4.001645425527973
 40
4.001645425527973
 40
4.001645425527973
 10
120.4040115822
 20
189.8280254025
 30
0.0
 10
120.5157409506643
 20
189.8233953200124
 30
0.0
 10
120.781235897947
 20
189.8123931679116
 30
0.0
 10
121.2318788837621
 20
189.7471342723838
 30
0.0
 10
121.7786064420169
 20
189.6495876093746
 30
0.0
 10
122.3911627112676
 20
189.5168192046181
 30
0.0
 10
123.0353680944098
 20
189.3578213218368
 30
0.0
 10
123.6785781096969
 20
189.1819466344293
 30
0.0
 10
124.1000225511072
 20
189.0495969395638
 30
0.0
 10
124.3057886213
 20
188.9849785132
 30
0.0
 11
120.4040115822
 21
189.8280254025
 31
0.0
 11
120.7387944667
 21
189.8093332991
 31
0.0
 11
121.1964190686
 21
189.7499871729
 31
0.0
 11
121.7550148629
 21
189.6504597643
 31
0.0
 11
122.3782776079
 21
189.5165987872
 31
0.0
 11
123.0336323964
 21
189.355367693
 31
0.0
 11
123.6873659409
 21
189.1750618948
 31
0.0
 11
124.3057886213
 21
188.9849785132
 31
0.0
  0
SPLINE
  5
1C61
330
1B
100
AcDbEntity
  8
0
  6
Continuous
100
AcDbSpline
210
0.0
220
0.0
230
1.0
 70
     8
 71
     3
 72
    10
 73
     6
 74
     4
 42
0.0000000001
 43
0.0000000001
 44
0.0000000001
 40
0.0
 40
0.0
 40
0.0
 40
0.0
 40
1.26398720678831
 40
2.580281850932993
 40
3.955248645659678
 40
3.955248645659678
 40
3.955248645659678
 40
3.955248645659678
 10
125.0244228437
 20
192.8737524336
 30
0.0
 10
124.9591745459421
 20
192.457492832423
 30
0.0
 10
124.8259777876167
 20
191.6077476068185
 30
0.0
 10
124.5857251256365
 20
190.3111919167136
 30
0.0
 10
124.4004472270489
 20
189.4334283517771
 30
0.0
 10
124.3057886574
 20
188.9849785141
 30
0.0
 11
125.0244228437
 21
192.8737524336
 31
0.0
 11
124.8230299382
 21
191.6259124773
 31
0.0
 11
124.5840732866
 21
190.3314893205
 31
0.0
 11
124.3057886574
 21
188.9849785141
 31
0.0
  0
SPLINE
  5
1C62
330
1B
100
AcDbEntity
  8
0
  6
Continuous
100
AcDbSpline
210
0.0
220
0.0
230
1.0
 70
     8
 71
     3
 72
    14
 73
    10
 74
     8
 42
0.0000000001
 43
0.0000000001
 44
0.0000000001
 40
0.0
 40
0.0
 40
0.0
 40
0.0
 40
0.3518013426771181
 40
0.8049191560382051
 40
1.339717034744933
 40
1.932763468962885
 40
2.557975708914894
 40
3.187817994178793
 40
3.794546007482522
 40
3.794546007482522
 40
3.794546007482522
 40
3.794546007482522
 10
121.2764771631
 20
193.4485218054
 30
0.0
 10
121.3935437560937
 20
193.4413785245423
 30
0.0
 10
121.6613913501811
 20
193.4250347449662
 30
0.0
 10
122.1051951840792
 20
193.3739060311511
 30
0.0
 10
122.6275225401689
 20
193.3040938772263
 30
0.0
 10
123.2050863853442
 20
193.2149423650439
 30
0.0
 10
123.8123324836181
 20
193.1111962115126
 30
0.0
 10
124.4225738949381
 20
192.9980799493004
 30
0.0
 10
124.8262328539703
 20
192.914608995797
 30
0.0
 10
125.0242896879
 20
192.8736536487
 30
0.0
 11
121.2764771631
 21
193.4485218054
 31
0.0
 11
121.6274468398
 21
193.4243459756
 31
0.0
 11
122.0779541711
 21
193.3757774958
 31
0.0
 11
122.6080435531
 21
193.3049677637
 31
0.0
 11
123.1942341973
 21
193.21505335
 31
0.0
 11
123.8105601929
 21
193.110017108
 31
0.0
 11
124.4297207655
 21
192.9945117417
 31
0.0
 11
125.0242896879
 21
192.8736536487
 31
0.0
  0
SPLINE
  5
1C63
330
1B
100
AcDbEntity
  8
0
  6
Continuous
100
AcDbSpline
210
0.0
220
0.0
230
1.0
 70
     8
 71
     3
 72
     9
 73
     5
 74
     3
 42
0.0000000001
 43
0.0000000001
 44
0.0000000001
 40
0.0
 40
0.0
 40
0.0
 40
0.0
 40
1.791368789332896
 40
3.724378460418334
 40
3.724378460418334
 40
3.724378460418334
 40
3.724378460418334
 10
121.2764771631
 20
193.448521754
 30
0.0
 10
121.1541581258746
 20
192.8639182209834
 30
0.0
 10
120.8998484659909
 20
191.6484874178919
 30
0.0
 10
120.573696939606
 20
190.45030553582
 30
0.0
 10
120.4044192839
 20
189.8284307209
 30
0.0
 11
121.2764771631
 21
193.448521754
 31
0.0
 11
120.8928997077
 21
191.6987016274999
 31
0.0
 11
120.4044192839
 21
189.8284307209
 31
0.0
  0
SPLINE
  5
1C64
330
1B
100
AcDbEntity
  8
0
  6
Continuous
100
AcDbSpline
210
0.0
220
0.0
230
1.0
 70
     8
 71
     3
 72
     9
 73
     5
 74
     3
 42
0.0000000001
 43
0.0000000001
 44
0.0000000001
 40
0.0
 40
0.0
 40
0.0
 40
0.0
 40
0.7909838649674384
 40
1.600310571919305
 40
1.600310571919305
 40
1.600310571919305
 40
1.600310571919305
 10
123.6539382074
 20
186.3869023027
 30
0.0
 10
123.4686491496139
 20
186.1993249867329
 30
0.0
 10
123.0937741980896
 20
185.8198204543531
 30
0.0
 10
122.7185215603003
 20
185.4406893711018
 30
0.0
 10
122.5287446589
 20
185.2489510195
 30
0.0
 11
123.6539382074
 21
186.3869023027
 31
0.0
 11
123.0979787646
 21
185.8242615891
 31
0.0
 11
122.5287446589
 21
185.2489510195
 31
0.0
  0
SPLINE
  5
1C65
330
1B
100
AcDbEntity
  8
0
  6
Continuous
100
AcDbSpline
210
0.0
220
0.0
230
1.0
 70
     8
 71
     3
 72
    15
 73
    11
 74
     9
 42
0.0000000001
 43
0.0000000001
 44
0.0000000001
 40
0.0
 40
0.0
 40
0.0
 40
0.0
 40
0.5818642759260775
 40
1.206138157710793
 40
1.863781008523897
 40
2.540688378499491
 40
3.220116593884292
 40
3.884990093050325
 40
4.520191756523558
 40
5.114946786628684
 40
5.114946786628684
 40
5.114946786628684
 40
5.114946786628684
 10
120.4040115822
 20
189.8280254025
 30
0.0
 10
120.419156463401
 20
189.6339204458204
 30
0.0
 10
120.4505500716122
 20
189.2315630498804
 30
0.0
 10
120.663629926946
 20
188.6410499633697
 30
0.0
 10
120.9823643526651
 20
188.0688868172065
 30
0.0
 10
121.4055214596855
 20
187.5435454229942
 30
0.0
 10
121.9077226970338
 20
187.0896823361001
 30
0.0
 10
122.4657677253594
 20
186.73385327769
 30
0.0
 10
123.0506607961952
 20
186.4796690863441
 30
0.0
 10
123.4573031607754
 20
186.4171391398305
 30
0.0
 10
123.6539382074
 20
186.3869023027
 30
0.0
 11
120.4040115822
 21
189.8280254025
 31
0.0
 11
120.4742318261
 21
189.250413809
 31
0.0
 11
120.6745262704
 21
188.6591439763
 31
0.0
 11
120.9945885036
 21
188.0846404636
 31
0.0
 11
121.417949307
 21
187.5564650972
 31
0.0
 11
121.922824099
 21
187.1017958281
 31
0.0
 11
122.4832338901
 21
186.7440282556
 31
0.0
 11
123.0703420647
 21
186.5015717758
 31
0.0
 11
123.6539382074
 21
186.3869023027
 31
0.0
  0
SPLINE
  5
1C66
330
1B
100
AcDbEntity
  8
0
  6
Continuous
100
AcDbSpline
210
0.0
220
0.0
230
1.0
 70
     8
 71
     3
 72
     9
 73
     5
 74
     3
 42
0.0000000001
 43
0.0000000001
 44
0.0000000001
 40
0.0
 40
0.0
 40
0.0
 40
0.0
 40
0.7995542394671729
 40
1.616149225030282
 40
1.616149225030282
 40
1.616149225030282
 40
1.616149225030282
 10
120.4044192839
 20
189.8284307209
 30
0.0
 10
120.2149199582624
 20
189.641022347658
 30
0.0
 10
119.8318825442191
 20
189.2622114024728
 30
0.0
 10
119.4491402125421
 20
188.8831023140695
 30
0.0
 10
119.255751221
 20
188.6915490987
 30
0.0
 11
120.4044192839
 21
189.8284307209
 31
0.0
 11
119.8359935301
 21
189.2661326289
 31
0.0
 11
119.255751221
 21
188.6915490987
 31
0.0
  0
SPLINE
  5
1C67
330
1B
100
AcDbEntity
  8
0
  6
Continuous
100
AcDbSpline
210
0.0
220
0.0
230
1.0
 70
     8
 71
     3
 72
     9
 73
     5
 74
     3
 42
0.0000000001
 43
0.0000000001
 44
0.0000000001
 40
0.0
 40
0.0
 40
0.0
 40
0.0
 40
0.2242081095008829
 40
0.4497314425672324
 40
0.4497314425672324
 40
0.4497314425672324
 40
0.4497314425672324
 10
122.5287446589
 20
185.2489510195
 30
0.0
 10
122.4755105381748
 20
185.1964660357026
 30
0.0
 10
122.3687300209097
 20
185.091188186793
 30
0.0
 10
122.2555318802118
 20
184.9928430177109
 30
0.0
 10
122.1987672879
 20
184.9435266297
 30
0.0
 11
122.5287446589
 21
185.2489510195
 31
0.0
 11
122.3674472612
 21
185.0932191157
 31
0.0
 11
122.1987672879
 21
184.9435266297
 31
0.0
  0
SPLINE
  5
1C68
330
1B
100
AcDbEntity
  8
0
  6
Continuous
100
AcDbSpline
210
0.0
220
0.0
230
1.0
 70
     8
 71
     3
 72
    15
 73
    11
 74
     9
 42
0.0000000001
 43
0.0000000001
 44
0.0000000001
 40
0.0
 40
0.0
 40
0.0
 40
0.0
 40
0.5844057366323062
 40
1.211741332066092
 40
1.872795398707548
 40
2.553195427637442
 40
3.235896230614012
 40
3.903547009598829
 40
4.540842487566712
 40
5.136973176370102
 40
5.136973176370102
 40
5.136973176370102
 40
5.136973176370102
 10
119.2557511169
 20
188.6915491325
 30
0.0
 10
119.2710693169899
 20
188.4965974006693
 30
0.0
 10
119.3028309767723
 20
188.0923729784754
 30
0.0
 10
119.5180627516559
 20
187.4993449830852
 30
0.0
 10
119.8398106623702
 20
186.9250369355507
 30
0.0
 10
120.2667052273222
 20
186.398303270588
 30
0.0
 10
120.7729388701784
 20
185.9440963502101
 30
0.0
 10
121.3348643603786
 20
185.5892764567133
 30
0.0
 10
121.9231362012393
 20
185.3373579580581
 30
0.0
 10
122.3314171703814
 20
185.277757103209
 30
0.0
 10
122.5287446002
 20
185.2489512455
 30
0.0
 11
119.2557511169
 21
188.6915491325
 31
0.0
 11
119.3267097648
 21
188.1114672975
 31
0.0
 11
119.5290020298
 21
187.5176425853
 31
0.0
 11
119.8521148369
 21
186.9409359069
 31
0.0
 11
120.2792560999
 21
186.4113185537
 31
0.0
 11
120.7882274016
 21
185.9563145972
 31
0.0
 11
121.3525776397
 21
185.5995704712
 31
0.0
 11
121.9429776833
 21
185.3596260719
 31
0.0
 11
122.5287446002
 21
185.2489512455
 31
0.0
  0
SPLINE
  5
1C69
330
1B
100
AcDbEntity
  8
0
  6
Continuous
100
AcDbSpline
210
0.0
220
0.0
230
1.0
 70
     8
 71
     3
 72
     9
 73
     5
 74
     3
 42
0.0000000001
 43
0.0000000001
 44
0.0000000001
 40
0.0
 40
0.0
 40
0.0
 40
0.0
 40
0.1146135237493417
 40
0.2311441244397179
 40
0.2311441244397179
 40
0.2311441244397179
 40
0.2311441244397179
 10
119.255751221
 20
188.6915490987
 30
0.0
 10
119.2285349609857
 20
188.6647272222655
 30
0.0
 10
119.1736472096476
 20
188.6106348347228
 30
0.0
 10
119.1159959270991
 20
188.5594975047878
 30
0.0
 10
119.08693121
 20
188.5337167769
 30
0.0
 11
119.255751221
 21
188.6915490987
 31
0.0
 11
119.1734229708
 21
188.6118100302
 31
0.0
 11
119.08693121
 21
188.5337167769
 31
0.0
  0
SPLINE
  5
1C6A
330
1B
100
AcDbEntity
  8
0
  6
Continuous
100
AcDbSpline
210
0.0
220
0.0
230
1.0
 70
     8
 71
     3
 72
    16
 73
    12
 74
    10
 42
0.0000000001
 43
0.0000000001
 44
0.0000000001
 40
0.0
 40
0.0
 40
0.0
 40
0.0
 40
0.3582658271717078
 40
0.8105104942762041
 40
1.348013453404321
 40
1.927664876316501
 40
2.503569582625199
 40
3.051469325580465
 40
3.550226987318276
 40
3.981231873682662
 40
4.329274901508129
 40
4.329274901508129
 40
4.329274901508129
 40
4.329274901508129
 10
122.1987672879
 20
184.9435266297
 30
0.0
 10
122.0993922075529
 20
184.8772806590749
 30
0.0
 10
121.8745743784936
 20
184.7274113432681
 30
0.0
 10
121.490637313912
 20
184.4937479115857
 30
0.0
 10
121.0375284260475
 20
184.2322281577558
 30
0.0
 10
120.5414125595599
 20
183.9630723738312
 30
0.0
 10
120.0358368382836
 20
183.7044826462223
 30
0.0
 10
119.5484489145961
 20
183.4698769377562
 30
0.0
 10
119.0995072694913
 20
183.2671532317709
 30
0.0
 10
118.7075668219662
 20
183.1002700351868
 30
0.0
 10
118.4659705072606
 20
183.0050303056307
 30
0.0
 10
118.3580363079
 20
182.9624815442
 30
0.0
 11
122.1987672879
 21
184.9435266297
 31
0.0
 11
121.8994640082
 21
184.7466206885
 31
0.0
 11
121.5141148301
 21
184.509911479
 31
0.0
 11
121.0485815681
 21
184.2412328363
 31
0.0
 11
120.5392199674
 21
183.9645623973
 31
0.0
 11
120.0264663473
 21
183.7023602695
 31
0.0
 11
119.5327017125
 21
183.4648931902
 31
0.0
 11
119.0781439948
 21
183.2596214522
 31
0.0
 11
118.6813120956
 21
183.0914261614
 31
0.0
 11
118.3580363079
 21
182.9624815442
 31
0.0
  0
SPLINE
  5
1C6B
330
1B
100
AcDbEntity
  8
0
  6
Continuous
100
AcDbSpline
210
0.0
220
0.0
230
1.0
 70
     8
 71
     3
 72
    15
 73
    11
 74
     9
 42
0.0000000001
 43
0.0000000001
 44
0.0000000001
 40
0.0
 40
0.0
 40
0.0
 40
0.0
 40
0.5805794392656066
 40
1.210289657299873
 40
1.875703841782505
 40
2.558565766493473
 40
3.238475780729055
 40
3.895388267938054
 40
4.512140205159096
 40
5.077231710605725
 40
5.077231710605725
 40
5.077231710605725
 40
5.077231710605725
 10
119.0869183085
 20
188.5337220454
 30
0.0
 10
119.1053918588886
 20
188.3404488413173
 30
0.0
 10
119.1439022598032
 20
187.9375469400196
 30
0.0
 10
119.3560012927838
 20
187.3435089721495
 30
0.0
 10
119.6659137084636
 20
186.7597588663855
 30
0.0
 10
120.0723280513372
 20
186.2161338724537
 30
0.0
 10
120.5506061716847
 20
185.738401494338
 30
0.0
 10
121.0787763915263
 20
185.3548139007021
 30
0.0
 10
121.6281568196487
 20
185.0698527604733
 30
0.0
 10
122.0141810216352
 20
184.9844185683295
 30
0.0
 10
122.1987562281
 20
184.9435687108
 30
0.0
 11
119.0869183085
 21
188.5337220454
 31
0.0
 11
119.1649697359
 21
187.9584130328
 31
0.0
 11
119.3653143744
 21
187.3614230961
 31
0.0
 11
119.6775319187
 21
186.7738039661
 31
0.0
 11
120.0853831889
 21
186.2261199791
 31
0.0
 11
120.5676547766
 21
185.7468583145
 31
0.0
 11
121.0992624163
 21
185.3609472713
 31
0.0
 11
121.6525556934
 21
185.088459654
 31
0.0
 11
122.1987562281
 21
184.9435687108
 31
0.0
  0
SPLINE
  5
1C6C
330
1B
100
AcDbEntity
  8
0
  6
Continuous
100
AcDbSpline
210
0.0
220
0.0
230
1.0
 70
     8
 71
     3
 72
    16
 73
    12
 74
    10
 42
0.0000000001
 43
0.0000000001
 44
0.0000000001
 40
0.0
 40
0.0
 40
0.0
 40
0.0
 40
0.2857607627346018
 40
0.6511079379122368
 40
1.088331267903743
 40
1.560592410634321
 40
2.028721631665269
 40
2.471732195311184
 40
2.872026186621824
 40
3.214949506684528
 40
3.489389282079423
 40
3.489389282079423
 40
3.489389282079423
 40
3.489389282079423
 10
119.08693121
 20
188.5337167769
 30
0.0
 10
119.0165158673031
 20
188.469547118537
 30
0.0
 10
118.8560740062791
 20
188.3233360938555
 30
0.0
 10
118.6015962648141
 20
188.0645976085869
 30
0.0
 10
118.3080421432363
 20
187.7573867403364
 30
0.0
 10
117.9942679363295
 20
187.4220835954749
 30
0.0
 10
117.6793158028362
 20
187.0852668525548
 30
0.0
 10
117.3793991004224
 20
186.7672265939577
 30
0.0
 10
117.1057005325092
 20
186.4818492431635
 30
0.0
 10
116.8685823538446
 20
186.2392537521372
 30
0.0
 10
116.7225787748551
 20
186.0942282829732
 30
0.0
 10
116.6576750096
 20
186.0297593222
 30
0.0
 11
119.08693121
 21
188.5337167769
 31
0.0
 11
118.8772641448
 21
188.3395546403
 31
0.0
 11
118.6189938417
 21
188.0811460318
 31
0.0
 11
118.3166362547
 21
187.7653230911
 31
0.0
 11
117.9933508607
 21
187.4210599055
 31
0.0
 11
117.6733497576
 21
187.0793813115
 31
0.0
 11
117.3691561582
 21
186.7573182531
 31
0.0
 11
117.091973157
 21
186.4685192515
 31
0.0
 11
116.8519603524
 21
186.2235901656999
 31
0.0
 11
116.6576750096
 21
186.0297593222
 31
0.0
  0
SPLINE
  5
1C6D
330
1B
100
AcDbEntity
  8
0
  6
Continuous
100
AcDbSpline
210
0.0
220
0.0
230
1.0
 70
     8
 71
     3
 72
    11
 73
     7
 74
     5
 42
0.0000000001
 43
0.0000000001
 44
0.0000000001
 40
0.0
 40
0.0
 40
0.0
 40
0.0
 40
0.3860994888861359
 40
0.6428528853505922
 40
0.7862392786464489
 40
0.8314703059550774
 40
0.8314703059550774
 40
0.8314703059550774
 40
0.8314703059550774
 10
107.9880667336
 20
179.3993906944
 30
0.0
 10
107.8890437982497
 20
179.3171522759358
 30
0.0
 10
107.7241713196834
 20
179.1802258978436
 30
0.0
 10
107.5151397661214
 20
179.0220471318012
 30
0.0
 10
107.3954005468067
 20
178.9342862403929
 30
0.0
 10
107.3443271443187
 20
178.897619005182
 30
0.0
 10
107.3320795881
 20
178.8888260914
 30
0.0
 11
107.9880667336
 21
179.3993906944
 31
0.0
 11
107.6888198722
 21
179.1554150168
 31
0.0
 11
107.4845070752
 21
178.9999203623
 31
0.0
 11
107.3688013783
 21
178.9152335895
 31
0.0
 11
107.3320795881
 21
178.8888260914
 31
0.0
  0
SPLINE
  5
1C6E
330
1B
100
AcDbEntity
  8
0
  6
Continuous
100
AcDbSpline
210
0.0
220
0.0
230
1.0
 70
     8
 71
     3
 72
    14
 73
    10
 74
     8
 42
0.0000000001
 43
0.0000000001
 44
0.0000000001
 40
0.0
 40
0.0
 40
0.0
 40
0.0
 40
0.6384702145796881
 40
1.283028806816592
 40
1.931800033573401
 40
2.582166836904082
 40
3.231234852964323
 40
3.876335289600383
 40
4.515496277108908
 40
4.515496277108908
 40
4.515496277108908
 40
4.515496277108908
 10
107.9880667336
 20
179.3993928626
 30
0.0
 10
108.2003268001995
 20
179.375233118516
 30
0.0
 10
108.6268710206894
 20
179.3266832458403
 30
0.0
 10
109.2310149910005
 20
179.0834242366226
 30
0.0
 10
109.7769768153702
 20
178.7282226256392
 30
0.0
 10
110.2397162692284
 20
178.2649336647254
 30
0.0
 10
110.5944792743899
 20
177.7183571013286
 30
0.0
 10
110.8374209691916
 20
177.1135597982296
 30
0.0
 10
110.8859045331537
 20
176.6866000424614
 30
0.0
 10
110.9100342018
 20
176.4741074658
 30
0.0
 11
107.9880667336
 21
179.3993928626
 31
0.0
 11
108.6185831676
 21
179.2989277375
 31
0.0
 11
109.2194670626
 21
179.0657018308
 31
0.0
 11
109.7624780896
 21
178.7106762976
 31
0.0
 11
110.2220958283
 21
178.2505366306
 31
0.0
 11
110.5767191753
 21
177.7069084753
 31
0.0
 11
110.8096815522
 21
177.1053412685
 31
0.0
 11
110.9100342018
 21
176.4741074658
 31
0.0
  0
SPLINE
  5
1C6F
330
1B
100
AcDbEntity
  8
0
  6
Continuous
100
AcDbSpline
210
0.0
220
0.0
230
1.0
 70
     8
 71
     3
 72
    11
 73
     7
 74
     5
 42
0.0000000001
 43
0.0000000001
 44
0.0000000001
 40
0.0
 40
0.0
 40
0.0
 40
0.0
 40
0.6234585652878438
 40
1.033343094148031
 40
1.261290866564229
 40
1.333099970918213
 40
1.333099970918213
 40
1.333099970918213
 40
1.333099970918213
 10
110.9100222662
 20
176.4741074656
 30
0.0
 10
110.82138215222
 20
176.2860286107539
 30
0.0
 10
110.67446677605
 20
175.9742998181264
 30
0.0
 10
110.4649996189272
 20
175.609434051763
 30
0.0
 10
110.3412187868701
 20
175.4078530770374
 30
0.0
 10
110.2873403579528
 20
175.3237034245282
 30
0.0
 10
110.2744333589
 20
175.3035447171
 30
0.0
 11
110.9100222662
 21
176.4741074656
 31
0.0
 11
110.63511219
 21
175.9145317043
 31
0.0
 11
110.4325843619
 21
175.5581782199
 31
0.0
 11
110.3130629573
 21
175.3640781921
 31
0.0
 11
110.2744333589
 21
175.3035447171
 31
0.0
  0
SPLINE
  5
1C70
330
1B
100
AcDbEntity
  8
0
  6
Continuous
100
AcDbSpline
210
0.0
220
0.0
230
1.0
 70
     8
 71
     3
 72
    12
 73
     8
 74
     6
 42
0.0000000001
 43
0.0000000001
 44
0.0000000001
 40
0.0
 40
0.0
 40
0.0
 40
0.0
 40
2.048510908219786
 40
3.699797355857335
 40
5.013828081429119
 40
6.018614296832217
 40
6.754582529371299
 40
6.754582529371299
 40
6.754582529371299
 40
6.754582529371299
 10
113.1416347075
 20
183.765731535
 30
0.0
 10
112.6192183179573
 20
183.3260179437182
 30
0.0
 10
111.6756867170608
 20
182.53185513217
 30
0.0
 10
110.4004198515331
 20
181.4516401550098
 30
0.0
 10
109.3917557110486
 20
180.5949610580208
 30
0.0
 10
108.6163159934241
 20
179.9349984744194
 30
0.0
 10
108.1747535601029
 20
179.5585487278374
 30
0.0
 10
107.9880667336
 20
179.3993906944
 30
0.0
 11
113.1416347075
 21
183.765731535
 31
0.0
 11
111.5751483827
 21
182.4456870148
 31
0.0
 11
110.3149009347
 21
181.3786709409
 31
0.0
 11
109.3133518476
 21
180.528038133
 31
0.0
 11
108.5481840752
 21
179.8767980707
 31
0.0
 11
107.9880667336
 21
179.3993906944
 31
0.0
  0
SPLINE
  5
1C71
330
1B
100
AcDbEntity
  8
0
  6
Continuous
100
AcDbSpline
210
0.0
220
0.0
230
1.0
 70
     8
 71
     3
 72
    12
 73
     8
 74
     6
 42
0.0000000001
 43
0.0000000001
 44
0.0000000001
 40
0.0
 40
0.0
 40
0.0
 40
0.0
 40
0.6328452005652276
 40
1.29651364580925
 40
1.971923435914937
 40
2.638641482814136
 40
3.277229814093437
 40
3.277229814093437
 40
3.277229814093437
 40
3.277229814093437
 10
113.1416347075
 20
183.7657352189
 30
0.0
 10
113.3308125174988
 20
183.6714577620212
 30
0.0
 10
113.7183821979335
 20
183.4783109873812
 30
0.0
 10
114.2406303130935
 20
183.0723930926802
 30
0.0
 10
114.7101528238493
 20
182.5951512922938
 30
0.0
 10
115.1093422276967
 20
182.0641667696478
 30
0.0
 10
115.2987324249805
 20
181.6715183722127
 30
0.0
 10
115.3913868179
 20
181.4794250146
 30
0.0
 11
113.1416347075
 21
183.7657352189
 31
0.0
 11
113.6986376693
 21
183.4653342395
 31
0.0
 11
114.2274032755
 21
183.0642572657
 31
0.0
 11
114.7011256514
 21
182.5828369762
 31
0.0
 11
115.0957893495
 21
182.0454790699
 31
0.0
 11
115.3913868179
 21
181.4794250146
 31
0.0
  0
SPLINE
  5
1C72
330
1B
100
AcDbEntity
  8
0
  6
Continuous
100
AcDbSpline
210
0.0
220
0.0
230
1.0
 70
     8
 71
     3
 72
    12
 73
     8
 74
     6
 42
0.0000000001
 43
0.0000000001
 44
0.0000000001
 40
0.0
 40
0.0
 40
0.0
 40
0.0
 40
2.036011292085415
 40
3.678262515192422
 40
4.985672329641491
 40
5.98569055191505
 40
6.718334082269265
 40
6.718334082269265
 40
6.718334082269265
 40
6.718334082269265
 10
115.3913857218
 20
181.4794250146
 30
0.0
 10
114.9370378799311
 20
180.9752800024802
 30
0.0
 10
114.1162120612819
 20
180.0644905056291
 30
0.0
 10
113.0075249751693
 20
178.8264677562134
 30
0.0
 10
112.1305226964005
 20
177.8445325716291
 30
0.0
 10
111.4562828895474
 20
177.0880314828985
 30
0.0
 10
111.0723609081302
 20
176.6565544276488
 30
0.0
 10
110.9100222662
 20
176.4741074656
 30
0.0
 11
115.3913857218
 21
181.4794250146
 31
0.0
 11
114.0292226142
 21
179.9661987758
 31
0.0
 11
112.9333671241
 21
178.7430512685
 31
0.0
 11
112.06246067
 21
177.7679398025
 31
0.0
 11
111.3971016646
 21
177.0213918544
 31
0.0
 11
110.9100222662
 21
176.4741074656
 31
0.0
  0
SPLINE
  5
1C73
330
1B
100
AcDbEntity
  8
0
  6
Continuous
100
AcDbSpline
210
0.0
220
0.0
230
1.0
 70
     8
 71
     3
 72
    10
 73
     6
 74
     4
 42
0.0000000001
 43
0.0000000001
 44
0.0000000001
 40
0.0
 40
0.0
 40
0.0
 40
0.0
 40
1.555173273629264
 40
2.954559777521537
 40
4.190811383093502
 40
4.190811383093502
 40
4.190811383093502
 40
4.190811383093502
 10
116.6576750096
 20
186.0297593222
 30
0.0
 10
116.1979788202594
 20
185.7897802586766
 30
0.0
 10
115.3246357054204
 20
185.3338616156826
 30
0.0
 10
114.1508078877771
 20
184.5709805916923
 30
0.0
 10
113.4638525536264
 20
184.0228386616197
 30
0.0
 10
113.1416347075
 20
183.765731535
 30
0.0
 11
116.6576750096
 21
186.0297593222
 31
0.0
 11
115.2912712837
 21
185.2871256515
 31
0.0
 11
114.1195693176
 21
184.5220131827
 31
0.0
 11
113.1416347075
 21
183.765731535
 31
0.0
  0
SPLINE
  5
1C74
330
1B
100
AcDbEntity
  8
0
  6
Continuous
100
AcDbSpline
210
0.0
220
0.0
230
1.0
 70
     8
 71
     3
 72
    12
 73
     8
 74
     6
 42
0.0000000001
 43
0.0000000001
 44
0.0000000001
 40
0.0
 40
0.0
 40
0.0
 40
0.0
 40
0.6768424857998324
 40
1.407727599881484
 40
2.154933282408698
 40
2.879219303288107
 40
3.5434910087261
 40
3.5434910087261
 40
3.5434910087261
 40
3.5434910087261
 10
116.6576750099
 20
186.0297556279
 30
0.0
 10
116.8093361254812
 20
185.8624163186442
 30
0.0
 10
117.124767769788
 20
185.5143764583713
 30
0.0
 10
117.5286474801937
 20
184.9176170660062
 30
0.0
 10
117.8847661530563
 20
184.275347461353
 30
0.0
 10
118.1743634857837
 20
183.6224073526597
 30
0.0
 10
118.298603457757
 20
183.17602484793
 30
0.0
 10
118.3580385799
 20
182.9624800582
 30
0.0
 11
116.6576750099
 21
186.0297556279
 31
0.0
 11
117.1007312033
 21
185.5180751025
 31
0.0
 11
117.51629198
 21
184.9168244968
 31
0.0
 11
117.8785680992
 21
184.2633167727
 31
0.0
 11
118.1650771084
 21
183.5981079125
 31
0.0
 11
118.3580385799
 21
182.9624800582
 31
0.0
  0
SPLINE
  5
1C75
330
1B
100
AcDbEntity
  8
0
  6
Continuous
100
AcDbSpline
210
0.0
220
0.0
230
1.0
 70
     8
 71
     3
 72
    10
 73
     6
 74
     4
 42
0.0000000001
 43
0.0000000001
 44
0.0000000001
 40
0.0
 40
0.0
 40
0.0
 40
0.0
 40
1.24028039887742
 40
2.345919195081268
 40
3.321368302641651
 40
3.321368302641651
 40
3.321368302641651
 40
3.321368302641651
 10
118.3580363079
 20
182.9624815442
 30
0.0
 10
117.9753726484791
 20
182.8056992968152
 30
0.0
 10
117.2515862976605
 20
182.5091546735827
 30
0.0
 10
116.262649848865
 20
182.0079541876887
 30
0.0
 10
115.6694369320573
 20
181.6480973742995
 30
0.0
 10
115.3913857218
 20
181.4794250146
 30
0.0
 11
118.3580363079
 21
182.9624815442
 31
0.0
 11
117.2171142887
 21
182.4760738819
 31
0.0
 11
116.2313460897
 21
181.9753761632
 31
0.0
 11
115.3913857218
 21
181.4794250146
 31
0.0
  0
HATCH
  5
338E
330
1B
100
AcDbEntity
  8
0
100
AcDbHatch
 10
0.0
 20
0.0
 30
0.0
210
0.0
220
0.0
230
1.0
  2
SOLID
 70
     1
 71
     0
 91
        4
 92
        7
 72
     0
 73
     1
 93
        4
 10
206.2483337139
 20
249.1378379491
 10
200.3587027994
 20
251.6378379491
 10
200.3587027994
 20
228.6378379491
 10
206.2483337139
 20
228.6378379491
 97
        0
 92
        7
 72
     0
 73
     1
 93
        4
 10
206.2483337139
 20
228.6378379491
 10
200.3587027994
 20
228.6378379491001
 10
200.3587027994
 20
205.6378379491
 10
206.2483337139
 20
208.1378379491
 97
        0
 92
        7
 72
     0
 73
     1
 93
        4
 10
200.3587027994
 20
228.6378379491
 10
198.2483337138999
 20
228.6378379491
 10
198.2483337138999
 20
205.6378379491
 10
200.3587027994
 20
205.6378379491
 97
        0
 92
        7
 72
     0
 73
     1
 93
        4
 10
200.3587027994
 20
251.6378379491
 10
198.2483337138999
 20
251.6378379491
 10
198.2483337138999
 20
228.6378379491
 10
200.3587027994
 20
228.6378379491
 97
        0
 75
     0
 76
     1
 47
0.1350275587902838
 98
        4
 10
201.151583530806
 20
238.7234267968084
 10
202.9084487930443
 20
225.3556988740412
 10
200.0704346181235
 20
225.2206711206731
 10
199.12442989315
 20
232.9172419500995
  0
ENDSEC
  0
SECTION
  2
OBJECTS
  0
DICTIONARY
  5
202F
330
0
100
AcDbDictionary
281
     1
  3
ACAD_COLOR
350
30FC
  3
ACAD_GROUP
350
2030
  3
ACAD_LAYOUT
350
30FD
  3
ACAD_MATERIAL
350
30FB
  3
ACAD_MLINESTYLE
350
2031
  3
ACAD_PLOTSETTINGS
350
30FE
  3
ACAD_PLOTSTYLENAME
350
30F9
  3
ACDBHEADERROUNDTRIPXREC
350
37A3
  3
AcDbVariableDictionary
350
37A0
  0
DICTIONARY
  5
30FC
102
{ACAD_REACTORS
330
202F
102
}
330
202F
100
AcDbDictionary
281
     1
  0
DICTIONARY
  5
2030
102
{ACAD_REACTORS
330
202F
102
}
330
202F
100
AcDbDictionary
281
     1
  0
DICTIONARY
  5
30FD
102
{ACAD_REACTORS
330
202F
102
}
330
202F
100
AcDbDictionary
281
     1
  3
Layout1
350
3100
  3
Model
350
30FF
  0
DICTIONARY
  5
30FB
102
{ACAD_REACTORS
330
202F
102
}
330
202F
100
AcDbDictionary
281
     1
  0
DICTIONARY
  5
2031
102
{ACAD_REACTORS
330
202F
102
}
330
202F
100
AcDbDictionary
281
     1
  3
STANDARD
350
2032
  0
DICTIONARY
  5
30FE
102
{ACAD_REACTORS
330
202F
102
}
330
202F
100
AcDbDictionary
281
     1
  0
ACDBDICTIONARYWDFLT
  5
30F9
102
{ACAD_REACTORS
330
202F
102
}
330
202F
100
AcDbDictionary
281
     1
  3
Normal
350
30FA
100
AcDbDictionaryWithDefault
340
30FA
  0
DICTIONARY
  5
37A3
102
{ACAD_REACTORS
330
202F
102
}
330
202F
100
AcDbDictionary
281
     1
  3
COLORDICT
350
37A4
  3
MATERIALDICT
350
37A5
  0
DICTIONARY
  5
37A0
102
{ACAD_REACTORS
330
202F
102
}
330
202F
100
AcDbDictionary
281
     1
  3
DIMASSOC
350
37A1
  3
HIDETEXT
350
37A2
  0
LAYOUT
  5
3100
102
{ACAD_REACTORS
330
30FD
102
}
330
30FD
100
AcDbPlotSettings
  1

  2
\\alderaan\HP LaserJet 4050 Ricerca
  4

  6

 40
0.0
 41
0.0
 42
0.0
 43
0.0
 44
0.0
 45
0.0
 46
0.0
 47
0.0
 48
0.0
 49
0.0
140
0.0
141
0.0
142
1.0
143
1.0
 70
   688
 72
     0
 73
     0
 74
     5
  7

 75
    16
147
1.0
148
0.0
149
0.0
100
AcDbLayout
  1
Layout1
 70
     0
 71
     1
 10
0.0
 20
0.0
 11
12.0
 21
9.0
 12
0.0
 22
0.0
 32
0.0
 14
1.000000000000000E+20
 24
1.000000000000000E+20
 34
1.000000000000000E+20
 15
-1.000000000000000E+20
 25
-1.000000000000000E+20
 35
-1.000000000000000E+20
146
0.0
 13
0.0
 23
0.0
 33
0.0
 16
1.0
 26
0.0
 36
0.0
 17
0.0
 27
1.0
 37
0.0
 76
     0
330
1C
  0
LAYOUT
  5
30FF
102
{ACAD_REACTORS
330
30FD
102
}
330
30FD
100
AcDbPlotSettings
  1

  2
\\alderaan\HP LaserJet 4050 Ricerca
  4
A4
  6

 40
5.027083396911621
 41
5.069430828094482
 42
5.365737915039062
 43
5.365753173828125
 44
209.8886566162109
 45
297.0530090332031
 46
-9.143999999999998
 47
-5.333999999999999
 48
-54.21340012008101
 49
50.3465372821098
140
296.6609766293168
141
307.6638229227551
142
1.0
143
30.0
 70
 11940
 72
     0
 73
     1
 74
     4
  7

 75
     0
147
0.0333333333333333
148
1377.020363050058
149
-1278.802046965589
100
AcDbLayout
  1
Model
 70
     1
 71
     0
 10
0.0
 20
0.0
 11
12.0
 21
9.0
 12
0.0
 22
0.0
 32
0.0
 14
0.0
 24
0.0
 34
0.0
 15
0.0
 25
0.0
 35
0.0
146
0.0
 13
0.0
 23
0.0
 33
0.0
 16
1.0
 26
0.0
 36
0.0
 17
0.0
 27
1.0
 37
0.0
 76
     0
330
1B
  0
MLINESTYLE
  5
2032
102
{ACAD_REACTORS
330
2031
102
}
330
2031
100
AcDbMlineStyle
  2
STANDARD
 70
     0
  3

 62
   256
 51
90.00000000000019
 52
90.00000000000019
 71
     2
 49
0.5
 62
   256
  6
BYLAYER
 49
-0.5
 62
   256
  6
BYLAYER
  0
ACDBPLACEHOLDER
  5
30FA
102
{ACAD_REACTORS
330
30F9
102
}
330
30F9
  0
XRECORD
  5
37A4
102
{ACAD_REACTORS
330
37A3
102
}
330
37A3
100
AcDbXrecord
280
     1
340
30FC
  0
XRECORD
  5
37A5
102
{ACAD_REACTORS
330
37A3
102
}
330
37A3
100
AcDbXrecord
280
     1
340
30FB
  0
DICTIONARYVAR
  5
37A1
102
{ACAD_REACTORS
330
37A0
102
}
330
37A0
100
DictionaryVariables
280
     0
  1
1
  0
DICTIONARYVAR
  5
37A2
102
{ACAD_REACTORS
330
37A0
102
}
330
37A0
100
DictionaryVariables
280
     0
  1
0
  0
ENDSEC
  0
EOF
