  0
SECTION
  2
HEADER
  9
$ACADVER
  1
AC1015
  9
$ACADMAINTVER
 70
     6
  9
$DWGCODEPAGE
  3
ANSI_1252
  9
$INSBASE
 10
0.0
 20
0.0
 30
0.0
  9
$EXTMIN
 10
49.08265043849997
 20
41.1184366914
 30
0.0
  9
$EXTMAX
 10
264.4090613064
 20
283.2605787623488
 30
7.170279451799999
  9
$LIMMIN
 10
0.0
 20
0.0
  9
$LIMMAX
 10
420.0
 20
297.0
  9
$ORTHOMODE
 70
     1
  9
$REGENMODE
 70
     1
  9
$FILLMODE
 70
     1
  9
$QTEXTMODE
 70
     0
  9
$MIRRTEXT
 70
     1
  9
$LTSCALE
 40
23.1
  9
$ATTMODE
 70
     1
  9
$TEXTSIZE
 40
0.2
  9
$TRACEWID
 40
0.05
  9
$TEXTSTYLE
  7
STANDARD
  9
$CLAYER
  8
0
  9
$CELTYPE
  6
BYLAYER
  9
$CECOLOR
 62
   256
  9
$CELTSCALE
 40
1.0
  9
$DISPSILH
 70
     0
  9
$DIMSCALE
 40
1.0
  9
$DIMASZ
 40
3.0
  9
$DIMEXO
 40
2.625
  9
$DIMDLI
 40
15.96
  9
$DIMRND
 40
0.0
  9
$DIMDLE
 40
0.0
  9
$DIMEXE
 40
7.559999999999999
  9
$DIMTP
 40
0.003
  9
$DIMTM
 40
0.003
  9
$DIMTXT
 40
1.5
  9
$DIMCEN
 40
3.779999999999999
  9
$DIMTSZ
 40
0.0
  9
$DIMTOL
 70
     1
  9
$DIMLIM
 70
     0
  9
$DIMTIH
 70
     1
  9
$DIMTOH
 70
     1
  9
$DIMSE1
 70
     0
  9
$DIMSE2
 70
     0
  9
$DIMTAD
 70
     0
  9
$DIMZIN
 70
     0
  9
$DIMBLK
  1

  9
$DIMASO
 70
     1
  9
$DIMSHO
 70
     1
  9
$DIMPOST
  1

  9
$DIMAPOST
  1

  9
$DIMALT
 70
     0
  9
$DIMALTD
 70
     2
  9
$DIMALTF
 40
25.4
  9
$DIMLFAC
 40
1.0
  9
$DIMTOFL
 70
     0
  9
$DIMTVP
 40
0.0
  9
$DIMTIX
 70
     0
  9
$DIMSOXD
 70
     0
  9
$DIMSAH
 70
     0
  9
$DIMBLK1
  1

  9
$DIMBLK2
  1

  9
$DIMSTYLE
  2
STANDARD
  9
$DIMCLRD
 70
     0
  9
$DIMCLRE
 70
     0
  9
$DIMCLRT
 70
     0
  9
$DIMTFAC
 40
1.0
  9
$DIMGAP
 40
0.09
  9
$DIMJUST
 70
     0
  9
$DIMSD1
 70
     0
  9
$DIMSD2
 70
     0
  9
$DIMTOLJ
 70
     1
  9
$DIMTZIN
 70
     0
  9
$DIMALTZ
 70
     0
  9
$DIMALTTZ
 70
     0
  9
$DIMUPT
 70
     0
  9
$DIMDEC
 70
     4
  9
$DIMTDEC
 70
     4
  9
$DIMALTU
 70
     2
  9
$DIMALTTD
 70
     2
  9
$DIMTXSTY
  7
STANDARD
  9
$DIMAUNIT
 70
     0
  9
$DIMADEC
 70
     0
  9
$DIMALTRND
 40
0.0
  9
$DIMAZIN
 70
     0
  9
$DIMDSEP
 70
    46
  9
$DIMATFIT
 70
     3
  9
$DIMFRAC
 70
     0
  9
$DIMLDRBLK
  1

  9
$DIMLUNIT
 70
     2
  9
$DIMLWD
 70
    -2
  9
$DIMLWE
 70
    -2
  9
$DIMTMOVE
 70
     0
  9
$LUNITS
 70
     2
  9
$LUPREC
 70
     4
  9
$SKETCHINC
 40
0.1
  9
$FILLETRAD
 40
0.0
  9
$AUNITS
 70
     0
  9
$AUPREC
 70
     0
  9
$MENU
  1
acad
  9
$ELEVATION
 40
0.0
  9
$PELEVATION
 40
0.0
  9
$THICKNESS
 40
0.0
  9
$LIMCHECK
 70
     0
  9
$CHAMFERA
 40
0.0
  9
$CHAMFERB
 40
0.0
  9
$CHAMFERC
 40
0.0
  9
$CHAMFERD
 40
0.0
  9
$SKPOLY
 70
     0
  9
$TDCREATE
 40
2444972.041666667
  9
$TDUCREATE
 40
2444972.0
  9
$TDUPDATE
 40
2453410.610525764
  9
$TDUUPDATE
 40
2453410.568859097
  9
$TDINDWG
 40
0.0028513426
  9
$TDUSRTIMER
 40
0.0028513426
  9
$USRTIMER
 70
     1
  9
$ANGBASE
 50
0.0
  9
$ANGDIR
 70
     0
  9
$PDMODE
 70
     0
  9
$PDSIZE
 40
0.0
  9
$PLINEWID
 40
0.0
  9
$SPLFRAME
 70
     0
  9
$SPLINETYPE
 70
     6
  9
$SPLINESEGS
 70
     8
  9
$HANDSEED
  5
D28
  9
$SURFTAB1
 70
     6
  9
$SURFTAB2
 70
     6
  9
$SURFTYPE
 70
     6
  9
$SURFU
 70
     6
  9
$SURFV
 70
     6
  9
$UCSBASE
  2

  9
$UCSNAME
  2

  9
$UCSORG
 10
0.0
 20
0.0
 30
0.0
  9
$UCSXDIR
 10
1.0
 20
0.0
 30
0.0
  9
$UCSYDIR
 10
0.0
 20
1.0
 30
0.0
  9
$UCSORTHOREF
  2

  9
$UCSORTHOVIEW
 70
     0
  9
$UCSORGTOP
 10
0.0
 20
0.0
 30
0.0
  9
$UCSORGBOTTOM
 10
0.0
 20
0.0
 30
0.0
  9
$UCSORGLEFT
 10
0.0
 20
0.0
 30
0.0
  9
$UCSORGRIGHT
 10
0.0
 20
0.0
 30
0.0
  9
$UCSORGFRONT
 10
0.0
 20
0.0
 30
0.0
  9
$UCSORGBACK
 10
0.0
 20
0.0
 30
0.0
  9
$PUCSBASE
  2

  9
$PUCSNAME
  2

  9
$PUCSORG
 10
0.0
 20
0.0
 30
0.0
  9
$PUCSXDIR
 10
1.0
 20
0.0
 30
0.0
  9
$PUCSYDIR
 10
0.0
 20
1.0
 30
0.0
  9
$PUCSORTHOREF
  2

  9
$PUCSORTHOVIEW
 70
     0
  9
$PUCSORGTOP
 10
0.0
 20
0.0
 30
0.0
  9
$PUCSORGBOTTOM
 10
0.0
 20
0.0
 30
0.0
  9
$PUCSORGLEFT
 10
0.0
 20
0.0
 30
0.0
  9
$PUCSORGRIGHT
 10
0.0
 20
0.0
 30
0.0
  9
$PUCSORGFRONT
 10
0.0
 20
0.0
 30
0.0
  9
$PUCSORGBACK
 10
0.0
 20
0.0
 30
0.0
  9
$USERI1
 70
     0
  9
$USERI2
 70
     0
  9
$USERI3
 70
     0
  9
$USERI4
 70
     0
  9
$USERI5
 70
     0
  9
$USERR1
 40
0.0
  9
$USERR2
 40
0.0
  9
$USERR3
 40
0.0
  9
$USERR4
 40
0.0
  9
$USERR5
 40
0.0
  9
$WORLDVIEW
 70
     1
  9
$SHADEDGE
 70
     3
  9
$SHADEDIF
 70
    70
  9
$TILEMODE
 70
     1
  9
$MAXACTVP
 70
    16
  9
$PINSBASE
 10
0.0
 20
0.0
 30
0.0
  9
$PLIMCHECK
 70
     0
  9
$PEXTMIN
 10
1.000000000000000E+20
 20
1.000000000000000E+20
 30
1.000000000000000E+20
  9
$PEXTMAX
 10
-1.000000000000000E+20
 20
-1.000000000000000E+20
 30
-1.000000000000000E+20
  9
$PLIMMIN
 10
0.0
 20
0.0
  9
$PLIMMAX
 10
12.0
 20
9.0
  9
$UNITMODE
 70
     0
  9
$VISRETAIN
 70
     0
  9
$PLINEGEN
 70
     1
  9
$PSLTSCALE
 70
     0
  9
$TREEDEPTH
 70
  3020
  9
$CMLSTYLE
  2
STANDARD
  9
$CMLJUST
 70
     0
  9
$CMLSCALE
 40
1.0
  9
$PROXYGRAPHICS
 70
     1
  9
$MEASUREMENT
 70
     0
  9
$CELWEIGHT
370
    -1
  9
$ENDCAPS
280
     0
  9
$JOINSTYLE
280
     0
  9
$LWDISPLAY
290
     0
  9
$INSUNITS
 70
     0
  9
$HYPERLINKBASE
  1

  9
$STYLESHEET
  1

  9
$XEDIT
290
     1
  9
$CEPSNTYPE
380
     0
  9
$PSTYLEMODE
290
     1
  9
$FINGERPRINTGUID
  2
{8701B6E5-C5FB-4D1C-83C8-79CCEF258874}
  9
$VERSIONGUID
  2
{9D4629CA-DDD3-476A-9CA2-6A5D46D122F2}
  9
$EXTNAMES
290
     1
  9
$PSVPSCALE
 40
0.0
  9
$OLESTARTUP
290
     0
  0
ENDSEC
  0
SECTION
  2
CLASSES
  0
CLASS
  1
IMAGE
  2
AcDbRasterImage
  3
ISM
 90
      127
280
     0
281
     1
  0
CLASS
  1
DICTIONARYVAR
  2
AcDbDictionaryVar
  3
ObjectDBX Classes
 90
        0
280
     0
281
     0
  0
CLASS
  1
RASTERVARIABLES
  2
AcDbRasterVariables
  3
ISM
 90
        0
280
     0
281
     0
  0
CLASS
  1
IMAGEDEF
  2
AcDbRasterImageDef
  3
ISM
 90
        0
280
     0
281
     0
  0
CLASS
  1
IMAGEDEF_REACTOR
  2
AcDbRasterImageDefReactor
  3
ISM
 90
        1
280
     0
281
     0
  0
CLASS
  1
IDBUFFER
  2
AcDbIdBuffer
  3
ObjectDBX Classes
 90
        0
280
     0
281
     0
  0
CLASS
  1
SPATIAL_FILTER
  2
AcDbSpatialFilter
  3
ObjectDBX Classes
 90
        0
280
     0
281
     0
  0
CLASS
  1
SORTENTSTABLE
  2
AcDbSortentsTable
  3
ObjectDBX Classes
 90
        0
280
     0
281
     0
  0
CLASS
  1
LAYER_INDEX
  2
AcDbLayerIndex
  3
ObjectDBX Classes
 90
        0
280
     0
281
     0
  0
CLASS
  1
SPATIAL_INDEX
  2
AcDbSpatialIndex
  3
AutoCAD 2000
 90
        0
280
     0
281
     0
  0
CLASS
  1
OBJECT_PTR
  2
CAseDLPNTableRecord
  3
ASE-LPNTableRecord
 90
        1
280
     0
281
     0
  0
CLASS
  1
PLOTSETTINGS
  2
AcDbPlotSettings
  3
ObjectDBX Classes
 90
        0
280
     0
281
     0
  0
CLASS
  1
ACDBDICTIONARYWDFLT
  2
AcDbDictionaryWithDefault
  3
ObjectDBX Classes
 90
        0
280
     0
281
     0
  0
CLASS
  1
WIPEOUT
  2
AcDbWipeout
  3
WipeOut|AutoCAD Express Tool|expresstools@autodesk.com
 90
      127
280
     0
281
     1
  0
CLASS
  1
WIPEOUTVARIABLES
  2
AcDbWipeoutVariables
  3
WipeOut|AutoCAD Express Tool|expresstools@autodesk.com
 90
        0
280
     0
281
     0
  0
CLASS
  1
RTEXT
  2
RText
  3
RText|AutoCAD Express Tool|expresstools@autodesk.com
 90
        0
280
     0
281
     1
  0
CLASS
  1
ARCALIGNEDTEXT
  2
AcDbArcAlignedText
  3
ATEXT|AutoCAD Express Tool|expresstools@autodesk.com
 90
        0
280
     0
281
     1
  0
CLASS
  1
ACDBPLACEHOLDER
  2
AcDbPlaceHolder
  3
ObjectDBX Classes
 90
        0
280
     0
281
     0
  0
CLASS
  1
LAYOUT
  2
AcDbLayout
  3
ObjectDBX Classes
 90
        0
280
     0
281
     0
  0
ENDSEC
  0
SECTION
  2
TABLES
  0
TABLE
  2
VPORT
  5
8
330
0
100
AcDbSymbolTable
 70
     1
  0
VPORT
  5
D21
330
8
100
AcDbSymbolTableRecord
100
AcDbViewportTableRecord
  2
*Active
 70
     0
 10
0.0
 20
0.0
 11
1.0
 21
1.0
 12
194.2116883154023
 22
151.0699768686329
 13
0.0
 23
0.0
 14
1.0
 24
1.0
 15
0.0
 25
0.0
 16
0.0
 26
0.0
 36
1.0
 17
0.0
 27
0.0
 37
0.0
 40
304.5756394664299
 41
1.888667992047713
 42
50.0
 43
0.0
 44
0.0
 50
0.0
 51
0.0
 71
     0
 72
   100
 73
     1
 74
     1
 75
     0
 76
     0
 77
     0
 78
     0
281
     0
 65
     1
110
0.0
120
0.0
130
0.0
111
1.0
121
0.0
131
0.0
112
0.0
122
1.0
132
0.0
 79
     0
146
0.0
  0
ENDTAB
  0
TABLE
  2
LTYPE
  5
5
330
0
100
AcDbSymbolTable
 70
     2
  0
LTYPE
  5
14
330
5
100
AcDbSymbolTableRecord
100
AcDbLinetypeTableRecord
  2
BYBLOCK
 70
     0
  3

 72
    65
 73
     0
 40
0.0
  0
LTYPE
  5
15
330
5
100
AcDbSymbolTableRecord
100
AcDbLinetypeTableRecord
  2
BYLAYER
 70
     0
  3

 72
    65
 73
     0
 40
0.0
  0
LTYPE
  5
16
330
5
100
AcDbSymbolTableRecord
100
AcDbLinetypeTableRecord
  2
CONTINUOUS
 70
     0
  3
Solid line
 72
    65
 73
     0
 40
0.0
  0
LTYPE
  5
1F5
330
5
100
AcDbSymbolTableRecord
100
AcDbLinetypeTableRecord
  2
CENTER
 70
     0
  3
____ _ ____ _ ____ _ ____ _ ____ _ ____ _ ____
 72
    65
 73
     4
 40
0.6
 49
0.375
 74
     0
 49
-0.075
 74
     0
 49
0.075
 74
     0
 49
-0.075
 74
     0
  0
ENDTAB
  0
TABLE
  2
LAYER
  5
2
330
0
100
AcDbSymbolTable
 70
     4
  0
LAYER
  5
10
330
2
100
AcDbSymbolTableRecord
100
AcDbLayerTableRecord
  2
0
 70
     0
 62
     7
  6
CONTINUOUS
370
    -3
390
6CB
  0
LAYER
  5
1FA
330
2
100
AcDbSymbolTableRecord
100
AcDbLayerTableRecord
  2
DEFAULT_1
 70
     0
 62
     7
  6
CENTER
370
    -3
390
6CB
  0
LAYER
  5
216
330
2
100
AcDbSymbolTableRecord
100
AcDbLayerTableRecord
  2
LOGO
 70
     0
 62
     7
  6
CONTINUOUS
370
    -3
390
6CB
  0
LAYER
  5
736
330
2
100
AcDbSymbolTableRecord
100
AcDbLayerTableRecord
  2
Defpoints
 70
     0
 62
     7
  6
CONTINUOUS
290
     0
370
    -3
390
6CB
  0
ENDTAB
  0
TABLE
  2
STYLE
  5
3
330
0
100
AcDbSymbolTable
 70
     1
  0
STYLE
  5
11
330
3
100
AcDbSymbolTableRecord
100
AcDbTextStyleTableRecord
  2
STANDARD
 70
     0
 40
0.0
 41
1.0
 50
0.0
 71
     0
 42
0.2
  3
txt
  4

  0
ENDTAB
  0
TABLE
  2
VIEW
  5
6
330
0
100
AcDbSymbolTable
 70
     0
  0
ENDTAB
  0
TABLE
  2
UCS
  5
7
330
0
100
AcDbSymbolTable
 70
     0
  0
ENDTAB
  0
TABLE
  2
APPID
  5
9
330
0
100
AcDbSymbolTable
 70
     1
  0
APPID
  5
22A
330
9
100
AcDbSymbolTableRecord
100
AcDbRegAppTableRecord
  2
ACAD
 70
     0
  0
ENDTAB
  0
TABLE
  2
DIMSTYLE
  5
A
330
0
100
AcDbSymbolTable
 70
     1
100
AcDbDimStyleTable
  0
DIMSTYLE
105
22B
330
A
100
AcDbSymbolTableRecord
100
AcDbDimStyleTableRecord
  2
STANDARD
 70
     0
 41
3.0
 47
0.003
 48
0.003
 71
     1
 73
     0
 74
     0
 77
     1
 78
     8
140
1.5
271
     3
272
     3
284
     8
340
11
  0
ENDTAB
  0
TABLE
  2
BLOCK_RECORD
  5
1
330
0
100
AcDbSymbolTable
 70
     0
  0
BLOCK_RECORD
  5
1B
330
1
100
AcDbSymbolTableRecord
100
AcDbBlockTableRecord
  2
*MODEL_SPACE
340
6D0
  0
BLOCK_RECORD
  5
1C
330
1
100
AcDbSymbolTableRecord
100
AcDbBlockTableRecord
  2
*PAPER_SPACE
340
6D1
  0
ENDTAB
  0
ENDSEC
  0
SECTION
  2
BLOCKS
  0
BLOCK
  5
1E
330
1B
100
AcDbEntity
  8
0
100
AcDbBlockBegin
  2
*MODEL_SPACE
 70
     0
 71
     0
 10
0.0
 20
0.0
 30
0.0
  3
*MODEL_SPACE
  1

  0
ENDBLK
  5
1F
330
1B
100
AcDbEntity
  8
0
100
AcDbBlockEnd
  0
BLOCK
  5
20
330
1C
100
AcDbEntity
 67
     1
  8
0
100
AcDbBlockBegin
  2
*PAPER_SPACE
 70
     0
 71
     0
 10
0.0
 20
0.0
 30
0.0
  3
*PAPER_SPACE
  1

  0
ENDBLK
  5
21
330
1C
100
AcDbEntity
 67
     1
  8
0
100
AcDbBlockEnd
  0
ENDSEC
  0
SECTION
  2
ENTITIES
  0
TEXT
  5
393
330
1B
100
AcDbEntity
  8
0
  6
Continuous
 62
     1
100
AcDbText
 10
370.3335729233
 20
40.7992332966
 30
0.0
 40
1.8
  1
 
 41
1.0285714286
 72
     5
 11
372.1850014948
 21
40.7992332966
 31
0.0
100
AcDbText
  0
TEXT
  5
397
330
1B
100
AcDbEntity
  8
0
  6
Continuous
 62
     1
100
AcDbText
 10
328.0807157805
 20
31.8278047252
 30
0.0
 40
1.5
  1
 
 41
1.285714285699999
 72
     5
 11
330.0092872091
 21
31.8278047252
 31
0.0
100
AcDbText
  0
TEXT
  5
398
330
1B
100
AcDbEntity
  8
0
  6
Continuous
 62
     1
100
AcDbText
 10
330.0092872091
 20
31.8278047252
 30
0.0
 40
1.5
  1
 
 41
1.285714285699999
 72
     5
 11
331.9378586376
 21
31.8278047252
 31
0.0
100
AcDbText
  0
TEXT
  5
39A
330
1B
100
AcDbEntity
  8
0
  6
Continuous
 62
     1
100
AcDbText
 10
352.7950014948
 20
31.8278047252
 30
0.0
 40
1.5
  1
 
 41
1.285714285699999
 72
     5
 11
354.7235729233
 21
31.8278047252
 31
0.0
100
AcDbText
  0
TEXT
  5
3A4
330
1B
100
AcDbEntity
  8
0
  6
Continuous
 62
     1
100
AcDbText
 10
401.7378586376
 20
20.9420904395
 30
0.0
 40
1.5
  1
 
 41
1.0285714286
 72
     5
 11
403.2807157805
 21
20.9420904395
 31
0.0
100
AcDbText
  0
TEXT
  5
3A7
330
1B
100
AcDbEntity
  8
0
  6
Continuous
 62
     1
100
AcDbText
 10
376.5450014948
 20
13.1420904395
 30
0.0
 40
1.5
  1
 
 41
1.285714285699999
 72
     5
 11
378.4735729233
 21
13.1420904395
 31
0.0
100
AcDbText
  0
LINE
  5
43F
330
1B
100
AcDbEntity
  8
0
  6
Continuous
100
AcDbLine
 10
90.1676106972
 20
111.9012794039
 30
0.0
 11
92.15756019089999
 21
109.9113299102
 31
0.0
  0
LINE
  5
440
330
1B
100
AcDbEntity
  8
0
  6
Continuous
100
AcDbLine
 10
92.8646669721
 20
109.6184366914
 30
0.0
 11
135.2362398473
 21
109.6184366914
 31
0.0
  0
LINE
  5
441
330
1B
100
AcDbEntity
  8
0
  6
Continuous
100
AcDbLine
 10
92.15756019089999
 20
109.9113299102
 30
0.0
 11
135.9433466285
 21
109.9113299102
 31
0.0
  0
LINE
  5
442
330
1B
100
AcDbEntity
  8
0
  6
Continuous
100
AcDbLine
 10
91.75045417259999
 20
110.3184374544
 30
0.0
 11
136.3504526467
 21
110.3184374544
 31
0.0
  0
LINE
  5
443
330
1B
100
AcDbEntity
  8
0
  6
Continuous
100
AcDbLine
 10
90.1676106972
 20
111.9012794039
 30
0.0
 11
137.9332961222
 21
111.9012794039
 31
0.0
  0
LINE
  5
444
330
1B
100
AcDbEntity
  8
0
  6
Continuous
100
AcDbLine
 10
90.05045340969998
 20
112.1841221164
 30
0.0
 11
138.0504534097
 21
112.1841221164
 31
0.0
  0
LINE
  5
445
330
1B
100
AcDbEntity
  8
0
  6
Continuous
100
AcDbLine
 10
154.6884623831
 20
117.3184366914
 30
0.0
 11
173.9149596912
 21
117.3184366914
 31
0.0
  0
LINE
  5
446
330
1B
100
AcDbEntity
  8
0
  6
Continuous
100
AcDbLine
 10
154.6884623831
 20
117.353921291
 30
0.0
 11
173.9149596912
 21
117.353921291
 31
0.0
  0
LINE
  5
447
330
1B
100
AcDbEntity
  8
0
  6
Continuous
100
AcDbLine
 10
154.566711959
 20
117.6197392762
 30
0.0
 11
173.9149596994
 21
117.6197392762
 31
0.0
  0
LINE
  5
448
330
1B
100
AcDbEntity
  8
0
  6
Continuous
100
AcDbLine
 10
138.0504534097
 20
122.6184366914
 30
0.0
 11
90.05045340969998
 21
122.6184366914
 31
0.0
  0
LINE
  5
449
330
1B
100
AcDbEntity
  8
0
  6
Continuous
100
AcDbLine
 10
91.75045417259999
 20
124.3184374544
 30
0.0
 11
136.3504526467
 21
124.3184374544
 31
0.0
  0
LINE
  5
44A
330
1B
100
AcDbEntity
  8
0
  6
Continuous
100
AcDbLine
 10
72.6918416898
 20
232.8767430181
 30
0.0
 11
72.6772799541
 21
235.6985627847
 31
0.0
  0
LINE
  5
44B
330
1B
100
AcDbEntity
  8
0
  6
Continuous
100
AcDbLine
 10
73.2504534097
 20
240.7240162302
 30
0.0
 11
73.2504534097
 21
242.3240162302
 31
0.0
  0
LINE
  5
44C
330
1B
100
AcDbEntity
  8
0
  6
Continuous
100
AcDbLine
 10
72.6772799541
 20
235.6985627847
 30
0.0
 11
72.6772750813
 21
235.6973456399
 31
0.0
  0
LINE
  5
44D
330
1B
100
AcDbEntity
  8
0
  6
Continuous
100
AcDbLine
 10
179.3790613064
 20
129.0976304776
 30
0.0
 11
191.9090613064
 21
129.134078873
 31
0.0
  0
LINE
  5
44E
330
1B
100
AcDbEntity
  8
0
  6
Continuous
100
AcDbLine
 10
135.2220262849
 20
125.4468638162
 30
0.0
 11
92.8788805344
 21
125.4468638162
 31
0.0
  0
LINE
  5
44F
330
1B
100
AcDbEntity
  8
0
  6
Continuous
100
AcDbLine
 10
194.3090613064
 20
125.8184366914
 30
0.0
 11
198.5090613064
 21
125.8184366914
 31
0.0
  0
LINE
  5
450
330
1B
100
AcDbEntity
  8
0
  6
Continuous
100
AcDbLine
 10
152.3790613064
 20
126.4984366914
 30
0.0
 11
150.8704534097
 21
126.4984366914
 31
0.0
  0
LINE
  5
451
330
1B
100
AcDbEntity
  8
0
  6
Continuous
100
AcDbLine
 10
201.0194303918
 20
127.6184366914
 30
0.0
 11
198.9090613064
 21
127.6184366914
 31
0.0
  0
LINE
  5
452
330
1B
100
AcDbEntity
  8
0
  6
Continuous
100
AcDbLine
 10
134.0504534097
 20
128.2752909409
 30
0.0
 11
118.1901496533
 21
128.2752909409
 31
0.0
  0
LINE
  5
453
330
1B
100
AcDbEntity
  8
0
  6
Continuous
100
AcDbLine
 10
109.910757166
 20
128.2752909409
 30
0.0
 11
94.0504534097
 21
128.2752909409
 31
0.0
  0
LINE
  5
454
330
1B
100
AcDbEntity
  8
0
  6
Continuous
100
AcDbLine
 10
110.2504534097
 20
129.1184366914
 30
0.0
 11
111.3004534097
 21
129.1184366914
 31
0.0
  0
LINE
  5
455
330
1B
100
AcDbEntity
  8
0
  6
Continuous
100
AcDbLine
 10
112.3504534097
 20
129.1184366914
 30
0.0
 11
112.6129534097
 21
129.1184366914
 31
0.0
  0
LINE
  5
456
330
1B
100
AcDbEntity
  8
0
  6
Continuous
100
AcDbLine
 10
113.8379534931
 20
129.1184366914
 30
0.0
 11
114.1004534931
 21
129.1184366914
 31
0.0
  0
LINE
  5
457
330
1B
100
AcDbEntity
  8
0
  6
Continuous
100
AcDbLine
 10
115.1504532428
 20
129.1184366914
 30
0.0
 11
115.4129532428
 21
129.1184366914
 31
0.0
  0
LINE
  5
458
330
1B
100
AcDbEntity
  8
0
  6
Continuous
100
AcDbLine
 10
116.4629532428
 20
129.1184366914
 30
0.0
 11
116.7254532428
 21
129.1184366914
 31
0.0
  0
LINE
  5
459
330
1B
100
AcDbEntity
  8
0
  6
Continuous
100
AcDbLine
 10
117.9504535766
 20
129.1184366914
 30
0.0
 11
118.2129535766
 21
129.1184366914
 31
0.0
  0
LINE
  5
45A
330
1B
100
AcDbEntity
  8
0
  6
Continuous
100
AcDbLine
 10
218.0433758814
 20
129.9184366914
 30
0.0
 11
207.5789342874
 21
129.9184366914
 31
0.0
  0
LINE
  5
45B
330
1B
100
AcDbEntity
  8
0
  6
Continuous
100
AcDbLine
 10
111.3004534097
 20
130.0120537105
 30
0.0
 11
110.5129534097
 21
130.0120537105
 31
0.0
  0
LINE
  5
45C
330
1B
100
AcDbEntity
  8
0
  6
Continuous
100
AcDbLine
 10
112.7879534931
 20
130.9056707295
 30
0.0
 11
113.6629534097
 21
130.9056707295
 31
0.0
  0
LINE
  5
45D
330
1B
100
AcDbEntity
  8
0
  6
Continuous
100
AcDbLine
 10
116.9004535766
 20
130.9056707295
 30
0.0
 11
117.7754532428
 21
130.9056707295
 31
0.0
  0
LINE
  5
45E
330
1B
100
AcDbEntity
  8
0
  6
Continuous
100
AcDbLine
 10
117.7317034097
 20
131.5014153394
 30
0.0
 11
116.9442034097
 21
131.5014153394
 31
0.0
  0
LINE
  5
45F
330
1B
100
AcDbEntity
  8
0
  6
Continuous
100
AcDbLine
 10
113.6192033262
 20
131.5014153394
 30
0.0
 11
112.8317033262
 21
131.5014153394
 31
0.0
  0
LINE
  5
460
330
1B
100
AcDbEntity
  8
0
  6
Continuous
100
AcDbLine
 10
220.2790613064
 20
131.9884366914
 30
0.0
 11
207.0242794591
 21
131.9884366914
 31
0.0
  0
LINE
  5
461
330
1B
100
AcDbEntity
  8
0
  6
Continuous
100
AcDbLine
 10
173.9149596994
 20
132.0020200411
 30
0.0
 11
154.566711959
 21
132.0020200411
 31
0.0
  0
LINE
  5
462
330
1B
100
AcDbEntity
  8
0
  6
Continuous
100
AcDbLine
 10
173.9149596912
 20
132.6551976319
 30
0.0
 11
154.6884623831
 21
132.6551976319
 31
0.0
  0
LINE
  5
463
330
1B
100
AcDbEntity
  8
0
  6
Continuous
100
AcDbLine
 10
111.5192034514
 20
135.969500539
 30
0.0
 11
111.3004534097
 21
136.1184366914
 31
0.0
  0
LINE
  5
464
330
1B
100
AcDbEntity
  8
0
  6
Continuous
100
AcDbLine
 10
111.3004534097
 20
135.2248197767
 30
0.0
 11
111.475453368
 21
135.0758836242
 31
0.0
  0
LINE
  5
465
330
1B
100
AcDbEntity
  8
0
  6
Continuous
100
AcDbLine
 10
76.9435277871
 20
232.8767430181
 30
0.0
 11
76.9782614017
 21
235.6985627847
 31
0.0
  0
LINE
  5
466
330
1B
100
AcDbEntity
  8
0
  6
Continuous
100
AcDbLine
 10
110.5129534097
 20
135.2248197767
 30
0.0
 11
111.3004534097
 21
135.2248197767
 31
0.0
  0
LINE
  5
467
330
1B
100
AcDbEntity
  8
0
  6
Continuous
100
AcDbLine
 10
154.6884623831
 20
135.3171603505
 30
0.0
 11
173.9149596912
 21
135.3171603505
 31
0.0
  0
LINE
  5
468
330
1B
100
AcDbEntity
  8
0
  6
Continuous
100
AcDbLine
 10
114.4504534097
 20
135.3737559291
 30
0.0
 11
115.1504532428
 21
135.3737559291
 31
0.0
  0
LINE
  5
469
330
1B
100
AcDbEntity
  8
0
  6
Continuous
100
AcDbLine
 10
115.4129532428
 20
135.3737559291
 30
0.0
 11
116.1129535766
 21
135.3737559291
 31
0.0
  0
LINE
  5
46A
330
1B
100
AcDbEntity
  8
0
  6
Continuous
100
AcDbLine
 10
117.5129532428
 20
136.1184366914
 30
0.0
 11
117.1629535766
 21
136.1184366914
 31
0.0
  0
LINE
  5
46B
330
1B
100
AcDbEntity
  8
0
  6
Continuous
100
AcDbLine
 10
116.1129535766
 20
136.1184366914
 30
0.0
 11
114.4504534097
 21
136.1184366914
 31
0.0
  0
LINE
  5
46C
330
1B
100
AcDbEntity
  8
0
  6
Continuous
100
AcDbLine
 10
113.4004534097
 20
136.1184366914
 30
0.0
 11
113.0504534931
 21
136.1184366914
 31
0.0
  0
LINE
  5
46D
330
1B
100
AcDbEntity
  8
0
  6
Continuous
100
AcDbLine
 10
111.3004534097
 20
136.1184366914
 30
0.0
 11
110.2504534097
 21
136.1184366914
 31
0.0
  0
LINE
  5
46E
330
1B
100
AcDbEntity
  8
0
  6
Continuous
100
AcDbLine
 10
154.566711959
 20
136.2361559265
 30
0.0
 11
173.9149596996
 21
136.2361559265
 31
0.0
  0
LINE
  5
46F
330
1B
100
AcDbEntity
  8
0
  6
Continuous
100
AcDbLine
 10
130.8511030325
 20
136.263736153
 30
0.0
 11
118.8161424297
 21
136.263736153
 31
0.0
  0
LINE
  5
470
330
1B
100
AcDbEntity
  8
0
  6
Continuous
100
AcDbLine
 10
94.0504534097
 20
136.263736153
 30
0.0
 11
109.2847643897
 21
136.263736153
 31
0.0
  0
LINE
  5
471
330
1B
100
AcDbEntity
  8
0
  6
Continuous
100
AcDbLine
 10
128.2065763597
 20
137.5866118086
 30
0.0
 11
117.4145633968
 21
137.5866118086
 31
0.0
  0
LINE
  5
472
330
1B
100
AcDbEntity
  8
0
  6
Continuous
100
AcDbLine
 10
110.6863434226
 20
137.5866118086
 30
0.0
 11
94.5504534097
 21
137.5866118086
 31
0.0
  0
LINE
  5
473
330
1B
100
AcDbEntity
  8
0
  6
Continuous
100
AcDbLine
 10
95.5504534097
 20
140.2323631196
 30
0.0
 11
127.4806180041
 21
140.2323631196
 31
0.0
  0
LINE
  5
474
330
1B
100
AcDbEntity
  8
0
  6
Continuous
100
AcDbLine
 10
145.7020269795
 20
133.0793066984
 30
0.0
 11
138.8136893912
 21
134.4182638883
 31
0.0
  0
LINE
  5
475
330
1B
100
AcDbEntity
  8
0
  6
Continuous
100
AcDbLine
 10
114.7087865443
 20
145.8312026421
 30
0.0
 11
115.7504534097
 21
145.6184366914
 31
0.0
  0
LINE
  5
476
330
1B
100
AcDbEntity
  8
0
  6
Continuous
100
AcDbLine
 10
114.917120275
 20
146.8950324329
 30
0.0
 11
115.542120275
 21
146.6822665009
 31
0.0
  0
LINE
  5
477
330
1B
100
AcDbEntity
  8
0
  6
Continuous
100
AcDbLine
 10
113.667120275
 20
146.4695004943
 30
0.0
 11
114.7087865443
 21
145.8312026421
 31
0.0
  0
LINE
  5
478
330
1B
100
AcDbEntity
  8
0
  6
Continuous
100
AcDbLine
 10
114.292120275
 20
147.3205642971
 30
0.0
 11
114.917120275
 21
146.8950324329
 31
0.0
  0
LINE
  5
479
330
1B
100
AcDbEntity
  8
0
  6
Continuous
100
AcDbLine
 10
135.2220262849
 20
125.4468638162
 30
0.0
 11
138.0504534097
 21
122.6184366914
 31
0.0
  0
LINE
  5
47A
330
1B
100
AcDbEntity
  8
0
  6
Continuous
100
AcDbLine
 10
111.6942034097
 20
135.6716282341
 30
0.0
 11
111.5192034514
 21
135.969500539
 31
0.0
  0
LINE
  5
47B
330
1B
100
AcDbEntity
  8
0
  6
Continuous
100
AcDbLine
 10
76.8337932434
 20
200.5393348674
 30
0.0
 11
76.8327231574
 21
200.5435305432
 31
0.0
  0
LINE
  5
47C
330
1B
100
AcDbEntity
  8
0
  6
Continuous
100
AcDbLine
 10
89.0504534097
 20
178.3240162302
 30
0.0
 11
89.0504534097
 21
174.6184366914
 31
0.0
  0
LINE
  5
47D
330
1B
100
AcDbEntity
  8
0
  6
Continuous
100
AcDbLine
 10
90.05045340969998
 20
122.6184366914
 30
0.0
 11
90.05045340969998
 21
112.1841221164
 31
0.0
  0
LINE
  5
47E
330
1B
100
AcDbEntity
  8
0
  6
Continuous
100
AcDbLine
 10
91.75045340969999
 20
110.3184366914
 30
0.0
 11
91.75045340969999
 21
124.3184366914
 31
0.0
  0
LINE
  5
47F
330
1B
100
AcDbEntity
  8
0
  6
Continuous
100
AcDbLine
 10
109.5004534097
 20
145.6184366914
 30
0.0
 11
110.7504534097
 21
145.6184366914
 31
0.0
  0
LINE
  5
480
330
1B
100
AcDbEntity
  8
0
  6
Continuous
100
AcDbLine
 10
115.7504534097
 20
145.6184366914
 30
0.0
 11
116.792120275
 21
145.6184366914
 31
0.0
  0
LINE
  5
481
330
1B
100
AcDbEntity
  8
0
  6
Continuous
100
AcDbLine
 10
115.542120275
 20
146.6822665009
 30
0.0
 11
117.0004534097
 21
146.6822665009
 31
0.0
  0
LINE
  5
482
330
1B
100
AcDbEntity
  8
0
  6
Continuous
100
AcDbLine
 10
138.6504534097
 20
148.1184366914
 30
0.0
 11
131.2504534097
 21
148.1184366914
 31
0.0
  0
LINE
  5
483
330
1B
100
AcDbEntity
  8
0
  6
Continuous
100
AcDbLine
 10
116.792120275
 20
152.00141525
 30
0.0
 11
117.8337865443
 21
151.7886493179
 31
0.0
  0
LINE
  5
484
330
1B
100
AcDbEntity
  8
0
  6
Continuous
100
AcDbLine
 10
176.5130362213
 20
139.5251383101
 30
0.0
 11
174.780985095
 21
139.8853103994
 31
0.0
  0
LINE
  5
485
330
1B
100
AcDbEntity
  8
0
  6
Continuous
100
AcDbLine
 10
175.6470104992
 20
135.7766581388
 30
0.0
 11
173.9149596912
 21
136.2361559262
 31
0.0
  0
LINE
  5
486
330
1B
100
AcDbEntity
  8
0
  6
Continuous
100
AcDbLine
 10
117.0004534097
 20
150.9375855896
 30
0.0
 11
117.6254534097
 21
150.7248196575
 31
0.0
  0
LINE
  5
487
330
1B
100
AcDbEntity
  8
0
  6
Continuous
100
AcDbLine
 10
116.792120275
 20
154.554607031
 30
0.0
 11
117.417120275
 21
154.3418410989
 31
0.0
  0
LINE
  5
488
330
1B
100
AcDbEntity
  8
0
  6
Continuous
100
AcDbLine
 10
117.8337865443
 20
151.7886493179
 30
0.0
 11
118.8754534097
 21
151.1503515216
 31
0.0
  0
LINE
  5
489
330
1B
100
AcDbEntity
  8
0
  6
Continuous
100
AcDbLine
 10
117.6254534097
 20
155.4056707593
 30
0.0
 11
118.667119679
 21
154.7673729631
 31
0.0
  0
LINE
  5
48A
330
1B
100
AcDbEntity
  8
0
  6
Continuous
100
AcDbLine
 10
117.6254534097
 20
150.7248196575
 30
0.0
 11
118.2504534097
 21
150.2992877933
 31
0.0
  0
LINE
  5
48B
330
1B
100
AcDbEntity
  8
0
  6
Continuous
100
AcDbLine
 10
117.417120275
 20
154.3418410989
 30
0.0
 11
118.042120275
 21
153.9163092348
 31
0.0
  0
LINE
  5
48C
330
1B
100
AcDbEntity
  8
0
  6
Continuous
100
AcDbLine
 10
118.2504534097
 20
150.2992877933
 30
0.0
 11
118.667119679
 21
149.8737559291
 31
0.0
  0
LINE
  5
48D
330
1B
100
AcDbEntity
  8
0
  6
Continuous
100
AcDbLine
 10
118.8754534097
 20
151.1503515216
 30
0.0
 11
119.5004534097
 21
150.5120537254
 31
0.0
  0
LINE
  5
48E
330
1B
100
AcDbEntity
  8
0
  6
Continuous
100
AcDbLine
 10
113.042119977
 20
147.3205642971
 30
0.0
 11
113.667120275
 21
146.4695004943
 31
0.0
  0
LINE
  5
48F
330
1B
100
AcDbEntity
  8
0
  6
Continuous
100
AcDbLine
 10
113.8754534097
 20
147.9588622424
 30
0.0
 11
114.292120275
 21
147.3205642971
 31
0.0
  0
LINE
  5
490
330
1B
100
AcDbEntity
  8
0
  6
Continuous
100
AcDbLine
 10
111.475453368
 20
135.0758836242
 30
0.0
 11
111.606703368
 21
134.7780113193
 31
0.0
  0
LINE
  5
491
330
1B
100
AcDbEntity
  8
0
  6
Continuous
100
AcDbLine
 10
93.85974250329998
 20
232.8767430181
 30
0.0
 11
93.76145416479999
 21
235.6985627847
 31
0.0
  0
LINE
  5
492
330
1B
100
AcDbEntity
  8
0
  6
Continuous
100
AcDbLine
 10
93.55045340969998
 20
174.6184366914
 30
0.0
 11
93.55045340969998
 21
163.550487499
 31
0.0
  0
LINE
  5
493
330
1B
100
AcDbEntity
  8
0
  6
Continuous
100
AcDbLine
 10
94.0504534097
 20
136.263736153
 30
0.0
 11
94.0504534097
 21
128.2752909409
 31
0.0
  0
LINE
  5
494
330
1B
100
AcDbEntity
  8
0
  6
Continuous
100
AcDbLine
 10
95.5504534097
 20
158.6515080134
 30
0.0
 11
95.5504534097
 21
140.2323631196
 31
0.0
  0
LINE
  5
495
330
1B
100
AcDbEntity
  8
0
  6
Continuous
100
AcDbLine
 10
96.4504534097
 20
178.3240162302
 30
0.0
 11
96.4504534097
 21
174.6184366914
 31
0.0
  0
LINE
  5
496
330
1B
100
AcDbEntity
  8
0
  6
Continuous
100
AcDbLine
 10
98.0504534097
 20
178.3240162302
 30
0.0
 11
98.0504534097
 21
174.6184366914
 31
0.0
  0
LINE
  5
497
330
1B
100
AcDbEntity
  8
0
  6
Continuous
100
AcDbLine
 10
176.5130519217
 20
161.7117383384
 30
0.0
 11
174.780985095
 21
161.3515629834
 31
0.0
  0
LINE
  5
498
330
1B
100
AcDbEntity
  8
0
  6
Continuous
100
AcDbLine
 10
116.792120275
 20
145.6184366914
 30
0.0
 11
117.8337865443
 21
145.8312026421
 31
0.0
  0
LINE
  5
499
330
1B
100
AcDbEntity
  8
DEFAULT_1
  6
CENTER
100
AcDbLine
 10
87.5648170512
 20
150.6184366914
 30
0.0
 11
225.9090613064
 21
150.6184366914
 31
0.0
  0
LINE
  5
49A
330
1B
100
AcDbEntity
  8
0
  6
Continuous
100
AcDbLine
 10
115.542120275
 20
150.9375855896
 30
0.0
 11
117.0004534097
 21
150.9375855896
 31
0.0
  0
LINE
  5
49B
330
1B
100
AcDbEntity
  8
0
  6
Continuous
100
AcDbLine
 10
115.7504534097
 20
152.00141525
 30
0.0
 11
116.792120275
 21
152.00141525
 31
0.0
  0
LINE
  5
49C
330
1B
100
AcDbEntity
  8
0
  6
Continuous
100
AcDbLine
 10
131.2504534097
 20
153.1184366914
 30
0.0
 11
138.6504534097
 21
153.1184366914
 31
0.0
  0
LINE
  5
49D
330
1B
100
AcDbEntity
  8
0
  6
Continuous
100
AcDbLine
 10
118.4587871404
 20
153.2780114385
 30
0.0
 11
119.5004534097
 21
153.2780114385
 31
0.0
  0
LINE
  5
49E
330
1B
100
AcDbEntity
  8
0
  6
Continuous
100
AcDbLine
 10
115.542120275
 20
154.554607031
 30
0.0
 11
116.792120275
 21
154.554607031
 31
0.0
  0
LINE
  5
49F
330
1B
100
AcDbEntity
  8
0
  6
Continuous
100
AcDbLine
 10
109.5004534097
 20
155.6184366914
 30
0.0
 11
110.7504534097
 21
155.6184366914
 31
0.0
  0
LINE
  5
4A0
330
1B
100
AcDbEntity
  8
0
  6
Continuous
100
AcDbLine
 10
115.7504534097
 20
155.6184366914
 30
0.0
 11
116.5837865443
 21
155.6184366914
 31
0.0
  0
LINE
  5
4A1
330
1B
100
AcDbEntity
  8
0
  6
Continuous
100
AcDbLine
 10
116.5837865443
 20
155.6184366914
 30
0.0
 11
117.6254534097
 21
155.4056707593
 31
0.0
  0
LINE
  5
4A2
330
1B
100
AcDbEntity
  8
0
  6
Continuous
100
AcDbLine
 10
152.3790613064
 20
124.9898287948
 30
0.0
 11
150.6366381573
 21
126.7322519438
 31
0.0
  0
LINE
  5
4A3
330
1B
100
AcDbEntity
  8
0
  6
Continuous
100
AcDbLine
 10
118.667119679
 20
154.7673729631
 30
0.0
 11
119.292119679
 21
153.9163092348
 31
0.0
  0
LINE
  5
4A4
330
1B
100
AcDbEntity
  8
0
  6
Continuous
100
AcDbLine
 10
118.042120275
 20
153.9163092348
 30
0.0
 11
118.4587871404
 21
153.2780114385
 31
0.0
  0
LINE
  5
4A5
330
1B
100
AcDbEntity
  8
0
  6
Continuous
100
AcDbLine
 10
112.6254534097
 20
148.3843941065
 30
0.0
 11
113.042119977
 21
147.3205642971
 31
0.0
  0
LINE
  5
4A6
330
1B
100
AcDbEntity
  8
0
  6
Continuous
100
AcDbLine
 10
113.667120275
 20
148.5971600386
 30
0.0
 11
113.8754534097
 21
147.9588622424
 31
0.0
  0
LINE
  5
4A7
330
1B
100
AcDbEntity
  8
0
  6
Continuous
100
AcDbLine
 10
111.869203368
 20
135.0758836242
 30
0.0
 11
111.6942034097
 21
135.6716282341
 31
0.0
  0
LINE
  5
4A8
330
1B
100
AcDbEntity
  8
0
  6
Continuous
100
AcDbLine
 10
111.606703368
 20
134.7780113193
 30
0.0
 11
111.6942034097
 21
134.3312024447
 31
0.0
  0
LINE
  5
4A9
330
1B
100
AcDbEntity
  8
0
  6
Continuous
100
AcDbLine
 10
114.1004534931
 20
129.1184366914
 30
0.0
 11
113.4004534097
 21
136.1184366914
 31
0.0
  0
LINE
  5
4AA
330
1B
100
AcDbEntity
  8
0
  6
Continuous
100
AcDbLine
 10
113.6629534097
 20
130.9056707295
 30
0.0
 11
113.8379534931
 21
129.1184366914
 31
0.0
  0
LINE
  5
4AB
330
1B
100
AcDbEntity
  8
0
  6
Continuous
100
AcDbLine
 10
113.2254533262
 20
135.5226920816
 30
0.0
 11
113.6192033262
 21
131.5014153394
 31
0.0
  0
LINE
  5
4AC
330
1B
100
AcDbEntity
  8
0
  6
Continuous
100
AcDbLine
 10
111.6942034097
 20
134.3312024447
 30
0.0
 11
111.737953368
 21
133.7354578349
 31
0.0
  0
LINE
  5
4AD
330
1B
100
AcDbEntity
  8
0
  6
Continuous
100
AcDbLine
 10
175.6470104988
 20
165.4602152443
 30
0.0
 11
173.9149596912
 21
165.0007174563
 31
0.0
  0
LINE
  5
4AE
330
1B
100
AcDbEntity
  8
0
  6
Continuous
100
AcDbLine
 10
114.7087865443
 20
151.7886493179
 30
0.0
 11
115.7504534097
 21
152.00141525
 31
0.0
  0
LINE
  5
4AF
330
1B
100
AcDbEntity
  8
0
  6
Continuous
100
AcDbLine
 10
114.7087865443
 20
155.4056707593
 30
0.0
 11
115.7504534097
 21
155.6184366914
 31
0.0
  0
LINE
  5
4B0
330
1B
100
AcDbEntity
  8
0
  6
Continuous
100
AcDbLine
 10
126.5610560456
 20
158.6515080134
 30
0.0
 11
95.5504534097
 21
158.6515080134
 31
0.0
  0
LINE
  5
4B1
330
1B
100
AcDbEntity
  8
0
  6
Continuous
100
AcDbLine
 10
94.4075962668
 20
161.4509248623
 30
0.0
 11
127.3339144942
 21
161.4509248623
 31
0.0
  0
LINE
  5
4B2
330
1B
100
AcDbEntity
  8
0
  6
Continuous
100
AcDbLine
 10
130.6632330308
 20
163.550487499
 30
0.0
 11
118.076144148
 21
163.550487499
 31
0.0
  0
LINE
  5
4B3
330
1B
100
AcDbEntity
  8
0
  6
Continuous
100
AcDbLine
 10
110.0247626713
 20
163.550487499
 30
0.0
 11
93.55045340969998
 21
163.550487499
 31
0.0
  0
LINE
  5
4B4
330
1B
100
AcDbEntity
  8
0
  6
Continuous
100
AcDbLine
 10
173.9149596913
 20
165.0007174563
 30
0.0
 11
154.566711959
 21
165.0007174563
 31
0.0
  0
LINE
  5
4B5
330
1B
100
AcDbEntity
  8
0
  6
Continuous
100
AcDbLine
 10
150.6366381573
 20
126.7322519438
 30
0.0
 11
150.3188009121
 21
127.1464655062
 31
0.0
  0
LWPOLYLINE
  5
4B6
330
1B
100
AcDbEntity
  8
0
  6
Continuous
100
AcDbPolyline
 90
        4
 70
     0
 43
0.0
 10
128.2065763597
 20
137.5866118086
 10
127.8112163065
 20
138.3787821193
 10
127.5644809735
 20
139.2780118377
 10
127.4806213366
 20
140.2323631202
  0
LINE
  5
4BC
330
1B
100
AcDbEntity
  8
0
  6
Continuous
100
AcDbLine
 10
119.5004534097
 20
150.5120537254
 30
0.0
 11
119.917119679
 21
149.448224065
 31
0.0
  0
LINE
  5
4BD
330
1B
100
AcDbEntity
  8
0
  6
Continuous
100
AcDbLine
 10
118.667119679
 20
149.8737559291
 30
0.0
 11
118.8754534097
 21
149.2354578349
 31
0.0
  0
LINE
  5
4BE
330
1B
100
AcDbEntity
  8
0
  6
Continuous
100
AcDbLine
 10
119.292119679
 20
153.9163092348
 30
0.0
 11
119.5004534097
 21
153.2780114385
 31
0.0
  0
LINE
  5
4BF
330
1B
100
AcDbEntity
  8
0
  6
Continuous
100
AcDbLine
 10
111.9567034097
 20
134.4801390144
 30
0.0
 11
111.869203368
 21
135.0758836242
 31
0.0
  0
LINE
  5
4C0
330
1B
100
AcDbEntity
  8
0
  6
Continuous
100
AcDbLine
 10
112.417119977
 20
149.8737559291
 30
0.0
 11
112.6254534097
 21
148.3843941065
 31
0.0
  0
LINE
  5
4C1
330
1B
100
AcDbEntity
  8
0
  6
Continuous
100
AcDbLine
 10
118.2129535766
 20
129.1184366914
 30
0.0
 11
117.5129532428
 21
136.1184366914
 31
0.0
  0
LINE
  5
4C2
330
1B
100
AcDbEntity
  8
0
  6
Continuous
100
AcDbLine
 10
117.7754532428
 20
130.9056707295
 30
0.0
 11
117.9504535766
 21
129.1184366914
 31
0.0
  0
LINE
  5
4C3
330
1B
100
AcDbEntity
  8
0
  6
Continuous
100
AcDbLine
 10
117.3379534097
 20
135.5226920816
 30
0.0
 11
117.7317034097
 21
131.5014153394
 31
0.0
  0
LINE
  5
4C4
330
1B
100
AcDbEntity
  8
0
  6
Continuous
100
AcDbLine
 10
112.000453368
 20
133.7354578349
 30
0.0
 11
111.9567034097
 21
134.4801390144
 31
0.0
  0
LINE
  5
4C5
330
1B
100
AcDbEntity
  8
0
  6
Continuous
100
AcDbLine
 10
108.2504534097
 20
152.4269471141
 30
0.0
 11
108.2504534097
 21
154.1290751668
 31
0.0
  0
LINE
  5
4C6
330
1B
100
AcDbEntity
  8
0
  6
Continuous
100
AcDbLine
 10
109.5004534097
 20
145.6184366914
 30
0.0
 11
109.5004534097
 21
153.9163092348
 31
0.0
  0
LINE
  5
4C7
330
1B
100
AcDbEntity
  8
0
  6
Continuous
100
AcDbLine
 10
109.5977695642
 20
165.6184366914
 30
0.0
 11
109.5977695642
 21
168.6184366914
 31
0.0
  0
LINE
  5
4C8
330
1B
100
AcDbEntity
  8
0
  6
Continuous
100
AcDbLine
 10
110.2504534097
 20
136.1184366914
 30
0.0
 11
110.2504534097
 21
129.1184366914
 31
0.0
  0
LINE
  5
4C9
330
1B
100
AcDbEntity
  8
0
  6
Continuous
100
AcDbLine
 10
110.5129534097
 20
130.0120537105
 30
0.0
 11
110.5129534097
 21
135.2248197767
 31
0.0
  0
LINE
  5
4CA
330
1B
100
AcDbEntity
  8
0
  6
Continuous
100
AcDbLine
 10
110.7504534097
 20
175.6184366914
 30
0.0
 11
110.7504534097
 21
168.6184366914
 31
0.0
  0
LINE
  5
4CB
330
1B
100
AcDbEntity
  8
0
  6
Continuous
100
AcDbLine
 10
110.7504534097
 20
145.6184366914
 30
0.0
 11
110.7504534097
 21
155.6184366914
 31
0.0
  0
LINE
  5
4CC
330
1B
100
AcDbEntity
  8
0
  6
Continuous
100
AcDbLine
 10
111.1557507803
 20
165.6184366914
 30
0.0
 11
111.1557507803
 21
175.0184366914
 31
0.0
  0
LINE
  5
4CD
330
1B
100
AcDbEntity
  8
0
  6
Continuous
100
AcDbLine
 10
111.4705898856
 20
175.0184366914
 30
0.0
 11
111.4705898856
 21
165.6184366914
 31
0.0
  0
LINE
  5
4CE
330
1B
100
AcDbEntity
  8
0
  6
Continuous
100
AcDbLine
 10
111.737953368
 20
133.7354578349
 30
0.0
 11
111.737953368
 21
131.5014153394
 31
0.0
  0
LINE
  5
4CF
330
1B
100
AcDbEntity
  8
0
  6
Continuous
100
AcDbLine
 10
112.000453368
 20
131.5014153394
 30
0.0
 11
112.000453368
 21
133.7354578349
 31
0.0
  0
LINE
  5
4D0
330
1B
100
AcDbEntity
  8
0
  6
Continuous
100
AcDbLine
 10
112.417119977
 20
149.8737559291
 30
0.0
 11
112.417119977
 21
151.3631174537
 31
0.0
  0
LINE
  5
4D1
330
1B
100
AcDbEntity
  8
0
  6
Continuous
100
AcDbLine
 10
112.4667845837
 20
175.0184366914
 30
0.0
 11
112.4667845837
 21
165.6184366914
 31
0.0
  0
LINE
  5
4D2
330
1B
100
AcDbEntity
  8
0
  6
Continuous
100
AcDbLine
 10
113.4587865443
 20
150.9375855896
 30
0.0
 11
113.4587865443
 21
151.3631174537
 31
0.0
  0
LINE
  5
4D3
330
1B
100
AcDbEntity
  8
0
  6
Continuous
100
AcDbLine
 10
113.667120275
 20
148.5971600386
 30
0.0
 11
113.667120275
 21
149.2354578349
 31
0.0
  0
LINE
  5
4D4
330
1B
100
AcDbEntity
  8
DEFAULT_1
  6
CENTER
100
AcDbLine
 10
114.0504534097
 20
103.0372856863
 30
0.0
 11
114.0504534097
 21
262.8094952535
 31
0.0
  0
LINE
  5
4D5
330
1B
100
AcDbEntity
  8
0
  6
Continuous
100
AcDbLine
 10
114.4504534097
 20
136.1184366914
 30
0.0
 11
114.4504534097
 21
135.3737559291
 31
0.0
  0
LINE
  5
4D6
330
1B
100
AcDbEntity
  8
0
  6
Continuous
100
AcDbLine
 10
115.1504532428
 20
135.3737559291
 30
0.0
 11
115.1504532428
 21
129.1184366914
 31
0.0
  0
LINE
  5
4D7
330
1B
100
AcDbEntity
  8
0
  6
Continuous
100
AcDbLine
 10
115.4129532428
 20
129.1184366914
 30
0.0
 11
115.4129532428
 21
135.3737559291
 31
0.0
  0
LINE
  5
4D8
330
1B
100
AcDbEntity
  8
0
  6
Continuous
100
AcDbLine
 10
115.6341222357
 20
165.6184366914
 30
0.0
 11
115.6341222357
 21
175.0184366914
 31
0.0
  0
LINE
  5
4D9
330
1B
100
AcDbEntity
  8
0
  6
Continuous
100
AcDbLine
 10
111.3225032507
 20
232.8767430181
 30
0.0
 11
111.4266835065
 21
235.6985627847
 31
0.0
  0
LINE
  5
4DA
330
1B
100
AcDbEntity
  8
0
  6
Continuous
100
AcDbLine
 10
145.7020269795
 20
168.1575666845
 30
0.0
 11
139.3136893912
 21
166.9157996492
 31
0.0
  0
LINE
  5
4DB
330
1B
100
AcDbEntity
  8
0
  6
Continuous
100
AcDbLine
 10
112.4667845837
 20
165.6184366914
 30
0.0
 11
109.5977695642
 21
165.6184366914
 31
0.0
  0
LINE
  5
4DC
330
1B
100
AcDbEntity
  8
0
  6
Continuous
100
AcDbLine
 10
115.6341222357
 20
165.6184366914
 30
0.0
 11
118.5031372552
 21
165.6184366914
 31
0.0
  0
LINE
  5
4DD
330
1B
100
AcDbEntity
  8
0
  6
Continuous
100
AcDbLine
 10
173.9149596912
 20
165.9197130323
 30
0.0
 11
154.6884623831
 21
165.9197130323
 31
0.0
  0
LINE
  5
4DE
330
1B
100
AcDbEntity
  8
0
  6
Continuous
100
AcDbLine
 10
154.6884623831
 20
168.581675751
 30
0.0
 11
173.9149596912
 21
168.581675751
 31
0.0
  0
LINE
  5
4DF
330
1B
100
AcDbEntity
  8
0
  6
Continuous
100
AcDbLine
 10
105.0504534097
 20
168.6184366914
 30
0.0
 11
110.7504534097
 21
168.6184366914
 31
0.0
  0
LINE
  5
4E0
330
1B
100
AcDbEntity
  8
0
  6
Continuous
100
AcDbLine
 10
117.3504534097
 20
168.6184366914
 30
0.0
 11
123.0504534097
 21
168.6184366914
 31
0.0
  0
LINE
  5
4E1
330
1B
100
AcDbEntity
  8
0
  6
Continuous
100
AcDbLine
 10
154.566711959
 20
169.2348533418
 30
0.0
 11
173.9149596913
 21
169.2348533418
 31
0.0
  0
LINE
  5
4E2
330
1B
100
AcDbEntity
  8
0
  6
Continuous
100
AcDbLine
 10
220.2790613064
 20
169.2484366914
 30
0.0
 11
207.0242794591
 21
169.2484366914
 31
0.0
  0
LINE
  5
4E3
330
1B
100
AcDbEntity
  8
0
  6
Continuous
100
AcDbLine
 10
218.0433758814
 20
171.3184366914
 30
0.0
 11
207.5789342874
 21
171.3184366914
 31
0.0
  0
LINE
  5
4E4
330
1B
100
AcDbEntity
  8
0
  6
Continuous
100
AcDbLine
 10
179.3790613064
 20
172.1392429052
 30
0.0
 11
191.9090613064
 21
172.1027945099
 31
0.0
  0
LINE
  5
4E5
330
1B
100
AcDbEntity
  8
0
  6
Continuous
100
AcDbLine
 10
139.6988990009
 20
156.4170549947
 30
0.0
 11
144.4988990009
 21
151.0170549947
 31
0.0
  0
LINE
  5
4E6
330
1B
100
AcDbEntity
  8
0
  6
Continuous
100
AcDbLine
 10
152.4326510893
 20
121.2256164646
 30
0.0
 11
154.6730971008
 21
117.3450501411
 31
0.0
  0
LINE
  5
4E7
330
1B
100
AcDbEntity
  8
0
  6
Continuous
100
AcDbLine
 10
150.3188009121
 20
127.1464655062
 30
0.0
 11
147.7276762048
 21
131.634425148
 31
0.0
  0
LINE
  5
4E8
330
1B
100
AcDbEntity
  8
0
  6
Continuous
100
AcDbLine
 10
116.1129535766
 20
135.3737559291
 30
0.0
 11
116.1129535766
 21
136.1184366914
 31
0.0
  0
LINE
  5
4E9
330
1B
100
AcDbEntity
  8
0
  6
Continuous
100
AcDbLine
 10
116.6303169338
 20
165.6184366914
 30
0.0
 11
116.6303169338
 21
175.0184366914
 31
0.0
  0
LINE
  5
4EA
330
1B
100
AcDbEntity
  8
0
  6
Continuous
100
AcDbLine
 10
116.9451560391
 20
175.0184366914
 30
0.0
 11
116.9451560391
 21
165.6184366914
 31
0.0
  0
LINE
  5
4EB
330
1B
100
AcDbEntity
  8
0
  6
Continuous
100
AcDbLine
 10
117.3504534097
 20
175.6184366914
 30
0.0
 11
117.3504534097
 21
168.6184366914
 31
0.0
  0
LINE
  5
4EC
330
1B
100
AcDbEntity
  8
0
  6
Continuous
100
AcDbLine
 10
118.5031372552
 20
168.6184366914
 30
0.0
 11
118.5031372552
 21
165.6184366914
 31
0.0
  0
LINE
  5
4ED
330
1B
100
AcDbEntity
  8
0
  6
Continuous
100
AcDbLine
 10
118.8754534097
 20
148.5971600386
 30
0.0
 11
118.8754534097
 21
149.2354578349
 31
0.0
  0
LINE
  5
4EE
330
1B
100
AcDbEntity
  8
0
  6
Continuous
100
AcDbLine
 10
119.917119679
 20
148.3843941065
 30
0.0
 11
119.917119679
 21
149.448224065
 31
0.0
  0
LINE
  5
4EF
330
1B
100
AcDbEntity
  8
0
  6
Continuous
100
AcDbLine
 10
111.9567034097
 20
130.7567345771
 30
0.0
 11
112.000453368
 21
131.5014153394
 31
0.0
  0
LINE
  5
4F0
330
1B
100
AcDbEntity
  8
0
  6
Continuous
100
AcDbLine
 10
111.737953368
 20
131.5014153394
 30
0.0
 11
111.6942034097
 21
130.9056707295
 31
0.0
  0
LINE
  5
4F1
330
1B
100
AcDbEntity
  8
0
  6
Continuous
100
AcDbLine
 10
112.8317033262
 20
131.5014153394
 30
0.0
 11
113.2254533262
 21
135.5226920816
 31
0.0
  0
LINE
  5
4F2
330
1B
100
AcDbEntity
  8
0
  6
Continuous
100
AcDbLine
 10
112.6129534097
 20
129.1184366914
 30
0.0
 11
112.7879534931
 21
130.9056707295
 31
0.0
  0
LINE
  5
4F3
330
1B
100
AcDbEntity
  8
0
  6
Continuous
100
AcDbLine
 10
113.0504534931
 20
136.1184366914
 30
0.0
 11
112.3504534097
 21
129.1184366914
 31
0.0
  0
LINE
  5
4F4
330
1B
100
AcDbEntity
  8
0
  6
Continuous
100
AcDbLine
 10
112.417119977
 20
151.3631174537
 30
0.0
 11
112.6254534097
 21
152.8524789783
 31
0.0
  0
LINE
  5
4F5
330
1B
100
AcDbEntity
  8
0
  6
Continuous
100
AcDbLine
 10
111.869203368
 20
130.1609898629
 30
0.0
 11
111.9567034097
 21
130.7567345771
 31
0.0
  0
LINE
  5
4F6
330
1B
100
AcDbEntity
  8
0
  6
Continuous
100
AcDbLine
 10
113.4587865443
 20
151.3631174537
 30
0.0
 11
113.667120275
 21
152.6397130462
 31
0.0
  0
LINE
  5
4F7
330
1B
100
AcDbEntity
  8
0
  6
Continuous
100
AcDbLine
 10
201.0194303918
 20
173.6184366914
 30
0.0
 11
198.9090613064
 21
173.6184366914
 31
0.0
  0
LINE
  5
4F8
330
1B
100
AcDbEntity
  8
0
  6
Continuous
100
AcDbLine
 10
139.0504534097
 20
174.6184366914
 30
0.0
 11
129.0504534097
 21
174.6184366914
 31
0.0
  0
LINE
  5
4F9
330
1B
100
AcDbEntity
  8
0
  6
Continuous
100
AcDbLine
 10
99.0504534097
 20
174.6184366914
 30
0.0
 11
98.0504534097
 21
174.6184366914
 31
0.0
  0
LINE
  5
4FA
330
1B
100
AcDbEntity
  8
0
  6
Continuous
100
AcDbLine
 10
96.4504534097
 20
174.6184366914
 30
0.0
 11
89.0504534097
 21
174.6184366914
 31
0.0
  0
LINE
  5
4FB
330
1B
100
AcDbEntity
  8
0
  6
Continuous
100
AcDbLine
 10
152.3790613064
 20
174.7384366914
 30
0.0
 11
150.8704534097
 21
174.7384366914
 31
0.0
  0
LINE
  5
4FC
330
1B
100
AcDbEntity
  8
0
  6
Continuous
100
AcDbLine
 10
110.7504534097
 20
175.0184366914
 30
0.0
 11
117.3504534097
 21
175.0184366914
 31
0.0
  0
LINE
  5
4FD
330
1B
100
AcDbEntity
  8
0
  6
Continuous
100
AcDbLine
 10
194.3090613064
 20
175.4184366914
 30
0.0
 11
198.5090613064
 21
175.4184366914
 31
0.0
  0
LINE
  5
4FE
330
1B
100
AcDbEntity
  8
0
  6
Continuous
100
AcDbLine
 10
117.3504534097
 20
175.6184366914
 30
0.0
 11
110.7504534097
 21
175.6184366914
 31
0.0
  0
LINE
  5
4FF
330
1B
100
AcDbEntity
  8
0
  6
Continuous
100
AcDbLine
 10
98.0504534097
 20
176.2955610359
 30
0.0
 11
96.4504534097
 21
176.2955610359
 31
0.0
  0
LINE
  5
500
330
1B
100
AcDbEntity
  8
0
  6
Continuous
100
AcDbLine
 10
98.0504534097
 20
177.6184366914
 30
0.0
 11
96.4504534097
 21
177.6184366914
 31
0.0
  0
LINE
  5
501
330
1B
100
AcDbEntity
  8
0
  6
Continuous
100
AcDbLine
 10
84.55045903590001
 20
178.3240162302
 30
0.0
 11
143.5504477833999
 21
178.3240162302
 31
0.0
  0
LINE
  5
502
330
1B
100
AcDbEntity
  8
0
  6
Continuous
100
AcDbLine
 10
130.6504534097
 20
148.7184366914
 30
0.0
 11
130.6504534097
 21
152.5184366914
 31
0.0
  0
LWPOLYLINE
  5
503
330
1B
100
AcDbEntity
  8
0
  6
Continuous
100
AcDbPolyline
 90
        4
 70
     0
 43
0.0
 10
126.5610585765
 20
158.6515080137
 10
126.6508627183
 20
159.6736354693
 10
126.9143122627
 20
160.6278949587
 10
127.3339144936
 20
161.4509248613
  0
LINE
  5
509
330
1B
100
AcDbEntity
  8
0
  6
Continuous
100
AcDbLine
 10
116.9442034097
 20
131.5014153394
 30
0.0
 11
117.3379534097
 21
135.5226920816
 31
0.0
  0
LINE
  5
50A
330
1B
100
AcDbEntity
  8
0
  6
Continuous
100
AcDbLine
 10
116.7254532428
 20
129.1184366914
 30
0.0
 11
116.9004535766
 21
130.9056707295
 31
0.0
  0
LINE
  5
50B
330
1B
100
AcDbEntity
  8
0
  6
Continuous
100
AcDbLine
 10
117.1629535766
 20
136.1184366914
 30
0.0
 11
116.4629532428
 21
129.1184366914
 31
0.0
  0
LINE
  5
50C
330
1B
100
AcDbEntity
  8
0
  6
Continuous
100
AcDbLine
 10
111.6942034097
 20
130.9056707295
 30
0.0
 11
111.606703368
 21
130.4588622722
 31
0.0
  0
LINE
  5
50D
330
1B
100
AcDbEntity
  8
0
  6
Continuous
100
AcDbLine
 10
113.667120275
 20
152.6397130462
 30
0.0
 11
113.8754534097
 21
153.2780114385
 31
0.0
  0
LINE
  5
50E
330
1B
100
AcDbEntity
  8
0
  6
Continuous
100
AcDbLine
 10
173.9149596996
 20
183.6171341066
 30
0.0
 11
154.566711959
 21
183.6171341066
 31
0.0
  0
LINE
  5
50F
330
1B
100
AcDbEntity
  8
0
  6
Continuous
100
AcDbLine
 10
173.9149596912
 20
183.8829520919
 30
0.0
 11
154.6884623831
 21
183.8829520919
 31
0.0
  0
LINE
  5
510
330
1B
100
AcDbEntity
  8
0
  6
Continuous
100
AcDbLine
 10
154.6884623831
 20
183.9184366914
 30
0.0
 11
173.9149596912
 21
183.9184366914
 31
0.0
  0
LWPOLYLINE
  5
511
330
1B
100
AcDbEntity
  8
0
  6
Continuous
100
AcDbPolyline
 90
        5
 70
     0
 43
0.0
 10
175.6470104988
 20
165.4602152443
 10
175.3294048026
 20
165.6504388345
 10
174.9151663824
 20
165.7965362082
 10
174.4326971017
 20
165.8883867553
 10
173.9149596912
 20
165.9197130323
  0
LINE
  5
518
330
1B
100
AcDbEntity
  8
0
  6
Continuous
100
AcDbLine
 10
191.9090613064
 20
128.2184366914
 30
0.0
 11
194.3090613064
 21
125.8184366914
 31
0.0
  0
LINE
  5
519
330
1B
100
AcDbEntity
  8
0
  6
Continuous
100
AcDbLine
 10
135.2183542232
 20
232.8767430181
 30
0.0
 11
135.1346276204
 21
235.6985627847
 31
0.0
  0
LINE
  5
51A
330
1B
100
AcDbEntity
  8
0
  6
Continuous
100
AcDbLine
 10
134.0504534097
 20
130.4917551545
 30
0.0
 11
134.0504534097
 21
128.2752909409
 31
0.0
  0
LINE
  5
51B
330
1B
100
AcDbEntity
  8
0
  6
Continuous
100
AcDbLine
 10
134.5504534097
 20
174.6184366914
 30
0.0
 11
134.5504534097
 21
170.842308383
 31
0.0
  0
LINE
  5
51C
330
1B
100
AcDbEntity
  8
0
  6
Continuous
100
AcDbLine
 10
136.3504534097
 20
110.3184366914
 30
0.0
 11
136.3504534097
 21
124.3184366914
 31
0.0
  0
LINE
  5
51D
330
1B
100
AcDbEntity
  8
0
  6
Continuous
100
AcDbLine
 10
138.0504534097
 20
122.6184366914
 30
0.0
 11
138.0504534097
 21
112.1841221164
 31
0.0
  0
LINE
  5
51E
330
1B
100
AcDbEntity
  8
0
  6
Continuous
100
AcDbLine
 10
138.6504534097
 20
156.0184366914
 30
0.0
 11
138.6504534097
 21
153.1184366914
 31
0.0
  0
LINE
  5
51F
330
1B
100
AcDbEntity
  8
0
  6
Continuous
100
AcDbLine
 10
138.6504534097
 20
148.1184366914
 30
0.0
 11
138.6504534097
 21
145.2184366914
 31
0.0
  0
LINE
  5
520
330
1B
100
AcDbEntity
  8
0
  6
Continuous
100
AcDbLine
 10
139.0504534097
 20
178.3240162302
 30
0.0
 11
139.0504534097
 21
174.6184366914
 31
0.0
  0
LINE
  5
521
330
1B
100
AcDbEntity
  8
0
  6
Continuous
100
AcDbLine
 10
111.6942034097
 20
129.565245201
 30
0.0
 11
111.869203368
 21
130.1609898629
 31
0.0
  0
LINE
  5
522
330
1B
100
AcDbEntity
  8
0
  6
Continuous
100
AcDbLine
 10
113.667120275
 20
149.2354578349
 30
0.0
 11
113.8754534097
 21
149.8737559291
 31
0.0
  0
LINE
  5
523
330
1B
100
AcDbEntity
  8
0
  6
Continuous
100
AcDbLine
 10
118.667119679
 20
147.9588622424
 30
0.0
 11
118.8754534097
 21
148.5971600386
 31
0.0
  0
LINE
  5
524
330
1B
100
AcDbEntity
  8
0
  6
Continuous
100
AcDbLine
 10
112.6254534097
 20
152.8524789783
 30
0.0
 11
113.042119977
 21
153.9163092348
 31
0.0
  0
LWPOLYLINE
  5
525
330
1B
100
AcDbEntity
  8
0
  6
Continuous
100
AcDbPolyline
 90
        5
 70
     0
 43
0.0
 10
175.6470104988
 20
168.0422391426
 10
175.3294048026
 20
168.2655563762
 10
174.9151663824
 20
168.4370696919
 10
174.4326971017
 20
168.5448997109
 10
173.9149596912
 20
168.581675751
  0
LINE
  5
52C
330
1B
100
AcDbEntity
  8
0
  6
Continuous
100
AcDbLine
 10
145.7020269795
 20
133.0793066984
 30
0.0
 11
145.7020269795
 21
168.1575666845
 31
0.0
  0
LINE
  5
52D
330
1B
100
AcDbEntity
  8
0
  6
Continuous
100
AcDbLine
 10
147.7276762048
 20
131.634425148
 30
0.0
 11
147.7276762048
 21
169.6024482348
 31
0.0
  0
LINE
  5
52E
330
1B
100
AcDbEntity
  8
0
  6
Continuous
100
AcDbLine
 10
148.4294288733
 20
232.8767430181
 30
0.0
 11
148.4988755145
 21
235.6985627847
 31
0.0
  0
LINE
  5
52F
330
1B
100
AcDbEntity
  8
0
  6
Continuous
100
AcDbLine
 10
119.5004534097
 20
147.3205642971
 30
0.0
 11
119.917119679
 21
148.3843941065
 31
0.0
  0
LINE
  5
530
330
1B
100
AcDbEntity
  8
0
  6
Continuous
100
AcDbLine
 10
111.606703368
 20
130.4588622722
 30
0.0
 11
111.475453368
 21
130.1609898629
 31
0.0
  0
LINE
  5
531
330
1B
100
AcDbEntity
  8
0
  6
Continuous
100
AcDbLine
 10
113.8754534097
 20
153.2780114385
 30
0.0
 11
114.292120275
 21
153.9163092348
 31
0.0
  0
LINE
  5
532
330
1B
100
AcDbEntity
  8
0
  6
Continuous
100
AcDbLine
 10
206.9090613064
 20
171.1184366914
 30
0.0
 11
201.0194303918
 21
173.6184366914
 31
0.0
  0
LINE
  5
533
330
1B
100
AcDbEntity
  8
0
  6
Continuous
100
AcDbLine
 10
150.3188009121
 20
174.0904078767
 30
0.0
 11
150.3188009121
 21
127.1464655062
 31
0.0
  0
LINE
  5
534
330
1B
100
AcDbEntity
  8
0
  6
Continuous
100
AcDbLine
 10
150.6366381573
 20
174.504621439
 30
0.0
 11
150.6366381573
 21
126.7322519438
 31
0.0
  0
LINE
  5
535
330
1B
100
AcDbEntity
  8
0
  6
Continuous
100
AcDbLine
 10
150.8704531045
 20
126.4984358522
 30
0.0
 11
150.8704531045
 21
174.7384375307
 31
0.0
  0
LINE
  5
536
330
1B
100
AcDbEntity
  8
0
  6
Continuous
100
AcDbLine
 10
152.3790613064
 20
121.4258189198
 30
0.0
 11
152.3790613064
 21
179.8110544631
 31
0.0
  0
LINE
  5
537
330
1B
100
AcDbEntity
  8
0
  6
Continuous
100
AcDbLine
 10
152.4326511075
 20
121.225616441
 30
0.0
 11
152.4326511075
 21
180.0112569419
 31
0.0
  0
LINE
  5
538
330
1B
100
AcDbEntity
  8
0
  6
Continuous
100
AcDbLine
 10
154.6884623831
 20
183.9184366914
 30
0.0
 11
154.6884623831
 21
183.8829520919
 31
0.0
  0
LINE
  5
539
330
1B
100
AcDbEntity
  8
0
  6
Continuous
100
AcDbLine
 10
154.6884623831
 20
168.581675751
 30
0.0
 11
154.6884623831
 21
165.9197130323
 31
0.0
  0
LINE
  5
53A
330
1B
100
AcDbEntity
  8
0
  6
Continuous
100
AcDbLine
 10
154.6884623831
 20
135.3171603505
 30
0.0
 11
154.6884623831
 21
132.6551976319
 31
0.0
  0
LINE
  5
53B
330
1B
100
AcDbEntity
  8
0
  6
Continuous
100
AcDbLine
 10
154.6884623831
 20
117.3184366914
 30
0.0
 11
154.6884623831
 21
117.353921291
 31
0.0
  0
LINE
  5
53C
330
1B
100
AcDbEntity
  8
0
  6
Continuous
100
AcDbLine
 10
154.8504534097
 20
240.7240162302
 30
0.0
 11
154.8504534097
 21
242.3240162302
 31
0.0
  0
LINE
  5
53D
330
1B
100
AcDbEntity
  8
0
  6
Continuous
100
AcDbLine
 10
148.5511228162
 20
232.5089097358
 30
0.0
 11
148.5600394901
 21
232.8767430181
 31
0.0
  0
LINE
  5
53E
330
1B
100
AcDbEntity
  8
0
  6
Continuous
100
AcDbLine
 10
151.267113576
 20
200.5393348674
 30
0.0
 11
151.2681836597
 21
200.5435305344
 31
0.0
  0
LINE
  5
53F
330
1B
100
AcDbEntity
  8
0
  6
Continuous
100
AcDbLine
 10
144.1491086172
 20
179.8862376475
 30
0.0
 11
144.1484498189
 21
179.8844276928
 31
0.0
  0
LINE
  5
540
330
1B
100
AcDbEntity
  8
0
  6
Continuous
100
AcDbLine
 10
144.1485105547
 20
179.8845881855
 30
0.0
 11
143.5504534097
 21
178.3240162302
 31
0.0
  0
LINE
  5
541
330
1B
100
AcDbEntity
  8
0
  6
Continuous
100
AcDbLine
 10
111.5192034514
 20
129.2673728569
 30
0.0
 11
111.6942034097
 21
129.565245201
 31
0.0
  0
LINE
  5
542
330
1B
100
AcDbEntity
  8
0
  6
Continuous
100
AcDbLine
 10
118.2504534097
 20
147.3205642971
 30
0.0
 11
118.667119679
 21
147.9588622424
 31
0.0
  0
LINE
  5
543
330
1B
100
AcDbEntity
  8
0
  6
Continuous
100
AcDbLine
 10
113.042119977
 20
153.9163092348
 30
0.0
 11
113.667120275
 21
154.7673729631
 31
0.0
  0
LINE
  5
544
330
1B
100
AcDbEntity
  8
0
  6
Continuous
100
AcDbLine
 10
108.2504534097
 20
154.1290751668
 30
0.0
 11
109.5004534097
 21
155.6184366914
 31
0.0
  0
LINE
  5
545
330
1B
100
AcDbEntity
  8
0
  6
Continuous
100
AcDbLine
 10
108.2504534097
 20
152.4269471141
 30
0.0
 11
109.5004534097
 21
153.9163092348
 31
0.0
  0
LINE
  5
546
330
1B
100
AcDbEntity
  8
0
  6
Continuous
100
AcDbLine
 10
152.4326510893
 20
180.0112569183
 30
0.0
 11
154.6730971008
 21
183.8918232418
 31
0.0
  0
LINE
  5
547
330
1B
100
AcDbEntity
  8
0
  6
Continuous
100
AcDbLine
 10
118.8754534097
 20
146.4695004943
 30
0.0
 11
119.5004534097
 21
147.3205642971
 31
0.0
  0
LINE
  5
548
330
1B
100
AcDbEntity
  8
0
  6
Continuous
100
AcDbLine
 10
113.8754534097
 20
149.8737559291
 30
0.0
 11
114.292120275
 21
150.2992877933
 31
0.0
  0
LINE
  5
549
330
1B
100
AcDbEntity
  8
0
  6
Continuous
100
AcDbLine
 10
198.5090613064
 20
175.4184366914
 30
0.0
 11
198.9090613064
 21
175.0184366914
 31
0.0
  0
LWPOLYLINE
  5
54A
330
1B
100
AcDbEntity
  8
0
  6
Continuous
100
AcDbPolyline
 90
        5
 70
     0
 43
0.0
 10
175.6470104988
 20
182.8840176955
 10
175.3294048026
 20
183.2975585193
 10
174.9151663824
 20
183.6151692086
 10
174.4326971017
 20
183.8148497748
 10
173.9149596912
 20
183.8829520919
  0
LINE
  5
551
330
1B
100
AcDbEntity
  8
0
  6
Continuous
100
AcDbLine
 10
175.6470104988
 20
182.9184366914
 30
0.0
 11
176.5130359026
 21
181.4184366914
 31
0.0
  0
LINE
  5
552
330
1B
100
AcDbEntity
  8
0
  6
Continuous
100
AcDbLine
 10
150.3188009121
 20
174.0904078767
 30
0.0
 11
147.7276762048
 21
169.6024482348
 31
0.0
  0
LINE
  5
553
330
1B
100
AcDbEntity
  8
0
  6
Continuous
100
AcDbLine
 10
150.6366381573
 20
174.504621439
 30
0.0
 11
150.3188009121
 21
174.0904078767
 31
0.0
  0
LINE
  5
554
330
1B
100
AcDbEntity
  8
0
  6
Continuous
100
AcDbLine
 10
92.8788805344
 20
125.4468638162
 30
0.0
 11
90.05045340969998
 21
122.6184366914
 31
0.0
  0
LINE
  5
555
330
1B
100
AcDbEntity
  8
0
  6
Continuous
100
AcDbLine
 10
152.3790613064
 20
176.2470445881
 30
0.0
 11
150.6366381573
 21
174.504621439
 31
0.0
  0
LINE
  5
556
330
1B
100
AcDbEntity
  8
0
  6
Continuous
100
AcDbLine
 10
114.292120275
 20
153.9163092348
 30
0.0
 11
114.917120275
 21
154.3418410989
 31
0.0
  0
LINE
  5
557
330
1B
100
AcDbEntity
  8
0
  6
Continuous
100
AcDbLine
 10
113.667120275
 20
154.7673729631
 30
0.0
 11
114.7087865443
 21
155.4056707593
 31
0.0
  0
LINE
  5
558
330
1B
100
AcDbEntity
  8
0
  6
Continuous
100
AcDbLine
 10
173.9149596912
 20
117.3184366914
 30
0.0
 11
173.9149596912
 21
117.6197392762
 31
0.0
  0
LINE
  5
559
330
1B
100
AcDbEntity
  8
0
  6
Continuous
100
AcDbLine
 10
173.9149596912
 20
132.0020200411
 30
0.0
 11
173.9149596912
 21
136.2361559265
 31
0.0
  0
LINE
  5
55A
330
1B
100
AcDbEntity
  8
0
  6
Continuous
100
AcDbLine
 10
173.9149596912
 20
165.0007174563
 30
0.0
 11
173.9149596912
 21
169.2348533418
 31
0.0
  0
LINE
  5
55B
330
1B
100
AcDbEntity
  8
0
  6
Continuous
100
AcDbLine
 10
173.9149596912
 20
183.6171341066
 30
0.0
 11
173.9149596912
 21
183.9184366914
 31
0.0
  0
LINE
  5
55C
330
1B
100
AcDbEntity
  8
0
  6
Continuous
100
AcDbLine
 10
175.6470104988
 20
182.9184366914
 30
0.0
 11
175.6470104988
 21
182.8840178863
 31
0.0
  0
LINE
  5
55D
330
1B
100
AcDbEntity
  8
0
  6
Continuous
100
AcDbLine
 10
175.6470104988
 20
168.0416472012
 30
0.0
 11
175.6470104988
 21
165.4608400086
 31
0.0
  0
LINE
  5
55E
330
1B
100
AcDbEntity
  8
0
  6
Continuous
100
AcDbLine
 10
175.6470104988
 20
135.7766544704
 30
0.0
 11
175.6470104988
 21
133.1946376693
 31
0.0
  0
LINE
  5
55F
330
1B
100
AcDbEntity
  8
0
  6
Continuous
100
AcDbLine
 10
175.6470104988
 20
118.3528554997
 30
0.0
 11
175.6470104988
 21
118.3184366914
 31
0.0
  0
LINE
  5
560
330
1B
100
AcDbEntity
  8
0
  6
Continuous
100
AcDbLine
 10
176.5130359026
 20
181.4184332339
 30
0.0
 11
176.5130359026
 21
181.0484949677
 31
0.0
  0
LINE
  5
561
330
1B
100
AcDbEntity
  8
0
  6
Continuous
100
AcDbLine
 10
176.5130359026
 20
169.9551966525
 30
0.0
 11
176.5130359026
 21
161.7117350066
 31
0.0
  0
LINE
  5
562
330
1B
100
AcDbEntity
  8
0
  6
Continuous
100
AcDbLine
 10
176.5130359026
 20
139.5251383762
 30
0.0
 11
176.5130359026
 21
131.2816767304
 31
0.0
  0
LINE
  5
563
330
1B
100
AcDbEntity
  8
0
  6
Continuous
100
AcDbLine
 10
176.5130359026
 20
120.1883784151
 30
0.0
 11
176.5130359026
 21
119.818440149
 31
0.0
  0
LINE
  5
564
330
1B
100
AcDbEntity
  8
0
  6
Continuous
100
AcDbLine
 10
178.8344031637
 20
121.305676986
 30
0.0
 11
178.8344031637
 21
179.9311963969
 31
0.0
  0
LINE
  5
565
330
1B
100
AcDbEntity
  8
0
  6
Continuous
100
AcDbLine
 10
179.3790613064
 20
121.9013146372
 30
0.0
 11
179.3790613064
 21
179.3355587456
 31
0.0
  0
LINE
  5
566
330
1B
100
AcDbEntity
  8
0
  6
Continuous
100
AcDbLine
 10
113.4587865443
 20
150.9375855896
 30
0.0
 11
114.7087865443
 21
151.7886493179
 31
0.0
  0
LINE
  5
567
330
1B
100
AcDbEntity
  8
0
  6
Continuous
100
AcDbLine
 10
114.292120275
 20
150.2992877933
 30
0.0
 11
114.917120275
 21
150.7248196575
 31
0.0
  0
LINE
  5
568
330
1B
100
AcDbEntity
  8
0
  6
Continuous
100
AcDbLine
 10
117.6254534097
 20
146.8950324329
 30
0.0
 11
118.2504534097
 21
147.3205642971
 31
0.0
  0
LINE
  5
569
330
1B
100
AcDbEntity
  8
0
  6
Continuous
100
AcDbLine
 10
72.6918416898
 20
232.8767430181
 30
0.0
 11
77.2299672326
 21
232.8767430181
 31
0.0
  0
LINE
  5
56A
330
1B
100
AcDbEntity
  8
0
  6
Continuous
100
AcDbLine
 10
93.5589748753
 20
232.8767430181
 30
0.0
 11
111.739553313
 21
232.8767430181
 31
0.0
  0
LINE
  5
56B
330
1B
100
AcDbEntity
  8
0
  6
Continuous
100
AcDbLine
 10
134.805915363
 20
232.8767430181
 30
0.0
 11
148.5600394901
 21
232.8767430181
 31
0.0
  0
LINE
  5
56C
330
1B
100
AcDbEntity
  8
0
  6
Continuous
100
AcDbLine
 10
155.2973938973
 20
232.8767430181
 30
0.0
 11
155.4090767998
 21
232.8767430181
 31
0.0
  0
LINE
  5
56D
330
1B
100
AcDbEntity
  8
0
  6
Continuous
100
AcDbLine
 10
220.791904191
 20
168.7355938068
 30
0.0
 11
218.3262194844
 21
171.2012785134
 31
0.0
  0
LINE
  5
56E
330
1B
100
AcDbEntity
  8
0
  6
Continuous
100
AcDbLine
 10
144.4988990009
 20
150.2198183881
 30
0.0
 11
139.6988990009
 21
144.8198183881
 31
0.0
  0
LINE
  5
56F
330
1B
100
AcDbEntity
  8
0
  6
Continuous
100
AcDbLine
 10
111.475453368
 20
130.1609898629
 30
0.0
 11
111.3004534097
 21
130.0120537105
 31
0.0
  0
LINE
  5
570
330
1B
100
AcDbEntity
  8
0
  6
Continuous
100
AcDbLine
 10
117.8337865443
 20
145.8312026421
 30
0.0
 11
118.8754534097
 21
146.4695004943
 31
0.0
  0
LINE
  5
571
330
1B
100
AcDbEntity
  8
0
  6
Continuous
100
AcDbLine
 10
114.917120275
 20
154.3418410989
 30
0.0
 11
115.542120275
 21
154.554607031
 31
0.0
  0
LINE
  5
572
330
1B
100
AcDbEntity
  8
0
  6
Continuous
100
AcDbLine
 10
114.917120275
 20
150.7248196575
 30
0.0
 11
115.542120275
 21
150.9375855896
 31
0.0
  0
LINE
  5
573
330
1B
100
AcDbEntity
  8
0
  6
Continuous
100
AcDbLine
 10
155.543205139
 20
240.7240162302
 30
0.0
 11
72.5577016804
 21
240.7240162302
 31
0.0
  0
LINE
  5
574
330
1B
100
AcDbEntity
  8
0
  6
Continuous
100
AcDbLine
 10
155.5504490889
 20
242.3240162302
 30
0.0
 11
72.55045773049999
 21
242.3240162302
 31
0.0
  0
LINE
  5
575
330
1B
100
AcDbEntity
  8
0
  6
Continuous
100
AcDbLine
 10
207.5789342874
 20
129.9184366914
 30
0.0
 11
206.988500881
 21
132.1219641627
 31
0.0
  0
LINE
  5
576
330
1B
100
AcDbEntity
  8
0
  6
Continuous
100
AcDbLine
 10
191.9090613064
 20
128.2184366914
 30
0.0
 11
191.9090613064
 21
173.0184366914
 31
0.0
  0
LINE
  5
577
330
1B
100
AcDbEntity
  8
0
  6
Continuous
100
AcDbLine
 10
194.3090613064
 20
125.8184366914
 30
0.0
 11
194.3090613064
 21
175.4184366914
 31
0.0
  0
LINE
  5
578
330
1B
100
AcDbEntity
  8
0
  6
Continuous
100
AcDbLine
 10
111.3004534097
 20
129.1184366914
 30
0.0
 11
111.5192034514
 21
129.2673728569
 31
0.0
  0
LINE
  5
579
330
1B
100
AcDbEntity
  8
0
  6
Continuous
100
AcDbLine
 10
117.0004534097
 20
146.6822665009
 30
0.0
 11
117.6254534097
 21
146.8950324329
 31
0.0
  0
LINE
  5
57A
330
1B
100
AcDbEntity
  8
0
  6
Continuous
100
AcDbLine
 10
78.0504534097
 20
251.2543017799
 30
0.0
 11
150.0504534097
 21
251.2543017799
 31
0.0
  0
LINE
  5
57B
330
1B
100
AcDbEntity
  8
0
  6
Continuous
100
AcDbLine
 10
198.5090613064
 20
125.8184366914
 30
0.0
 11
198.5090613064
 21
175.4184366914
 31
0.0
  0
LINE
  5
57C
330
1B
100
AcDbEntity
  8
0
  6
Continuous
100
AcDbLine
 10
198.9090613064
 20
126.2184366914
 30
0.0
 11
198.9090613064
 21
175.0184366914
 31
0.0
  0
LINE
  5
57D
330
1B
100
AcDbEntity
  8
0
  6
Continuous
100
AcDbLine
 10
201.0194303918
 20
127.6184366914
 30
0.0
 11
201.0194303918
 21
173.6184366914
 31
0.0
  0
LINE
  5
57E
330
1B
100
AcDbEntity
  8
0
  6
Continuous
100
AcDbLine
 10
191.9090613064
 20
173.0184366914
 30
0.0
 11
194.3090613064
 21
175.4184366914
 31
0.0
  0
LINE
  5
57F
330
1B
100
AcDbEntity
  8
LOGO
  6
Continuous
100
AcDbLine
 10
124.0503532739
 20
259.1845699716
 30
0.0
 11
104.0505535455
 21
259.1845699716
 31
0.0
  0
LINE
  5
580
330
1B
100
AcDbEntity
  8
LOGO
  6
Continuous
100
AcDbLine
 10
104.3838836999
 20
259.2258545328
 30
0.0
 11
123.7170231195
 21
259.2258545328
 31
0.0
  0
LINE
  5
581
330
1B
100
AcDbEntity
  8
0
  6
Continuous
100
AcDbLine
 10
206.9090613064
 20
130.1189990305
 30
0.0
 11
206.9090613064
 21
171.1178743524
 31
0.0
  0
LINE
  5
582
330
1B
100
AcDbEntity
  8
0
  6
Continuous
100
AcDbLine
 10
206.9885009422
 20
132.1219639357
 30
0.0
 11
206.9885009422
 21
169.1149094471
 31
0.0
  0
LINE
  5
583
330
1B
100
AcDbEntity
  8
0
  6
Continuous
100
AcDbLine
 10
207.0242804226
 20
131.9884375307
 30
0.0
 11
207.0242804226
 21
169.2484358522
 31
0.0
  0
LINE
  5
584
330
1B
100
AcDbEntity
  8
0
  6
Continuous
100
AcDbLine
 10
207.5789342874
 20
129.9184366914
 30
0.0
 11
207.5789342874
 21
171.3184366914
 31
0.0
  0
LINE
  5
585
330
1B
100
AcDbEntity
  8
0
  6
Continuous
100
AcDbLine
 10
137.9332961222
 20
111.9012794039
 30
0.0
 11
135.9433466285
 21
109.9113299102
 31
0.0
  0
LINE
  5
586
330
1B
100
AcDbEntity
  8
0
  6
Continuous
100
AcDbLine
 10
218.0433758814
 20
171.3184270309
 30
0.0
 11
218.0433758814
 21
129.9184463519
 31
0.0
  0
LINE
  5
587
330
1B
100
AcDbEntity
  8
0
  6
Continuous
100
AcDbLine
 10
218.3262195219
 20
171.2012688701
 30
0.0
 11
218.3262195219
 21
130.0356045127
 31
0.0
  0
LINE
  5
588
330
1B
100
AcDbEntity
  8
0
  6
Continuous
100
AcDbLine
 10
207.5789342874
 20
171.3184366914
 30
0.0
 11
206.988500881
 21
169.1149092202
 31
0.0
  0
LINE
  5
589
330
1B
100
AcDbEntity
  8
0
  6
Continuous
100
AcDbLine
 10
175.6470104988
 20
118.3184366914
 30
0.0
 11
176.5130359026
 21
119.8184366914
 31
0.0
  0
LINE
  5
58A
330
1B
100
AcDbEntity
  8
0
  6
Continuous
100
AcDbLine
 10
220.2790602382
 20
131.9884375307
 30
0.0
 11
220.2790602382
 21
169.2484358522
 31
0.0
  0
LINE
  5
58B
330
1B
100
AcDbEntity
  8
0
  6
Continuous
100
AcDbLine
 10
220.7919040313
 20
168.7355939664
 30
0.0
 11
220.7919040313
 21
132.5012794164
 31
0.0
  0
LINE
  5
58C
330
1B
100
AcDbEntity
  8
0
  6
Continuous
100
AcDbLine
 10
220.9090613064
 20
168.4526612632
 30
0.0
 11
220.9090613064
 21
132.7842121197
 31
0.0
  0
LWPOLYLINE
  5
58D
330
1B
100
AcDbEntity
  8
0
  6
Continuous
100
AcDbPolyline
 90
        5
 70
     0
 43
0.0
 10
175.6470104988
 20
118.3528556874
 10
175.3291732536
 20
117.9390835125
 10
174.9149596912
 20
117.6215849558
 10
174.4325977814
 20
117.4219970193
 10
173.9149596912
 20
117.353921291
  0
LWPOLYLINE
  5
594
330
1B
100
AcDbEntity
  8
0
  6
Continuous
100
AcDbPolyline
 90
        5
 70
     0
 43
0.0
 10
175.6470104988
 20
133.1946342403
 10
175.3294048026
 20
132.9713170066
 10
174.9151663824
 20
132.799803691
 10
174.4326971017
 20
132.691973672
 10
173.9149596912
 20
132.6551976319
  0
LWPOLYLINE
  5
59B
330
1B
100
AcDbEntity
  8
0
  6
Continuous
100
AcDbPolyline
 90
        5
 70
     0
 43
0.0
 10
175.6470104988
 20
135.7766581385
 10
175.3291732536
 20
135.5863279228
 10
174.9149596912
 20
135.4402824117
 10
174.4325977814
 20
135.3484743654
 10
173.9149596912
 20
135.3171603505
  0
LINE
  5
5A2
330
1B
100
AcDbEntity
  8
0
  6
Continuous
100
AcDbLine
 10
198.5090613064
 20
125.8184366914
 30
0.0
 11
198.9090613064
 21
126.2184366914
 31
0.0
  0
LINE
  5
5A3
330
1B
100
AcDbEntity
  8
0
  6
Continuous
100
AcDbLine
 10
206.9090613064
 20
130.1184366914
 30
0.0
 11
201.0194303918
 21
127.6184366914
 31
0.0
  0
LINE
  5
5A4
330
1B
100
AcDbEntity
  8
0
  6
Continuous
100
AcDbLine
 10
220.791904191
 20
132.501279576
 30
0.0
 11
218.3262194844
 21
130.0355948694
 31
0.0
  0
ARC
  5
5C3
330
1B
100
AcDbEntity
  8
0
  6
Continuous
100
AcDbCircle
 10
179.1111121139
 20
118.3184366914
 30
0.0
 40
3.0
100
AcDbArc
 50
95.29227388090021
 51
150.0000000000003
  0
ARC
  5
5C4
330
1B
100
AcDbEntity
  8
0
  6
Continuous
100
AcDbCircle
 10
179.1111121139
 20
182.9184366914
 30
0.0
 40
3.0
100
AcDbArc
 50
210.0000000000005
 51
264.7077261191006
  0
ARC
  5
5C5
330
1B
100
AcDbEntity
  8
0
  6
Continuous
100
AcDbCircle
 10
173.9149596912
 20
119.3184366914
 30
0.0
 40
2.0
100
AcDbArc
 50
270.0000000000006
 51
330.0000000000007
  0
ARC
  5
5C6
330
1B
100
AcDbEntity
  8
0
  6
Continuous
100
AcDbCircle
 10
173.9149596912
 20
181.9184366914
 30
0.0
 40
2.0
100
AcDbArc
 50
30.00000000000008
 51
90.00000000000019
  0
ARC
  5
5C7
330
1B
100
AcDbEntity
  8
0
  6
Continuous
100
AcDbCircle
 10
178.7790613064
 20
121.9030904071
 30
0.0
 40
0.6
100
AcDbArc
 50
275.2922802806006
 51
360.0000000000008
  0
ARC
  5
5C8
330
1B
100
AcDbEntity
  8
0
  6
Continuous
100
AcDbCircle
 10
178.7790613064
 20
179.3337829758
 30
0.0
 40
0.6
100
AcDbArc
 50
0.0
 51
84.70771971940022
  0
ARC
  5
5C9
330
1B
100
AcDbEntity
  8
0
  6
Continuous
100
AcDbCircle
 10
152.7790613064
 20
179.8112570145
 30
0.0
 40
0.4
100
AcDbArc
 50
150.0000159110003
 51
180.0000000000004
  0
ARC
  5
5CA
330
1B
100
AcDbEntity
  8
0
  6
Continuous
100
AcDbCircle
 10
152.7790613064
 20
121.4256163684
 30
0.0
 40
0.4
100
AcDbArc
 50
180.0000000000004
 51
209.9999840890005
  0
ARC
  5
5CB
330
1B
100
AcDbEntity
  8
0
  6
Continuous
100
AcDbCircle
 10
82.55045340969998
 20
242.3240162302
 30
0.0
 40
10.0
100
AcDbArc
 50
116.7436839504002
 51
180.0000000000004
  0
ARC
  5
5CC
330
1B
100
AcDbEntity
  8
0
  6
Continuous
100
AcDbCircle
 10
114.0504534097
 20
179.8120173819
 30
0.0
 40
80.0
100
AcDbArc
 50
63.25631604960014
 51
116.7436839504002
  0
ARC
  5
5CD
330
1B
100
AcDbEntity
  8
0
  6
Continuous
100
AcDbCircle
 10
145.5504534097
 20
242.3240162302
 30
0.0
 40
10.0
100
AcDbArc
 50
0.0
 51
63.25631604960014
  0
ARC
  5
5CE
330
1B
100
AcDbEntity
  8
0
  6
Continuous
100
AcDbCircle
 10
129.0504534097
 20
168.6184366914
 30
0.0
 40
6.0
100
AcDbArc
 50
90.00000000000019
 51
180.0000000000004
  0
ARC
  5
5CF
330
1B
100
AcDbEntity
  8
0
  6
Continuous
100
AcDbCircle
 10
99.0504534097
 20
168.6184366914
 30
0.0
 40
6.0
100
AcDbArc
 50
0.0
 51
90.00000000000019
  0
ARC
  5
5D0
330
1B
100
AcDbEntity
  8
0
  6
Continuous
100
AcDbCircle
 10
218.0433758814
 20
130.3184366914
 30
0.0
 40
0.4
100
AcDbArc
 50
270.0000000000006
 51
315.0001803862007
  0
ARC
  5
5D1
330
1B
100
AcDbEntity
  8
0
  6
Continuous
100
AcDbCircle
 10
218.0433758814
 20
170.9184366914
 30
0.0
 40
0.4
100
AcDbArc
 50
44.9998196138001
 51
90.00000000000019
  0
ARC
  5
5D2
330
1B
100
AcDbEntity
  8
0
  6
Continuous
100
AcDbCircle
 10
220.5090613064
 20
168.4527512665
 30
0.0
 40
0.4
100
AcDbArc
 50
0.0
 51
44.9999651313001
  0
ARC
  5
5D3
330
1B
100
AcDbEntity
  8
0
  6
Continuous
100
AcDbCircle
 10
220.5090613064
 20
132.7841221164
 30
0.0
 40
0.4
100
AcDbArc
 50
315.0000348687007
 51
360.0000000000008
  0
ARC
  5
5D4
330
1B
100
AcDbEntity
  8
0
  6
Continuous
100
AcDbCircle
 10
206.6021305112
 20
169.2184366914
 30
0.0
 40
0.4
100
AcDbArc
 50
320.8498265838007
 51
345.0000217662009
  0
ARC
  5
5D5
330
1B
100
AcDbEntity
  8
0
  6
Continuous
100
AcDbCircle
 10
206.6021305112
 20
132.0184366914
 30
0.0
 40
0.4
100
AcDbArc
 50
14.99997823380003
 51
39.1501734162001
  0
ARC
  5
5D6
330
1B
100
AcDbEntity
  8
0
  6
Continuous
100
AcDbCircle
 10
249.2171200763
 20
242.3240162302
 30
0.0
 40
176.6666666667
100
AcDbArc
 50
200.6972977433004
 51
201.2393105523004
  0
ARC
  5
5D7
330
1B
100
AcDbEntity
  8
0
  6
Continuous
100
AcDbCircle
 10
249.2171200763
 20
242.3240162302
 30
0.0
 40
176.6666666667
100
AcDbArc
 50
180.5189122668004
 51
182.1496545349004
  0
ARC
  5
5D8
330
1B
100
AcDbEntity
  8
0
  6
Continuous
100
AcDbCircle
 10
-21.116213257
 20
242.3240162302
 30
0.0
 40
176.6666666667
100
AcDbArc
 50
352.9891590873008
 51
359.4810877332008
  0
ARC
  5
5D9
330
1B
100
AcDbEntity
  8
0
  6
Continuous
100
AcDbCircle
 10
137.6504534097
 20
112.1841221164
 30
0.0
 40
0.4
100
AcDbArc
 50
314.9999999998007
 51
360.0000000000008
  0
ARC
  5
5DA
330
1B
100
AcDbEntity
  8
0
  6
Continuous
100
AcDbCircle
 10
90.4504534097
 20
112.1841221164
 30
0.0
 40
0.4
100
AcDbArc
 50
180.0000000000004
 51
225.0000000024005
  0
ARC
  5
5DB
330
1B
100
AcDbEntity
  8
0
  6
Continuous
100
AcDbCircle
 10
135.2362398473
 20
110.6184366914
 30
0.0
 40
1.0
100
AcDbArc
 50
270.0000000000006
 51
314.9999999996007
  0
ARC
  5
5DC
330
1B
100
AcDbEntity
  8
0
  6
Continuous
100
AcDbCircle
 10
92.8646669721
 20
110.6184366914
 30
0.0
 40
1.0
100
AcDbArc
 50
225.0000000005005
 51
270.0000000000006
  0
ARC
  5
5DD
330
1B
100
AcDbEntity
  8
0
  6
Continuous
100
AcDbCircle
 10
145.1295999934
 20
130.134425148
 30
0.0
 40
3.0
100
AcDbArc
 50
30.00000000000008
 51
79.00000000000017
  0
ARC
  5
5DE
330
1B
100
AcDbEntity
  8
0
  6
Continuous
100
AcDbCircle
 10
145.1295999934
 20
171.1024482348
 30
0.0
 40
3.0
100
AcDbArc
 50
281.0000000000006
 51
330.0000000000007
  0
ARC
  5
5DF
330
1B
100
AcDbEntity
  8
0
  6
Continuous
100
AcDbCircle
 10
138.5504461915
 20
170.8422995363
 30
0.0
 40
3.9999987085
100
AcDbArc
 50
179.9998725644003
 51
281.0001270497006
  0
ARC
  5
5E0
330
1B
100
AcDbEntity
  8
0
  6
Continuous
100
AcDbCircle
 10
131.2504534097
 20
148.7184366914
 30
0.0
 40
0.6
100
AcDbArc
 50
180.0000000000004
 51
270.0000000000006
  0
ARC
  5
5E1
330
1B
100
AcDbEntity
  8
0
  6
Continuous
100
AcDbCircle
 10
139.2504534097
 20
145.2184366914
 30
0.0
 40
0.6
100
AcDbArc
 50
180.0000000000004
 51
318.3664606634007
  0
ARC
  5
5E2
330
1B
100
AcDbEntity
  8
0
  6
Continuous
100
AcDbCircle
 10
139.2504534097
 20
156.0184366914
 30
0.0
 40
0.6
100
AcDbArc
 50
41.63353933660009
 51
180.0000000000004
  0
ARC
  5
5E3
330
1B
100
AcDbEntity
  8
0
  6
Continuous
100
AcDbCircle
 10
138.0504534097
 20
128.2752909409
 30
0.0
 40
4.0
100
AcDbArc
 50
180.0000000000004
 51
225.0000000000005
  0
ARC
  5
5E4
330
1B
100
AcDbEntity
  8
0
  6
Continuous
100
AcDbCircle
 10
90.05045340969998
 20
128.2752909409
 30
0.0
 40
4.0
100
AcDbArc
 50
315.0000000000007
 51
360.0000000000008
  0
ARC
  5
5E5
330
1B
100
AcDbEntity
  8
0
  6
Continuous
100
AcDbCircle
 10
91.5504534097
 20
140.2323631196
 30
0.0
 40
4.0
100
AcDbArc
 50
318.5903778907007
 51
360.0000000000008
  0
ARC
  5
5E6
330
1B
100
AcDbEntity
  8
0
  6
Continuous
100
AcDbCircle
 10
91.5504534097
 20
158.6515080134
 30
0.0
 40
4.0
100
AcDbArc
 50
0.0
 51
44.4153085972001
  0
ARC
  5
5E7
330
1B
100
AcDbEntity
  8
0
  6
Continuous
100
AcDbCircle
 10
131.2504534097
 20
152.5184366914
 30
0.0
 40
0.6
100
AcDbArc
 50
90.00000000000019
 51
180.0000000000004
  0
ARC
  5
5E8
330
1B
100
AcDbEntity
  8
0
  6
Continuous
100
AcDbCircle
 10
144.0504534097
 20
150.6184366914
 30
0.0
 40
0.6
100
AcDbArc
 50
318.3664606634007
 51
41.63353933660009
  0
ARC
  5
5E9
330
1B
100
AcDbEntity
  8
0
  6
Continuous
100
AcDbCircle
 10
96.5504534097
 20
163.550487499
 30
0.0
 40
3.0
100
AcDbArc
 50
180.0000000000004
 51
224.4153085972005
  0
ARC
  5
5EA
330
1B
100
AcDbEntity
  8
0
  6
Continuous
100
AcDbCircle
 10
96.05045340970001
 20
136.263736153
 30
0.0
 40
2.0
100
AcDbArc
 50
138.5903778907003
 51
180.0000000000004
  0
CIRCLE
  5
5EB
330
1B
100
AcDbEntity
  8
0
  6
Continuous
100
AcDbCircle
 10
114.0504534097
 20
132.6184366914
 30
0.0
 40
6.0
  0
ARC
  5
5EC
330
1B
100
AcDbEntity
  8
0
  6
Continuous
100
AcDbCircle
 10
114.0504534097
 20
165.6184366914
 30
0.0
 40
1.583665578299999
100
AcDbArc
 50
180.0000000000004
 51
360.0000000000008
  0
ARC
  5
5ED
330
1B
100
AcDbEntity
  8
0
  6
Continuous
100
AcDbCircle
 10
114.0504534097
 20
165.6184366914
 30
0.0
 40
2.579863465599999
100
AcDbArc
 50
180.0000000000004
 51
360.0000000000008
  0
SPLINE
  5
5F3
330
1B
100
AcDbEntity
  8
0
  6
Continuous
100
AcDbSpline
210
0.0
220
0.0
230
1.0
 70
     8
 71
     3
 72
    11
 73
     7
 74
     5
 42
0.0000000001
 43
0.0000000001
 44
0.0000000001
 40
0.0
 40
0.0
 40
0.0
 40
0.0
 40
2.003428788272216
 40
3.892120259406767
 40
5.71322114008822
 40
7.502639680429129
 40
7.502639680429129
 40
7.502639680429129
 40
7.502639680429129
 10
154.566711959
 20
132.0020200411
 30
0.0
 10
154.2805549765732
 20
131.3979400121264
 30
0.0
 10
153.7246293578571
 20
130.2243759040161
 30
0.0
 10
153.1294859218331
 20
128.4113067802233
 30
0.0
 10
152.740392507981
 20
126.6123927014946
 30
0.0
 10
152.6918130348226
 20
125.4078607467251
 30
0.0
 10
152.6677364409
 20
124.8108796587
 30
0.0
 11
154.566711959
 21
132.0020200411
 31
0.0
 11
153.7481131555
 21
130.1734624378
 31
0.0
 11
153.1545753741
 21
128.3804570348
 31
0.0
 11
152.7907826884
 21
126.5960626559
 31
0.0
 11
152.6677364409
 21
124.8108796587
 31
0.0
  0
SPLINE
  5
5F4
330
1B
100
AcDbEntity
  8
0
  6
Continuous
100
AcDbSpline
210
0.0
220
0.0
230
1.0
 70
     8
 71
     3
 72
    15
 73
    11
 74
     9
 42
0.0000000001
 43
0.0000000001
 44
0.0000000001
 40
0.0
 40
0.0
 40
0.0
 40
0.0
 40
3.763582669807142
 40
7.401103717086086
 40
10.98185897829827
 40
14.5432341443871
 40
18.10450789201769
 40
21.68502254205977
 40
25.32146373929616
 40
29.08436254623515
 40
29.08436254623515
 40
29.08436254623515
 40
29.08436254623515
 10
154.566711959
 20
165.0007174563
 30
0.0
 10
154.2783413940462
 20
163.7794700121013
 30
0.0
 10
153.7112592684694
 20
161.377880943459
 30
0.0
 10
153.1191316570845
 20
157.7624232749472
 30
0.0
 10
152.7496962016896
 20
154.1860281365773
 30
0.0
 10
152.6268326245132
 20
150.6174162407091
 30
0.0
 10
152.7498355887788
 20
147.0488898117799
 30
0.0
 10
153.119344942006
 20
143.47297945906
 30
0.0
 10
153.7114373346633
 20
139.8581956777811
 30
0.0
 10
154.2783905999983
 20
137.4571806052777
 30
0.0
 10
154.566711959
 20
136.2361559265
 30
0.0
 11
154.566711959
 21
165.0007174563
 31
0.0
 11
153.7450494632
 21
161.3279221645
 31
0.0
 11
153.1520853876
 21
157.7390570271
 31
0.0
 11
152.7899501666
 21
154.1766608781
 31
0.0
 11
152.6677364517
 21
150.6173832995
 31
0.0
 11
152.7900871484
 21
147.0582119054
 31
0.0
 11
153.1523200686
 21
143.4960675413
 31
0.0
 11
153.7451805721
 21
139.9082797822
 31
0.0
 11
154.566711959
 21
136.2361559265
 31
0.0
  0
SPLINE
  5
5F5
330
1B
100
AcDbEntity
  8
0
  6
Continuous
100
AcDbSpline
210
0.0
220
0.0
230
1.0
 70
     8
 71
     3
 72
    15
 73
    11
 74
     9
 42
0.0000000001
 43
0.0000000001
 44
0.0000000001
 40
0.0
 40
0.0
 40
0.0
 40
0.0
 40
2.011836367817047
 40
3.901702669491464
 40
5.719340834596808
 40
7.503171099081314
 40
9.286957786426498
 40
11.10449205184514
 40
12.99381437158749
 40
15.00529075036465
 40
15.00529075036465
 40
15.00529075036465
 40
15.00529075036465
 10
154.566711959
 20
183.6171341066
 30
0.0
 10
154.2797006777167
 20
183.0104882914815
 30
0.0
 10
153.7230785287831
 20
181.8339753135143
 30
0.0
 10
153.1242173354817
 20
180.0186240301789
 30
0.0
 10
152.7511969778278
 20
178.2220916479979
 30
0.0
 10
152.6263626327385
 20
176.4254797861666
 30
0.0
 10
152.7513380845189
 20
174.6289133346795
 30
0.0
 10
153.124431007442
 20
172.8326330607463
 30
0.0
 10
153.7232514650121
 20
171.0176269787011
 30
0.0
 10
154.2797495227285
 20
169.8413892374493
 30
0.0
 10
154.566711959
 20
169.2348533418
 30
0.0
 11
154.566711959
 21
183.6171341066
 31
0.0
 11
153.7450494632
 21
181.7807364607
 31
0.0
 11
153.1520853876
 21
179.9863038921
 31
0.0
 11
152.7899501666
 21
178.2051058175
 31
0.0
 11
152.6677364517
 21
176.4254670282
 31
0.0
 11
152.7900871484
 21
174.6458813312
 31
0.0
 11
153.1523200686
 21
172.8648091492
 31
0.0
 11
153.7451805721
 21
171.0709152696
 31
0.0
 11
154.566711959
 21
169.2348533418
 31
0.0
  0
SPLINE
  5
5F6
330
1B
100
AcDbEntity
  8
0
  6
Continuous
100
AcDbSpline
210
0.0
220
0.0
230
1.0
 70
     8
 71
     3
 72
    10
 73
     6
 74
     4
 42
0.0000000001
 43
0.0000000001
 44
0.0000000001
 40
0.0
 40
0.0
 40
0.0
 40
0.0
 40
0.0414480920828436
 40
0.1388340554811516
 40
0.2926354360813686
 40
0.2926354360813686
 40
0.2926354360813686
 40
0.2926354360813686
 10
154.6884623831
 20
117.353921291
 30
0.0
 10
154.6841734610749
 20
117.3670661447837
 30
0.0
 10
154.6698073368828
 20
117.4110959967695
 30
0.0
 10
154.6259824239153
 20
117.4985618907316
 30
0.0
 10
154.5892209296925
 20
117.5737200957869
 30
0.0
 10
154.566711959
 20
117.6197392762
 30
0.0
 11
154.6884623831
 21
117.353921291
 31
0.0
 11
154.6750229138
 21
117.3931300273
 31
0.0
 11
154.6345598587
 21
117.4817120065
 31
0.0
 11
154.566711959
 21
117.6197392762
 31
0.0
  0
SPLINE
  5
5F7
330
1B
100
AcDbEntity
  8
0
  6
Continuous
100
AcDbSpline
210
0.0
220
0.0
230
1.0
 70
     8
 71
     3
 72
    10
 73
     6
 74
     4
 42
0.0000000001
 43
0.0000000001
 44
0.0000000001
 40
0.0
 40
0.0
 40
0.0
 40
0.0
 40
0.2511566040927526
 40
0.474314263583845
 40
0.6694139091752125
 40
0.6694139091752125
 40
0.6694139091752125
 40
0.6694139091752125
 10
154.6884623831
 20
168.581675751
 30
0.0
 10
154.6859551254734
 20
168.665343596333
 30
0.0
 10
154.6812201193639
 20
168.8233519934768
 30
0.0
 10
154.6447506262269
 20
169.0453132165987
 30
0.0
 10
154.5915348884568
 20
169.1745634710951
 30
0.0
 10
154.566711959
 20
169.2348533418
 30
0.0
 11
154.6884623831
 21
168.581675751
 31
0.0
 11
154.6750229138
 21
168.8324725222
 31
0.0
 11
154.6345598587
 21
169.0519311337
 31
0.0
 11
154.566711959
 21
169.2348533418
 31
0.0
  0
SPLINE
  5
5F8
330
1B
100
AcDbEntity
  8
0
  6
Continuous
100
AcDbSpline
210
0.0
220
0.0
230
1.0
 70
     8
 71
     3
 72
    10
 73
     6
 74
     4
 42
0.0000000001
 43
0.0000000001
 44
0.0000000001
 40
0.0
 40
0.0
 40
0.0
 40
0.0
 40
0.1950996455913674
 40
0.4182573049841016
 40
0.6694139091767269
 40
0.6694139091767269
 40
0.6694139091767269
 40
0.6694139091767269
 10
154.566711959
 20
132.0020200411
 30
0.0
 10
154.5915348884558
 20
132.0623099118051
 30
0.0
 10
154.6447506262113
 20
132.1915601662713
 30
0.0
 10
154.6812201193791
 20
132.4135213893877
 30
0.0
 10
154.6859551254779
 20
132.5715297865331
 30
0.0
 10
154.6884623831
 20
132.6551976319
 30
0.0
 11
154.566711959
 21
132.0020200411
 31
0.0
 11
154.6345598587
 21
132.1849422492
 31
0.0
 11
154.6750229138
 21
132.4044008606
 31
0.0
 11
154.6884623831
 21
132.6551976319
 31
0.0
  0
SPLINE
  5
5F9
330
1B
100
AcDbEntity
  8
0
  6
Continuous
100
AcDbSpline
210
0.0
220
0.0
230
1.0
 70
     8
 71
     3
 72
    10
 73
     6
 74
     4
 42
0.0000000001
 43
0.0000000001
 44
0.0000000001
 40
0.0
 40
0.0
 40
0.0
 40
0.0
 40
0.3280425350374281
 40
0.6387292973644134
 40
0.9290460446825778
 40
0.9290460446825778
 40
0.9290460446825778
 40
0.9290460446825778
 10
154.566711959
 20
165.0007174563
 30
0.0
 10
154.5909726538887
 20
165.107365601218
 30
0.0
 10
154.6382104811358
 20
165.3150194490976
 30
0.0
 10
154.6797101699714
 20
165.6225987657111
 30
0.0
 10
154.6856116523694
 20
165.8229383356811
 30
0.0
 10
154.6884623831
 20
165.9197130323
 30
0.0
 11
154.566711959
 21
165.0007174563
 31
0.0
 11
154.6345598587
 21
165.3216669341
 31
0.0
 11
154.6750229138
 21
165.6297075247
 31
0.0
 11
154.6884623831
 21
165.9197130323
 31
0.0
  0
SPLINE
  5
5FA
330
1B
100
AcDbEntity
  8
0
  6
Continuous
100
AcDbSpline
210
0.0
220
0.0
230
1.0
 70
     8
 71
     3
 72
    10
 73
     6
 74
     4
 42
0.0000000001
 43
0.0000000001
 44
0.0000000001
 40
0.0
 40
0.0
 40
0.0
 40
0.0
 40
0.2903167473181644
 40
0.6010035096451496
 40
0.9290460446826054
 40
0.9290460446826054
 40
0.9290460446826054
 40
0.9290460446826054
 10
154.6884623831
 20
135.3171603505
 30
0.0
 10
154.6856116523694
 20
135.4139350471189
 30
0.0
 10
154.6797101699714
 20
135.6142746170889
 30
0.0
 10
154.6382104811358
 20
135.9218539337024
 30
0.0
 10
154.5909726538887
 20
136.129507781582
 30
0.0
 10
154.566711959
 20
136.2361559265
 30
0.0
 11
154.6884623831
 21
135.3171603505
 31
0.0
 11
154.6750229138
 21
135.6071658581
 31
0.0
 11
154.6345598587
 21
135.9152064487
 31
0.0
 11
154.566711959
 21
136.2361559265
 31
0.0
  0
SPLINE
  5
5FB
330
1B
100
AcDbEntity
  8
0
  6
Continuous
100
AcDbSpline
210
0.0
220
0.0
230
1.0
 70
     8
 71
     3
 72
    10
 73
     6
 74
     4
 42
0.0000000001
 43
0.0000000001
 44
0.0000000001
 40
0.0
 40
0.0
 40
0.0
 40
0.0
 40
0.1538013806002425
 40
0.2511873439985504
 40
0.2926354361759794
 40
0.2926354361759794
 40
0.2926354361759794
 40
0.2926354361759794
 10
154.566711959
 20
183.6171341066
 30
0.0
 10
154.5892209296885
 20
183.6631532870144
 30
0.0
 10
154.6259824239047
 20
183.738311492072
 30
0.0
 10
154.6698073369162
 20
183.8257773860523
 30
0.0
 10
154.6841734610773
 20
183.8698072380821
 30
0.0
 10
154.6884623831
 20
183.8829520919
 30
0.0
 11
154.566711959
 21
183.6171341066
 31
0.0
 11
154.6345598587
 21
183.7551613763
 31
0.0
 11
154.6750229138
 21
183.8437433555
 31
0.0
 11
154.6884623831
 21
183.8829520919
 31
0.0
  0
SPLINE
  5
5FC
330
1B
100
AcDbEntity
  8
0
  6
Continuous
100
AcDbSpline
210
0.0
220
0.0
230
1.0
 70
     8
 71
     3
 72
    15
 73
    11
 74
     9
 42
0.0000000001
 43
0.0000000001
 44
0.0000000001
 40
0.0
 40
0.0
 40
0.0
 40
0.0
 40
1.400467094421451
 40
2.784171585037452
 40
4.111871707766945
 40
5.400630277539846
 40
6.695157940484211
 40
8.076762629874166
 40
9.645134279106792
 40
11.43088453699846
 40
11.43088453699846
 40
11.43088453699846
 40
11.43088453699846
 10
176.5130359026
 20
181.0484949677
 30
0.0
 10
176.6744147455307
 20
180.6104703353753
 30
0.0
 10
176.9952408404128
 20
179.7396639167719
 30
0.0
 10
177.4655560698749
 20
178.4520139464445
 30
0.0
 10
177.7835555019155
 20
177.150903150814
 30
0.0
 10
177.8320642824764
 20
175.8380162463951
 30
0.0
 10
177.6254778719483
 20
174.5282141355077
 30
0.0
 10
177.2903442740417
 20
173.1537064726788
 30
0.0
 10
176.8835620631169
 20
171.6281585481884
 30
0.0
 10
176.6417681288997
 20
170.536435259367
 30
0.0
 10
176.5130359026
 20
169.9551966525
 30
0.0
 11
176.5130359026
 21
181.0484949677
 31
0.0
 11
176.996572018
 21
179.7341506796
 31
0.0
 11
177.4473293114
 21
178.4259244072
 31
0.0
 11
177.74144836
 21
177.1312114656
 31
0.0
 11
177.7905184905
 21
175.8433874196
 31
0.0
 11
177.6131994151
 21
174.5610614799
 31
0.0
 11
177.300600589
 21
173.2152853129
 31
0.0
 11
176.9123603089
 21
171.6957264575
 31
0.0
 11
176.5130359026
 21
169.9551966525
 31
0.0
  0
SPLINE
  5
5FD
330
1B
100
AcDbEntity
  8
0
  6
Continuous
100
AcDbSpline
210
0.0
220
0.0
230
1.0
 70
     8
 71
     3
 72
    15
 73
    11
 74
     9
 42
0.0000000001
 43
0.0000000001
 44
0.0000000001
 40
0.0
 40
0.0
 40
0.0
 40
0.0
 40
1.879271184979602
 40
3.548484836403456
 40
4.969677231571402
 40
6.197513810785002
 40
7.383735960209636
 40
8.649039012226682
 40
10.06697165913801
 40
11.63729927949089
 40
11.63729927949089
 40
11.63729927949089
 40
11.63729927949089
 10
174.780985095
 20
181.7925568702
 30
0.0
 10
175.0439710631298
 20
181.2236581634177
 30
0.0
 10
175.540547463361
 20
180.1494500072976
 30
0.0
 10
176.325688357136
 20
178.6923502650436
 30
0.0
 10
176.8810784067289
 20
177.353078096975
 30
0.0
 10
176.9857225207712
 20
176.0494321082271
 30
0.0
 10
176.6344580574714
 20
174.8576787490293
 30
0.0
 10
176.0807976494351
 20
173.6931391288301
 30
0.0
 10
175.4098954361628
 20
172.4431359990601
 30
0.0
 10
174.9976300964348
 20
171.5360849488903
 30
0.0
 10
174.780985095
 20
171.0594305782
 30
0.0
 11
174.780985095
 21
181.7925568702
 31
0.0
 11
175.5879033288
 21
180.0953405756
 31
0.0
 11
176.3383913463
 21
178.604353671
 31
0.0
 11
176.8286863955
 21
177.270412672
 31
0.0
 11
176.9101981432
 21
176.0452847194
 31
0.0
 11
176.6146773176
 21
174.8964633976
 31
0.0
 11
176.0939000436
 21
173.7433012909
 31
0.0
 11
175.4472306525
 21
172.4814171085
 31
0.0
 11
174.780985095
 21
171.0594305782
 31
0.0
  0
SPLINE
  5
5FE
330
1B
100
AcDbEntity
  8
0
  6
Continuous
100
AcDbSpline
210
0.0
220
0.0
230
1.0
 70
     8
 71
     3
 72
    11
 73
     7
 74
     5
 42
0.0000000001
 43
0.0000000001
 44
0.0000000001
 40
0.0
 40
0.0
 40
0.0
 40
0.0
 40
0.4656882957656585
 40
0.9486172306512597
 40
1.453465057982068
 40
1.978436304633027
 40
1.978436304633027
 40
1.978436304633027
 40
1.978436304633027
 10
176.5130325302
 20
181.048493044
 30
0.0
 10
176.4170618561127
 20
181.1721808847424
 30
0.0
 10
176.2215674966792
 20
181.4241357180874
 30
0.0
 10
175.7928755898553
 20
181.6704583841065
 30
0.0
 10
175.3019675369088
 20
181.811818050921
 30
0.0
 10
174.9568935749942
 20
181.7990603619705
 30
0.0
 10
174.780985095
 20
181.7925568702
 30
0.0
 11
176.5130325302
 21
181.048493044
 31
0.0
 11
176.2048057283
 21
181.3975801784
 31
0.0
 11
175.7923589453
 21
181.64879325
 31
0.0
 11
175.3058823747
 21
181.7837446302
 31
0.0
 11
174.780985095
 21
181.7925568702
 31
0.0
  0
SPLINE
  5
5FF
330
1B
100
AcDbEntity
  8
0
  6
Continuous
100
AcDbSpline
210
0.0
220
0.0
230
1.0
 70
     8
 71
     3
 72
    10
 73
     6
 74
     4
 42
0.0000000001
 43
0.0000000001
 44
0.0000000001
 40
0.0
 40
0.0
 40
0.0
 40
0.0
 40
0.7438012020037422
 40
1.44276959717605
 40
2.101034574836743
 40
2.101034574836743
 40
2.101034574836743
 40
2.101034574836743
 10
176.5130359026
 20
169.9551966525
 30
0.0
 10
176.4191498024845
 20
169.7257053362131
 30
0.0
 10
176.2370366108426
 20
169.2805553511598
 30
0.0
 10
175.945646160409
 20
168.6434747064418
 30
0.0
 10
175.7445453824528
 20
168.2382050248254
 30
0.0
 10
175.6470104988
 20
168.0416472012
 30
0.0
 11
176.5130359026
 21
169.9551966525
 31
0.0
 11
176.2265980745
 21
169.2687612231
 31
0.0
 11
175.9365883541
 21
168.6327964603
 31
0.0
 11
175.6470104988
 21
168.0416472012
 31
0.0
  0
SPLINE
  5
600
330
1B
100
AcDbEntity
  8
0
  6
Continuous
100
AcDbSpline
210
0.0
220
0.0
230
1.0
 70
     8
 71
     3
 72
    11
 73
     7
 74
     5
 42
0.0000000001
 43
0.0000000001
 44
0.0000000001
 40
0.0
 40
0.0
 40
0.0
 40
0.0
 40
0.5301250250186251
 40
1.077467603569195
 40
1.631004586252137
 40
2.178216591698081
 40
2.178216591698081
 40
2.178216591698081
 40
2.178216591698081
 10
175.6470104988
 20
168.0422391426
 30
0.0
 10
175.5535779546019
 20
168.1934171965003
 30
0.0
 10
175.3636783370748
 20
168.5006833087582
 30
0.0
 10
174.9426753595587
 20
168.85573986716
 30
0.0
 10
174.4558472470937
 20
169.1236730013794
 30
0.0
 10
174.0945635564222
 20
169.197935467357
 30
0.0
 10
173.9149596912
 20
169.2348533418
 30
0.0
 11
175.6470104988
 21
168.0422391426
 31
0.0
 11
175.3453566964
 21
168.4781720797
 31
0.0
 11
174.9341335729
 21
168.8393914604
 31
0.0
 11
174.4448411662
 21
169.0982275706
 31
0.0
 11
173.9149596912
 21
169.2348533418
 31
0.0
  0
SPLINE
  5
601
330
1B
100
AcDbEntity
  8
0
  6
Continuous
100
AcDbSpline
210
0.0
220
0.0
230
1.0
 70
     8
 71
     3
 72
    10
 73
     6
 74
     4
 42
0.0000000001
 43
0.0000000001
 44
0.0000000001
 40
0.0
 40
0.0
 40
0.0
 40
0.0
 40
0.715301096983394
 40
1.387672467175925
 40
2.020327527444217
 40
2.020327527444217
 40
2.020327527444217
 40
2.020327527444217
 10
174.780985095
 20
171.0594305782
 30
0.0
 10
174.6869546010296
 20
170.8402997450964
 30
0.0
 10
174.5045369756296
 20
170.4151895011873
 30
0.0
 10
174.2132595131089
 20
169.8077557011285
 30
0.0
 10
174.0123548992573
 20
169.4219065692798
 30
0.0
 10
173.9149596913
 20
169.2348533418
 30
0.0
 11
174.780985095
 21
171.0594305782
 31
0.0
 11
174.4942044562
 21
170.4041348247
 31
0.0
 11
174.2041478101
 21
169.7975456709
 31
0.0
 11
173.9149596913
 21
169.2348533418
 31
0.0
  0
SPLINE
  5
602
330
1B
100
AcDbEntity
  8
0
  6
Continuous
100
AcDbSpline
210
0.0
220
0.0
230
1.0
 70
     8
 71
     3
 72
    11
 73
     7
 74
     5
 42
0.0000000001
 43
0.0000000001
 44
0.0000000001
 40
0.0
 40
0.0
 40
0.0
 40
0.0
 40
0.5154786042658222
 40
1.048082426842154
 40
1.588832093575844
 40
2.126823887405183
 40
2.126823887405183
 40
2.126823887405183
 40
2.126823887405183
 10
176.5130357981
 20
169.9551966143
 30
0.0
 10
176.4170136639127
 20
170.098872442277
 30
0.0
 10
176.2217793504092
 20
170.3909972932769
 30
0.0
 10
175.7994738761351
 20
170.7219695416414
 30
0.0
 10
175.3146215598266
 20
170.9666509678946
 30
0.0
 10
174.9585604854887
 20
171.0285567968614
 30
0.0
 10
174.780985095
 20
171.0594305782
 30
0.0
 11
176.5130357981
 21
169.9551966143
 31
0.0
 11
176.2048092254
 21
170.3683728132
 31
0.0
 11
175.7923619791
 21
170.7053507069
 31
0.0
 11
175.3058842512
 21
170.9414642862
 31
0.0
 11
174.780985095
 21
171.0594305782
 31
0.0
  0
SPLINE
  5
603
330
1B
100
AcDbEntity
  8
0
  6
Continuous
100
AcDbSpline
210
0.0
220
0.0
230
1.0
 70
     8
 71
     3
 72
    10
 73
     6
 74
     4
 42
0.0000000001
 43
0.0000000001
 44
0.0000000001
 40
0.0
 40
0.0
 40
0.0
 40
0.0
 40
1.192353711298219
 40
2.471664960117722
 40
3.848238670888422
 40
3.848238670888422
 40
3.848238670888422
 40
3.848238670888422
 10
175.6470104988
 20
165.4608400086
 30
0.0
 10
175.744728520788
 20
165.0755846837194
 30
0.0
 10
175.9472910730167
 20
164.2769776276224
 30
0.0
 10
176.2386959230159
 20
163.0276295483248
 30
0.0
 10
176.4193835593077
 20
162.1609462646345
 30
0.0
 10
176.5130359026
 20
161.7117350066
 30
0.0
 11
175.6470104988
 21
165.4608400086
 31
0.0
 11
175.9365812424
 21
164.304182688
 31
0.0
 11
176.2265911958
 21
163.0581764688
 31
0.0
 11
176.5130359026
 21
161.7117350066
 31
0.0
  0
SPLINE
  5
604
330
1B
100
AcDbEntity
  8
0
  6
Continuous
100
AcDbSpline
210
0.0
220
0.0
230
1.0
 70
     8
 71
     3
 72
    10
 73
     6
 74
     4
 42
0.0000000001
 43
0.0000000001
 44
0.0000000001
 40
0.0
 40
0.0
 40
0.0
 40
0.0
 40
1.161916120161991
 40
2.409285427760161
 40
3.750918829943582
 40
3.750918829943582
 40
3.750918829943582
 40
3.750918829943582
 10
173.9149596913
 20
165.0007174563
 30
0.0
 10
174.0125310781039
 20
164.6258998706895
 30
0.0
 10
174.2148497449284
 20
163.8486987187218
 30
0.0
 10
174.5061791155753
 20
162.6326671315593
 30
0.0
 10
174.687186312662
 20
161.7888388003127
 30
0.0
 10
174.780985095
 20
161.3515629834
 30
0.0
 11
173.9149596913
 21
165.0007174563
 31
0.0
 11
174.2041404083
 21
163.8753625864
 31
0.0
 11
174.494197203
 21
162.662186076
 31
0.0
 11
174.780985095
 21
161.3515629834
 31
0.0
  0
SPLINE
  5
605
330
1B
100
AcDbEntity
  8
0
  6
Continuous
100
AcDbSpline
210
0.0
220
0.0
230
1.0
 70
     8
 71
     3
 72
    15
 73
    11
 74
     9
 42
0.0000000001
 43
0.0000000001
 44
0.0000000001
 40
0.0
 40
0.0
 40
0.0
 40
0.0
 40
2.8634547069531
 40
5.489962335543586
 40
7.933820506446816
 40
10.38615272678929
 40
13.00482048559091
 40
15.84988652897749
 40
18.97151452513814
 40
22.35286871019162
 40
22.35286871019162
 40
22.35286871019162
 40
22.35286871019162
 10
176.5130359026
 20
161.7117350066
 30
0.0
 10
176.643472465833
 20
160.7661834069559
 30
0.0
 10
176.8935521397277
 20
158.9533233481764
 30
0.0
 10
177.3019092769522
 20
156.3403580316368
 30
0.0
 10
177.636951788591
 20
153.8549787529946
 30
0.0
 10
177.8359531515263
 20
151.3551714138887
 30
0.0
 10
177.7758882899843
 20
148.7122097866989
 30
0.0
 10
177.449630241662
 20
145.8669617010519
 30
0.0
 10
176.9691348890323
 20
142.7882839336998
 30
0.0
 10
176.6690637996103
 20
140.6414349568127
 30
0.0
 10
176.5130359026
 20
139.5251383762
 30
0.0
 11
176.5130359026
 21
161.7117350066
 31
0.0
 11
176.9131846401
 21
158.8763772079
 31
0.0
 11
177.3018777138
 21
156.2787898624
 31
0.0
 11
177.6145488085
 21
153.8550160392
 31
0.0
 11
177.7911446819
 21
151.4090505414
 31
0.0
 11
177.7394342083
 21
148.7908933922
 31
0.0
 11
177.4419630894
 21
145.9614214053
 31
0.0
 11
176.9903624518
 21
142.8726322881
 31
0.0
 11
176.5130359026
 21
139.5251383762
 31
0.0
  0
SPLINE
  5
606
330
1B
100
AcDbEntity
  8
0
  6
Continuous
100
AcDbSpline
210
0.0
220
0.0
230
1.0
 70
     8
 71
     3
 72
    15
 73
    11
 74
     9
 42
0.0000000001
 43
0.0000000001
 44
0.0000000001
 40
0.0
 40
0.0
 40
0.0
 40
0.0
 40
2.926610217169157
 40
5.535068783201137
 40
7.902833504160586
 40
10.22598334044611
 40
12.68702392027747
 40
15.41106037511171
 40
18.48820350442917
 40
21.93535717992741
 40
21.93535717992741
 40
21.93535717992741
 40
21.93535717992741
 10
174.780985095
 20
161.3515629834
 30
0.0
 10
174.9970554048244
 20
160.4001499967044
 30
0.0
 10
175.4057070318395
 20
158.6007520817729
 30
0.0
 10
176.0883531101881
 20
156.0561189539894
 30
0.0
 10
176.648904953692
 20
153.6880033976013
 30
0.0
 10
176.9863673135872
 20
151.3198492843211
 30
0.0
 10
176.8839278560459
 20
148.8043707193164
 30
0.0
 10
176.3313506268652
 20
146.1004656476432
 30
0.0
 10
175.5279962526639
 20
143.1245980000572
 30
0.0
 10
175.0392285935625
 20
141.0051396740523
 30
0.0
 10
174.780985095
 20
139.8853103994
 30
0.0
 11
174.780985095
 21
161.3515629834
 31
0.0
 11
175.4486166464
 21
158.5021217268
 31
0.0
 11
176.0960379853
 21
155.9752854241
 31
0.0
 11
176.6169431067
 21
153.6655305392
 31
0.0
 11
176.9112408859
 21
151.3610969908
 31
0.0
 11
176.8253303451
 21
148.90155636
 31
0.0
 11
176.3294035709
 21
146.2230434812
 31
0.0
 11
175.5774800286
 21
143.2391834267
 31
0.0
 11
174.780985095
 21
139.8853103994
 31
0.0
  0
SPLINE
  5
607
330
1B
100
AcDbEntity
  8
0
  6
Continuous
100
AcDbSpline
210
0.0
220
0.0
230
1.0
 70
     8
 71
     3
 72
     9
 73
     5
 74
     3
 42
0.0000000001
 43
0.0000000001
 44
0.0000000001
 40
0.0
 40
0.0
 40
0.0
 40
0.0
 40
1.903670625307217
 40
3.847572763844443
 40
3.847572763844443
 40
3.847572763844443
 40
3.847572763844443
 10
176.5130359026
 20
139.5251383762
 30
0.0
 10
176.3827410196645
 20
138.9040298404131
 30
0.0
 10
176.1193976470315
 20
137.6486864769573
 30
0.0
 10
175.8055667220665
 20
136.4049999406464
 30
0.0
 10
175.6470104988
 20
135.7766544704
 30
0.0
 11
176.5130359026
 21
139.5251383762
 31
0.0
 11
176.1097919431
 21
137.6646663504
 31
0.0
 11
175.6470104988
 21
135.7766544704
 31
0.0
  0
SPLINE
  5
608
330
1B
100
AcDbEntity
  8
0
  6
Continuous
100
AcDbSpline
210
0.0
220
0.0
230
1.0
 70
     8
 71
     3
 72
     9
 73
     5
 74
     3
 42
0.0000000001
 43
0.0000000001
 44
0.0000000001
 40
0.0
 40
0.0
 40
0.0
 40
0.0
 40
1.85281747332416
 40
3.750856068639207
 40
3.750856068639207
 40
3.750856068639207
 40
3.750856068639207
 10
174.780985095
 20
139.8853103994
 30
0.0
 10
174.6506750042236
 20
139.2815365578294
 30
0.0
 10
174.3868743860674
 20
138.0592527601289
 30
0.0
 10
174.0735238686801
 20
136.848719686151
 30
0.0
 10
173.9149596996
 20
136.2361559265
 30
0.0
 11
174.780985095
 21
139.8853103994
 31
0.0
 11
174.3779642394
 21
138.076856148
 31
0.0
 11
173.9149596996
 21
136.2361559265
 31
0.0
  0
SPLINE
  5
609
330
1B
100
AcDbEntity
  8
0
  6
Continuous
100
AcDbSpline
210
0.0
220
0.0
230
1.0
 70
     8
 71
     3
 72
     9
 73
     5
 74
     3
 42
0.0000000001
 43
0.0000000001
 44
0.0000000001
 40
0.0
 40
0.0
 40
0.0
 40
0.0
 40
1.069577194542456
 40
2.100407132856974
 40
2.100407132856974
 40
2.100407132856974
 40
2.100407132856974
 10
175.6470104988
 20
133.1946376693
 30
0.0
 10
175.8050475433368
 20
132.8749202230403
 30
0.0
 10
176.1153964712071
 20
132.2470676397491
 30
0.0
 10
176.3821296118219
 20
131.5994916479276
 30
0.0
 10
176.5130359026
 20
131.2816767304
 30
0.0
 11
175.6470104988
 21
133.1946376693
 31
0.0
 11
176.1098116738
 21
132.2303708766
 31
0.0
 11
176.5130359026
 21
131.2816767304
 31
0.0
  0
SPLINE
  5
60A
330
1B
100
AcDbEntity
  8
0
  6
Continuous
100
AcDbSpline
210
0.0
220
0.0
230
1.0
 70
     8
 71
     3
 72
     9
 73
     5
 74
     3
 42
0.0000000001
 43
0.0000000001
 44
0.0000000001
 40
0.0
 40
0.0
 40
0.0
 40
0.0
 40
1.029753837870334
 40
2.020227195561956
 40
2.020227195561956
 40
2.020227195561956
 40
2.020227195561956
 10
173.9149596994
 20
132.0020200411
 30
0.0
 10
174.0729244478625
 20
131.6971410805636
 30
0.0
 10
174.3828282996841
 20
131.0990129214067
 30
0.0
 10
174.6499977414028
 20
130.4806249484228
 30
0.0
 10
174.780985095
 20
130.1774428047
 30
0.0
 11
173.9149596994
 21
132.0020200411
 31
0.0
 11
174.377750848
 21
131.0821193294
 31
0.0
 11
174.780985095
 21
130.1774428047
 31
0.0
  0
SPLINE
  5
60B
330
1B
100
AcDbEntity
  8
0
  6
Continuous
100
AcDbSpline
210
0.0
220
0.0
230
1.0
 70
     8
 71
     3
 72
    11
 73
     7
 74
     5
 42
0.0000000001
 43
0.0000000001
 44
0.0000000001
 40
0.0
 40
0.0
 40
0.0
 40
0.0
 40
0.5301486637182042
 40
1.077495305253156
 40
1.631032521058694
 40
2.178257030062757
 40
2.178257030062757
 40
2.178257030062757
 40
2.178257030062757
 10
175.6470104992
 20
133.1946342407
 30
0.0
 10
175.5535886241384
 20
133.0434397775806
 30
0.0
 10
175.3637142762888
 20
132.7361461157447
 30
0.0
 10
174.9427132798816
 20
132.3810674261427
 30
0.0
 10
174.4558686336723
 20
132.1131451657369
 30
0.0
 10
174.094572011004
 20
132.0389198590353
 30
0.0
 10
173.9149596912
 20
132.0020200413
 30
0.0
 11
175.6470104992
 21
133.1946342407
 31
0.0
 11
175.3453815194
 21
132.7586553832
 31
0.0
 11
174.9341669145
 21
132.3974201486
 31
0.0
 11
174.4448659723
 21
132.1385996756
 31
0.0
 11
173.9149596912
 21
132.0020200413
 31
0.0
  0
SPLINE
  5
60C
330
1B
100
AcDbEntity
  8
0
  6
Continuous
100
AcDbSpline
210
0.0
220
0.0
230
1.0
 70
     8
 71
     3
 72
    13
 73
     9
 74
     7
 42
0.0000000001
 43
0.0000000001
 44
0.0000000001
 40
0.0
 40
0.0
 40
0.0
 40
0.0
 40
1.418701831388993
 40
2.683140980490538
 40
3.806034705197058
 40
4.796579228460064
 40
5.668298933633139
 40
6.440396946523018
 40
6.440396946523018
 40
6.440396946523018
 40
6.440396946523018
 10
176.5130359026
 20
131.2816767304
 30
0.0
 10
176.6136397093812
 20
130.8195451866604
 30
0.0
 10
176.8039081581811
 20
129.9455320177543
 30
0.0
 10
177.1222329980516
 20
128.7173150677423
 30
0.0
 10
177.4041535081126
 20
127.6270861229726
 30
0.0
 10
177.6254092074368
 20
126.6571244100477
 30
0.0
 10
177.7743135447826
 20
125.7896463059768
 30
0.0
 10
177.7941331843891
 20
125.2415326614635
 30
0.0
 10
177.8034424309
 20
124.9840847394
 30
0.0
 11
176.5130359026
 21
131.2816767304
 31
0.0
 11
176.8243922458
 21
129.8975625321
 31
0.0
 11
177.1339535299
 21
128.6716024295
 31
0.0
 11
177.4096258363
 21
127.5830735615
 31
0.0
 11
177.6249461339
 21
126.6162149255
 31
0.0
 11
177.75938868
 21
125.7549249359
 31
0.0
 11
177.8034424309
 21
124.9840847394
 31
0.0
  0
SPLINE
  5
60D
330
1B
100
AcDbEntity
  8
0
  6
Continuous
100
AcDbSpline
210
0.0
220
0.0
230
1.0
 70
     8
 71
     3
 72
    13
 73
     9
 74
     7
 42
0.0000000001
 43
0.0000000001
 44
0.0000000001
 40
0.0
 40
0.0
 40
0.0
 40
0.0
 40
1.243016981793955
 40
2.377467104101274
 40
3.401271955016412
 40
4.309477329618496
 40
5.108303697442784
 40
5.822813005967853
 40
5.822813005967853
 40
5.822813005967853
 40
5.822813005967853
 10
174.780985095
 20
130.1774428047
 30
0.0
 10
174.9499722722972
 20
129.7989876307202
 30
0.0
 10
175.2731870480591
 20
129.0751320923869
 30
0.0
 10
175.8007221233324
 20
128.0713337006064
 30
0.0
 10
176.2674320565255
 20
127.1614027405608
 30
0.0
 10
176.6348128336042
 20
126.3289899209997
 30
0.0
 10
176.883882723895
 20
125.554433545885
 30
0.0
 10
176.9163387769305
 20
125.0493505475593
 30
0.0
 10
176.9316626422
 20
124.8108796587
 30
0.0
 11
174.780985095
 21
130.1774428047
 31
0.0
 11
175.3003921051
 21
129.0481476374
 31
0.0
 11
175.8161532
 21
128.0377182371
 31
0.0
 11
176.2754407721
 21
127.1227147951
 31
0.0
 11
176.634222519
 21
126.2883811325
 31
0.0
 11
176.8582276501
 21
125.5216052414
 31
0.0
 11
176.9316626422
 21
124.8108796587
 31
0.0
  0
SPLINE
  5
60E
330
1B
100
AcDbEntity
  8
0
  6
Continuous
100
AcDbSpline
210
0.0
220
0.0
230
1.0
 70
     8
 71
     3
 72
    11
 73
     7
 74
     5
 42
0.0000000001
 43
0.0000000001
 44
0.0000000001
 40
0.0
 40
0.0
 40
0.0
 40
0.0
 40
0.5154788696352607
 40
1.0480836530006
 40
1.588834613934093
 40
2.12682774436612
 40
2.12682774436612
 40
2.12682774436612
 40
2.12682774436612
 10
176.5130426847
 20
131.2816742721
 30
0.0
 10
176.4170198246223
 20
131.1379988338841
 30
0.0
 10
176.2217839073227
 20
130.8458745839836
 30
0.0
 10
175.7994767462822
 20
130.514903223756
 30
0.0
 10
175.3146229191702
 20
130.2702222353823
 30
0.0
 10
174.9585609432402
 20
130.208316527207
 30
0.0
 10
174.780985095
 20
130.1774428047
 30
0.0
 11
176.5130426847
 21
131.2816742721
 31
0.0
 11
176.2048141076
 21
130.8684992374
 31
0.0
 11
175.7923650277
 21
130.5315220694
 31
0.0
 11
175.305885668
 21
130.2954088882
 31
0.0
 11
174.780985095
 21
130.1774428047
 31
0.0
  0
SPLINE
  5
60F
330
1B
100
AcDbEntity
  8
0
  6
Continuous
100
AcDbSpline
210
0.0
220
0.0
230
1.0
 70
     8
 71
     3
 72
    13
 73
     9
 74
     7
 42
0.0000000001
 43
0.0000000001
 44
0.0000000001
 40
0.0
 40
0.0
 40
0.0
 40
0.0
 40
0.7494592652036496
 40
1.536136011573772
 40
2.361054295002166
 40
3.217867498809786
 40
4.096609629183785
 40
4.993677344622181
 40
4.993677344622181
 40
4.993677344622181
 40
4.993677344622181
 10
177.8034424309
 20
124.9840847394
 30
0.0
 10
177.7946763319166
 20
124.7341072338442
 30
0.0
 10
177.7767088172635
 20
124.2217385619281
 30
0.0
 10
177.6294688988156
 20
123.4459424570871
 30
0.0
 10
177.4075796916512
 20
122.6532764709333
 30
0.0
 10
177.1277747672308
 20
121.8465319550675
 30
0.0
 10
176.8151598210129
 20
121.0265787323373
 30
0.0
 10
176.6144343419446
 20
120.4696941231461
 30
0.0
 10
176.5130359026
 20
120.1883784151
 30
0.0
 11
177.8034424309
 21
124.9840847394
 31
0.0
 11
177.7586183059
 21
124.2359671096
 31
0.0
 11
177.6212821845
 21
123.4613710258
 31
0.0
 11
177.4026021015
 21
122.6659659745
 31
0.0
 11
177.126166232
 21
121.8549714762
 31
0.0
 11
176.8198203015
 21
121.0313575481
 31
0.0
 11
176.5130359026
 21
120.1883784151
 31
0.0
  0
SPLINE
  5
610
330
1B
100
AcDbEntity
  8
0
  6
Continuous
100
AcDbSpline
210
0.0
220
0.0
230
1.0
 70
     8
 71
     3
 72
    13
 73
     9
 74
     7
 42
0.0000000001
 43
0.0000000001
 44
0.0000000001
 40
0.0
 40
0.0
 40
0.0
 40
0.0
 40
0.7209668446476154
 40
1.530815131239023
 40
2.448687806721691
 40
3.473631851792589
 40
4.596968609868336
 40
5.822774999377348
 40
5.822774999377348
 40
5.822774999377348
 40
5.822774999377348
 10
176.9316626422
 20
124.8108796587
 30
0.0
 10
176.9160454463536
 20
124.5702512217933
 30
0.0
 10
176.8828857526913
 20
124.0593294575569
 30
0.0
 10
176.628833591661
 20
123.2766855990762
 30
0.0
 10
176.2567210179505
 20
122.4384808872815
 30
0.0
 10
175.7893931048647
 20
121.5289924352337
 30
0.0
 10
175.2666190815542
 20
120.5329276553072
 30
0.0
 10
174.9475030381218
 20
119.8175879338635
 30
0.0
 10
174.780985095
 20
119.4443165127
 30
0.0
 11
176.9316626422
 21
124.8108796587
 31
0.0
 11
176.856937517
 21
124.0937957398
 31
0.0
 11
176.6281092375
 21
123.3169483508
 31
0.0
 11
176.2637224954
 21
122.4745039606
 31
0.0
 11
175.8031559503
 21
121.5588682508
 31
0.0
 11
175.2927523774
 21
120.5581816541
 31
0.0
 11
174.780985095
 21
119.4443165127
 31
0.0
  0
SPLINE
  5
611
330
1B
100
AcDbEntity
  8
0
  6
Continuous
100
AcDbSpline
210
0.0
220
0.0
230
1.0
 70
     8
 71
     3
 72
     9
 73
     5
 74
     3
 42
0.0000000001
 43
0.0000000001
 44
0.0000000001
 40
0.0
 40
0.0
 40
0.0
 40
0.0
 40
0.9968816426723095
 40
2.030151959733242
 40
2.030151959733242
 40
2.030151959733242
 40
2.030151959733242
 10
176.5130359026
 20
120.1883784151
 30
0.0
 10
176.3821697249748
 20
119.8828116575657
 30
0.0
 10
176.1156604267833
 20
119.2605241912475
 30
0.0
 10
175.8050827513086
 20
118.6590056259187
 30
0.0
 10
175.6470104988
 20
118.3528554997
 30
0.0
 11
176.5130359026
 21
120.1883784151
 31
0.0
 11
176.1098116792
 21
119.2766859038
 31
0.0
 11
175.6470104988
 21
118.3528554997
 31
0.0
  0
SPLINE
  5
612
330
1B
100
AcDbEntity
  8
0
  6
Continuous
100
AcDbSpline
210
0.0
220
0.0
230
1.0
 70
     8
 71
     3
 72
    11
 73
     7
 74
     5
 42
0.0000000001
 43
0.0000000001
 44
0.0000000001
 40
0.0
 40
0.0
 40
0.0
 40
0.0
 40
0.4662902687181141
 40
0.9487403935687566
 40
1.454908193722479
 40
1.984793961489343
 40
1.984793961489343
 40
1.984793961489343
 40
1.984793961489343
 10
175.6470104992
 20
118.352855688
 30
0.0
 10
175.5538115959005
 20
118.2266258095722
 30
0.0
 10
175.3641838680056
 20
117.9697914028218
 30
0.0
 10
174.9345201359066
 20
117.7217067794125
 30
0.0
 10
174.4392271972337
 20
117.5864285128658
 30
0.0
 10
174.0923624063747
 20
117.6084675115733
 30
0.0
 10
173.9149596912
 20
117.619739276
 30
0.0
 11
175.6470104992
 21
118.352855688
 31
0.0
 11
175.3455398153
 21
117.997128206
 31
0.0
 11
174.9342608228
 21
117.7449225096
 31
0.0
 11
174.4448310535
 21
117.6158320652
 31
0.0
 11
173.9149596912
 21
117.619739276
 31
0.0
  0
SPLINE
  5
613
330
1B
100
AcDbEntity
  8
0
  6
Continuous
100
AcDbSpline
210
0.0
220
0.0
230
1.0
 70
     8
 71
     3
 72
     9
 73
     5
 74
     3
 42
0.0000000001
 43
0.0000000001
 44
0.0000000001
 40
0.0
 40
0.0
 40
0.0
 40
0.0
 40
0.9904737051322536
 40
2.020227195624582
 40
2.020227195624582
 40
2.020227195624582
 40
2.020227195624582
 10
174.780985095
 20
119.4443165127
 30
0.0
 10
174.6499976938832
 20
119.1411342632624
 30
0.0
 10
174.3828282489506
 20
118.5227462915569
 30
0.0
 10
174.0729243954337
 20
117.9246181333795
 30
0.0
 10
173.9149596994
 20
117.6197392762
 30
0.0
 11
174.780985095
 21
119.4443165127
 31
0.0
 11
174.3777506986
 21
118.5396396742
 31
0.0
 11
173.9149596994
 21
117.6197392762
 31
0.0
  0
SPLINE
  5
614
330
1B
100
AcDbEntity
  8
0
  6
Continuous
100
AcDbSpline
210
0.0
220
0.0
230
1.0
 70
     8
 71
     3
 72
     9
 73
     5
 74
     3
 42
0.0000000001
 43
0.0000000001
 44
0.0000000001
 40
0.0
 40
0.0
 40
0.0
 40
0.0
 40
1.033224109306556
 40
2.030151961182284
 40
2.030151961182284
 40
2.030151961182284
 40
2.030151961182284
 10
175.6470104988
 20
182.8840178863
 30
0.0
 10
175.8050758237786
 20
182.5778815323669
 30
0.0
 10
176.1156537773995
 20
181.9763631263132
 30
0.0
 10
176.3821634668152
 20
181.3540758137021
 30
0.0
 10
176.5130359026
 20
181.0484949677
 30
0.0
 11
175.6470104988
 21
182.8840178863
 31
0.0
 11
176.1097919469
 21
181.9602292788
 31
0.0
 11
176.5130359026
 21
181.0484949677
 31
0.0
  0
SPLINE
  5
615
330
1B
100
AcDbEntity
  8
0
  6
Continuous
100
AcDbSpline
210
0.0
220
0.0
230
1.0
 70
     8
 71
     3
 72
     9
 73
     5
 74
     3
 42
0.0000000001
 43
0.0000000001
 44
0.0000000001
 40
0.0
 40
0.0
 40
0.0
 40
0.0
 40
1.030251769951841
 40
2.020227209911865
 40
2.020227209911865
 40
2.020227209911865
 40
2.020227209911865
 10
173.9149596996
 20
183.6171341066
 30
0.0
 10
174.0729993450559
 20
183.3121068684731
 30
0.0
 10
174.3829002851045
 20
182.7139770285632
 30
0.0
 10
174.6500656086211
 20
182.0955874075967
 30
0.0
 10
174.780985095
 20
181.7925568702
 30
0.0
 11
173.9149596996
 21
183.6171341066
 31
0.0
 11
174.3779644853
 21
182.6967834789
 31
0.0
 11
174.780985095
 21
181.7925568702
 31
0.0
  0
SPLINE
  5
616
330
1B
100
AcDbEntity
  8
0
  6
Continuous
100
AcDbSpline
210
0.0
220
0.0
230
1.0
 70
     8
 71
     3
 72
    11
 73
     7
 74
     5
 42
0.0000000001
 43
0.0000000001
 44
0.0000000001
 40
0.0
 40
0.0
 40
0.0
 40
0.0
 40
0.466495646321598
 40
0.9488411308594807
 40
1.454873117352185
 40
1.984793745272438
 40
1.984793745272438
 40
1.984793745272438
 40
1.984793745272438
 10
175.6470104992
 20
182.8840176948
 30
0.0
 10
175.5537646302099
 20
183.0103003632439
 30
0.0
 10
175.3641047341782
 20
183.26715632938
 30
0.0
 10
174.9344298828289
 20
183.5151910450573
 30
0.0
 10
174.439205981084
 20
183.6504420488161
 30
0.0
 10
174.0923743858315
 20
183.6284061338522
 30
0.0
 10
173.9149596912
 20
183.6171341068
 30
0.0
 11
175.6470104992
 21
182.8840176948
 31
0.0
 11
175.3453814924
 21
183.2398802108
 31
0.0
 11
174.9341668792
 21
183.491990719
 31
0.0
 11
174.4448659457
 21
183.6210370976
 31
0.0
 11
173.9149596912
 21
183.6171341068
 31
0.0
  0
SPLINE
  5
617
330
1B
100
AcDbEntity
  8
0
  6
Continuous
100
AcDbSpline
210
0.0
220
0.0
230
1.0
 70
     8
 71
     3
 72
    11
 73
     7
 74
     5
 42
0.0000000001
 43
0.0000000001
 44
0.0000000001
 40
0.0
 40
0.0
 40
0.0
 40
0.0
 40
0.4656843187542354
 40
0.9486128436233223
 40
1.453462190044057
 40
1.97843537577997
 40
1.97843537577997
 40
1.97843537577997
 40
1.97843537577997
 10
176.5130362176
 20
120.1883782354
 30
0.0
 10
176.4170653502015
 20
120.064692270595
 30
0.0
 10
176.2215698315388
 20
119.8127402720741
 30
0.0
 10
175.7928778331746
 20
119.5664202123132
 30
0.0
 10
175.3019694022344
 20
119.4250594192688
 30
0.0
 10
174.9568942439253
 20
119.4378143995476
 30
0.0
 10
174.780985095
 20
119.4443165127
 30
0.0
 11
176.5130362176
 21
120.1883782354
 31
0.0
 11
176.2048094386
 21
119.8392963862
 31
0.0
 11
175.7923620391
 21
119.588085115
 31
0.0
 11
175.3058842522
 21
119.4531324365
 31
0.0
 11
174.780985095
 21
119.4443165127
 31
0.0
  0
SPLINE
  5
618
330
1B
100
AcDbEntity
  8
0
  6
Continuous
100
AcDbSpline
210
0.0
220
0.0
230
1.0
 70
     8
 71
     3
 72
    11
 73
     7
 74
     5
 42
0.0000000001
 43
0.0000000001
 44
0.0000000001
 40
0.0
 40
0.0
 40
0.0
 40
0.0
 40
1.789607830967781
 40
3.610823472289033
 40
5.499445071656095
 40
7.502639496942654
 40
7.502639496942654
 40
7.502639496942654
 40
7.502639496942654
 10
152.6677364409
 20
124.8108796587
 30
0.0
 10
152.6918181183795
 20
124.2138353288934
 30
0.0
 10
152.7404068006542
 20
123.0092017534486
 30
0.0
 10
153.1295499863969
 20
121.2102171864251
 30
0.0
 10
153.7247019523413
 20
119.3972185012236
 30
0.0
 10
154.2805869782731
 20
118.223747785577
 30
0.0
 10
154.566711959
 20
117.6197392762
 30
0.0
 11
152.6677364409
 21
124.8108796587
 31
0.0
 11
152.7908085086
 21
123.0255087015
 31
0.0
 11
153.1546545246
 21
121.2410080742
 31
0.0
 11
153.7481986054
 21
119.4480783573
 31
0.0
 11
154.566711959
 21
117.6197392762
 31
0.0
  0
SPLINE
  5
619
330
1B
100
AcDbEntity
  8
LOGO
  6
Continuous
100
AcDbSpline
 70
     0
 71
     3
 72
    15
 73
    11
 74
     9
 42
0.0000000001
 43
0.0000000001
 44
0.0000000001
 40
0.0
 40
0.0
 40
0.0
 40
0.0
 40
0.0549664467152082
 40
0.1105174023964315
 40
0.1685338774155364
 40
0.2314171466703461
 40
0.3015701141669658
 40
0.3806632244399441
 40
0.4694786428950985
 40
0.5680544197341857
 40
0.5680544197341857
 40
0.5680544197341857
 40
0.5680544197341857
 10
114.907629291
 20
259.8072822745
 30
0.1511432351
 10
114.8906875580179
 20
259.8074468420402
 30
0.1581923244202324
 10
114.8566239349682
 20
259.8077777271191
 30
0.1723654625342697
 10
114.808863731036
 20
259.8081727520265
 30
0.2023430277424023
 10
114.7620458532551
 20
259.8085062542585
 30
0.2380085511347465
 10
114.7147586184457
 20
259.8087756355634
 30
0.2807674247671333
 10
114.6653141719425
 20
259.8089801462212
 30
0.3313534315592671
 10
114.6124550751658
 20
259.8091035113446
 30
0.3905656836579262
 10
114.5552540406479
 20
259.8091337807352
 30
0.4585297372531403
 10
114.5139802409606
 20
259.8090730822809
 30
0.5054174568548941
 10
114.4922684585
 20
259.8090411523
 30
0.5300824011
 11
114.907629291
 21
259.8072822745
 31
0.1511432351
 11
114.857482978
 21
259.8077582055
 31
0.173647258
 11
114.8100530291
 21
259.8081546414
 31
0.2025635417
 11
114.7638333497
 21
259.8084836902
 31
0.2376284007
 11
114.7169866214
 21
259.8087521317
 31
0.2795761961
 11
114.6677622633
 21
259.8089568242
 31
0.3295597886
 11
114.6148891033
 21
259.8090833984
 31
0.388382684
 11
114.5571132062
 21
259.8091142556
 31
0.4558372859000001
 11
114.4922684585
 21
259.8090411523
 31
0.5300824011
  0
SPLINE
  5
61A
330
1B
100
AcDbEntity
  8
LOGO
  6
Continuous
100
AcDbSpline
 70
     0
 71
     3
 72
    15
 73
    11
 74
     9
 42
0.0000000001
 43
0.0000000001
 44
0.0000000001
 40
0.0
 40
0.0
 40
0.0
 40
0.0
 40
0.0077823610300904
 40
0.1019889438637712
 40
0.1950225266091085
 40
0.28119718224808
 40
0.3597335753506721
 40
0.4308793525667742
 40
0.495017800345632
 40
0.5521077224863764
 40
0.5521077224863764
 40
0.5521077224863764
 40
0.5521077224863764
 10
115.4709568813
 20
259.7994049767
 30
0.0
 10
115.4687335360182
 20
259.7994443696406
 30
0.0013357720301919
 10
115.4395962811083
 20
259.799960619708
 30
0.0188412537310915
 10
115.3819504817873
 20
259.8009391122063
 30
0.049230137168236
 10
115.2962818777724
 20
259.8022919596528
 30
0.0811408201467599
 10
115.2122234797376
 20
259.8035329387864
 30
0.0999281968704621
 10
115.1341387709906
 20
259.8046143273247
 30
0.1093606921069802
 10
115.0633338404035
 20
259.8055280920955
 30
0.117226690757579
 10
114.9997563580883
 20
259.8062950520716
 30
0.1261814343323692
 10
114.9605214408838
 20
259.8067236063014
 30
0.1359451616880423
 10
114.9420445912
 20
259.8069254248
 30
0.1405431814
 11
115.4709568813
 21
259.7994049767
 31
0.0
 11
115.4642809694
 21
259.7995231291
 31
0.0039979224
 11
115.380762772
 21
259.8009417098
 31
0.0475591274
 11
115.2935144701
 21
259.802319464
 31
0.0798249472
 11
115.2095097901
 21
259.8035593534
 31
0.0990016958
 11
115.1316889449
 21
259.8046353799
 31
0.1095242079
 11
115.0610378547
 21
259.8055473111
 31
0.1178496779
 11
114.9976591437
 21
259.8063078248
 31
0.12766299
 11
114.9420445912
 21
259.8069254248
 31
0.1405431814
  0
SPLINE
  5
61B
330
1B
100
AcDbEntity
  8
LOGO
  6
Continuous
100
AcDbSpline
210
-0.012195734622525
220
-0.9999080203481865
230
-0.0059342143867404
 70
     8
 71
     3
 72
     9
 73
     5
 74
     3
 42
0.0000000001
 43
0.0000000001
 44
0.0000000001
 40
0.0
 40
0.0
 40
0.0
 40
0.0
 40
0.0181002524835197
 40
0.0360248205657785
 40
0.0360248205657785
 40
0.0360248205657785
 40
0.0360248205657785
 10
114.9420445912
 20
259.8069254248
 30
0.1405431814
 10
114.9362112238346
 20
259.8069873768245
 30
0.1420928177273804
 10
114.9246011088473
 20
259.8071106795557
 30
0.1451770493250844
 10
114.9132681408944
 20
259.8072252624496
 30
0.1491609827372984
 10
114.907629291
 20
259.8072822745
 30
0.1511432351
 11
114.9420445912
 21
259.8069254248
 31
0.1405431814
 11
114.9246144533
 21
259.8071090796
 31
0.145419215
 11
114.907629291
 21
259.8072822745
 31
0.1511432351
  0
SPLINE
  5
61C
330
1B
100
AcDbEntity
  8
LOGO
  6
Continuous
100
AcDbSpline
 70
     0
 71
     3
 72
    10
 73
     6
 74
     4
 42
0.0000000001
 43
0.0000000001
 44
0.0000000001
 40
0.0
 40
0.0
 40
0.0
 40
0.0
 40
0.1027083406290021
 40
0.2080732158286323
 40
0.3161083675580054
 40
0.3161083675580054
 40
0.3161083675580054
 40
0.3161083675580054
 10
117.0888981656
 20
259.4325703729
 30
7.164872286199999
 10
117.0563555395466
 20
259.4347371280751
 30
7.154446775006321
 10
116.9904285776954
 20
259.4391266811965
 30
7.133326098463006
 10
116.8918885971875
 20
259.4459902098307
 30
7.096560639800197
 10
116.8258608387817
 20
259.4506010131354
 30
7.070507785005179
 10
116.7924338566
 20
259.4529352623
 30
7.057318357799999
 11
117.0888981656
 21
259.4325703729
 31
7.164872286199999
 11
116.9915296884
 21
259.4391018883
 31
7.132845388299999
 11
116.892841697
 21
259.4459267066
 31
7.0965706156
 11
116.7924338566
 21
259.4529352623
 31
7.057318357799999
  0
SPLINE
  5
61D
330
1B
100
AcDbEntity
  8
LOGO
  6
Continuous
100
AcDbSpline
 70
     0
 71
     3
 72
    10
 73
     6
 74
     4
 42
0.0000000001
 43
0.0000000001
 44
0.0000000001
 40
0.0
 40
0.0
 40
0.0
 40
0.0
 40
0.2285449540777477
 40
0.4393277261406349
 40
0.6320505540239788
 40
0.6320505540239788
 40
0.6320505540239788
 40
0.6320505540239788
 10
116.7924338566
 20
259.4529352623
 30
7.057318357799999
 10
116.7217314025519
 20
259.4577808298803
 30
7.029373629467838
 10
116.585821386534
 20
259.4670953745639
 30
6.975655996517564
 10
116.388573995698
 20
259.4794870953714
 30
6.902445753563935
 10
116.2603516405328
 20
259.4864856829292
 30
6.862366573419353
 10
116.1991099257
 20
259.4898283567
 30
6.843223907399999
 11
116.7924338566
 21
259.4529352623
 31
7.057318357799999
 11
116.5800035501
 21
259.4672821853
 31
6.974250152599999
 11
116.3823107983
 21
259.4795922024
 31
6.9021709159
 11
116.1991099257
 21
259.4898283567
 31
6.843223907399999
  0
SPLINE
  5
61E
330
1B
100
AcDbEntity
  8
LOGO
  6
Continuous
100
AcDbSpline
210
-0.0325152568864124
220
-0.9994634152144316
230
-0.0039547082718579
 70
     8
 71
     3
 72
     9
 73
     5
 74
     3
 42
0.0000000001
 43
0.0000000001
 44
0.0000000001
 40
0.0
 40
0.0
 40
0.0
 40
0.0
 40
0.3150483823791558
 40
0.8249424312346815
 40
0.8249424312346815
 40
0.8249424312346815
 40
0.8249424312346815
 10
122.2187549786
 20
259.3939158821
 30
0.0
 10
122.2232047033495
 20
259.3933557100492
 30
0.1049856270392089
 10
122.2348561415366
 20
259.3918889204406
 30
0.379886573237981
 10
122.2160299769699
 20
259.391414683379
 30
0.6545263432398006
 10
122.2043935901
 20
259.3911215591
 30
0.8242802302999999
 11
122.2187549786
 21
259.3939158821
 31
0.0
 11
122.2276589864
 21
259.39238013
 31
0.3149187885
 11
122.2043935901
 21
259.3911215591
 31
0.8242802302999999
  0
SPLINE
  5
61F
330
1B
100
AcDbEntity
  8
LOGO
  6
Continuous
100
AcDbSpline
 70
     0
 71
     3
 72
    26
 73
    22
 74
    20
 42
0.0000000001
 43
0.0000000001
 44
0.0000000001
 40
0.0
 40
0.0
 40
0.0
 40
0.0
 40
0.0406256535949308
 40
0.0867372054717729
 40
0.1382662627169436
 40
0.1948912892506474
 40
0.2563346370104797
 40
0.3226860175442129
 40
0.3922451772227775
 40
0.4623195971683837
 40
0.5328582167390427
 40
0.603742886121972
 40
0.6732082834496169
 40
0.7396532616432676
 40
0.8039942341570451
 40
0.8675387787979746
 40
0.9301162811248331
 40
0.9921661887340066
 40
1.05464066970439
 40
1.117715837216351
 40
1.180594503210465
 40
1.180594503210465
 40
1.180594503210465
 40
1.180594503210465
 10
122.2043935901
 20
259.3911215591
 30
0.8242802302999999
 10
122.2027617264754
 20
259.3911474013264
 30
0.8377333482639421
 10
122.1992776399934
 20
259.3912025753926
 30
0.8664562303302642
 10
122.187465709299
 20
259.3919111887124
 30
0.9111966528527168
 10
122.1671082692045
 20
259.3934349462293
 30
0.9585871082390849
 10
122.1374706284671
 20
259.395856561297
 30
1.006905230763462
 10
122.0975999387785
 20
259.3992903886177
 30
1.053936623698227
 10
122.046550920542
 20
259.4038707962561
 30
1.095832430307713
 10
121.9858034466932
 20
259.4094977772191
 30
1.128261415517488
 10
121.9189072072865
 20
259.4158364191255
 30
1.149387021477915
 10
121.8488381570592
 20
259.4226073538141
 30
1.157947686855726
 10
121.7785893817724
 20
259.4295323979719
 30
1.15276843731126
 10
121.7121724209353
 20
259.4362214431388
 30
1.133905735742133
 10
121.6522742389731
 20
259.4423772300189
 30
1.104330574898527
 10
121.5998925166182
 20
259.4478810192278
 30
1.066097959949769
 10
121.5556202631599
 20
259.4526642270395
 30
1.020381279830819
 10
121.5206545845683
 20
259.4566044957776
 30
0.9680584425919908
 10
121.4954551531704
 20
259.4596404165905
 30
0.910723642909009
 10
121.4805324882114
 20
259.4617067830511
 30
0.8497864266497162
 10
121.4754173505519
 20
259.4628344475805
 30
0.7867248634713244
 10
121.4810755757305
 20
259.4626951929095
 30
0.7450202739430771
 10
121.4839002746
 20
259.4626256742
 30
0.7242005110000001
 11
122.2043935901
 21
259.3911215591
 31
0.8242802302999999
 11
122.1986367769
 21
259.3912845007
 31
0.864495604
 11
122.1869151562
 21
259.3919869171
 31
0.9090869196999999
 11
122.1667302489
 21
259.3934926607
 31
0.956474112
 11
122.1371871878
 21
259.3959056519
 31
1.0047211704
 11
122.0974063314
 21
259.3993345843
 31
1.0514224645
 11
122.0462066033
 21
259.4039294263
 31
1.093374591599999
 11
121.9851452454
 21
259.409582175
 31
1.1262080151
 11
121.9186007406
 21
259.4158871967
 31
1.147243696999999
 11
121.8488891577
 21
259.4226252385
 31
1.155645533299999
 11
121.7785439078
 21
259.4295614185
 31
1.1503472716
 11
121.7119855002
 21
259.4362621237
 31
1.1316250828
 11
121.6526429345
 21
259.4423602665
 31
1.1023640562
 11
121.600878936
 21
259.4477997227
 31
1.064539969699999
 11
121.5568883061
 21
259.4525548833
 31
1.0189316143
 11
121.5221632641
 21
259.4564674335
 31
0.9670200817999999
 11
121.4972171456
 21
259.4594723997
 31
0.9102851508999998
 11
121.4822092383
 21
259.4615437891
 31
0.8496754748000001
 11
121.4776884551
 21
259.4626116675
 31
0.7867715885
 11
121.4839002746
 21
259.4626256742
 31
0.7242005110000001
  0
SPLINE
  5
620
330
1B
100
AcDbEntity
  8
LOGO
  6
Continuous
100
AcDbSpline
210
-0.0275720232405139
220
-0.9996133853397017
230
0.0035865560256939
 70
     8
 71
     3
 72
     9
 73
     5
 74
     3
 42
0.0000000001
 43
0.0000000001
 44
0.0000000001
 40
0.0
 40
0.0
 40
0.0
 40
0.0
 40
0.4674053294670674
 40
0.7300399949579299
 40
0.7300399949579299
 40
0.7300399949579299
 40
0.7300399949579299
 10
121.4839002746
 20
259.4626256742
 30
0.7242005110000001
 10
121.5100699706242
 20
259.4613522338881
 30
0.5704606808409956
 10
121.5509443970569
 20
259.4593632485251
 30
0.3303345681112075
 10
121.566961249059
 20
259.4580498164028
 30
0.0873975253450432
 10
121.5727233725
 20
259.4575773042
 30
0.0
 11
121.4839002746
 21
259.4626256742
 31
0.7242005110000001
 11
121.5522198653
 21
259.4590822728
 31
0.2618287776
 11
121.5727233725
 21
259.4575773042
 31
0.0
  0
SPLINE
  5
621
330
1B
100
AcDbEntity
  8
LOGO
  6
Continuous
100
AcDbSpline
210
-0.0508127555884897
220
0.9985930235868394
230
0.0151669744246716
 70
     8
 71
     3
 72
     9
 73
     5
 74
     3
 42
0.0000000001
 43
0.0000000001
 44
0.0000000001
 40
0.0
 40
0.0
 40
0.0
 40
0.0
 40
0.4593551319202536
 40
1.27296912947103
 40
1.27296912947103
 40
1.27296912947103
 40
1.27296912947103
 10
121.1920603977
 20
259.4926096565
 30
0.0
 10
121.2069767864141
 20
259.4910534359984
 30
0.1524347365092601
 10
121.2483132188097
 20
259.4867408235563
 30
0.5748632680555794
 10
121.2536943812633
 20
259.4805667145171
 30
0.9993944715563488
 10
121.2571337334
 20
259.4766205532
 30
1.270732182399999
 11
121.1920603977
 21
259.4926096565
 31
0.0
 11
121.2321276442
 21
259.4876986
 31
0.4575780092000001
 11
121.2571337334
 21
259.4766205532
 31
1.270732182399999
  0
SPLINE
  5
622
330
1B
100
AcDbEntity
  8
LOGO
  6
Continuous
100
AcDbSpline
 70
     0
 71
     3
 72
    10
 73
     6
 74
     4
 42
0.0000000001
 43
0.0000000001
 44
0.0000000001
 40
0.0
 40
0.0
 40
0.0
 40
0.0
 40
0.09910786351121
 40
0.2044405163329847
 40
0.3157625139433228
 40
0.3157625139433228
 40
0.3157625139433228
 40
0.3157625139433228
 10
115.4450407079
 20
259.7931780829
 30
1.0339531876
 10
115.4779442256169
 20
259.7926301612471
 30
1.031001300522984
 10
115.5458178727011
 20
259.7914999039533
 30
1.024912123571717
 10
115.6511236106677
 20
259.789500197034
 30
1.022153014024471
 10
115.7232734994368
 20
259.7879479645262
 30
1.025238776189819
 10
115.7603457235
 20
259.7871503928
 30
1.0268243097
 11
115.4450407079
 21
259.7931780829
 31
1.0339531876
 11
115.5438233094
 21
259.7914956701
 31
1.026108715799999
 11
115.6491016706
 21
259.7894955406
 31
1.0233821987
 11
115.7603457235
 21
259.7871503928
 31
1.0268243097
  0
SPLINE
  5
623
330
1B
100
AcDbEntity
  8
LOGO
  6
Continuous
100
AcDbSpline
210
0.07101663344207659
220
-0.9974369480442886
230
0.0087276830057459
 70
     8
 71
     3
 72
     9
 73
     5
 74
     3
 42
0.0000000001
 43
0.0000000001
 44
0.0000000001
 40
0.0
 40
0.0
 40
0.0
 40
0.0
 40
0.7677358068815848
 40
1.136269186126182
 40
1.136269186126182
 40
1.136269186126182
 40
1.136269186126182
 10
120.4585104579
 20
259.5469538946
 30
1.129913351499999
 10
120.4928329373396
 20
259.5471774782628
 30
0.8761854911393061
 10
120.5436311096132
 20
259.5475083879641
 30
0.5006615846009083
 10
120.5679959120604
 20
259.5459351862669
 30
0.1226144280347624
 10
120.5758983027
 20
259.5454249398
 30
0.0000000002
 11
120.4585104579
 21
259.5469538946
 31
1.129913351499999
 11
120.5494104974
 21
259.546755378
 31
0.3675778528
 11
120.5758983027
 21
259.5454249398
 31
0.0000000002
  0
SPLINE
  5
624
330
1B
100
AcDbEntity
  8
LOGO
  6
Continuous
100
AcDbSpline
 70
     0
 71
     3
 72
    15
 73
    11
 74
     9
 42
0.0000000001
 43
0.0000000001
 44
0.0000000001
 40
0.0
 40
0.0
 40
0.0
 40
0.0
 40
0.0764336055407534
 40
0.154559002970629
 40
0.2325117966156716
 40
0.3085145124966209
 40
0.381241267489053
 40
0.454828102901947
 40
0.5352717673864977
 40
0.6291640823288338
 40
0.6291640823288338
 40
0.6291640823288338
 40
0.6291640823288338
 10
116.1991099257
 20
259.4898283567
 30
6.843223907399999
 10
116.1745730331492
 20
259.4910632643706
 30
6.83646737889795
 10
116.1249561451088
 20
259.4935604133273
 30
6.822804771966991
 10
116.0494144168395
 20
259.4969535246274
 30
6.805658898930236
 10
115.9732407628502
 20
259.4999696857457
 30
6.792287137291705
 10
115.8981084676057
 20
259.5024537049018
 30
6.78397783810148
 10
115.8240178901396
 20
259.5043555896447
 30
6.781410340143255
 10
115.7484401132925
 20
259.505895149222
 30
6.782662809261279
 10
115.665898594725
 20
259.5072904223242
 30
6.786530409976487
 10
115.6078302551602
 20
259.5082476182606
 30
6.788576136160556
 10
115.5765563274
 20
259.5087631363
 30
6.789677905099999
 11
116.1991099257
 21
259.4898283567
 31
6.843223907399999
 11
116.1253528974
 21
259.4934739886
 31
6.823508273999999
 11
116.0492282696
 21
259.4968935865
 31
6.8062767588
 11
115.9724734978
 21
259.4999145889
 31
6.793002099199999
 11
115.8969518586
 21
259.5023962633
 31
6.784832880999999
 11
115.8243033815
 21
259.5042844133
 31
6.782037428199999
 11
115.7507383432
 21
259.5058077581
 31
6.7829791854
 11
115.6703704946
 21
259.5072096378
 31
6.786177122299999
 11
115.5765563274
 21
259.5087631363
 31
6.789677905099999
  0
SPLINE
  5
625
330
1B
100
AcDbEntity
  8
LOGO
  6
Continuous
100
AcDbSpline
 70
     0
 71
     3
 72
    33
 73
    29
 74
    27
 42
0.0000000001
 43
0.0000000001
 44
0.0000000001
 40
0.0
 40
0.0
 40
0.0
 40
0.0
 40
0.0702808268722484
 40
0.1399558502379031
 40
0.2071940905990161
 40
0.2703280226197561
 40
0.3297525812506183
 40
0.38739618871226
 40
0.4454749622154945
 40
0.5078062428431108
 40
0.5764341562022536
 40
0.650700409390953
 40
0.725021832640291
 40
0.797869414025872
 40
0.8701505668536719
 40
0.9425416130693597
 40
1.015308921895261
 40
1.088176238473179
 40
1.1605157491891
 40
1.232636092544578
 40
1.30508914445478
 40
1.377160940592879
 40
1.448304822369466
 40
1.521867045391309
 40
1.603076399717808
 40
1.695749689293296
 40
1.799933836813834
 40
1.913523686249035
 40
1.913523686249035
 40
1.913523686249035
 40
1.913523686249035
 10
115.5765563274
 20
259.5087631363
 30
6.789677905099999
 10
115.5531205926984
 20
259.5091897479354
 30
6.789867966739692
 10
115.5064511335858
 20
259.5100392939185
 30
6.790246451734314
 10
115.4376194254861
 20
259.5118836165414
 30
6.782960248485325
 10
115.3724854174405
 20
259.5142734093516
 30
6.767870412552549
 10
115.3138956224359
 20
259.5173237575592
 30
6.743078783481776
 10
115.2647815130243
 20
259.5210723620838
 30
6.707691180552932
 10
115.2267110352946
 20
259.5253902762106
 30
6.66301184996199
 10
115.1977589814079
 20
259.5301398754098
 30
6.611040356043388
 10
115.1777951954431
 20
259.5353736148638
 30
6.551107936862413
 10
115.1689764750141
 20
259.5410610748543
 30
6.483071525183545
 10
115.1735715572478
 20
259.5468553481662
 30
6.410621929287767
 10
115.19057077803
 20
259.5523615668383
 30
6.338726467780363
 10
115.2161108737857
 20
259.5574055800543
 30
6.270252028391052
 10
115.2457295333521
 20
259.5621304388354
 30
6.204234560116995
 10
115.2758783295536
 20
259.566761624429
 30
6.138473880027261
 10
115.3022786079438
 20
259.5715255037096
 30
6.070878589645838
 10
115.3249578374742
 20
259.5763790550471
 30
6.001999888918379
 10
115.3456174852202
 20
259.5812278901189
 30
5.932734943392282
 10
115.3664614119547
 20
259.5859938072811
 30
5.863663554431115
 10
115.388869748649
 20
259.5906270073573
 30
5.795155663473793
 10
115.4135188232095
 20
259.5950763483943
 30
5.727762496406367
 10
115.4388911307836
 20
259.5994573542396
 30
5.660248344560031
 10
115.4636884576178
 20
259.6040270217367
 30
5.589271196801932
 10
115.4860925242195
 20
259.6091464535949
 30
5.509964750403748
 10
115.503097576724
 20
259.6150758706042
 30
5.418919269550162
 10
115.5123650241484
 20
259.6218528975331
 30
5.315823895534371
 10
115.5100704976667
 20
259.6266497280258
 30
5.243371770373765
 10
115.5088736839
 20
259.6291517313
 30
5.205581096999999
 11
115.5765563274
 21
259.5087631363
 31
6.789677905099999
 11
115.5062932248
 21
259.5101428958
 31
6.788911548399999
 11
115.4370444787
 21
259.5120132657
 31
6.781446847399999
 11
115.37173498
 21
259.5144655025
 31
6.7656469461
 11
115.3139261486
 21
259.5175372226
 31
6.740455738899999
 11
115.2659607935
 21
259.5212255686
 31
6.705570226399999
 11
115.2283779744
 21
259.5254376067
 31
6.6620664803
 11
115.2000471178
 21
259.5300547636
 31
6.611576992699999
 11
115.1803184101
 21
259.5352000876
 31
6.5526745965
 11
115.1713323311
 21
259.5408706054
 31
6.4848742565
 11
115.1756347406
 21
259.5467867211
 31
6.410969147
 11
115.192170744
 21
259.5523276062
 31
6.3387228105
 11
115.2169001855
 21
259.5573724068
 31
6.270387059799999
 11
115.245804432
 21
259.5621127838
 31
6.204306514899999
 11
115.2751920047
 21
259.5667735153
 31
6.138313244599999
 11
115.3016468582
 21
259.5715384639
 31
6.070692853999999
 11
115.3246842771
 21
259.5763924378
 31
6.001733720499999
 11
115.3456756712
 21
259.5812204762
 31
5.932675366699999
 11
115.3666935067
 21
259.5859654343
 31
5.863848919099999
 11
115.3893035694
 21
259.5906077131
 31
5.795170836399999
 11
115.413724671
 21
259.5950802299
 31
5.7275102852
 11
115.4383534759
 21
259.5994090989
 31
5.660905970199999
 11
115.4621770026
 21
259.6038884886
 31
5.5914525664
 11
115.4839399775
 21
259.6089333405
 31
5.513376439299999
 11
115.5010279887
 21
259.6148524989
 31
5.4224847343
 11
115.5100712092
 21
259.6216573794
 31
5.3189171218
 11
115.5088736839
 21
259.6291517313
 31
5.205581096999999
  0
SPLINE
  5
626
330
1B
100
AcDbEntity
  8
LOGO
  6
Continuous
100
AcDbSpline
 70
     0
 71
     3
 72
    20
 73
    16
 74
    14
 42
0.0000000001
 43
0.0000000001
 44
0.0000000001
 40
0.0
 40
0.0
 40
0.0
 40
0.0
 40
0.191954497463694
 40
0.3852129036594578
 40
0.5782947590967742
 40
0.7696724929781528
 40
0.958280279346925
 40
1.143235433651881
 40
1.323533266082598
 40
1.495306394937998
 40
1.655506345868015
 40
1.807888131484351
 40
1.958784541251712
 40
2.110157874312031
 40
2.259557789295666
 40
2.259557789295666
 40
2.259557789295666
 40
2.259557789295666
 10
115.5088736839
 20
259.6291517313
 30
5.205581096999999
 10
115.4966535054796
 20
259.6334184271674
 30
5.142901750627611
 10
115.4721301393968
 20
259.6419808017187
 30
5.017117289546404
 10
115.4489616813693
 20
259.6541470955712
 30
4.825977648540935
 10
115.4360325027049
 20
259.6657450082975
 30
4.634103616406826
 10
115.4348103967135
 20
259.6766086244613
 30
4.443265189440618
 10
115.4454447248975
 20
259.6866524023847
 30
4.25538926035836
 10
115.4683353265122
 20
259.6957916029697
 30
4.072266797203128
 10
115.5034465352404
 20
259.7039100446837
 30
3.896747794404218
 10
115.5499426467212
 20
259.7108907820738
 30
3.732395343291979
 10
115.6065117370375
 20
259.716726404283
 30
3.581100228531868
 10
115.6726942723048
 20
259.7215492639085
 30
3.441347028819359
 10
115.7498805901772
 20
259.7254559003001
 30
3.310798972421104
 10
115.8379037493981
 20
259.7285355234533
 30
3.188216995288853
 10
115.9064000516797
 20
259.7297942026784
 30
3.11489764416873
 10
115.9404234956
 20
259.7304194131
 30
3.078478498199999
 11
115.5088736839
 21
259.6291517313
 31
5.205581096999999
 11
115.4744703958
 21
259.6418380481
 31
5.017161352199999
 11
115.4506641476
 21
259.6540577294
 31
4.825764504
 11
115.4379577097
 21
259.6656707667
 31
4.633451512499999
 11
115.4368243983
 21
259.6765475432
 31
4.4423864755
 11
115.4476565768
 21
259.6865956831
 31
4.254358297099999
 11
115.4707804101
 21
259.6957388795
 31
4.0710822774
 11
115.5063476231
 21
259.7039013083
 31
3.8945159825
 11
115.5533064668
 21
259.7109081649
 31
3.7294348547
 11
115.6095597531
 21
259.7166857495
 31
3.5795475251
 11
115.6749716854
 21
259.7214258943
 31
3.442001101199999
 11
115.7516914131
 21
259.7253181468
 31
3.3121216947
 11
115.8407909639
 21
259.7283483504
 31
3.1897861975
 11
115.9404234956
 21
259.7304194131
 31
3.078478498199999
  0
SPLINE
  5
627
330
1B
100
AcDbEntity
  8
LOGO
  6
Continuous
100
AcDbSpline
 70
     0
 71
     3
 72
    18
 73
    14
 74
    12
 42
0.0000000001
 43
0.0000000001
 44
0.0000000001
 40
0.0
 40
0.0
 40
0.0
 40
0.0
 40
0.0450441594133515
 40
0.0862343091828616
 40
0.1238964596942483
 40
0.1583360158073631
 40
0.189847884278377
 40
0.2185806520823245
 40
0.2450367336090776
 40
0.2689188982203578
 40
0.290157278897017
 40
0.3095224414402902
 40
0.3272479815303269
 40
0.3272479815303269
 40
0.3272479815303269
 40
0.3272479815303269
 10
115.9404234956
 20
259.7304194131
 30
3.078478498199999
 10
115.9502413912252
 20
259.7306223016934
 30
3.067120966938649
 10
115.9690371564896
 20
259.731010719591
 30
3.045377662698966
 10
115.9955993726109
 20
259.7315658414134
 30
3.01374542779851
 10
116.0181135144382
 20
259.7321531877003
 30
2.983395683796985
 10
116.0365662689594
 20
259.732782380845
 30
2.954156206116542
 10
116.0509175564186
 20
259.7334594895092
 30
2.926010681899441
 10
116.0618576023672
 20
259.7341607784672
 30
2.899224449746641
 10
116.0693315498319
 20
259.7348859957831
 30
2.873919887820672
 10
116.0733205689825
 20
259.7356311147474
 30
2.850289390486783
 10
116.0727526963569
 20
259.7364116982124
 30
2.828715226942019
 10
116.0682138986809
 20
259.7372039335147
 30
2.809509633001767
 10
116.0616465632908
 20
259.7377382298963
 30
2.798968156700044
 10
116.0585080526
 20
259.7379935686
 30
2.7939304155
 11
115.9404234956
 21
259.7304194131
 31
3.078478498199999
 11
115.9697931586
 21
259.7310275216
 31
3.044331325599999
 11
115.9960187173
 21
259.7315967928
 31
3.0125740518
 11
116.0183479865
 21
259.7321873668
 31
2.982250916399999
 11
116.03661069
 21
259.7328195594
 31
2.9530591878
 11
116.0509203152
 21
259.7334948142
 31
2.924991831099999
 11
116.0616712791
 21
259.7341953959
 31
2.8983554292
 11
116.0690354721
 21
259.7349268218
 31
2.872955469999999
 11
116.0726521135
 21
259.7356800586
 31
2.8493607603
 11
116.0719695898
 21
259.7364507858
 31
2.8281473458
 11
116.0670828575
 21
259.7372345238
 31
2.8094252967
 11
116.0585080526
 21
259.7379935686
 31
2.7939304155
  0
SPLINE
  5
628
330
1B
100
AcDbEntity
  8
LOGO
  6
Continuous
100
AcDbSpline
 70
     0
 71
     3
 72
    20
 73
    16
 74
    14
 42
0.0000000001
 43
0.0000000001
 44
0.0000000001
 40
0.0
 40
0.0
 40
0.0
 40
0.0
 40
0.1407485080438848
 40
0.289403581987161
 40
0.4324565550769222
 40
0.5614199951317425
 40
0.6769660163697417
 40
0.780842713734769
 40
0.8757760452645417
 40
0.9649302871567849
 40
1.051602249018623
 40
1.138847832089339
 40
1.227028101800612
 40
1.315264108371368
 40
1.402032003313098
 40
1.402032003313098
 40
1.402032003313098
 40
1.402032003313098
 10
115.7603457235
 20
259.7871503928
 30
1.0268243097
 10
115.807253970015
 20
259.7861320108303
 30
1.026165370079481
 10
115.9037055399453
 20
259.7840380391501
 30
1.024810474818835
 10
116.0477554911482
 20
259.7804726729781
 30
1.031282533497605
 10
116.1874059016061
 20
259.7767005187055
 30
1.043634775631564
 10
116.3156981351091
 20
259.7729667908252
 30
1.058393429780672
 10
116.4309790899441
 20
259.7694314853296
 30
1.071937162306062
 10
116.5349963137912
 20
259.7660975679307
 30
1.084160038200415
 10
116.6302325177087
 20
259.7629208642046
 30
1.095717457525476
 10
116.7196749104028
 20
259.7598218093787
 30
1.107430921128932
 10
116.8062603872636
 20
259.7566945791721
 30
1.120993410763639
 10
116.8919799391562
 20
259.7534557459086
 30
1.137880373813203
 10
116.9766997955542
 20
259.7500630862506
 30
1.161185950811457
 10
117.059114057896
 20
259.7465541411929
 30
1.192074102471061
 10
117.1094851894135
 20
259.7441725449095
 30
1.221588704842655
 10
117.1344594729
 20
259.7429917364
 30
1.236222206699999
 11
115.7603457235
 21
259.7871503928
 31
1.0268243097
 11
115.9010581341
 21
259.7840261808
 31
1.0261923927
 11
116.0495361806
 21
259.7803717512
 31
1.0324570444
 11
116.1920119756
 21
259.776524007
 31
1.0447043222
 11
116.3201312163
 21
259.7728025811
 31
1.0589584452
 11
116.4348398547
 21
259.7692852089
 31
1.072391218299999
 11
116.537946489
 21
259.7659795952
 31
1.084575763299999
 11
116.6321250192
 21
259.7628368341
 31
1.0961024687
 11
116.7204403696
 21
259.7597734354
 31
1.1079131977
 11
116.8059817161
 21
259.7566810981
 31
1.1215199777
 11
116.8914255496
 21
259.7534451619
 31
1.138859868099999
 11
116.9763214673
 21
259.7500432994
 31
1.1624579709
 11
117.0584476009
 21
259.7465222816
 31
1.1945281045
 11
117.1344594729
 21
259.7429917364
 31
1.236222206699999
  0
SPLINE
  5
629
330
1B
100
AcDbEntity
  8
LOGO
  6
Continuous
100
AcDbSpline
 70
     0
 71
     3
 72
    43
 73
    39
 74
    37
 42
0.0000000001
 43
0.0000000001
 44
0.0000000001
 40
0.0
 40
0.0
 40
0.0
 40
0.0
 40
0.0299352715082169
 40
0.0622006053499343
 40
0.0978081528797864
 40
0.1369658746420157
 40
0.1803034920931666
 40
0.2281148416915036
 40
0.2809434120660294
 40
0.3397368730791976
 40
0.4053493195072488
 40
0.4788491293698967
 40
0.5614878370767797
 40
0.6542991902831696
 40
0.7577901722486059
 40
0.8729386147617786
 40
1.002433784050938
 40
1.148566209152311
 40
1.300626300260398
 40
1.438543550498358
 40
1.56325321998795
 40
1.676222725135458
 40
1.779177320912029
 40
1.873241623960368
 40
1.958926478751244
 40
2.036389619555647
 40
2.105487053082204
 40
2.167539811960284
 40
2.227600096327262
 40
2.289749741926268
 40
2.355645756289036
 40
2.428629961198765
 40
2.511805683131978
 40
2.606235060405807
 40
2.713310213223198
 40
2.834901095347034
 40
2.971874038489711
 40
3.124127979310908
 40
3.124127979310908
 40
3.124127979310908
 40
3.124127979310908
 10
116.0585080526
 20
259.7379935686
 30
2.7939304155
 10
116.0522049413722
 20
259.7384235851427
 30
2.786127616507321
 10
116.0391081056261
 20
259.7393170892908
 30
2.769914674505599
 10
116.011112335454
 20
259.7406145739055
 30
2.752368344974942
 10
115.9785099749252
 20
259.7419032061973
 30
2.737959600700767
 10
115.9409499725463
 20
259.7432121117046
 30
2.725930947037519
 10
115.8984868447502
 20
259.7445210582649
 30
2.716674903475436
 10
115.8509507213795
 20
259.7458355931044
 30
2.709937488779878
 10
115.7979429638601
 20
259.7471515129623
 30
2.705855144040979
 10
115.7388386215376
 20
259.748443823037
 30
2.705249658580445
 10
115.6729337460273
 20
259.7496880784169
 30
2.708870085465518
 10
115.599522472048
 20
259.7508393911435
 30
2.717932777467428
 10
115.5181385106986
 20
259.7518029808642
 30
2.734804199107595
 10
115.4295063808462
 20
259.7524018746737
 30
2.763396036494302
 10
115.3331004835868
 20
259.7526721867167
 30
2.80187689187163
 10
115.2244542577066
 20
259.7528989355495
 30
2.842917689812218
 10
115.0981409009825
 20
259.7534873193611
 30
2.875777153138852
 10
114.9571692451916
 20
259.7544005355061
 30
2.898390125081549
 10
114.8119667011074
 20
259.7555654775682
 30
2.907960646879928
 10
114.673718018669
 20
259.7566999332447
 30
2.909472046992244
 10
114.5485336926595
 20
259.7577146155662
 30
2.905533362125387
 10
114.4353411928107
 20
259.7586718319893
 30
2.896237638598663
 10
114.3326263343065
 20
259.7595021400794
 30
2.885012321088464
 10
114.2389945955549
 20
259.7601578631919
 30
2.87436610865912
 10
114.1535470467466
 20
259.7605711326302
 30
2.867114650740735
 10
114.0760887180769
 20
259.7607125122784
 30
2.864836319868193
 10
114.006556816951
 20
259.7605024232431
 30
2.870410572400204
 10
113.9443366907852
 20
259.7598933319762
 30
2.885675607140297
 10
113.8881273924391
 20
259.7588696289003
 30
2.911309347423986
 10
113.8366880265226
 20
259.7574133180915
 30
2.947770531219506
 10
113.789791132267
 20
259.7554793698529
 30
2.996091041395118
 10
113.7479850564612
 20
259.7530084497802
 30
3.057532807942384
 10
113.7123734917137
 20
259.7499327004149
 30
3.133376252273679
 10
113.6846574951725
 20
259.7461965317324
 30
3.224372982051247
 10
113.6677828394546
 20
259.7417516591852
 30
3.331008647089112
 10
113.6658377531169
 20
259.7365635200753
 30
3.453140528084813
 10
113.6805141670188
 20
259.7306515986895
 30
3.589412943527943
 10
113.6982948058992
 20
259.726356833429
 30
3.684085646799926
 10
113.707654836
 20
259.7240959961
 30
3.7339229647
 11
116.0585080526
 21
259.7379935686
 31
2.7939304155
 11
116.038508496
 21
259.7392677811
 31
2.771692731299999
 11
116.0117871205
 21
259.7405514364
 31
2.753654657999999
 11
115.9793638049
 21
259.7418442319
 31
2.738993323599999
 11
115.9421335217
 21
259.7431465006
 31
2.7269294402
 11
115.8998562485
 21
259.7444572656
 31
2.7174921126
 11
115.8525547
 21
259.7457698785
 31
2.7106535669
 11
115.7999010145
 21
259.7470782227
 31
2.706562663999999
 11
115.7411256717
 21
259.7483661941
 31
2.705876175599999
 11
115.6756209427
 21
259.7496045976
 31
2.709424409199999
 11
115.6026912989
 21
259.7507462272
 31
2.718490046899999
 11
115.5218207368
 21
259.751696518
 31
2.7354666527
 11
115.4332599061
 21
259.7523228164
 31
2.763225152299999
 11
115.3365843422
 21
259.7526514592
 31
2.800159021399999
 11
115.2283269622
 21
259.7529358954
 31
2.839394497499999
 11
115.1031307491
 21
259.753500571
 31
2.872479059399999
 11
114.9588841817
 21
259.7544262615
 31
2.8958618855
 11
114.8072234615
 21
259.7556083975
 31
2.906811762699999
 11
114.6693210946
 21
259.7567335904
 31
2.908496712999999
 11
114.5446858698
 21
259.7577534369
 31
2.9043107464
 11
114.4320693348
 21
259.7586921973
 31
2.8954369723
 11
114.3296885863
 21
259.7595066363
 31
2.8846125639
 11
114.2361698239
 21
259.7601422144
 31
2.8745165138
 11
114.1507566559
 21
259.7605394324
 31
2.867710098399999
 11
114.0733073599
 21
259.7606514492
 31
2.866249898199999
 11
114.0044965288
 21
259.7604160261
 31
2.872532367399999
 11
113.9443300711
 21
259.7598122457
 31
2.8877039758
 11
113.8896971931
 21
259.7588167043
 31
2.9126337832
 11
113.8389244511
 21
259.7573856643
 31
2.9484480156
 11
113.7928521454
 21
259.755500433
 31
2.995523202899999
 11
113.7514782319
 21
259.7530827445
 31
3.0555985575
 11
113.7157160112
 21
259.7500377178
 31
3.1306318308
 11
113.6878857548
 21
259.7463344819
 31
3.220790968799999
 11
113.6708929088
 21
259.7419296898
 31
3.326417335499999
 11
113.6682664558
 21
259.7367702653
 31
3.4478703087
 11
113.6816387092
 21
259.7308417594
 31
3.584059966199999
 11
113.707654836
 21
259.7240959961
 31
3.7339229647
  0
SPLINE
  5
62A
330
1B
100
AcDbEntity
  8
LOGO
  6
Continuous
100
AcDbSpline
 70
     0
 71
     3
 72
    10
 73
     6
 74
     4
 42
0.0000000001
 43
0.0000000001
 44
0.0000000001
 40
0.0
 40
0.0
 40
0.0
 40
0.0
 40
0.2448248754674926
 40
0.5208390341132588
 40
0.8278622557012241
 40
0.8278622557012241
 40
0.8278622557012241
 40
0.8278622557012241
 10
113.707654836
 20
259.7240959961
 30
3.7339229647
 10
113.7234067047155
 20
259.7203492816924
 30
3.813928593625587
 10
113.7569171397626
 20
259.7123785429778
 30
3.984132109153403
 10
113.7878521585216
 20
259.6983798308038
 30
4.258427490289146
 10
113.793630307824
 20
259.687556188828
 30
4.452436893406571
 10
113.796673039
 20
259.6818565381
 30
4.554600826599999
 11
113.707654836
 21
259.7240959961
 31
3.7339229647
 11
113.7518064515
 21
259.7126710519
 31
3.9744626187
 11
113.7831057149
 21
259.6986879545
 31
4.248339680299999
 11
113.796673039
 21
259.6818565381
 31
4.554600826599999
  0
SPLINE
  5
62B
330
1B
100
AcDbEntity
  8
LOGO
  6
Continuous
100
AcDbSpline
 70
     0
 71
     3
 72
    10
 73
     6
 74
     4
 42
0.0000000001
 43
0.0000000001
 44
0.0000000001
 40
0.0
 40
0.0
 40
0.0
 40
0.0
 40
0.2153438799288843
 40
0.4345029392369489
 40
0.6574778843254175
 40
0.6574778843254175
 40
0.6574778843254175
 40
0.6574778843254175
 10
113.796673039
 20
259.6818565381
 30
4.554600826599999
 10
113.7978531422888
 20
259.6777161321414
 30
4.626252926453762
 10
113.8002342563831
 20
259.6693619659621
 30
4.770826563741439
 10
113.80343990344
 20
259.6560081703603
 30
4.989555894163924
 10
113.8052960668065
 20
259.6465378378994
 30
5.136617679923761
 10
113.8062321584
 20
259.6417618043
 30
5.210783189199999
 11
113.796673039
 21
259.6818565381
 31
4.554600826599999
 11
113.8001488418
 21
259.6693196619
 31
4.7695513608
 11
113.8033477011
 21
259.655965203
 31
4.988279774599999
 11
113.8062321584
 21
259.6417618043
 31
5.210783189199999
  0
SPLINE
  5
62C
330
1B
100
AcDbEntity
  8
LOGO
  6
Continuous
100
AcDbSpline
 70
     0
 71
     3
 72
    21
 73
    17
 74
    15
 42
0.0000000001
 43
0.0000000001
 44
0.0000000001
 40
0.0
 40
0.0
 40
0.0
 40
0.0
 40
0.0949076176953636
 40
0.1964271250724489
 40
0.3081938350683731
 40
0.4331581778865617
 40
0.5756918122964561
 40
0.7382292801019719
 40
0.9140865451819512
 40
1.098208267488622
 40
1.287713508135384
 40
1.484005643550508
 40
1.699517127618906
 40
1.945757034411829
 40
2.221994998357449
 40
2.518749253607681
 40
2.518749253607681
 40
2.518749253607681
 40
2.518749253607681
 10
117.1344594729
 20
259.7429917364
 30
1.236222206699999
 10
117.1601651913068
 20
259.7417030376033
 30
1.254710662351027
 10
117.2133674577547
 20
259.7390358607648
 30
1.292975601233149
 10
117.2847419813203
 20
259.734935933334
 30
1.367489415790745
 10
117.3515362243045
 20
259.7306015558184
 30
1.458606212278339
 10
117.4097908080603
 20
259.7260447903547
 30
1.571324179175719
 10
117.4559389641336
 20
259.7213098478369
 30
1.707471434624726
 10
117.4856966374017
 20
259.7165153042103
 30
1.865449253623548
 10
117.4954054136375
 20
259.711847203538
 30
2.039689701440565
 10
117.4858668993051
 20
259.707375703864
 30
2.222909900094138
 10
117.45266033393
 20
259.7033609095961
 30
2.410538964621077
 10
117.3904726868712
 20
259.7000031972823
 30
2.601553864148575
 10
117.3049089571129
 20
259.6967257842568
 30
2.803576627574135
 10
117.2033797693733
 20
259.6926394775714
 30
3.027602367083359
 10
117.1003381183511
 20
259.68673691782
 30
3.280557998871223
 10
117.0366771872876
 20
259.6812846170501
 30
3.460571367671325
 10
117.003707015
 20
259.6784608554
 30
3.553800789299999
 11
117.1344594729
 21
259.7429917364
 31
1.236222206699999
 11
117.2097762947
 21
259.7391382677
 31
1.293841500599999
 11
117.2807201209
 21
259.7350958806
 31
1.366345590199999
 11
117.3466151134
 21
259.7308128525
 31
1.456519328599999
 11
117.4043900691
 21
259.7263145014
 31
1.567234757999999
 11
117.4507664845
 21
259.7215994416
 31
1.7019300929
 11
117.4814924595
 21
259.7167289328
 31
1.861462600699999
 11
117.4921642637
 21
259.7119894432
 31
2.036931764699999
 11
117.4822487381
 21
259.7075186976
 31
2.2207319372
 11
117.4488524816
 21
259.7035446709
 31
2.407228943599999
 11
117.3899708654
 21
259.7001669817
 31
2.594451134899999
 11
117.3081452867
 21
259.696822849
 31
2.793796541699999
 11
117.2088758272
 21
259.6926120166
 31
3.0191006362
 11
117.1048730415
 21
259.6865770403
 31
3.2749412357
 11
117.003707015
 21
259.6784608554
 31
3.553800789299999
  0
SPLINE
  5
62D
330
1B
100
AcDbEntity
  8
LOGO
  6
Continuous
100
AcDbSpline
 70
     0
 71
     3
 72
    26
 73
    22
 74
    20
 42
0.0000000001
 43
0.0000000001
 44
0.0000000001
 40
0.0
 40
0.0
 40
0.0
 40
0.0
 40
0.138741522487262
 40
0.260147022730703
 40
0.3676165969317609
 40
0.4647726031236503
 40
0.554802862761956
 40
0.6408968947803695
 40
0.726137088158185
 40
0.8114626616021431
 40
0.8966748067898651
 40
0.9810024202932565
 40
1.063562223653604
 40
1.142826979419993
 40
1.217510347433485
 40
1.288372307287159
 40
1.356707786125945
 40
1.425106396489546
 40
1.495505383727192
 40
1.569164114879135
 40
1.647902626613494
 40
1.647902626613494
 40
1.647902626613494
 40
1.647902626613494
 10
113.8062321584
 20
259.6417618043
 30
5.210783189199999
 10
113.8124511211926
 20
259.6387716343131
 30
5.256532228167369
 10
113.8241119753186
 20
259.6331649218769
 30
5.342313874979298
 10
113.8301073312272
 20
259.6248864111286
 30
5.464561558074172
 10
113.828817410686
 20
259.6173792613232
 30
5.573029903415906
 10
113.821321386377
 20
259.6104672410756
 30
5.670785242106036
 10
113.8089923031051
 20
259.6039770348551
 30
5.760856090948142
 10
113.7923564172934
 20
259.5977171965229
 30
5.846190045101097
 10
113.7715587368516
 20
259.5915371971551
 30
5.928984882908857
 10
113.7469508484072
 20
259.5853544919019
 30
6.010407405984282
 10
113.719133351977
 20
259.5791708965085
 30
6.090471574599306
 10
113.6874977517115
 20
259.5730651877659
 30
6.168130948104649
 10
113.6519789488609
 20
259.5671532157841
 30
6.241931775842693
 10
113.6119974828622
 20
259.5616013991877
 30
6.309801002574803
 10
113.566340442348
 20
259.5566029868993
 30
6.36933892140816
 10
113.5139432284737
 20
259.5523570659779
 30
6.418100841842843
 10
113.4545185265091
 20
259.5490032339222
 30
6.454418241475086
 10
113.3890507100146
 20
259.5466183909857
 30
6.477468304945576
 10
113.3192931231403
 20
259.5449446183512
 30
6.490556937612297
 10
113.2449294020497
 20
259.5438505049404
 30
6.495257878053732
 10
113.1942319360544
 20
259.5436232916423
 30
6.491333060408203
 10
113.1680382665
 20
259.5435058982
 30
6.4893052396
 11
113.8062321584
 21
259.6417618043
 31
5.210783189199999
 11
113.8227790922
 21
259.6327197186
 31
5.348237362399999
 11
113.8290295554
 21
259.624539967
 31
5.469205618
 11
113.8275640098
 21
259.6171173949
 31
5.5764085423
 11
113.8201479403
 21
259.6102853952
 31
5.673039879
 11
113.8079617178
 21
259.6038742863
 31
5.7620108929
 11
113.7915501003
 21
259.597691211
 31
5.846299745899999
 11
113.7709191793
 21
259.5915352658
 31
5.928776166799999
 11
113.7463876045
 21
259.585347906
 31
6.0102646439
 11
113.7183368799
 21
259.5791512677
 31
6.090488506999999
 11
113.6864745117
 21
259.5730309748
 31
6.1683247319
 11
113.6504608774
 21
259.5670969661
 31
6.242378272099999
 11
113.6098336693
 21
259.5615444696
 31
6.3102126384
 11
113.56395897
 21
259.55660931
 31
6.3689387963
 11
113.5118355655
 21
259.5524402492
 31
6.4167633401
 11
113.4535183624
 21
259.5491627869
 31
6.452233041699999
 11
113.3892693161
 21
259.5467639582
 31
6.475571327199999
 11
113.3201764037
 21
259.5450723857
 31
6.4889625722
 11
113.2466643518
 21
259.5439972052
 31
6.493482626099999
 11
113.1680382665
 21
259.5435058982
 31
6.4893052396
  0
SPLINE
  5
62E
330
1B
100
AcDbEntity
  8
LOGO
  6
Continuous
100
AcDbSpline
 70
     0
 71
     3
 72
    15
 73
    11
 74
     9
 42
0.0000000001
 43
0.0000000001
 44
0.0000000001
 40
0.0
 40
0.0
 40
0.0
 40
0.0
 40
0.0819153001072556
 40
0.1639745754451507
 40
0.2459755662355411
 40
0.3278300083516551
 40
0.4094138033963791
 40
0.4908228236200075
 40
0.5722077004646745
 40
0.653671693899844
 40
0.653671693899844
 40
0.653671693899844
 40
0.653671693899844
 10
113.1680382665
 20
259.5435058982
 30
6.4893052396
 10
113.1409872636555
 20
259.5435047209087
 30
6.485541753498361
 10
113.086837712827
 20
259.5435023642571
 30
6.478008166550603
 10
113.0064855894761
 20
259.5438289154808
 30
6.46145832183264
 10
112.9268157810687
 20
259.5443099777775
 30
6.442145553823279
 10
112.8479109741821
 20
259.5449048932427
 30
6.420494086967156
 10
112.7696292516586
 20
259.54554176811
 30
6.397408676781185
 10
112.6916053013943
 20
259.5461222905851
 30
6.374017223154175
 10
112.6134645829926
 20
259.5465844490478
 30
6.351116457050997
 10
112.5608995888515
 20
259.5466779838687
 30
6.337553814722172
 10
112.534604323
 20
259.546724774
 30
6.330769198999999
 11
113.1680382665
 21
259.5435058982
 31
6.4893052396
 11
113.0870311147
 21
259.5435572811
 31
6.477141559699999
 11
113.006577113
 21
259.5438547949
 31
6.4609925732
 11
112.9268704548
 21
259.5443294561
 31
6.441736773399999
 11
112.8478964254
 21
259.5449128148
 31
6.420221382
 11
112.7695913607
 21
259.5455330103
 31
6.3973336601
 11
112.6915717561
 21
259.5461026676
 31
6.374094784
 11
112.6133730333
 21
259.5465307039
 31
6.3515498352
 11
112.534604323
 21
259.546724774
 31
6.330769198999999
  0
SPLINE
  5
62F
330
1B
100
AcDbEntity
  8
LOGO
  6
Continuous
100
AcDbSpline
 70
     0
 71
     3
 72
    10
 73
     6
 74
     4
 42
0.0000000001
 43
0.0000000001
 44
0.0000000001
 40
0.0
 40
0.0
 40
0.0
 40
0.0
 40
0.2115501708190578
 40
0.4306873730769453
 40
0.6568298571196645
 40
0.6568298571196645
 40
0.6568298571196645
 40
0.6568298571196645
 10
112.534604323
 20
259.546724774
 30
6.330769198999999
 10
112.4660596781414
 20
259.5466829672595
 30
6.314173625882143
 10
112.3265121045407
 20
259.5465978544223
 30
6.28038729631709
 10
112.1111398298638
 20
259.5448059348149
 30
6.24029911920851
 10
111.9640785068056
 20
259.5425065416666
 30
6.220259673781254
 10
111.8893910375
 20
259.5413387577
 30
6.2100823176
 11
112.534604323
 21
259.546724774
 31
6.330769198999999
 11
112.32856666
 21
259.5463364038
 31
6.282792065199999
 11
112.113181169
 21
259.5445623581
 31
6.2424552775
 11
111.8893910375
 21
259.5413387577
 31
6.2100823176
  0
SPLINE
  5
630
330
1B
100
AcDbEntity
  8
LOGO
  6
Continuous
100
AcDbSpline
 70
     0
 71
     3
 72
    15
 73
    11
 74
     9
 42
0.0000000001
 43
0.0000000001
 44
0.0000000001
 40
0.0
 40
0.0
 40
0.0
 40
0.0
 40
0.163953305466193
 40
0.3275876151090245
 40
0.4912539741822629
 40
0.6552772846555011
 40
0.819929311130154
 40
0.9849907257716585
 40
1.150103177090207
 40
1.314907493648801
 40
1.314907493648801
 40
1.314907493648801
 40
1.314907493648801
 10
111.8893910375
 20
259.5413387577
 30
6.2100823176
 10
111.8352462837834
 20
259.5404123036963
 30
6.202718367626455
 10
111.7270621231149
 20
259.5385611982446
 30
6.188004795351978
 10
111.5647975695704
 20
259.5353361196061
 30
6.166218212544903
 10
111.4028062235302
 20
259.5319727226944
 30
6.142297560816257
 10
111.2410733142921
 20
259.528572794985
 30
6.114498240768816
 10
111.0799587114138
 20
259.5253043310938
 30
6.080895747411496
 10
110.9196485837225
 20
259.5221118434893
 30
6.042129885037314
 10
110.7603328623717
 20
259.5189531746549
 30
5.999249667099619
 10
110.6549878850527
 20
259.5168142237079
 30
5.967743675206513
 10
110.6023645913
 20
259.5157457471
 30
5.9520053922
 11
111.8893910375
 21
259.5413387577
 31
6.2100823176
 11
111.7269516982
 21
259.5384843736
 31
6.1880369119
 11
111.564857497
 21
259.5353133755
 31
6.165864812299999
 11
111.4030225312
 21
259.5319702577
 31
6.1416791864
 11
111.2414583277
 21
259.5286005287
 31
6.113584712699999
 11
111.0802850356
 21
259.525320864
 31
6.0800779442
 11
110.9198391211
 21
259.5221179745
 31
6.041449967
 11
110.7604449278
 21
259.5189427901
 31
5.998490323999999
 11
110.6023645913
 21
259.5157457471
 31
5.9520053922
  0
SPLINE
  5
631
330
1B
100
AcDbEntity
  8
LOGO
  6
Continuous
100
AcDbSpline
 70
     0
 71
     3
 72
    28
 73
    24
 74
    22
 42
0.0000000001
 43
0.0000000001
 44
0.0000000001
 40
0.0
 40
0.0
 40
0.0
 40
0.0
 40
0.062675250074892
 40
0.1198093703446928
 40
0.1706606687086739
 40
0.2151682560818088
 40
0.2544377966492453
 40
0.2903753429781836
 40
0.3254500480399302
 40
0.362162976661563
 40
0.4017603151024773
 40
0.4453501189453265
 40
0.4952393111659873
 40
0.5525772078056707
 40
0.6174035887976075
 40
0.6891711480540441
 40
0.7700280460061064
 40
0.8608518587353858
 40
0.9621657777227415
 40
1.07527837728026
 40
1.201702622077229
 40
1.343762981725992
 40
1.501111882985687
 40
1.501111882985687
 40
1.501111882985687
 40
1.501111882985687
 10
114.4922684585
 20
259.8090411523
 30
0.5300824011
 10
114.4787892716858
 20
259.8090050668169
 30
0.5460545537011532
 10
114.4530225953177
 20
259.8089360861744
 30
0.5765867581025217
 10
114.4203688091472
 20
259.8087397564576
 30
0.6232780521872524
 10
114.3953102664831
 20
259.8084931661217
 30
0.6676176169643218
 10
114.378194428366
 20
259.808205721825
 30
0.709240358939033
 10
114.3682295909409
 20
259.807891889613
 30
0.7480349042064803
 10
114.365276040024
 20
259.807550009436
 30
0.7849014560649894
 10
114.3696210292403
 20
259.8071729906953
 30
0.8207582584804786
 10
114.3803117220186
 20
259.8067555608521
 30
0.856472665428223
 10
114.3976652604138
 20
259.8062871649397
 30
0.8926515064035896
 10
114.4230350591562
 20
259.8057569376513
 30
0.9292732509755055
 10
114.458352490948
 20
259.8051584266842
 30
0.9653872401945838
 10
114.5055486892754
 20
259.8044970572934
 30
0.9986707814631018
 10
114.5657606770696
 20
259.8038187708761
 30
1.023592677957976
 10
114.6372610448874
 20
259.8031482618395
 30
1.037589704575914
 10
114.7185561856954
 20
259.8024727717293
 30
1.040743474172526
 10
114.809443249916
 20
259.8017258725348
 30
1.036125443661491
 10
114.9112747394481
 20
259.8006902533558
 30
1.036829245449684
 10
115.0246070425121
 20
259.7992911519666
 30
1.044962852383015
 10
115.1515288265467
 20
259.7975323558817
 30
1.053851858466661
 10
115.293693192918
 20
259.7955137585881
 30
1.050778613782486
 10
115.3929029090312
 20
259.7939827012597
 30
1.039749389052588
 10
115.4450407079
 20
259.7931780829
 30
1.0339531876
 11
114.4922684585
 21
259.8090411523
 31
0.5300824011
 11
114.4526088165
 21
259.8089140546
 31
0.5786136654
 11
114.4199832091
 21
259.8087184222
 31
0.6255161085
 11
114.3952763676
 21
259.8084688604
 31
0.6699611785
 11
114.3785664163
 21
259.8081830369
 31
0.7112118896000002
 11
114.3691098612
 21
259.8078733421
 31
0.7493245446
 11
114.3664735749
 21
259.8075400641
 31
0.7851637153
 11
114.3705085606
 21
259.8071744774
 31
0.8200036373999999
 11
114.3808959949
 21
259.8067635636
 31
0.8552140263
 11
114.397952705
 21
259.8063012947
 31
0.8909464228
 11
114.4227190034
 21
259.8057823605
 31
0.9268132900999999
 11
114.457539847
 21
259.8051908761
 31
0.962535699
 11
114.5044678773
 21
259.8045351657
 31
0.9954744969
 11
114.5641695668
 21
259.8038557868
 31
1.020727345999999
 11
114.6344451562
 21
259.8031867105
 31
1.0352695753
 11
114.7151896169
 21
259.8025019015
 31
1.0394768368
 11
114.8059797438
 21
259.8017263774
 31
1.0371281396
 11
114.9072859663
 21
259.8006961973
 31
1.037833967
 11
115.020186732
 21
259.7993188561
 31
1.0446148382
 11
115.1464021442
 21
259.7975966066
 31
1.0516712716
 11
115.2884207373
 21
259.7955610733
 31
1.0488924946
 11
115.4450407079
 21
259.7931780829
 31
1.0339531876
  0
SPLINE
  5
632
330
1B
100
AcDbEntity
  8
LOGO
  6
Continuous
100
AcDbSpline
210
0.9256284612144723
220
-9.838661799999999E-9
230
0.3784335500318757
 70
     8
 71
     3
 72
    11
 73
     7
 74
     5
 42
0.0000000001
 43
0.0000000001
 44
0.0000000001
 40
0.0
 40
0.0
 40
0.0
 40
0.0
 40
0.4788891681949863
 40
0.9529856662454055
 40
1.422986856877993
 40
1.893163398333006
 40
1.893163398333006
 40
1.893163398333006
 40
1.893163398333006
 10
117.003707015
 20
259.6784608554
 30
3.553800789299999
 10
116.9433227910108
 20
259.67384838882
 30
3.701497409431397
 10
116.8231586617072
 20
259.6646696167184
 30
3.995412518158195
 10
116.6437753324101
 20
259.6473254886143
 30
4.434174659905571
 10
116.4655256743362
 20
259.6277028204183
 30
4.870163901544178
 10
116.3470705416618
 20
259.6122896306347
 30
5.159898894734207
 10
116.2878319289
 20
259.6045815984
 30
5.3047934103
 11
117.003707015
 21
259.6784608554
 31
3.553800789299999
 11
116.822561838
 21
259.6640081307
 31
3.996872317399999
 11
116.6432650237
 21
259.6468741307
 31
4.435422847999999
 11
116.4655580798
 21
259.627113354
 31
4.870084639499999
 11
116.2878319289
 21
259.6045815984
 31
5.3047934103
  0
SPLINE
  5
633
330
1B
100
AcDbEntity
  8
LOGO
  6
Continuous
100
AcDbSpline
 70
     0
 71
     3
 72
    26
 73
    22
 74
    20
 42
0.0000000001
 43
0.0000000001
 44
0.0000000001
 40
0.0
 40
0.0
 40
0.0
 40
0.0
 40
0.1011414010760423
 40
0.2040645942699186
 40
0.3054506405555109
 40
0.4024413692695784
 40
0.4945679955152842
 40
0.5841513745809636
 40
0.6748521179015404
 40
0.7700991760310816
 40
0.8718170524853446
 40
0.9758162198503821
 40
1.078881351942594
 40
1.180761846588394
 40
1.281904057064709
 40
1.382900487596784
 40
1.484171446891471
 40
1.585804033626805
 40
1.687802031113088
 40
1.789907992643387
 40
1.891868825680663
 40
1.891868825680663
 40
1.891868825680663
 40
1.891868825680663
 10
116.2878319289
 20
259.6045815984
 30
5.3047934103
 10
116.2749196182031
 20
259.6028638882403
 30
5.335890707093633
 10
116.2488675226673
 20
259.599398207292
 30
5.398633136856029
 10
116.2134105918952
 20
259.5938530517566
 30
5.493955472306376
 10
116.1835381095926
 20
259.5880049525092
 30
5.589732023938369
 10
116.1614377124116
 20
259.5819346137876
 30
5.683926558452798
 10
116.1486255578707
 20
259.575665786856
 30
5.775883755666015
 10
116.146910626062
 20
259.5690794988498
 30
5.866739603173334
 10
116.1599707844363
 20
259.5619859490765
 30
5.95779754396976
 10
116.1885480863169
 20
259.5543313181877
 30
6.049394132864541
 10
116.2317643692389
 20
259.5462454136397
 30
6.13989438357949
 10
116.2869681257898
 20
259.5379894677133
 30
6.226633060804187
 10
116.3509600830485
 20
259.5298428627715
 30
6.307097217484827
 10
116.4204183821949
 20
259.521885938461
 30
6.381501228911416
 10
116.4930678040854
 20
259.514036766933
 30
6.45175525148885
 10
116.5682057048422
 20
259.506222934859
 30
6.519044470502578
 10
116.6469368044725
 20
259.4984869345478
 30
6.582420713582149
 10
116.7304687704646
 20
259.4909417989003
 30
6.640033816051057
 10
116.8189563170663
 20
259.4837088897457
 30
6.690305905699514
 10
116.9111869316435
 20
259.4768081876792
 30
6.733625523852371
 10
116.9745765780587
 20
259.4724140798239
 30
6.757947596618755
 10
117.0062488605
 20
259.4702185884
 30
6.770099984299999
 11
116.2878319289
 21
259.6045815984
 31
5.3047934103
 11
116.2496757532
 21
259.5993697787
 31
5.398316274899999
 11
116.2141102385
 21
259.593760048
 31
5.494736235399999
 11
116.1842976882
 21
259.5878426232
 31
5.5914591712
 11
116.1625651827
 21
259.5817535293
 31
5.685787441599999
 11
116.1503618121
 21
259.5755298905
 31
5.7768899077
 11
116.149307858
 21
259.5690367511
 31
5.8662314441
 11
116.1620532916
 21
259.5620647484
 31
5.955761159499999
 11
116.189943406
 21
259.5544916566
 31
6.046517932699999
 11
116.2332064773
 21
259.5463132203
 31
6.138212786599999
 11
116.2886160415
 21
259.537983716
 31
6.225826862899999
 11
116.3522312884
 21
259.5298309872
 31
6.3065055765
 11
116.4212014948
 21
259.5218758232
 31
6.3810673709
 11
116.493542004
 21
259.5140362728
 31
6.451317914799999
 11
116.5687138288
 21
259.5062450161
 31
6.5183162137
 11
116.6475959698
 21
259.4985320073
 31
6.581355285099999
 11
116.7311528934
 21
259.4910060715
 31
6.6387206361
 11
116.8195326184
 21
259.4837680629
 31
6.6891213001
 11
116.911705204
 21
259.4768567122
 31
6.7325041893
 11
117.0062488605
 21
259.4702185884
 31
6.770099984299999
  0
SPLINE
  5
634
330
1B
100
AcDbEntity
  8
LOGO
  6
Continuous
100
AcDbSpline
 70
     0
 71
     3
 72
    11
 73
     7
 74
     5
 42
0.0000000001
 43
0.0000000001
 44
0.0000000001
 40
0.0
 40
0.0
 40
0.0
 40
0.0
 40
0.0840662552713759
 40
0.1652208565539167
 40
0.2435266887076461
 40
0.318738687960111
 40
0.318738687960111
 40
0.318738687960111
 40
0.318738687960111
 10
117.0062488605
 20
259.4702185884
 30
6.770099984299999
 10
117.0323484673875
 20
259.46837985893
 30
6.780240281681742
 10
117.0836437153053
 20
259.4647660848059
 30
6.800169664924932
 10
117.1539104698672
 20
259.4585681430457
 30
6.840857951063493
 10
117.2171374325219
 20
259.4521196691184
 30
6.886853513977641
 10
117.2535845253149
 20
259.4475468852538
 30
6.922567313331612
 10
117.271440814
 20
259.4453065708
 30
6.940064344299999
 11
117.0062488605
 21
259.4702185884
 31
6.770099984299999
 11
117.0836097992
 21
259.4645493386
 31
6.8025080087
 11
117.153943091
 21
259.4584118851
 31
6.842528366499999
 11
117.2166923032
 21
259.451942467
 31
6.888923262199999
 11
117.271440814
 21
259.4453065708
 31
6.940064344299999
  0
SPLINE
  5
635
330
1B
100
AcDbEntity
  8
LOGO
  6
Continuous
100
AcDbSpline
 70
     0
 71
     3
 72
    18
 73
    14
 74
    12
 42
0.0000000001
 43
0.0000000001
 44
0.0000000001
 40
0.0
 40
0.0
 40
0.0
 40
0.0
 40
0.0363380818305842
 40
0.0696616106817933
 40
0.1002020172356292
 40
0.1281681301155693
 40
0.1538216589879829
 40
0.1774242351964338
 40
0.1994097862804327
 40
0.2195284449878077
 40
0.2375457164283508
 40
0.2540079281846417
 40
0.2691321689939071
 40
0.2691321689939071
 40
0.2691321689939071
 40
0.2691321689939071
 10
117.271440814
 20
259.4453065708
 30
6.940064344299999
 10
117.2797422704646
 20
259.4442061863141
 30
6.948819608004593
 10
117.295656506968
 20
259.4420967035951
 30
6.965603811817259
 10
117.316912050478
 20
259.4389820313393
 30
6.991213336132994
 10
117.334987061349
 20
259.4360789957277
 30
7.015763847366962
 10
117.3502941043898
 20
259.4333830673788
 30
7.039134623136347
 10
117.3632368204399
 20
259.4308868209141
 30
7.061253295740479
 10
117.3742441540291
 20
259.4285688968741
 30
7.08218280460382
 10
117.3830637490112
 20
259.4264229976632
 30
7.102131707501149
 10
117.3892522257385
 20
259.4244622035512
 30
7.121177968787535
 10
117.3916703832829
 20
259.4227454080959
 30
7.139211915054631
 10
117.3904347277546
 20
259.4212984684538
 30
7.155906398226817
 10
117.3862937419615
 20
259.4205970637476
 30
7.165625666816313
 10
117.3843109531
 20
259.4202612168
 30
7.170279451799999
 11
117.271440814
 21
259.4453065708
 31
6.940064344299999
 11
117.296035763
 21
259.4419902138
 31
6.9666076382
 11
117.3172364645
 21
259.4388863192
 31
6.9921292696
 11
117.3352554129
 21
259.4359909151
 31
7.0166170332
 11
117.3505064766
 21
259.4333047263
 31
7.0399042167
 11
117.3634055864
 21
259.4308177093
 31
7.061938990499999
 11
117.3742461711
 21
259.4285147866
 31
7.0827778934
 11
117.3829550781
 21
259.4263625422
 31
7.102849944599999
 11
117.3888461153
 21
259.4244060835
 31
7.1219870389
 11
117.3910877375
 21
259.4227179222
 31
7.1397844351
 11
117.3894903168
 21
259.4213191903
 31
7.1561091468
 11
117.3843109531
 21
259.4202612168
 31
7.170279451799999
  0
SPLINE
  5
636
330
1B
100
AcDbEntity
  8
LOGO
  6
Continuous
100
AcDbSpline
 70
     0
 71
     3
 72
    24
 73
    20
 74
    18
 42
0.0000000001
 43
0.0000000001
 44
0.0000000001
 40
0.0
 40
0.0
 40
0.0
 40
0.0
 40
0.1347243135361217
 40
0.2563908842668012
 40
0.3689338971392888
 40
0.4759760629791283
 40
0.5810911645006864
 40
0.6869071785985013
 40
0.7929981722572709
 40
0.8988348077148139
 40
1.004838624445493
 40
1.11217652764002
 40
1.223477685055761
 40
1.341086837709067
 40
1.463944378736204
 40
1.589644335287939
 40
1.716655462903175
 40
1.844013825644697
 40
1.970722625387482
 40
1.970722625387482
 40
1.970722625387482
 40
1.970722625387482
 10
110.6023645913
 20
259.5157457471
 30
5.9520053922
 10
110.5595223195877
 20
259.5148739110515
 30
5.938569843594975
 10
110.4779901325607
 20
259.513214739002
 30
5.913000945917658
 10
110.3605409876969
 20
259.5105364175456
 30
5.876635253205983
 10
110.251484611441
 20
259.5077824897811
 30
5.844395864645763
 10
110.1471730779743
 20
259.504842928299
 30
5.815641763978028
 10
110.0443695434848
 20
259.5016085735782
 30
5.789996710183505
 10
109.9412253185285
 20
259.4980077279276
 30
5.767228833804794
 10
109.8372229904003
 20
259.4940016428931
 30
5.747505355606729
 10
109.7325889192575
 20
259.4895785283243
 30
5.73114621420431
 10
109.6270394031446
 20
259.4846986958129
 30
5.718483605449319
 10
109.5193198995918
 20
259.4792918035026
 30
5.709483369927333
 10
109.4076151883683
 20
259.473368661876
 30
5.702414516335672
 10
109.2907365654373
 20
259.4669629945289
 30
5.695573868747142
 10
109.1691615515829
 20
259.4602281778024
 30
5.686882275865796
 10
109.044847435785
 20
259.4534665023236
 30
5.673527643015801
 10
108.9193842061459
 20
259.4466320447378
 30
5.657321103128216
 10
108.7936921080878
 20
259.4396525969302
 30
5.640300742764497
 10
108.7096864926025
 20
259.4346867517197
 30
5.63075696853064
 10
108.6677910717
 20
259.4322101771
 30
5.6259972815
 11
110.6023645913
 21
259.5157457471
 31
5.9520053922
 11
110.4738131516
 21
259.5130744284
 31
5.9117806229
 11
110.3575587813
 21
259.5104189609
 31
5.8759948113
 11
110.2496299134
 21
259.5076813925
 31
5.844217540499999
 11
110.1464430744
 21
259.5047650683
 31
5.8158979964
 11
110.0444890477
 21
259.5015535476
 31
5.790515972399999
 11
109.9412111238
 21
259.4979448246
 31
5.7677634694
 11
109.8370444734
 21
259.4939291684
 31
5.7480535129
 11
109.7325602669
 21
259.489508066
 31
5.7317778301
 11
109.6274216938
 21
259.484647136
 31
5.7191658926
 11
109.5206138732
 21
259.4793071969
 31
5.7099463497
 11
109.4097079699
 21
259.4734476047
 31
5.7026324291
 11
109.2924941853
 21
259.4670480504
 31
5.6954291526
 11
109.1701671485
 21
259.4603040759
 31
5.6862318561
 11
109.0453374788
 21
259.4534914656
 31
5.673131437
 11
108.9195161643
 21
259.4466171786
 31
5.657207632999999
 11
108.7934261108
 21
259.4395621486
 31
5.640724989999999
 11
108.6677910717
 21
259.4322101771
 31
5.6259972815
  0
SPLINE
  5
637
330
1B
100
AcDbEntity
  8
LOGO
  6
Continuous
100
AcDbSpline
 70
     0
 71
     3
 72
    11
 73
     7
 74
     5
 42
0.0000000001
 43
0.0000000001
 44
0.0000000001
 40
0.0
 40
0.0
 40
0.0
 40
0.0
 40
0.0898236033950304
 40
0.1747954281957445
 40
0.2549890180671643
 40
0.3301142224163787
 40
0.3301142224163787
 40
0.3301142224163787
 40
0.3301142224163787
 10
108.6677910717
 20
259.4322101771
 30
5.6259972815
 10
108.6379959117573
 20
259.4303704996947
 30
5.623389865599383
 10
108.5800149630589
 20
259.4267905141714
 30
5.618315872109848
 10
108.495125919144
 20
259.4207291442764
 30
5.620792526805285
 10
108.4155770938051
 20
259.4145147774816
 30
5.629668714928662
 10
108.3654626516087
 20
259.4100531660424
 30
5.642085218696209
 10
108.3412231014
 20
259.4078951563
 30
5.648090881999999
 11
108.6677910717
 21
259.4322101771
 31
5.6259972815
 11
108.5783499672
 21
259.4265392791
 31
5.6199632556
 11
108.4936164941
 21
259.420524162
 31
5.6220291483
 11
108.4142468798
 21
259.4142651302
 31
5.6316364738
 11
108.3412231014
 21
259.4078951563
 31
5.648090881999999
  0
SPLINE
  5
638
330
1B
100
AcDbEntity
  8
LOGO
  6
Continuous
100
AcDbSpline
 70
     0
 71
     3
 72
    22
 73
    18
 74
    16
 42
0.0000000001
 43
0.0000000001
 44
0.0000000001
 40
0.0
 40
0.0
 40
0.0
 40
0.0
 40
0.073217902491193
 40
0.1393781507367242
 40
0.1987408450013741
 40
0.251625496525827
 40
0.298746614620041
 40
0.3410121694865508
 40
0.3790834404179159
 40
0.4134175298521841
 40
0.4446164621265626
 40
0.4732088555392899
 40
0.4996658940288825
 40
0.5237972582539315
 40
0.5455706864672224
 40
0.5655188734592894
 40
0.5839087557856799
 40
0.5839087557856799
 40
0.5839087557856799
 40
0.5839087557856799
 10
108.3412231014
 20
259.4078951563
 30
5.648090881999999
 10
108.3179069753904
 20
259.4057290914
 30
5.654957232072313
 10
108.2735222222767
 20
259.4016057539391
 30
5.668028067794564
 10
108.2088069338849
 20
259.3958840386771
 30
5.681950238737399
 10
108.1492869828221
 20
259.3913086099647
 30
5.684516022022411
 10
108.0964102172318
 20
259.3877620521529
 30
5.67900187457718
 10
108.0502313978987
 20
259.3850766359292
 30
5.668002020862354
 10
108.0103258399116
 20
259.3831043355147
 30
5.653275128523151
 10
107.9761280936543
 20
259.3817190491993
 30
5.636096775927481
 10
107.9468663386775
 20
259.3807800546542
 30
5.617703285115257
 10
107.9215757775946
 20
259.3801461498373
 30
5.599110792681271
 10
107.8993858157593
 20
259.3797186117853
 30
5.580819050091183
 10
107.879739401983
 20
259.3794318706775
 30
5.563187350946413
 10
107.8631049765044
 20
259.3793655878408
 30
5.545628701543025
 10
107.8504564081193
 20
259.3796339338324
 30
5.527618954713123
 10
107.8420698765978
 20
259.3802638730591
 30
5.509108937002569
 10
107.8406495733932
 20
259.381033227855
 30
5.496364742642029
 10
107.8399682869
 20
259.3814022695
 30
5.4902516483
 11
108.3412231014
 21
259.4078951563
 31
5.648090881999999
 11
108.2709986348
 21
259.4014275004
 31
5.667777297699999
 11
108.2063148012
 21
259.3957979709
 31
5.6804851109
 11
108.1471831944
 21
259.3912489674
 31
5.6830714432
 11
108.0946994804
 21
259.3877282757
 31
5.677607849
 11
108.0489408991
 21
259.3850694725
 31
5.666677031399999
 11
108.0093431533
 21
259.3831148928
 31
5.6520286433
 11
107.9753296077
 21
259.381734302
 31
5.634981814999999
 11
107.9462281492
 21
259.3807935274
 31
5.6167870423
 11
107.9210611796
 21
259.3801575345
 31
5.598359005799999
 11
107.8989724479
 21
259.379727863
 31
5.580208846699999
 11
107.8794147688
 21
259.3794608817
 31
5.562393100999999
 11
107.8630425189
 21
259.37942674
 31
5.5446654106
 11
107.8507030285
 21
259.3797141468
 31
5.5267283944
 11
107.8429160499
 21
259.3803797234
 31
5.5083749169
 11
107.8399682869
 21
259.3814022695
 31
5.4902516483
  0
SPLINE
  5
639
330
1B
100
AcDbEntity
  8
LOGO
  6
Continuous
100
AcDbSpline
 70
     0
 71
     3
 72
    21
 73
    17
 74
    15
 42
0.0000000001
 43
0.0000000001
 44
0.0000000001
 40
0.0
 40
0.0
 40
0.0
 40
0.0
 40
0.0119060359845644
 40
0.0252496151268023
 40
0.0399256603158206
 40
0.0560894972753725
 40
0.0740145723042129
 40
0.0936206720090013
 40
0.1150380332327545
 40
0.1385296905304209
 40
0.1642750096392078
 40
0.1924410379569779
 40
0.2231993196231014
 40
0.2567689702296505
 40
0.2934484238595758
 40
0.3336365105170969
 40
0.3336365105170969
 40
0.3336365105170969
 40
0.3336365105170969
 10
107.8399682869
 20
259.3814022695
 30
5.4902516483
 10
107.8398521759206
 20
259.3816687717214
 30
5.486255379227085
 10
107.8396059346403
 20
259.3822339538298
 30
5.477780328743025
 10
107.8451346538234
 20
259.3835264145016
 30
5.465256926757628
 10
107.855093084021
 20
259.3850517230318
 30
5.454337464096203
 10
107.8683242989888
 20
259.386727807734
 30
5.444890957937465
 10
107.8842287235843
 20
259.3885159558975
 30
5.436788170940563
 10
107.9024651663629
 20
259.3904137725784
 30
5.429660114747413
 10
107.9229640737562
 20
259.392421169219
 30
5.42340998990734
 10
107.9458515684619
 20
259.3945355251589
 30
5.418195697857596
 10
107.97123752085
 20
259.3967607106458
 30
5.414056376279529
 10
107.9992377668174
 20
259.3990868044604
 30
5.411234422335762
 10
108.0299307067818
 20
259.4015294329439
 30
5.409549901959801
 10
108.0634746311686
 20
259.4041448370081
 30
5.408300396282496
 10
108.1001290756822
 20
259.4070206382323
 30
5.406451742958447
 10
108.1256603279901
 20
259.4089825210434
 30
5.405537753196464
 10
108.1390086435
 20
259.4100082377
 30
5.4050598987
 11
107.8399682869
 21
259.3814022695
 31
5.4902516483
 11
107.8404521176
 21
259.3822578491
 31
5.4783862539
 11
107.8455024291
 21
259.3834969456
 31
5.466097637299999
 11
107.8550785859
 21
259.3849993033
 31
5.455078270499999
 11
107.8680370644
 21
259.3866590816
 31
5.4455602562
 11
107.8838434934
 21
259.3884504933
 31
5.4372985396
 11
107.9019833152
 21
259.3903453464
 31
5.430104407099999
 11
107.9223682989
 21
259.3923444747
 31
5.423846668899999
 11
107.9451667509
 21
259.3944548881
 31
5.4185897968
 11
107.9704771483
 21
259.3966754386
 31
5.414433549099999
 11
107.9983958198
 21
259.3990012625
 31
5.4115243437
 11
108.0290015629
 21
259.40144761
 31
5.409687018399999
 11
108.0624388259
 21
259.4040666717
 31
5.4082687798
 11
108.0989688026
 21
259.4069202197
 31
5.4065953448
 11
108.1390086435
 21
259.4100082377
 31
5.4050598987
  0
SPLINE
  5
63A
330
1B
100
AcDbEntity
  8
LOGO
  6
Continuous
100
AcDbSpline
 70
     0
 71
     3
 72
    15
 73
    11
 74
     9
 42
0.0000000001
 43
0.0000000001
 44
0.0000000001
 40
0.0
 40
0.0
 40
0.0
 40
0.0
 40
0.1287860533744565
 40
0.2553310749700266
 40
0.3806089037725016
 40
0.5053238747192763
 40
0.6302100273668353
 40
0.7553412747653771
 40
0.8804582847859529
 40
1.005334383062589
 40
1.005334383062589
 40
1.005334383062589
 40
1.005334383062589
 10
108.1390086435
 20
259.4100082377
 30
5.4050598987
 10
108.181838728458
 20
259.4132029972375
 30
5.40455958789739
 10
108.2667536035306
 20
259.4195369236651
 30
5.40356767230015
 10
108.392608914702
 20
259.4295595856335
 30
5.388940973518217
 10
108.5153136547923
 20
259.4398823130611
 30
5.363830738706752
 10
108.6343998069064
 20
259.4505578202833
 30
5.326762166583967
 10
108.7490011862406
 20
259.4615375897693
 30
5.277675780767522
 10
108.8576915691895
 20
259.4727257437277
 30
5.216476841279323
 10
108.9599268513214
 20
259.4839957194789
 30
5.144805382875029
 10
109.0214288998061
 20
259.4914375005755
 30
5.088973523396431
 10
109.0521502901
 20
259.4951548054
 30
5.0610844955
 11
108.1390086435
 21
259.4100082377
 31
5.4050598987
 11
108.2673755171
 21
259.4196916757
 31
5.401314990899999
 11
108.3927232036
 21
259.429661736
 31
5.3870953609
 11
108.5149816123
 21
259.4399644388
 31
5.361772047399999
 11
108.633607393
 21
259.4506042358
 31
5.3247782256
 11
108.7479228333
 21
259.4615631022
 31
5.2757024222
 11
108.8566194962
 21
259.4727398659
 31
5.214727472399999
 11
108.958331729
 21
259.4839857145
 31
5.142738453899999
 11
109.0521502901
 21
259.4951548054
 31
5.0610844955
  0
SPLINE
  5
63B
330
1B
100
AcDbEntity
  8
LOGO
  6
Continuous
100
AcDbSpline
 70
     0
 71
     3
 72
    26
 73
    22
 74
    20
 42
0.0000000001
 43
0.0000000001
 44
0.0000000001
 40
0.0
 40
0.0
 40
0.0
 40
0.0
 40
0.0877726622116908
 40
0.1773239756812474
 40
0.2654040774148054
 40
0.3489461174613875
 40
0.4271087747810187
 40
0.5016955243610651
 40
0.5754362531568419
 40
0.6520443382704821
 40
0.7341374479200108
 40
0.8215297580112194
 40
0.9099272229175147
 40
0.9981314263650778
 40
1.086502319094856
 40
1.177212101258371
 40
1.273033516805004
 40
1.377192369199119
 40
1.490602661263246
 40
1.605644624727141
 40
1.707665272084984
 40
1.707665272084984
 40
1.707665272084984
 40
1.707665272084984
 10
109.0521502901
 20
259.4951548054
 30
5.0610844955
 10
109.0742244880264
 20
259.497738762932
 30
5.042055658396074
 10
109.1188202019725
 20
259.5029590400778
 30
5.003612378189752
 10
109.1879554576777
 20
259.5106204501918
 30
4.948861427914789
 10
109.2604168632336
 20
259.5179739016683
 30
4.900873159535514
 10
109.3351329106615
 20
259.5246802413328
 30
4.864083983144896
 10
109.4103303171421
 20
259.5305347193554
 30
4.84037293144409
 10
109.4850445736074
 20
259.5355575256148
 30
4.828667873843906
 10
109.5602359694824
 20
259.5398058062829
 30
4.829036806643876
 10
109.6368675323209
 20
259.5432953988918
 30
4.842073962895946
 10
109.714807675146
 20
259.5459462817223
 30
4.868795451126326
 10
109.7904710522091
 20
259.5474828337546
 30
4.910263188944322
 10
109.8623685851444
 20
259.5481426635391
 30
4.96113591792631
 10
109.931882548004
 20
259.5483550618945
 30
5.015618214947492
 10
110.0025986799671
 20
259.5485473750568
 30
5.069845208388235
 10
110.0785870282609
 20
259.5490892474315
 30
5.121186930618257
 10
110.1628712921374
 20
259.550146743015
 30
5.169212765833356
 10
110.2586818802082
 20
259.5520150423391
 30
5.211455391079229
 10
110.3651205490141
 20
259.5549305960815
 30
5.243110200229045
 10
110.4744850667726
 20
259.5587478526926
 30
5.260840585650185
 10
110.5468475850199
 20
259.5621122856132
 30
5.257969372582876
 10
110.5808583754
 20
259.563693588
 30
5.2566198863
 11
109.0521502901
 21
259.4951548054
 31
5.0610844955
 11
109.1187637989
 21
259.5028818163
 31
5.0044543447
 11
109.1891041519
 21
259.5106307964
 31
4.9495760631
 11
109.2626557892
 21
259.5180425921
 31
4.901687377
 11
109.3375671621
 21
259.5247352426
 31
4.865317511799999
 11
109.411933813
 21
259.5305193356
 31
4.841960574899999
 11
109.4854887251
 21
259.5354528905
 31
4.8306239901
 11
109.5591111287
 21
259.5396115432
 31
4.831001321799999
 11
109.6345795568
 21
259.5430562244
 31
4.8437075894
 11
109.7122025928
 21
259.5456977987
 31
4.8702964032
 11
109.7892613003
 21
259.5473265674
 31
4.9114876471
 11
109.8619786884
 21
259.5480680227
 31
4.961744422899999
 11
109.9319369907
 21
259.5483513118
 31
5.0154634809
 11
110.0024965269
 21
259.5486002742
 31
5.0686678468
 11
110.0777707219
 21
259.5491526946
 31
5.119281629299999
 11
110.1611782709
 21
259.5502231005
 31
5.1664385872
 11
110.2565659121
 21
259.5520997147
 31
5.2082326389
 11
110.3652134231
 21
259.5550731027
 31
5.2406173832
 11
110.478942919
 21
259.5591390334
 31
5.257461472
 11
110.5808583754
 21
259.563693588
 31
5.2566198863
  0
SPLINE
  5
63C
330
1B
100
AcDbEntity
  8
LOGO
  6
Continuous
100
AcDbSpline
 70
     0
 71
     3
 72
    60
 73
    56
 74
    54
 42
0.0000000001
 43
0.0000000001
 44
0.0000000001
 40
0.0
 40
0.0
 40
0.0
 40
0.0
 40
0.1123190148660174
 40
0.2432738394589436
 40
0.3867088681836428
 40
0.5333156196937894
 40
0.6689231622636318
 40
0.7880163857149858
 40
0.8937919004380429
 40
0.9881350530257848
 40
1.072276705270853
 40
1.14736695477422
 40
1.214147506020463
 40
1.273863174448534
 40
1.327573352189592
 40
1.37624661297363
 40
1.420691215357413
 40
1.461381019627057
 40
1.498167898640022
 40
1.531442607292809
 40
1.562026219268411
 40
1.59073329117563
 40
1.619384494012306
 40
1.650041880959757
 40
1.683489790642327
 40
1.719282499871019
 40
1.758675503002379
 40
1.800261027699466
 40
1.843130803829809
 40
1.88897242353282
 40
1.939484021635302
 40
1.994913717345721
 40
2.054674674678038
 40
2.120650199424837
 40
2.193282181329079
 40
2.272827661278847
 40
2.360135625497565
 40
2.456032441957951
 40
2.561272439639844
 40
2.676265817331842
 40
2.801932649444294
 40
2.939658440337543
 40
3.090843949142512
 40
3.257069590666723
 40
3.440646453373518
 40
3.644239927700337
 40
3.871169096320748
 40
4.125628913487367
 40
4.417085434866427
 40
4.724324347913689
 40
5.005247362435077
 40
5.252171032274906
 40
5.470056937035552
 40
5.662766531991228
 40
5.832532416551881
 40
5.832532416551881
 40
5.832532416551881
 40
5.832532416551881
 10
110.5808583754
 20
259.563693588
 30
5.2566198863
 10
110.6180779642906
 20
259.5655925034185
 30
5.252141782830614
 10
110.6986925628366
 20
259.5697053995763
 30
5.242442575391946
 10
110.8207532296097
 20
259.577572797073
 30
5.199144724428628
 10
110.9481020203941
 20
259.5863862822639
 30
5.141263941446266
 10
111.0774049079258
 20
259.5950315493184
 30
5.083135259001348
 10
111.2045996082297
 20
259.6023034640488
 30
5.041507418992946
 10
111.3218370719004
 20
259.608056905901
 30
5.015072720200851
 10
111.4273985814157
 20
259.6124587125802
 30
5.001249372598107
 10
111.5221546860687
 20
259.6157450432219
 30
4.99754141035171
 10
111.606650952675
 20
259.6180917908075
 30
5.002043261821536
 10
111.6812681073506
 20
259.6196453597839
 30
5.013098904818392
 10
111.7466176185247
 20
259.6205463302105
 30
5.029153558475605
 10
111.803406282663
 20
259.6209123780549
 30
5.048973515026251
 10
111.8528867254579
 20
259.6209060503486
 30
5.070785447777071
 10
111.8964820587833
 20
259.6206748352925
 30
5.0930664928355
 10
111.9353885124661
 20
259.6203188061848
 30
5.114892831603052
 10
111.9702345406872
 20
259.6198912375614
 30
5.135801861943851
 10
112.0022874168167
 20
259.6195379111382
 30
5.154133569374507
 10
112.0324932366845
 20
259.619356554568
 30
5.168828886015445
 10
112.0616906820686
 20
259.6194227859008
 30
5.17910808755644
 10
112.0908267812423
 20
259.6198312982124
 30
5.183915572444636
 10
112.1204631057193
 20
259.6207410639789
 30
5.1810290139522
 10
112.1491172968636
 20
259.6222488061314
 30
5.168387522196774
 10
112.1756900079125
 20
259.6241934499213
 30
5.148030329623098
 10
112.1997233303258
 20
259.6265081018202
 30
5.120775776918812
 10
112.219909609436
 20
259.6291125468532
 30
5.087335413704792
 10
112.2336435647996
 20
259.6319175997904
 30
5.048102049705612
 10
112.2375347189839
 20
259.6347507197688
 30
5.004521201319416
 10
112.2316684889974
 20
259.637503090248
 30
4.958289254280544
 10
112.217027609095
 20
259.6401688613594
 30
4.909757655011604
 10
112.1951021138066
 20
259.642765358983
 30
4.859059191936281
 10
112.1678812877466
 20
259.6453896678403
 30
4.805196214022653
 10
112.1356548151717
 20
259.648076525319
 30
4.74750556943953
 10
112.0989223793235
 20
259.6508923283635
 30
4.684816451651965
 10
112.0594016177761
 20
259.653956259693
 30
4.615499180303322
 10
112.0210596342125
 20
259.6575073762627
 30
4.536748942539543
 10
111.9847798846122
 20
259.6615878251141
 30
4.447748655830544
 10
111.9491986338332
 20
259.6661218479908
 30
4.348651857260336
 10
111.9119549965383
 20
259.6709998915305
 30
4.239642272640796
 10
111.8707893807639
 20
259.676127466106
 30
4.120530375838667
 10
111.8259853691486
 20
259.6815315269079
 30
3.989913914858312
 10
111.7773726864779
 20
259.6872162039017
 30
3.846312441051358
 10
111.7250978519831
 20
259.6931973754559
 30
3.687819129306214
 10
111.6695060373934
 20
259.6994957459359
 30
3.512035603334099
 10
111.6113910969634
 20
259.7061444996241
 30
3.315854438480718
 10
111.5523497583116
 20
259.7131908274884
 30
3.095367294131728
 10
111.4950855634529
 20
259.7207488315127
 30
2.844226400451829
 10
111.4467771039289
 20
259.7287066234094
 30
2.563896406431688
 10
111.4184432123884
 20
259.7366091241545
 30
2.271802296558572
 10
111.4165740069777
 20
259.743945990038
 30
1.993161247443722
 10
111.4382459114911
 20
259.7504254626907
 30
1.745171707698279
 10
111.4779781961682
 20
259.7560971457907
 30
1.529596488571043
 10
111.527948974293
 20
259.7610626657984
 30
1.342042541044876
 10
111.5779889986382
 20
259.7642962152908
 30
1.231917447679478
 10
111.6014253122
 20
259.7658106526
 30
1.1803402102
 11
110.5808583754
 21
259.563693588
 31
5.2566198863
 11
110.6917012065
 21
259.5695686228
 31
5.239446888299999
 11
110.8159923627
 21
259.5773557879
 31
5.198947077999999
 11
110.947233697
 21
259.5862756177
 31
5.141765295299999
 11
111.0817494653
 21
259.5950881439
 31
5.084133819099999
 11
111.2104315513
 21
259.6024467687
 31
5.041989104299999
 11
111.3265130655
 21
259.6081325297
 31
5.0159900648
 11
111.4313272746
 21
259.6124917603
 31
5.002446129099999
 11
111.5255491601
 21
259.6157479706
 31
4.9989441543
 11
111.6095303951
 21
259.6180697013
 31
5.003589515099999
 11
111.6837742445
 21
259.6196069173
 31
5.014726541799999
 11
111.7485890072
 21
259.6204919494
 31
5.0307859714
 11
111.8049880872
 21
259.6208594891
 31
5.0504066173
 11
111.8541894174
 21
259.6208625835
 31
5.0719475618
 11
111.8975811351
 21
259.620640546
 31
5.093997411
 11
111.9363652717
 21
259.6202891824
 31
5.115699714399999
 11
111.9714270701
 21
259.6198843172
 31
5.1363435161
 11
112.003510733
 21
259.6195535226
 31
5.154338060199999
 11
112.0335662287
 21
259.6193953541
 31
5.168615608899999
 11
112.0625332002
 21
259.6194861234
 31
5.1784270127
 11
112.0909229572
 21
259.6199133255
 31
5.1826620066
 11
112.1194028368
 21
259.6208022444
 31
5.179662389099999
 11
112.1476259843
 21
259.6222505311
 31
5.1677782911
 11
112.1743429901
 21
259.6241775461
 31
5.147747043599999
 11
112.1981027598
 21
259.6264483765
 31
5.1210743102
 11
112.2183429104
 21
259.6290702619
 31
5.0873805316
 11
112.2318419402
 21
259.6318699704
 31
5.0481466981
 11
112.2359543735
 21
259.6346452051
 31
5.005564968799999
 11
112.2306804632
 21
259.6373626444
 31
4.9601088857
 11
112.2166383936
 21
259.6400368853
 31
4.911662108099999
 11
112.1951968521
 21
259.6426659087
 31
4.8606150739
 11
112.1684684014
 21
259.6452729219
 31
4.807228133299999
 11
112.1365502479
 21
259.6479663512
 31
4.749550175799999
 11
112.1002027942
 21
259.6507991525
 31
4.686731049399999
 11
112.0614068565
 21
259.6538843039
 31
4.6173564111
 11
112.0231512936
 21
259.657417559
 31
4.538955463199999
 11
111.9865596856
 21
259.6614646091
 31
4.450406747699999
 11
111.95054186
 21
259.6659699027
 31
4.351624787399999
 11
111.9130426281
 21
259.6708190783
 31
4.243025662099999
 11
111.8721445546
 21
259.67593311
 31
4.124310258899999
 11
111.8275228626
 21
259.6813202934
 31
3.9941247131
 11
111.7791566446
 21
259.6869886536
 31
3.850996669999999
 11
111.7272154307
 21
259.692946191
 31
3.6932069937
 11
111.6720235298
 21
259.6992196676
 31
3.5182356758
 11
111.6144120959
 21
259.705839861
 31
3.3230757452
 11
111.5560169957
 21
259.7128533413
 31
3.103900767299999
 11
111.4998991523
 21
259.7203334175
 31
2.855818856099999
 11
111.451134453
 21
259.728510679
 31
2.568587171999999
 11
111.4224060234
 21
259.7368137296
 31
2.2628070445
 11
111.4211774666
 21
259.7442301934
 31
1.981984632999999
 11
111.4432042578
 21
259.7506695195
 31
1.7361296874
 11
111.4824681932
 21
259.7563062233
 31
1.521884877799999
 11
111.5352467549
 21
259.7612963483
 31
1.3366107294
 11
111.6014253122
 21
259.7658106526
 31
1.1803402102
  0
SPLINE
  5
63D
330
1B
100
AcDbEntity
  8
LOGO
  6
Continuous
100
AcDbSpline
 70
     0
 71
     3
 72
    12
 73
     8
 74
     6
 42
0.0000000001
 43
0.0000000001
 44
0.0000000001
 40
0.0
 40
0.0
 40
0.0
 40
0.0
 40
0.2776388720861006
 40
0.5674968937902221
 40
0.8400360143203811
 40
1.08732775918397
 40
1.313336176952123
 40
1.313336176952123
 40
1.313336176952123
 40
1.313336176952123
 10
111.6014253122
 20
259.7658106526
 30
1.1803402102
 10
111.6416090212636
 20
259.7681794098295
 30
1.096932204396492
 10
111.7237449624712
 20
259.7730211755371
 30
0.9264453274866615
 10
111.8724095588439
 20
259.7795526203548
 30
0.6888009209303025
 10
112.0206954109726
 20
259.7850547502512
 30
0.4634406894534562
 10
112.1608506106249
 20
259.7894292058878
 30
0.2581066871651251
 10
112.2517989633663
 20
259.7916641325015
 30
0.129213282388859
 10
112.2952282603
 20
259.7927313458
 30
0.0676646146
 11
111.6014253122
 21
259.7658106526
 31
1.1803402102
 11
111.7263556593
 21
259.7728141555
 31
0.9324961007
 11
111.8763955904
 21
259.7795408989
 31
0.6845839333
 11
112.0260017436
 21
259.7850933984
 31
0.4568456166
 11
112.1653981543
 21
259.7894063354
 31
0.2526318895
 11
112.2952282603
 21
259.7927313458
 31
0.0676646146
  0
SPLINE
  5
63E
330
1B
100
AcDbEntity
  8
LOGO
  6
Continuous
100
AcDbSpline
210
0.0220729392580577
220
-0.9997563629967604
230
0.0
 70
    24
 71
     3
 72
     8
 73
     4
 74
     2
 42
0.0000000001
 43
0.0000000001
 44
0.0000000001
 40
0.0
 40
0.0
 40
0.0
 40
0.0
 40
0.0890642560794419
 40
0.0890642560794419
 40
0.0890642560794419
 40
0.0890642560794419
 10
112.2952282603
 20
259.7927313458
 30
0.0676646146
 10
112.3145279654
 20
259.7931574508334
 30
0.0451097430666667
 10
112.3338276705
 20
259.7935835558667
 30
0.0225548715333333
 10
112.3531273756
 20
259.7940096609
 30
0.0
 11
112.2952282603
 21
259.7927313458
 31
0.0676646146
 11
112.3531273756
 21
259.7940096609
 31
0.0
  0
SPLINE
  5
63F
330
1B
100
AcDbEntity
  8
LOGO
  6
Continuous
100
AcDbSpline
 70
     0
 71
     3
 72
    20
 73
    16
 74
    14
 42
0.0000000001
 43
0.0000000001
 44
0.0000000001
 40
0.0
 40
0.0
 40
0.0
 40
0.0
 40
0.0133818245428844
 40
0.0279091541311181
 40
0.0439050451717863
 40
0.0617035480129279
 40
0.0812900040151506
 40
0.1024275779825227
 40
0.1253655820425934
 40
0.1503504836295048
 40
0.1775733469383982
 40
0.2072705450766926
 40
0.2396363057621981
 40
0.274834811289053
 40
0.3130697236025499
 40
0.3130697236025499
 40
0.3130697236025499
 40
0.3130697236025499
 10
117.3843109531
 20
259.4202612168
 30
7.170279451799999
 10
117.3821885835425
 20
259.4199937592297
 30
7.174233252710045
 10
117.3777621662841
 20
259.4194359493042
 30
7.182479306052668
 10
117.3663366269721
 20
259.4190452284768
 30
7.192086660799529
 10
117.3519465843374
 20
259.4189692098241
 30
7.199545880120111
 10
117.3345013480704
 20
259.4193124391259
 30
7.203729596070675
 10
117.3150540525548
 20
259.4199628471067
 30
7.205382693406317
 10
117.2938368476885
 20
259.4208023344204
 30
7.205691114357235
 10
117.2708557442308
 20
259.4218342396073
 30
7.204599933560932
 10
117.2459264159774
 20
259.4230385942401
 30
7.202394155249629
 10
117.2189044526314
 20
259.4244553551169
 30
7.198673956043651
 10
117.1896927761359
 20
259.4261112698395
 30
7.193160545235839
 10
117.1581997790682
 20
259.4280252445479
 30
7.185649388130945
 10
117.1243539116691
 20
259.4302146407529
 30
7.175957783535008
 10
117.1010381102029
 20
259.4317637770464
 30
7.168667928330331
 10
117.0888981656
 20
259.4325703729
 30
7.164872286199999
 11
117.3843109531
 21
259.4202612168
 31
7.170279451799999
 11
117.3772917438
 21
259.4195299841
 31
7.181649114399999
 11
117.3664590732
 21
259.4191089512
 31
7.191319651299999
 11
117.3522637481
 21
259.419032639
 31
7.1986922663
 11
117.3350390808
 21
259.4193406333
 31
7.203164701799999
 11
117.3155603171
 21
259.4199651347
 31
7.205118421699999
 11
117.2944420727
 21
259.4207963877
 31
7.205473111899999
 11
117.2715481013
 21
259.4218155656
 31
7.2044834755
 11
117.2466907058
 21
259.4230179204
 31
7.202267727499999
 11
117.2197565614
 21
259.4244288115
 31
7.198573740699999
 11
117.1906137831
 21
259.4260778701
 31
7.1931054086
 11
117.1591773349
 21
259.4279852405
 31
7.1856452392
 11
117.1253657247
 21
259.4301585865
 31
7.1761065614
 11
117.0888981656
 21
259.4325703729
 31
7.164872286199999
  0
SPLINE
  5
640
330
1B
100
AcDbEntity
  8
LOGO
  6
Continuous
100
AcDbSpline
 70
     0
 71
     3
 72
    10
 73
     6
 74
     4
 42
0.0000000001
 43
0.0000000001
 44
0.0000000001
 40
0.0
 40
0.0
 40
0.0
 40
0.0
 40
0.2890766500458089
 40
0.5767656535741801
 40
0.8630709380901847
 40
0.8630709380901847
 40
0.8630709380901847
 40
0.8630709380901847
 10
121.2571337334
 20
259.4766205532
 30
1.270732182399999
 10
121.2558473158103
 20
259.4750953371184
 30
1.367073866721758
 10
121.2532806557851
 20
259.4720522264072
 30
1.559294769086135
 10
121.2404801093414
 20
259.4670617107844
 30
1.846721945719285
 10
121.2259942689178
 20
259.4634643569
 30
2.037477299684732
 10
121.2187688091
 20
259.461670016
 30
2.132625051199999
 11
121.2571337334
 21
259.4766205532
 31
1.270732182399999
 11
121.2517703743
 21
259.4719715763
 31
1.5597216822
 11
121.238959203
 21
259.4669837839
 31
1.847082010999999
 11
121.2187688091
 21
259.461670016
 31
2.132625051199999
  0
SPLINE
  5
641
330
1B
100
AcDbEntity
  8
LOGO
  6
Continuous
100
AcDbSpline
 70
     0
 71
     3
 72
    25
 73
    21
 74
    19
 42
0.0000000001
 43
0.0000000001
 44
0.0000000001
 40
0.0
 40
0.0
 40
0.0
 40
0.0
 40
0.0796357531027416
 40
0.1618253709395788
 40
0.2441980021031859
 40
0.3259061152060928
 40
0.4085338612102734
 40
0.4926981820596006
 40
0.5765387879194608
 40
0.6595356440488638
 40
0.7430665138079452
 40
0.8266167191149282
 40
0.9078885522872847
 40
0.9853490463117075
 40
1.060089794685499
 40
1.132849866803137
 40
1.205806563918107
 40
1.282964037516202
 40
1.366497110301136
 40
1.424314834190727
 40
1.424314834190727
 40
1.424314834190727
 40
1.424314834190727
 10
121.2187688091
 20
259.461670016
 30
2.132625051199999
 10
121.2171847920461
 20
259.4610929510602
 30
2.159212884315732
 10
121.2139659595827
 20
259.4599203150983
 30
2.213241204370446
 10
121.18755390155
 20
259.4600814028742
 30
2.291250737748954
 10
121.1459702076834
 20
259.4617144702498
 30
2.36256136495359
 10
121.0906920011203
 20
259.4647697873842
 30
2.424115697161728
 10
121.0247044963874
 20
259.4690189840784
 30
2.47472335394649
 10
120.9502620608164
 20
259.4742965084013
 30
2.513223970557961
 10
120.8702541078868
 20
259.4803887731239
 30
2.538356732485422
 10
120.7873523154442
 20
259.4870948804486
 30
2.54922523692879
 10
120.7039002237135
 20
259.4942427381904
 30
2.544986402897103
 10
120.6234402318869
 20
259.5015640915835
 30
2.524732141681876
 10
120.5498450343516
 20
259.5086516383499
 30
2.491286952258032
 10
120.4851510490916
 20
259.5152433909764
 30
2.447932309024214
 10
120.4303129842012
 20
259.5212094709901
 30
2.396646814059688
 10
120.3857245945974
 20
259.5265072894781
 30
2.337994239505107
 10
120.3527522556435
 20
259.5310596710433
 30
2.270958948596723
 10
120.3339454147667
 20
259.5346731383219
 30
2.194977990809415
 10
120.3277660865864
 20
259.5371312808779
 30
2.122193029151006
 10
120.3287898163272
 20
259.5382752457815
 30
2.075090127361067
 10
120.3292085598
 20
259.5387431699
 30
2.055823291699999
 11
121.2187688091
 21
259.461670016
 31
2.132625051199999
 11
121.2105575963
 21
259.4602486519
 31
2.2118235921
 11
121.1850822016
 21
259.4603264084
 31
2.289965331899999
 11
121.1435749363
 21
259.4619567864
 31
2.361097175399999
 11
121.0892129039
 21
259.4649499493
 31
2.422023574899999
 11
121.0238241488
 21
259.4691547005
 31
2.4723621802
 11
120.9492494328
 21
259.4744388792
 31
2.511018642699999
 11
120.8694642012
 21
259.480515138
 31
2.5360514829
 11
120.7874222074
 21
259.4871549334
 31
2.546705237999999
 11
120.7043130031
 21
259.4942796496
 31
2.5422888161
 11
120.6235583258
 21
259.5016216683
 31
2.522153929399999
 11
120.5497968333
 21
259.508720698
 31
2.488777937
 11
120.4857112655
 21
259.5152526488
 31
2.445760478299999
 11
120.4314023406
 21
259.5211677184
 31
2.3947533014
 11
120.3877375849
 21
259.5263715829
 31
2.336784887599999
 11
120.3557653002
 21
259.5307979867
 31
2.2713566092
 11
120.3363929881
 21
259.5344183483
 31
2.196758470899999
 11
120.3287924123
 21
259.5372647461
 31
2.1136206124
 11
120.3292085598
 21
259.5387431699
 31
2.055823291699999
  0
SPLINE
  5
642
330
1B
100
AcDbEntity
  8
LOGO
  6
Continuous
100
AcDbSpline
 70
     0
 71
     3
 72
    17
 73
    13
 74
    11
 42
0.0000000001
 43
0.0000000001
 44
0.0000000001
 40
0.0
 40
0.0
 40
0.0
 40
0.0
 40
0.0289584162137479
 40
0.1145134285560291
 40
0.198620495264477
 40
0.282373783029276
 40
0.3690354947029794
 40
0.4619531245618722
 40
0.5642725573925783
 40
0.6771941661105145
 40
0.8008089011430712
 40
0.9351893515030834
 40
0.9351893515030834
 40
0.9351893515030834
 40
0.9351893515030834
 10
120.3292085598
 20
259.5387431699
 30
2.055823291699999
 10
120.3296506745146
 20
259.5389559070691
 30
2.046182542981598
 10
120.3313989770257
 20
259.5397971568955
 30
2.008059077200788
 10
120.3378335421985
 20
259.5409287255553
 30
1.942125409814828
 10
120.3494369988585
 20
259.5420074156837
 30
1.858458629961424
 10
120.3623595409002
 20
259.5428960212955
 30
1.774611146948847
 10
120.3755629857911
 20
259.5437356059636
 30
1.687836719972319
 10
120.3897478173312
 20
259.544524172592
 30
1.594950498185738
 10
120.4051667312773
 20
259.5452684552166
 30
1.493397471526724
 10
120.4219473870126
 20
259.5459454589385
 30
1.381701025301374
 10
120.4400450291366
 20
259.5465398210907
 30
1.259394757974467
 10
120.4521864346753
 20
259.5468120830817
 30
1.174258025658765
 10
120.4585104579
 20
259.5469538946
 30
1.129913351499999
 11
120.3292085598
 21
259.5387431699
 31
2.055823291699999
 11
120.3306603412
 21
259.5393693045
 31
2.0269080681
 11
120.3384582162
 21
259.5408748265
 31
1.941722466699999
 11
120.3496632134
 21
259.5419766686
 31
1.858372405799999
 11
120.3621858608
 21
259.5428733965
 31
1.775565447199999
 11
120.3752568049
 21
259.5436993095
 31
1.6898991145
 11
120.3892622033
 21
259.5444809763
 31
1.5980463859
 11
120.4046112388
 21
259.5452225486
 31
1.496887483599999
 11
120.4213785005
 21
259.5459027744
 31
1.385219735599999
 11
120.4394172245
 21
259.5464901653
 31
1.262929661899999
 11
120.4585104579
 21
259.5469538946
 31
1.129913351499999
  0
SPLINE
  5
643
330
1B
100
AcDbEntity
  8
0
  6
Continuous
100
AcDbSpline
210
0.0
220
0.0
230
1.0
 70
     8
 71
     3
 72
    13
 73
     9
 74
     7
 42
0.0000000001
 43
0.0000000001
 44
0.0000000001
 40
0.0
 40
0.0
 40
0.0
 40
0.0
 40
4.526778653325345
 40
8.044867462032862
 40
11.56344902796617
 40
18.60093149370765
 40
25.63874134449036
 40
32.67576744598417
 40
32.67576744598417
 40
32.67576744598417
 40
32.67576744598417
 10
151.2681829303
 20
200.5435307204
 30
0.0
 10
151.6270252375224
 20
202.0093238058649
 30
0.0
 10
152.2647499911403
 20
204.6142912678075
 30
0.0
 10
153.0340012843799
 20
208.3919729148115
 30
0.0
 10
153.8591115464938
 20
213.0106579917041
 30
0.0
 10
154.6530604328493
 20
218.8237086385967
 30
0.0
 10
155.2657803704728
 20
225.8392639154961
 30
0.0
 10
155.3613053163085
 20
230.5310037361925
 30
0.0
 10
155.4090651296
 20
232.8767430181
 30
0.0
 11
151.2681829303
 21
200.5435307204
 31
0.0
 11
152.3122419002
 21
204.9482629306
 31
0.0
 11
153.0200757456
 21
208.3944086201
 31
0.0
 11
153.6369801806
 21
211.8584878851
 31
0.0
 11
154.5963793271
 21
218.8302676244
 31
0.0
 11
155.1875559616
 21
225.8432040766
 31
0.0
 11
155.4090651296
 21
232.8767430181
 31
0.0
  0
SPLINE
  5
644
330
1B
100
AcDbEntity
  8
0
  6
Continuous
100
AcDbSpline
210
0.0
220
0.0
230
1.0
 70
     8
 71
     3
 72
    14
 73
    10
 74
     8
 42
0.0000000001
 43
0.0000000001
 44
0.0000000001
 40
0.0
 40
0.0
 40
0.0
 40
0.0
 40
3.498828420583654
 40
8.367606769050974
 40
13.237281424332
 40
18.1072213717936
 40
22.97680425818741
 40
27.84540846526614
 40
32.67691709984828
 40
32.67691709984828
 40
32.67691709984828
 40
32.67691709984828
 10
151.2681845423
 20
200.5435303074
 30
0.0
 10
151.5476372569821
 20
201.6758944295674
 30
0.0
 10
152.2159610916826
 20
204.3839945575807
 30
0.0
 10
153.1078938136528
 20
208.7067486424878
 30
0.0
 10
153.9279790160045
 20
213.5075186958275
 30
0.0
 10
154.5708632240605
 20
218.3358844962815
 30
0.0
 10
155.0346697816331
 20
223.1839333645501
 30
0.0
 10
155.3334587528325
 20
228.0329352610394
 30
0.0
 10
155.3839351284916
 20
231.266262106472
 30
0.0
 10
155.4090767994
 20
232.8767430181
 30
0.0
 11
151.2681845423
 21
200.5435303074
 31
0.0
 11
152.0882698094
 21
203.9448918688
 31
0.0
 11
153.0804675449
 21
208.711499285
 31
0.0
 11
153.898424252
 21
213.5119865596
 31
0.0
 11
154.5410359608
 21
218.3393424905
 31
0.0
 11
155.0073253633
 21
223.1865490758
 31
0.0
 11
155.296822769
 21
228.0465386002
 31
0.0
 11
155.4090767994
 21
232.8767430181
 31
0.0
  0
SPLINE
  5
645
330
1B
100
AcDbEntity
  8
0
  6
Continuous
100
AcDbSpline
210
0.0
220
0.0
230
1.0
 70
    24
 71
     3
 72
     8
 73
     4
 74
     2
 42
0.0000000001
 43
0.0000000001
 44
0.0000000001
 40
0.0
 40
0.0
 40
0.0
 40
0.0
 40
0.0057231194432095
 40
0.0057231194432095
 40
0.0057231194432095
 40
0.0057231194432095
 10
144.1463583621
 20
179.8792838539
 30
0.0
 10
144.1471262548333
 20
179.8810301885666
 30
0.0
 10
144.1478941475667
 20
179.8827765232333
 30
0.0
 10
144.1486620403
 20
179.8845228579
 30
0.0
 11
144.1463583621
 21
179.8792838539
 31
0.0
 11
144.1486620403
 21
179.8845228579
 31
0.0
  0
SPLINE
  5
646
330
1B
100
AcDbEntity
  8
0
  6
Continuous
100
AcDbSpline
210
0.0
220
0.0
230
1.0
 70
     8
 71
     3
 72
    12
 73
     8
 74
     6
 42
0.0000000001
 43
0.0000000001
 44
0.0000000001
 40
0.0
 40
0.0
 40
0.0
 40
0.0
 40
4.267148443100282
 40
8.749210782647261
 40
13.23368714737369
 40
17.72029157880833
 40
21.87071685886778
 40
21.87071685886778
 40
21.87071685886778
 40
21.87071685886778
 10
144.1486620403
 20
179.8845228579
 30
0.0
 10
144.709001079561
 20
181.1920101273195
 30
0.0
 10
145.857900497899
 20
183.8728359453846
 30
0.0
 10
147.4264600031978
 20
187.9971825179723
 30
0.0
 10
148.8858312372244
 20
192.2379632198332
 30
0.0
 10
150.1762016684957
 20
196.4184819321219
 30
0.0
 10
150.913036274943
 20
199.2018292875295
 30
0.0
 10
151.2671136696
 20
200.5393348436
 30
0.0
 11
144.1486620403
 21
179.8845228579
 31
0.0
 11
145.8030675884
 21
183.8179053867
 31
0.0
 11
147.4036582718
 21
188.0044304708
 31
0.0
 11
148.8628740351
 21
192.2448570557
 31
0.0
 11
150.1788959294
 21
196.5341117343
 31
0.0
 11
151.2671136696
 21
200.5393348436
 31
0.0
  0
SPLINE
  5
647
330
1B
100
AcDbEntity
  8
0
  6
Continuous
100
AcDbSpline
210
0.0
220
0.0
230
1.0
 70
     8
 71
     3
 72
    10
 73
     6
 74
     4
 42
0.0000000001
 43
0.0000000001
 44
0.0000000001
 40
0.0
 40
0.0
 40
0.0
 40
0.0
 40
0.8364327827232169
 40
1.80175736504433
 40
2.820696692196179
 40
2.820696692196179
 40
2.820696692196179
 40
2.820696692196179
 10
155.4090767998
 20
232.8767430181
 30
0.0
 10
155.410515592824
 20
233.1555502332317
 30
0.0
 10
155.4136148925902
 20
233.7561280246183
 30
0.0
 10
155.4184673404222
 20
234.6963477337594
 30
0.0
 10
155.4218810806252
 20
235.357760227328
 30
0.0
 10
155.4236340703
 20
235.6974021459
 30
0.0
 11
155.4090767998
 21
232.8767430181
 31
0.0
 11
155.4133932361
 21
233.7131646632
 31
0.0
 11
155.4183751563
 21
234.6784763899
 31
0.0
 11
155.4236340703
 21
235.6974021459
 31
0.0
  0
SPLINE
  5
648
330
1B
100
AcDbEntity
  8
0
  6
Continuous
100
AcDbSpline
210
0.0
220
0.0
230
1.0
 70
     8
 71
     3
 72
    18
 73
    14
 74
    12
 42
0.0000000001
 43
0.0000000001
 44
0.0000000001
 40
0.0
 40
0.0
 40
0.0
 40
0.0
 40
2.481583916148189
 40
7.314121135791968
 40
12.17669861835643
 40
17.0658389694423
 40
21.97793041058167
 40
26.90928884682466
 40
31.85613158657886
 40
36.81459322602973
 40
41.78077630588117
 40
46.75073944790358
 40
51.31709757717875
 40
51.31709757717875
 40
51.31709757717875
 40
51.31709757717875
 10
140.1496737502
 20
182.0539273345
 30
0.0
 10
140.3976884037447
 20
182.8430784008283
 30
0.0
 10
141.1286768694876
 20
185.1689906764542
 30
0.0
 10
142.2464795684278
 20
189.0716828885388
 30
0.0
 10
143.4607648581359
 20
193.7795509444337
 30
0.0
 10
144.5487356833623
 20
198.5455354512152
 30
0.0
 10
145.5113080346052
 20
203.3617388720631
 30
0.0
 10
146.3464674513571
 20
208.221197770439
 30
0.0
 10
147.0531649070645
 20
213.1165753128379
 30
0.0
 10
147.6314012090915
 20
218.0405309731246
 30
0.0
 10
148.077277560164
 20
222.985795476259
 30
0.0
 10
148.3931185273598
 20
227.8104651055441
 30
0.0
 10
148.500077003992
 20
230.9875907531933
 30
0.0
 10
148.5512928445
 20
232.5089209513
 30
0.0
 11
140.1496737502
 21
182.0539273345
 31
0.0
 11
140.8868610777
 21
184.42348712
 31
0.0
 11
142.223154563
 21
189.0675947523
 31
0.0
 11
143.4365718626
 21
193.7763396202
 31
0.0
 11
144.5254294904
 21
198.5426885834
 31
0.0
 11
145.4883078606
 21
203.3594829085
 31
0.0
 11
146.3238432373
 21
208.2195422354
 31
0.0
 11
147.0309953574
 21
213.1155803246
 31
0.0
 11
147.6089370829
 21
218.0402453073
 31
0.0
 11
148.0569174152
 21
222.9861818217
 31
0.0
 11
148.3745499751
 21
227.9459845587
 31
0.0
 11
148.5512928445
 21
232.5089209513
 31
0.0
  0
SPLINE
  5
649
330
1B
100
AcDbEntity
  8
0
  6
Continuous
100
AcDbSpline
210
0.0
220
0.0
230
1.0
 70
     8
 71
     3
 72
    13
 73
     9
 74
     7
 42
0.0000000001
 43
0.0000000001
 44
0.0000000001
 40
0.0
 40
0.0
 40
0.0
 40
0.0
 40
4.526778644255201
 40
8.044867452942599
 40
11.5634490188759
 40
18.60093148463102
 40
25.63874133540533
 40
32.67576743689914
 40
32.67576743689914
 40
32.67576743689914
 40
32.67576743689914
 10
76.8327238868
 20
200.5435307292
 30
0.0
 10
76.47388158033704
 20
202.0093238117378
 30
0.0
 10
75.83615682751167
 20
204.6142912707546
 30
0.0
 10
75.06690553504836
 20
208.3919729148245
 30
0.0
 10
74.24179527290765
 20
213.0106579917072
 30
0.0
 10
73.44784638638262
 20
218.8237086385825
 30
0.0
 10
72.83512644896905
 20
225.8392639155027
 30
0.0
 10
72.73960150310549
 20
230.5310037361938
 30
0.0
 10
72.6918416898
 20
232.8767430181
 30
0.0
 11
76.8327238868
 21
200.5435307292
 31
0.0
 11
75.7886649191
 21
204.9482629306
 31
0.0
 11
75.0808310738
 21
208.3944086201
 31
0.0
 11
74.4639266388
 21
211.8584878851
 31
0.0
 11
73.5045274922
 21
218.8302676244
 31
0.0
 11
72.9133508578
 21
225.8432040766
 31
0.0
 11
72.6918416898
 21
232.8767430181
 31
0.0
  0
SPLINE
  5
64A
330
1B
100
AcDbEntity
  8
0
  6
Continuous
100
AcDbSpline
210
0.0
220
0.0
230
1.0
 70
     8
 71
     3
 72
    14
 73
    10
 74
     8
 42
0.0000000001
 43
0.0000000001
 44
0.0000000001
 40
0.0
 40
0.0
 40
0.0
 40
0.0
 40
4.831508634582141
 40
9.700112841654924
 40
14.56969572805831
 40
19.43963567551992
 40
24.30931033080094
 40
29.17808867924789
 40
32.67691709076104
 40
32.67691709076104
 40
32.67691709076104
 40
32.67691709076104
 10
72.69183002
 20
232.8767430181
 30
0.0
 10
72.71697169092255
 20
231.2662621064729
 30
0.0
 10
72.7674480666101
 20
228.0329352610444
 30
0.0
 10
73.06623703759465
 20
223.1839333645392
 30
0.0
 10
73.53004359538765
 20
218.3358844962893
 30
0.0
 10
74.17292780337297
 20
213.5075186958242
 30
0.0
 10
74.9930130057877
 20
208.7067486425028
 30
0.0
 10
75.88494572697691
 20
204.3839945605296
 30
0.0
 10
76.55326956087451
 20
201.6758944354397
 30
0.0
 10
76.83272227480001
 20
200.5435303162
 30
0.0
 11
72.69183002
 21
232.8767430181
 31
0.0
 11
72.80408405039999
 21
228.0465386002
 31
0.0
 11
73.093581456
 21
223.1865490758
 31
0.0
 11
73.55987085859999
 21
218.3393424905
 31
0.0
 11
74.2024825674
 21
213.5119865596
 31
0.0
 11
75.02043927450001
 21
208.711499285
 31
0.0
 11
76.0126370099
 21
203.9448918688
 31
0.0
 11
76.83272227480001
 21
200.5435303162
 31
0.0
  0
SPLINE
  5
64B
330
1B
100
AcDbEntity
  8
0
  6
Continuous
100
AcDbSpline
210
0.0
220
0.0
230
1.0
 70
     8
 71
     3
 72
    12
 73
     8
 74
     6
 42
0.0000000001
 43
0.0000000001
 44
0.0000000001
 40
0.0
 40
0.0
 40
0.0
 40
0.0
 40
4.150425280085669
 40
8.637029711520313
 40
13.1215060762142
 40
17.60356841579689
 40
21.87297686768697
 40
21.87297686768697
 40
21.87297686768697
 40
21.87297686768697
 10
76.8337931497
 20
200.5393348436
 30
0.0
 10
77.18787055262845
 20
199.2018292914364
 30
0.0
 10
77.92470517628607
 20
196.4184819441683
 30
0.0
 10
79.21507547110183
 20
192.2379631671478
 30
0.0
 10
80.67444723129216
 20
187.9971827149216
 30
0.0
 10
82.24327267735441
 20
183.8721308819201
 30
0.0
 10
83.39250240126007
 20
181.1906266372113
 30
0.0
 10
83.953154572
 20
179.8824537416
 30
0.0
 11
76.8337931497
 21
200.5393348436
 31
0.0
 11
77.92201089
 21
196.5341117343
 31
0.0
 11
79.2380327843
 21
192.2448570557
 31
0.0
 11
80.6972485475
 21
188.0044304708
 31
0.0
 11
82.29783923099998
 21
183.8179053867
 31
0.0
 11
83.953154572
 21
179.8824537416
 31
0.0
  0
SPLINE
  5
64C
330
1B
100
AcDbEntity
  8
0
  6
Continuous
100
AcDbSpline
210
0.0
220
0.0
230
1.0
 70
    24
 71
     3
 72
     8
 73
     4
 74
     2
 42
0.0000000001
 43
0.0000000001
 44
0.0000000001
 40
0.0
 40
0.0
 40
0.0
 40
0.0
 40
0.0034628173473758
 40
0.0034628173473758
 40
0.0034628173473758
 40
0.0034628173473758
 10
83.953154572
 20
179.8824537416
 30
0.0
 10
83.95361920039998
 20
179.8813971123666
 30
0.0
 10
83.95408382879998
 20
179.8803404831333
 30
0.0
 10
83.95454845720001
 20
179.8792838539
 30
0.0
 11
83.953154572
 21
179.8824537416
 31
0.0
 11
83.95454845720001
 21
179.8792838539
 31
0.0
  0
SPLINE
  5
64D
330
1B
100
AcDbEntity
  8
0
  6
Continuous
100
AcDbSpline
210
0.0
220
0.0
230
1.0
 70
     8
 71
     3
 72
    10
 73
     6
 74
     4
 42
0.0000000001
 43
0.0000000001
 44
0.0000000001
 40
0.0
 40
0.0
 40
0.0
 40
0.0
 40
1.018939327151849
 40
1.984263909472962
 40
2.820696692196179
 40
2.820696692196179
 40
2.820696692196179
 40
2.820696692196179
 10
72.677272749
 20
235.6974021459
 30
0.0
 10
72.67902573867485
 20
235.357760227328
 30
0.0
 10
72.68243947887781
 20
234.6963477337594
 30
0.0
 10
72.68729192670983
 20
233.7561280246183
 30
0.0
 10
72.69039122647595
 20
233.1555502332318
 30
0.0
 10
72.6918300195
 20
232.8767430181
 30
0.0
 11
72.677272749
 21
235.6974021459
 31
0.0
 11
72.68253166300001
 21
234.6784763899
 31
0.0
 11
72.6875135832
 21
233.7131646632
 31
0.0
 11
72.6918300195
 21
232.8767430181
 31
0.0
  0
SPLINE
  5
64E
330
1B
100
AcDbEntity
  8
0
  6
Continuous
100
AcDbSpline
210
0.0
220
0.0
230
1.0
 70
     8
 71
     3
 72
    45
 73
    41
 74
    39
 42
0.0000000001
 43
0.0000000001
 44
0.0000000001
 40
0.0
 40
0.0
 40
0.0
 40
0.0
 40
0.4280538116439961
 40
0.8172351947571177
 40
1.170805669726655
 40
1.492018942919152
 40
1.784115106006504
 40
2.050350350633847
 40
2.293967009097562
 40
2.517807386750834
 40
2.723410397940375
 40
2.912022797615794
 40
3.084910469931101
 40
3.243245006413176
 40
3.388084701122558
 40
3.520498620323975
 40
3.641563235157102
 40
3.752342721128086
 40
3.853664703721148
 40
3.946107067160819
 40
4.030255833158576
 40
4.106705602913948
 40
4.176095093793669
 40
4.239090440587931
 40
4.296215363500661
 40
4.348041367660284
 40
4.395174443042311
 40
4.438235185521108
 40
4.477844562377396
 40
4.514613651487768
 40
4.549137007167691
 40
4.581914840613587
 40
4.612668055675624
 40
4.64073262601566
 40
4.665821263960282
 40
4.687553918911187
 40
4.705554374232467
 40
4.719660613431587
 40
4.729546881621261
 40
4.7336113354775
 40
4.7336113354775
 40
4.7336113354775
 40
4.7336113354775
 10
145.7608049181
 20
184.3368910162
 30
0.0
 10
145.7138676484961
 20
184.2021475248921
 30
0.0
 10
145.6242555772502
 20
183.9448968700308
 30
0.0
 10
145.4947999484433
 20
183.5767241348657
 30
0.0
 10
145.3765231403742
 20
183.2423726557134
 30
0.0
 10
145.2684594321293
 20
182.9387358160642
 30
0.0
 10
145.169692977793
 20
182.6626910998174
 30
0.0
 10
145.0792535832543
 20
182.4111386737235
 30
0.0
 10
144.9961909877285
 20
182.1811120750109
 30
0.0
 10
144.9197240231219
 20
181.9701920583076
 30
0.0
 10
144.8492807013552
 20
181.7765908758324
 30
0.0
 10
144.784455916071
 20
181.5990190618078
 30
0.0
 10
144.7248764224341
 20
181.436305730816
 30
0.0
 10
144.6701820487849
 20
181.2873420070146
 30
0.0
 10
144.6200279517998
 20
181.1510831957025
 30
0.0
 10
144.574073972263
 20
181.0265166035646
 30
0.0
 10
144.5319738005396
 20
180.912629670016
 30
0.0
 10
144.4934042931721
 20
180.8084870385241
 30
0.0
 10
144.458096138688
 20
180.7133106163483
 30
0.0
 10
144.4258324189858
 20
180.6264728525069
 30
0.0
 10
144.3964208155437
 20
180.5474199034842
 30
0.0
 10
144.369659821831
 20
180.4755796966358
 30
0.0
 10
144.345336714456
 20
180.4103558317404
 30
0.0
 10
144.3232453515023
 20
180.3511746639385
 30
0.0
 10
144.303186026394
 20
180.2974840553084
 30
0.0
 10
144.2849648151743
 20
180.2487511056509
 30
0.0
 10
144.2683754485197
 20
180.204413052801
 30
0.0
 10
144.253205004491
 20
180.1638920181974
 30
0.0
 10
144.2392392237211
 20
180.1266088117413
 30
0.0
 10
144.2262662839968
 20
180.0919925990243
 30
0.0
 10
144.214088003729
 20
180.059510418813
 30
0.0
 10
144.2026100579971
 20
180.0289072652612
 30
0.0
 10
144.1918853324869
 20
180.0003209829901
 30
0.0
 10
144.1820591412984
 20
179.9741351057641
 30
0.0
 10
144.1732883125708
 20
179.9507647878342
 30
0.0
 10
144.1656971912767
 20
179.9305349081822
 30
0.0
 10
144.1593917822099
 20
179.9137326151689
 30
0.0
 10
144.1544814653738
 20
179.9006244948029
 30
0.0
 10
144.1511945274519
 20
179.8918687890131
 30
0.0
 10
144.1495792252036
 20
179.8875081049722
 30
0.0
 10
144.1491086172
 20
179.8862376475
 30
0.0
 11
145.7608049181
 21
184.3368910162
 31
0.0
 11
145.6197875188
 21
183.932732435
 31
0.0
 11
145.4907408514
 21
183.5655688385
 31
0.0
 11
145.3728150843
 21
183.2322437806
 31
0.0
 11
145.2651164351
 21
182.9296236097
 31
0.0
 11
145.1667153418
 21
182.6546010773
 31
0.0
 11
145.0766420089
 21
182.4040656503
 31
0.0
 11
144.9939014036
 21
182.1749301696
 31
0.0
 11
144.9176095018
 21
181.9644923869
 31
0.0
 11
144.8473084792
 21
181.7712817132
 31
0.0
 11
144.7826285515
 21
181.5941062514
 31
0.0
 11
144.7231834734
 21
181.4317596163
 31
0.0
 11
144.668610808
 21
181.2831270168
 31
0.0
 11
144.6185799132
 21
181.1472026013
 31
0.0
 11
144.5727502241
 21
181.0229726307
 31
0.0
 11
144.5307731365
 21
180.9094183922
 31
0.0
 11
144.4922995226
 21
180.8055344399
 31
0.0
 11
144.4570584431
 21
180.7105385954
 31
0.0
 11
144.4248628277
 21
180.6238839192
 31
0.0
 11
144.3955204034
 21
180.5450167083
 31
0.0
 11
144.3688337932
 21
180.4733759927
 31
0.0
 11
144.3445883313
 21
180.408360156
 31
0.0
 11
144.322558079
 21
180.3493425171
 31
0.0
 11
144.3025654756
 21
180.2958303444
 31
0.0
 11
144.2844150517
 21
180.2472865825
 31
0.0
 11
144.2678982206
 21
180.2031422614
 31
0.0
 11
144.2528003942
 21
180.1628150599
 31
0.0
 11
144.2389061112
 21
180.1257225858
 31
0.0
 11
144.2260027703
 21
180.0912919351
 31
0.0
 11
144.2138830854
 21
180.058965857
 31
0.0
 11
144.2023725408
 21
180.0282755698
 31
0.0
 11
144.1915701847
 21
179.9994820056
 31
0.0
 11
144.1817104301
 21
179.97320644
 31
0.0
 11
144.1728954526
 21
179.9497173803
 31
0.0
 11
144.1652600316
 21
179.9293701781
 31
0.0
 11
144.1589375605
 21
179.9125166101999
 31
0.0
 11
144.1539861881
 21
179.8993079049
 31
0.0
 11
144.1505220588
 21
179.8900484175
 31
0.0
 11
144.1491086172
 21
179.8862376475
 31
0.0
  0
SPLINE
  5
64F
330
1B
100
AcDbEntity
  8
0
  6
Continuous
100
AcDbSpline
210
0.0
220
0.0
230
1.0
 70
     8
 71
     3
 72
    51
 73
    47
 74
    45
 42
0.0000000001
 43
0.0000000001
 44
0.0000000001
 40
0.0
 40
0.0
 40
0.0
 40
0.0
 40
0.2121447544453567
 40
0.4100114472282341
 40
0.5942256027748201
 40
0.7653810676052077
 40
0.9240735187679574
 40
1.070924362851552
 40
1.206538996003129
 40
1.331486382598082
 40
1.446346165003039
 40
1.551705817986972
 40
1.648158010716442
 40
1.736298731828279
 40
1.816725757962343
 40
1.890037523931916
 40
1.956832395814402
 40
2.017708252154944
 40
2.073262283890697
 40
2.124090921152827
 40
2.170789824338041
 40
2.213953896896072
 40
2.254177287743072
 40
2.29205336428516
 40
2.328174636153934
 40
2.36313747092298
 40
2.397516735322134
 40
2.431464269127838
 40
2.464865226885896
 40
2.497572957986685
 40
2.529451983020057
 40
2.560375772005625
 40
2.590227877109696
 40
2.618901342431604
 40
2.646296528696644
 40
2.67231763827864
 40
2.696868400490914
 40
2.719847550587725
 40
2.741125098667883
 40
2.760734647460386
 40
2.778886831789853
 40
2.795282346053015
 40
2.809427864404293
 40
2.821298180031616
 40
2.830913715595946
 40
2.83795470418391
 40
2.83795470418391
 40
2.83795470418391
 40
2.83795470418391
 10
77.2299672326
 20
232.8767430181
 30
0.0
 10
77.22519806059242
 20
232.9472969312296
 30
0.0
 10
77.2159806980325
 20
233.0836562397855
 30
0.0
 10
77.20258609277894
 20
233.2812780261362
 30
0.0
 10
77.19006549575539
 20
233.465264601957
 30
0.0
 10
77.17836524548336
 20
233.6362187114045
 30
0.0
 10
77.16743643431974
 20
233.7947420292618
 30
0.0
 10
77.15723281777525
 20
233.9414402540507
 30
0.0
 10
77.14771177255487
 20
234.07691039111
 30
0.0
 10
77.13883429561938
 20
234.2017357269128
 30
0.0
 10
77.13056417714979
 20
234.3164937430846
 30
0.0
 10
77.12286663578497
 20
234.4217699358944
 30
0.0
 10
77.11570805981908
 20
234.5181553451631
 30
0.0
 10
77.10905569397626
 20
234.6062445181358
 30
0.0
 10
77.10287727436077
 20
234.686633972782
 30
0.0
 10
77.09714062301765
 20
234.7599210403906
 30
0.0
 10
77.09181323163149
 20
234.8267030774517
 30
0.0
 10
77.08686176802124
 20
234.8875769798988
 30
0.0
 10
77.08225164197793
 20
234.9431389177059
 30
0.0
 10
77.07794662677341
 20
234.9939842084039
 30
0.0
 10
77.07390842871628
 20
235.0407072545979
 30
0.0
 10
77.07009628804789
 20
235.0839015061076
 30
0.0
 10
77.06646658101539
 20
235.1241594127716
 30
0.0
 10
77.06297239739416
 20
235.1620723414555
 30
0.0
 10
77.05956289529415
 20
235.1982320457564
 30
0.0
 10
77.05618328437386
 20
235.2332237073742
 30
0.0
 10
77.05278782936566
 20
235.2674857867583
 30
0.0
 10
77.0493498132043
 20
235.3012203497336
 30
0.0
 10
77.04586451835932
 20
235.3343898787063
 30
0.0
 10
77.04233667404984
 20
235.3668614489052
 30
0.0
 10
77.03877155812987
 20
235.3984981518678
 30
0.0
 10
77.03517350555391
 20
235.4291729469759
 30
0.0
 10
77.03154586199544
 20
235.4587680527665
 30
0.0
 10
77.0278908902965
 20
235.4871743286774
 30
0.0
 10
77.02420983707489
 20
235.514289117921
 30
0.0
 10
77.02050312876109
 20
235.5400127743486
 30
0.0
 10
77.01677088681342
 20
235.5642445413106
 30
0.0
 10
77.01301424456329
 20
235.5868711208067
 30
0.0
 10
77.00922754192499
 20
235.6078217529255
 30
0.0
 10
77.00537836200357
 20
235.6271212613943
 30
0.0
 10
77.00144064066404
 20
235.6447460235131
 30
0.0
 10
76.99737495771204
 20
235.6604487722626
 30
0.0
 10
76.99326633055468
 20
235.6740255475436
 30
0.0
 10
76.98884985804953
 20
235.6849566786008
 30
0.0
 10
76.98470188301653
 20
235.6938144316894
 30
0.0
 10
76.98017499305227
 20
235.697151957339
 30
0.0
 10
76.9782614017
 20
235.6985627847
 30
0.0
 11
77.2299672326
 21
232.8767430181
 31
0.0
 11
77.21565307189999
 21
233.088404308
 31
0.0
 11
77.2022690969
 21
233.2858178266
 31
0.0
 11
77.18975765499999
 21
233.4696066155
 31
0.0
 11
77.1780668711
 21
233.6403623437
 31
0.0
 11
77.1671482104
 21
233.798678726
 31
0.0
 11
77.15695458330001
 21
233.9451753484
 31
0.0
 11
77.147442922
 21
234.0804560086
 31
0.0
 11
77.1385753741
 21
234.2050883319
 31
0.0
 11
77.1303157161
 21
234.3196507501
 31
0.0
 11
77.1226291519
 21
234.4247296405
 31
0.0
 11
77.1154820659
 21
234.52091667
 31
0.0
 11
77.10884169919999
 21
234.6088068984
 31
0.0
 11
77.1026757847
 21
234.6889972222
 31
0.0
 11
77.09695214549998
 21
234.762085217
 31
0.0
 11
77.0916382623
 21
234.8286683797
 31
0.0
 11
77.08670079869999
 21
234.889343674
 31
0.0
 11
77.08210516539999
 21
234.9447072956
 31
0.0
 11
77.07781512130001
 21
234.9953545649
 31
0.0
 11
77.0737923559
 21
235.0418798797
 31
0.0
 11
77.0699960876
 21
235.0848766878
 31
0.0
 11
77.066382666
 21
235.1249374461
 31
0.0
 11
77.0629051488
 21
235.1626535441
 31
0.0
 11
77.05951280509999
 21
235.1986151665
 31
0.0
 11
77.0561499909
 21
235.2334159035
 31
0.0
 11
77.052757669
 21
235.2676273924
 31
0.0
 11
77.0493135943
 21
235.3013997687
 31
0.0
 11
77.04582063389999
 21
235.3346175833
 31
0.0
 11
77.04228490769999
 21
235.3671336457
 31
0.0
 11
77.03871153379998
 21
235.3988117649
 31
0.0
 11
77.0351047871
 21
235.4295245001
 31
0.0
 11
77.03146785849999
 21
235.4591542306
 31
0.0
 11
77.02780274440001
 21
235.4875924892
 31
0.0
 11
77.0241102837
 21
235.5147376907
 31
0.0
 11
77.02039035990001
 21
235.5404915314
 31
0.0
 11
77.0166422784
 21
235.5647545034
 31
0.0
 11
77.0128653291
 21
235.5874211307
 31
0.0
 11
77.0090632508
 21
235.6083562269
 31
0.0
 11
77.00520684919999
 21
235.6275828379
 31
0.0
 11
77.0012100344
 21
235.6452895391
 31
0.0
 11
76.9970693276
 21
235.6611535687
 31
0.0
 11
76.99283768950001
 21
235.6746513066
 31
0.0
 11
76.9884296648
 21
235.6856728179
 31
0.0
 11
76.98362604720001
 21
235.6940025107
 31
0.0
 11
76.9782614017
 21
235.6985627847
 31
0.0
  0
SPLINE
  5
650
330
1B
100
AcDbEntity
  8
0
  6
Continuous
100
AcDbSpline
210
0.0
220
0.0
230
1.0
 70
     8
 71
     3
 72
    17
 73
    13
 74
    11
 42
0.0000000001
 43
0.0000000001
 44
0.0000000001
 40
0.0
 40
0.0
 40
0.0
 40
0.0
 40
0.7103318372153369
 40
1.429353716224895
 40
2.116181248575263
 40
2.737194366496672
 40
3.268358051323943
 40
3.698422904656784
 40
4.031374076629817
 40
4.288078550794976
 40
4.51004897386499
 40
4.739921146908686
 40
4.739921146908686
 40
4.739921146908686
 40
4.739921146908686
 10
76.9782614017
 20
235.6985627847
 30
0.0
 10
76.75467204414967
 20
235.7766746613397
 30
0.0
 10
76.30475798655122
 20
235.933854017954
 30
0.0
 10
75.62281254016332
 20
236.1167719766115
 30
0.0
 10
74.96201175532477
 20
236.2578613496679
 30
0.0
 10
74.35602985336676
 20
236.3553349585529
 30
0.0
 10
73.82893419413878
 20
236.3866422365785
 30
0.0
 10
73.39610910391284
 20
236.367619596234
 30
0.0
 10
73.06425496257589
 20
236.2807873539919
 30
0.0
 10
72.82806957858615
 20
236.1361470082905
 30
0.0
 10
72.69749563623161
 20
235.9272997704988
 30
0.0
 10
72.68409662140925
 20
235.7756922094387
 30
0.0
 10
72.6772799541
 20
235.6985627847
 30
0.0
 11
76.9782614017
 21
235.6985627847
 31
0.0
 11
76.30485094019998
 21
235.9245930245
 31
0.0
 11
75.6110519195
 21
236.1133663843
 31
0.0
 11
74.93929428680001
 21
236.256452869
 31
0.0
 11
74.3252126809
 21
236.3489789406
 31
0.0
 11
73.7948711455
 21
236.3785207061
 31
0.0
 11
73.36581284979999
 21
236.3491139558
 31
0.0
 11
73.04591511419999
 21
236.2567997008
 31
0.0
 11
72.83265338690001
 21
236.1139129529
 31
0.0
 11
72.7158133165
 21
235.9251822806
 31
0.0
 11
72.6772799541
 21
235.6985627847
 31
0.0
  0
SPLINE
  5
651
330
1B
100
AcDbEntity
  8
0
  6
Continuous
100
AcDbSpline
210
0.0
220
0.0
230
1.0
 70
     8
 71
     3
 72
    51
 73
    47
 74
    45
 42
0.0000000001
 43
0.0000000001
 44
0.0000000001
 40
0.0
 40
0.0
 40
0.0
 40
0.0
 40
0.0074314132795157
 40
0.0169509319944938
 40
0.0291876822260218
 40
0.0437788180111451
 40
0.0607336765200853
 40
0.0801640166356245
 40
0.1022360980148419
 40
0.1271142058560349
 40
0.1548353083684367
 40
0.185194709466587
 40
0.2183521585536458
 40
0.2546344040522805
 40
0.294221080321651
 40
0.3372293404988181
 40
0.3837681357530965
 40
0.4339045663061048
 40
0.4876551223577554
 40
0.545020074482333
 40
0.6060024828053696
 40
0.6706055667594221
 40
0.7388308234069585
 40
0.810675725363216
 40
0.8861312264110069
 40
0.9651793394434937
 40
1.047785814378234
 40
1.133917215929025
 40
1.223906737904672
 40
1.318908619810799
 40
1.420314629470502
 40
1.529493430929997
 40
1.64781858210177
 40
1.776668331021651
 40
1.917425219411394
 40
2.071475327543711
 40
2.240206534396697
 40
2.425006512665905
 40
2.627259310286995
 40
2.848340086551886
 40
3.089607835287673
 40
3.352400685355927
 40
3.638131018057742
 40
3.948232177837032
 40
4.28410070076026
 40
4.647131838590421
 40
4.647131838590421
 40
4.647131838590421
 40
4.647131838590421
 10
87.25000898819999
 20
179.8862376475
 30
0.0
 10
87.25235356990757
 20
179.8873027142162
 30
0.0
 10
87.25770152238788
 20
179.8897321139544
 30
0.0
 10
87.26085097031302
 20
179.8997660656215
 30
0.0
 10
87.26273155539134
 20
179.9114926668463
 30
0.0
 10
87.26313954189797
 20
179.9262044004131
 30
0.0
 10
87.2624979661657
 20
179.9431565759625
 30
0.0
 10
87.26081831291866
 20
179.9625871812336
 30
0.0
 10
87.25815489288004
 20
179.9845524503988
 30
0.0
 10
87.25449844985968
 20
180.0091764750391
 30
0.0
 10
87.24985758194033
 20
180.0364384095028
 30
0.0
 10
87.24423806208765
 20
180.0663287467939
 30
0.0
 10
87.23762601462592
 20
180.0989323023098
 30
0.0
 10
87.22997317258933
 20
180.1344603134287
 30
0.0
 10
87.22122643784348
 20
180.1731092664872
 30
0.0
 10
87.21134507038397
 20
180.21500483388
 30
0.0
 10
87.20029607379303
 20
180.2602364789061
 30
0.0
 10
87.18805488378149
 20
180.3088616055873
 30
0.0
 10
87.174606632745
 20
180.360903030974
 30
0.0
 10
87.15994564397619
 20
180.4163641886306
 30
0.0
 10
87.14407037596344
 20
180.4752453186583
 30
0.0
 10
87.12697941043857
 20
180.5375473706019
 30
0.0
 10
87.10867258612959
 20
180.6032699104276
 30
0.0
 10
87.08915135888077
 20
180.6724088830013
 30
0.0
 10
87.06841951206694
 20
180.7449542866648
 30
0.0
 10
87.04648430072945
 20
180.8208862384394
 30
0.0
 10
87.02335584056658
 20
180.9001773265209
 30
0.0
 10
86.99901178253376
 20
180.9829127008632
 30
0.0
 10
86.97331654357171
 20
181.0695572295174
 30
0.0
 10
86.94599489335622
 20
181.1610299462948
 30
0.0
 10
86.91666614818432
 20
181.2585786485212
 30
0.0
 10
86.88492191715473
 20
181.3635191570882
 30
0.0
 10
86.8503496924553
 20
181.4771613393959
 30
0.0
 10
86.8125315252511
 20
181.6008182347053
 30
0.0
 10
86.77104558194132
 20
181.7358060492453
 30
0.0
 10
86.72546737889246
 20
181.8834435242252
 30
0.0
 10
86.67537534936486
 20
182.0450520921513
 30
0.0
 10
86.62035113557499
 20
182.2219534911451
 30
0.0
 10
86.55998130641963
 20
182.4154665806623
 30
0.0
 10
86.49386109304271
 20
182.6269029455241
 30
0.0
 10
86.42159783068578
 20
182.8575619613897
 30
0.0
 10
86.34280500331032
 20
183.1087579762173
 30
0.0
 10
86.25709908649603
 20
183.3818322898523
 30
0.0
 10
86.16410937038816
 20
183.6781506475078
 30
0.0
 10
86.06346219903182
 20
183.9990719011723
 30
0.0
 10
85.99387984553752
 20
184.2214043405401
 30
0.0
 10
85.95773651570001
 20
184.3368910162
 30
0.0
 11
87.25000898819999
 21
179.8862376475
 31
0.0
 11
87.25636639900002
 21
179.8900859239
 31
0.0
 11
87.2603238319
 21
179.898743866
 31
0.0
 11
87.26237297279999
 21
179.9108078238
 31
0.0
 11
87.2629696862
 21
179.925386753
 31
0.0
 11
87.26240154800001
 21
179.94233209
 31
0.0
 11
87.2607906012
 21
179.9616955341
 31
0.0
 11
87.25817571449998
 21
179.9836121749
 31
0.0
 11
87.25455559300001
 21
180.0082254837
 31
0.0
 11
87.2499304195
 21
180.0355580155
 31
0.0
 11
87.2443427537
 21
180.06539878
 31
0.0
 11
87.23777067870002
 21
180.097898384
 31
0.0
 11
87.2301463802
 21
180.1333705056
 31
0.0
 11
87.2214223615
 21
180.1719839286
 31
0.0
 11
87.21156193900001
 21
180.2138465911
 31
0.0
 11
87.20052964149998
 21
180.2590588447
 31
0.0
 11
87.18830006420001
 21
180.307680847
 31
0.0
 11
87.1748615069
 21
180.359724362
 31
0.0
 11
87.16020977600002
 21
180.4151866421
 31
0.0
 11
87.1443427963
 21
180.4740686689
 31
0.0
 11
87.1272592258
 21
180.5363720402
 31
0.0
 11
87.10895876429999
 21
180.602097064
 31
0.0
 11
87.0894427289
 21
180.6712404968
 31
0.0
 11
87.0687147373
 21
180.7437931191
 31
0.0
 11
87.0467814118
 21
180.8197373974
 31
0.0
 11
87.0236544854
 21
180.8990404552
 31
0.0
 11
86.99934607589999
 21
180.9816704713
 31
0.0
 11
86.97376425509999
 21
181.0679472614
 31
0.0
 11
86.94657929410001
 21
181.1589765724
 31
0.0
 11
86.91738586069999
 21
181.2560895079
 31
0.0
 11
86.88577829969998
 21
181.3605929661
 31
0.0
 11
86.8513441284
 21
181.4737968938
 31
0.0
 11
86.8136654119
 21
181.5970144742
 31
0.0
 11
86.77232019890001
 21
181.7315621423
 31
0.0
 11
86.7268843857
 21
181.8787593661
 31
0.0
 11
86.67693575769999
 21
182.0399280812
 31
0.0
 11
86.62205538610002
 21
182.2163910427
 31
0.0
 11
86.56182932100001
 21
182.4094687867
 31
0.0
 11
86.49585197019999
 21
182.6204751819
 31
0.0
 11
86.42373017629998
 21
182.8507110901
 31
0.0
 11
86.34508659949998
 21
183.1014605066
 31
0.0
 11
86.2595332631
 21
183.3740819468
 31
0.0
 11
86.1666896288
 21
183.6699582535
 31
0.0
 11
86.0662022362
 21
183.9904421823
 31
0.0
 11
85.95773651570001
 21
184.3368910162
 31
0.0
  0
SPLINE
  5
652
330
1B
100
AcDbEntity
  8
0
  6
Continuous
100
AcDbSpline
210
0.0
220
0.0
230
1.0
 70
     8
 71
     3
 72
    16
 73
    12
 74
    10
 42
0.0000000001
 43
0.0000000001
 44
0.0000000001
 40
0.0
 40
0.0
 40
0.0
 40
0.0
 40
5.127333757986655
 40
10.26656249332356
 40
15.41388579811441
 40
20.56996875368694
 40
25.73319162488255
 40
30.90025978298872
 40
36.0705773260583
 40
41.24497864967421
 40
46.42193907281431
 40
46.42193907281431
 40
46.42193907281431
 40
46.42193907281431
 10
85.95773651570001
 20
184.3368910162
 30
0.0
 10
85.45970512591717
 20
185.9719298144707
 30
0.0
 10
84.46248695597105
 20
189.2458005616806
 30
0.0
 10
83.12748079807156
 20
194.2082033915113
 30
0.0
 10
81.91099221948059
 20
199.2104085193118
 30
0.0
 10
80.82680523885964
 20
204.2513254884547
 30
0.0
 10
79.87383204587674
 20
209.3252960111977
 30
0.0
 10
79.05369574700761
 20
214.4273253419122
 30
0.0
 10
78.37060672830802
 20
219.5530679699739
 30
0.0
 10
77.81297917113938
 20
224.6977427194421
 30
0.0
 10
77.55616124818545
 20
228.1388267758388
 30
0.0
 10
77.427720541
 20
229.8597941624
 30
0.0
 11
85.95773651570001
 21
184.3368910162
 31
0.0
 11
84.4905860178
 21
189.2498352335
 31
0.0
 11
83.14830137369999
 21
194.210676284
 31
0.0
 11
81.9339929041
 21
199.2127150828
 31
0.0
 11
80.8493642432
 21
204.2534265517
 31
0.0
 11
79.89633012509999
 21
209.3279310977
 31
0.0
 11
79.0767846044
 21
214.4295914637
 31
0.0
 11
78.3917466339
 21
219.5543262349
 31
0.0
 11
77.8418224464
 21
224.6994221957
 31
0.0
 11
77.427720541
 21
229.8597941624
 31
0.0
  0
SPLINE
  5
653
330
1B
100
AcDbEntity
  8
0
  6
Continuous
100
AcDbSpline
210
0.0
220
0.0
230
1.0
 70
     8
 71
     3
 72
    10
 73
     6
 74
     4
 42
0.0000000001
 43
0.0000000001
 44
0.0000000001
 40
0.0
 40
0.0
 40
0.0
 40
0.0
 40
1.052884102520225
 40
2.060729448322129
 40
3.023423431300266
 40
3.023423431300266
 40
3.023423431300266
 40
3.023423431300266
 10
77.427720541
 20
229.8597941624
 30
0.0
 10
77.40450268051588
 20
230.2099867975857
 30
0.0
 10
77.35906013967765
 20
230.8953920327727
 30
0.0
 10
77.29462300187944
 20
231.9011384293148
 30
0.0
 10
77.25118740618819
 20
232.5565473270091
 30
0.0
 10
77.2299672326
 20
232.8767430181
 30
0.0
 11
77.427720541
 21
229.8597941624
 31
0.0
 11
77.3584645226
 21
230.9103980541
 31
0.0
 11
77.29328449179999
 21
231.9161335087
 31
0.0
 11
77.2299672326
 21
232.8767430181
 31
0.0
  0
SPLINE
  5
654
330
1B
100
AcDbEntity
  8
0
  6
Continuous
100
AcDbSpline
210
0.0
220
0.0
230
1.0
 70
     8
 71
     3
 72
    51
 73
    47
 74
    45
 42
0.0000000001
 43
0.0000000001
 44
0.0000000001
 40
0.0
 40
0.0
 40
0.0
 40
0.0
 40
0.2119058044000002
 40
0.409572992797436
 40
0.5936239601633624
 40
0.7646496938699605
 40
0.9232432128235349
 40
1.070023427747982
 40
1.205593403089306
 40
1.330519901056925
 40
1.44538044322917
 40
1.550760455572159
 40
1.64725062636771
 40
1.735445034317198
 40
1.815939628669045
 40
1.889331120584244
 40
1.956216288152643
 40
2.017191604171805
 40
2.072853088697684
 40
2.123796294455088
 40
2.170616371401213
 40
2.213908164597063
 40
2.254266316323407
 40
2.292285360802638
 40
2.328559805695261
 40
2.363689090823205
 40
2.398252424773341
 40
2.432405111895843
 40
2.466034944761864
 40
2.498998103069416
 40
2.531162455929137
 40
2.562405464935615
 40
2.592615519908858
 40
2.621691616583316
 40
2.6495415361587
 40
2.676078844493072
 40
2.701219218526195
 40
2.724876806337609
 40
2.74694090525521
 40
2.767479297845489
 40
2.78677011644877
 40
2.804591468745045
 40
2.820544400315548
 40
2.834828340088933
 40
2.847979445194789
 40
2.860554493336015
 40
2.860554493336015
 40
2.860554493336015
 40
2.860554493336015
 10
111.739553313
 20
232.8767430181
 30
0.0
 10
111.7362009074752
 20
232.9472987276276
 30
0.0
 10
111.7297213550734
 20
233.0836692871409
 30
0.0
 10
111.7196823093769
 20
233.2812894549638
 30
0.0
 10
111.7098671049959
 20
233.4652759876859
 30
0.0
 10
111.7002572936911
 20
233.6362297587291
 30
0.0
 10
111.6908829860692
 20
233.7947528777797
 30
0.0
 10
111.6817595617955
 20
233.9414509239042
 30
0.0
 10
111.6729038009146
 20
234.0769209107756
 30
0.0
 10
111.6643308382206
 20
234.2017461030417
 30
0.0
 10
111.6560546413675
 20
234.3165039725623
 30
0.0
 10
111.6480866507015
 20
234.4217800056465
 30
0.0
 10
111.6404356141606
 20
234.5181652349927
 30
0.0
 10
111.6331072645933
 20
234.6062542036814
 30
0.0
 10
111.6261039178989
 20
234.686643429312
 30
0.0
 10
111.6194239829004
 20
234.7599302467138
 30
0.0
 10
111.6130614440502
 20
234.8267120232224
 30
0.0
 10
111.6070051638837
 20
234.8875856678864
 30
0.0
 10
111.6012382954444
 20
234.94314736569
 30
0.0
 10
111.595737791465
 20
234.9939924569921
 30
0.0
 10
111.5904737657376
 20
235.0407153724113
 30
0.0
 10
111.5854088843884
 20
235.0839095963684
 30
0.0
 10
111.5804977194506
 20
235.1241676224481
 30
0.0
 10
111.5756860073725
 20
235.1620808756032
 30
0.0
 10
111.5709094866007
 20
235.1982411924182
 30
0.0
 10
111.5660934404603
 20
235.2332338723494
 30
0.0
 10
111.5611709624
 20
235.267497407717
 30
0.0
 10
111.5560986566625
 20
235.3012337800204
 30
0.0
 10
111.5508635557288
 20
235.3344054478277
 30
0.0
 10
111.5454665428159
 20
235.3668795497238
 30
0.0
 10
111.5399095878207
 20
235.3985192786752
 30
0.0
 10
111.5341934507523
 20
235.4291977301062
 30
0.0
 10
111.5283174915139
 20
235.4587973096165
 30
0.0
 10
111.5222793731175
 20
235.4872091377739
 30
0.0
 10
111.5160749782024
 20
235.5143309193701
 30
0.0
 10
111.5096985873675
 20
235.5400635350175
 30
0.0
 10
111.5031434008179
 20
235.564306926097
 30
0.0
 10
111.4964043317837
 20
235.5869489024477
 30
0.0
 10
111.489461367889
 20
235.6079205655531
 30
0.0
 10
111.4822461590688
 20
235.6272542945713
 30
0.0
 10
111.4746744025397
 20
235.6449297688425
 30
0.0
 10
111.4666853454333
 20
235.6607190316703
 30
0.0
 10
111.4582479311796
 20
235.6743980817342
 30
0.0
 10
111.4491383728814
 20
235.685604299173
 30
0.0
 10
111.4390101801671
 20
235.694732596149
 30
0.0
 10
111.4307305992586
 20
235.6973052574248
 30
0.0
 10
111.4266835065
 20
235.6985627847
 30
0.0
 11
111.739553313
 21
232.8767430181
 31
0.0
 11
111.729376462
 21
233.088404308
 31
0.0
 11
111.7193654659
 21
233.2858178266
 31
0.0
 11
111.7095450961
 21
233.4696066155
 31
0.0
 11
111.6999386984
 21
233.6403623437
 31
0.0
 11
111.6905670737
 21
233.798678726
 31
0.0
 11
111.6814472536
 21
233.9451753484
 31
0.0
 11
111.672595068
 21
234.0804560086
 31
0.0
 11
111.6640268778
 21
234.2050883319
 31
0.0
 11
111.6557566611
 21
234.3196507501
 31
0.0
 11
111.6477958952
 21
234.4247296405
 31
0.0
 11
111.6401533553
 21
234.52091667
 31
0.0
 11
111.6328347936
 21
234.6088068984
 31
0.0
 11
111.6258425344
 21
234.6889972222
 31
0.0
 11
111.6191749935
 21
234.762085217
 31
0.0
 11
111.6128261286
 21
234.8286683797
 31
0.0
 11
111.6067847856
 21
234.889343674
 31
0.0
 11
111.6010341106
 21
234.9447072956
 31
0.0
 11
111.5955510161
 21
234.9953545649
 31
0.0
 11
111.5903055716
 21
235.0418798797
 31
0.0
 11
111.5852603906
 21
235.0848766878
 31
0.0
 11
111.5803699862
 21
235.1249374461
 31
0.0
 11
111.5755800285
 21
235.1626535441
 31
0.0
 11
111.5708263913
 21
235.1986151665
 31
0.0
 11
111.5660331275
 21
235.2334159035
 31
0.0
 11
111.561113973
 21
235.2676273924
 31
0.0
 11
111.5560313913
 21
235.3013997687
 31
0.0
 11
111.550783301
 21
235.3346175833
 31
0.0
 11
111.5453726179
 21
235.3671336457
 31
0.0
 11
111.5398010509
 21
235.3988117649
 31
0.0
 11
111.5340692529
 21
235.4295245001
 31
0.0
 11
111.5281763341
 21
235.4591542306
 31
0.0
 11
111.5221195325
 21
235.4875924892
 31
0.0
 11
111.5158940963
 21
235.5147376907
 31
0.0
 11
111.5094934383
 21
235.5404915314
 31
0.0
 11
111.5029096251
 21
235.5647545034
 31
0.0
 11
111.4961342677
 21
235.5874211307
 31
0.0
 11
111.4891667568
 21
235.6083562269
 31
0.0
 11
111.4819443611
 21
235.6275828379
 31
0.0
 11
111.4742887478
 21
235.6452895391
 31
0.0
 11
111.466168824
 21
235.6611535687
 31
0.0
 11
111.457665466
 21
235.6746513066
 31
0.0
 11
111.4485793654
 21
235.6856728179
 31
0.0
 11
111.4384025396
 21
235.6940025107
 31
0.0
 11
111.4266835065
 21
235.6985627847
 31
0.0
  0
SPLINE
  5
655
330
1B
100
AcDbEntity
  8
0
  6
Continuous
100
AcDbSpline
210
0.0
220
0.0
230
1.0
 70
     8
 71
     3
 72
    17
 73
    13
 74
    11
 42
0.0000000001
 43
0.0000000001
 44
0.0000000001
 40
0.0
 40
0.0
 40
0.0
 40
0.0
 40
1.572505439984615
 40
3.331752121194396
 40
5.221035035434583
 40
7.183255393214532
 40
9.167098750603692
 40
11.12061853169097
 40
12.99569723141823
 40
14.75084013254401
 40
16.34390418229452
 40
17.73768387823747
 40
17.73768387823747
 40
17.73768387823747
 40
17.73768387823747
 10
111.4266835065
 20
235.6985627847
 30
0.0
 10
110.9084976849478
 20
235.777946303522
 30
0.0
 10
109.8105894257902
 20
235.9461404480369
 30
0.0
 10
108.0789501926484
 20
236.1260154593966
 30
0.0
 10
106.2139006152135
 20
236.2667572572072
 30
0.0
 10
104.2706818132873
 20
236.3606693352645
 30
0.0
 10
102.3040341190203
 20
236.3873070130747
 30
0.0
 10
100.3664108173292
 20
236.3616627703832
 30
0.0
 10
98.50704637353466
 20
236.2688786860106
 30
0.0
 10
96.77150599571311
 20
236.1285324904722
 30
0.0
 10
95.20017694345007
 20
235.9496624766305
 30
0.0
 10
94.2192115191331
 20
235.7784549865596
 30
0.0
 10
93.76145416479999
 20
235.6985627847
 30
0.0
 11
111.4266835065
 21
235.6985627847
 31
0.0
 11
109.8705399232
 21
235.9248159768
 31
0.0
 11
108.1214505632
 21
236.1135891107
 31
0.0
 11
106.2375877538
 21
236.256595563
 31
0.0
 11
104.2775454714
 21
236.3490238254
 31
0.0
 11
102.2939214142
 21
236.3785207126
 31
0.0
 11
100.3406224182
 21
236.3491512161
 31
0.0
 11
98.46781164820001
 21
236.256956043
 31
0.0
 11
96.71848446970002
 21
236.1141939124
 31
0.0
 11
95.13663601810001
 21
235.9254916528
 31
0.0
 11
93.76145416479999
 21
235.6985627847
 31
0.0
  0
SPLINE
  5
656
330
1B
100
AcDbEntity
  8
0
  6
Continuous
100
AcDbSpline
210
0.0
220
0.0
230
1.0
 70
     8
 71
     3
 72
    48
 73
    44
 74
    42
 42
0.0000000001
 43
0.0000000001
 44
0.0000000001
 40
0.0
 40
0.0
 40
0.0
 40
0.0
 40
0.0107161050545902
 40
0.0229466189957983
 40
0.0370596301994545
 40
0.0528439569963134
 40
0.0696146135773411
 40
0.0864017469996637
 40
0.1034067979952474
 40
0.1209442373490265
 40
0.1392755240095978
 40
0.1586686368428222
 40
0.1793976545648771
 40
0.2017422989507809
 40
0.2259873641940851
 40
0.2524213286326758
 40
0.2813333819747686
 40
0.3130080866335821
 40
0.3477170750363474
 40
0.3857077741558179
 40
0.4271905112141689
 40
0.4723257180806985
 40
0.5213042386094833
 40
0.574471259561993
 40
0.631977540960923
 40
0.6939508808637418
 40
0.7605177520056335
 40
0.8318026240254129
 40
0.9079216831978734
 40
0.9891063024118121
 40
1.076018055705541
 40
1.169427675220324
 40
1.270109692951608
 40
1.378838056040594
 40
1.496385965909161
 40
1.623525160285254
 40
1.761024574135499
 40
1.909658747335202
 40
2.070205672757697
 40
2.243439310782005
 40
2.430132668212472
 40
2.631057837990972
 40
2.847026126971851
 40
2.847026126971851
 40
2.847026126971851
 40
2.847026126971851
 10
93.76145416479999
 20
235.6985627847
 30
0.0
 10
93.75804792178485
 20
235.6973471555255
 30
0.0
 10
93.75075406265627
 20
235.6947441034497
 30
0.0
 10
93.74203776336796
 20
235.6855264904296
 30
0.0
 10
93.73411870283084
 20
235.6739774577855
 30
0.0
 10
93.72701716576593
 20
235.6600748790282
 30
0.0
 10
93.72067679560978
 20
235.6448973787898
 30
0.0
 10
93.71503425573016
 20
235.6290067435952
 30
0.0
 10
93.709939787704
 20
235.6126703528956
 30
0.0
 10
93.70520326156603
 20
235.595691714791
 30
0.0
 10
93.70068986926731
 20
235.5778310855911
 30
0.0
 10
93.69630761058899
 20
235.5588445811264
 30
0.0
 10
93.69198870142986
 20
235.5384741676343
 30
0.0
 10
93.68768282589883
 20
235.5164507345504
 30
0.0
 10
93.68335285817167
 20
235.4924969714934
 30
0.0
 10
93.67897221557917
 20
235.4663300843344
 30
0.0
 10
93.67452319195064
 20
235.4376657629891
 30
0.0
 10
93.66999596034646
 20
235.4062241879057
 30
0.0
 10
93.66538799745096
 20
235.3717386642773
 30
0.0
 10
93.66070368072954
 20
235.3339666865384
 30
0.0
 10
93.65595382603824
 20
235.292702450645
 30
0.0
 10
93.65115175672412
 20
235.2477589785949
 30
0.0
 10
93.64630625032172
 20
235.1989046663646
 30
0.0
 10
93.64142784412243
 20
235.1459110506686
 30
0.0
 10
93.63652974993417
 20
235.0885706033415
 30
0.0
 10
93.63163066751569
 20
235.0267485535738
 30
0.0
 10
93.6267484456277
 20
234.9603190218986
 30
0.0
 10
93.62189982237302
 20
234.889160102682
 30
0.0
 10
93.61709815290776
 20
234.8131150698559
 30
0.0
 10
93.61234612897722
 20
234.7318484689158
 30
0.0
 10
93.60763833313452
 20
234.644806764271
 30
0.0
 10
93.60296713873615
 20
234.5512552608011
 30
0.0
 10
93.59833149632516
 20
234.4504215112802
 30
0.0
 10
93.59373824638819
 20
234.3415319996723
 30
0.0
 10
93.589201544822
 20
234.2238139805949
 30
0.0
 10
93.58474238492811
 20
234.0964962863038
 30
0.0
 10
93.58038823811776
 20
233.9588072647933
 30
0.0
 10
93.57617260749586
 20
233.8099731873415
 30
0.0
 10
93.57213607414022
 20
233.6492186825524
 30
0.0
 10
93.5683222190649
 20
233.4757690036664
 30
0.0
 10
93.56479580170947
 20
233.2888513121786
 30
0.0
 10
93.56156830612653
 20
233.0876811502766
 30
0.0
 10
93.5598599008529
 20
232.9487270614549
 30
0.0
 10
93.5589748753
 20
232.8767430181
 30
0.0
 11
93.76145416479999
 21
235.6985627847
 31
0.0
 11
93.75164912969999
 21
235.6942388751
 31
0.0
 11
93.74274864660001
 21
235.6858503787
 31
0.0
 11
93.73467140809999
 21
235.6742773366
 31
0.0
 11
93.7273484302
 21
235.6602945269
 31
0.0
 11
93.720820585
 21
235.6448464798
 31
0.0
 11
93.71516152069998
 21
235.6290419602
 31
0.0
 11
93.71007356520001
 21
235.6128159173
 31
0.0
 11
93.7053421919
 21
235.5959287658
 31
0.0
 11
93.7008362975
 21
235.5781598889
 31
0.0
 11
93.6964624197
 21
235.5592664504
 31
0.0
 11
93.69215204699999
 21
235.5389905321
 31
0.0
 11
93.6878543973
 21
235.5170630758
 31
0.0
 11
93.6835320153
 21
235.4932064163
 31
0.0
 11
93.67915801469999
 21
235.4671368441
 31
0.0
 11
93.67471436409998
 21
235.438568316
 31
0.0
 11
93.6701908732
 21
235.407218277
 31
0.0
 11
93.66558464049999
 21
235.3728162931
 31
0.0
 11
93.66089972819999
 21
235.3351155661
 31
0.0
 11
93.65614676659999
 21
235.2939060183
 31
0.0
 11
93.65134229689998
 21
235.2490272486
 31
0.0
 11
93.64649908280001
 21
235.2002887756
 31
0.0
 11
93.6416162675
 21
235.1473464463
 31
0.0
 11
93.63671289289999
 21
235.0900495937
 31
0.0
 11
93.63180840050001
 21
235.0282706263
 31
0.0
 11
93.62692068639998
 21
234.9618834394
 31
0.0
 11
93.6220664018
 21
234.8907640405
 31
0.0
 11
93.6172615556
 21
234.8147967803
 31
0.0
 11
93.61251464629999
 21
234.7337510571
 31
0.0
 11
93.6078130933
 21
234.6469665639
 31
0.0
 11
93.60314714640001
 21
234.5536735526
 31
0.0
 11
93.59851565530001
 21
234.4530981183
 31
0.0
 11
93.5939254522
 21
234.3444666911
 31
0.0
 11
93.5893906928
 21
234.2270062847
 31
0.0
 11
93.5849323897
 21
234.0999452825
 31
0.0
 11
93.5805781065
 21
233.9625148309
 31
0.0
 11
93.5763615157
 21
233.8139404798
 31
0.0
 11
93.5723225158
 21
233.6534443685
 31
0.0
 11
93.5685075645
 21
233.480252742
 31
0.0
 11
93.56496984699999
 21
233.2935929063
 31
0.0
 11
93.561769719
 21
233.0926932223
 31
0.0
 11
93.5589748753
 21
232.8767430181
 31
0.0
  0
SPLINE
  5
657
330
1B
100
AcDbEntity
  8
0
  6
Continuous
100
AcDbSpline
210
0.0
220
0.0
230
1.0
 70
     8
 71
     3
 72
    10
 73
     6
 74
     4
 42
0.0000000001
 43
0.0000000001
 44
0.0000000001
 40
0.0
 40
0.0
 40
0.0
 40
0.0
 40
0.9606244232037287
 40
1.966444688465329
 40
3.01731027767334
 40
3.01731027767334
 40
3.01731027767334
 40
3.01731027767334
 10
93.5589748753
 20
232.8767430181
 30
0.0
 10
93.55728301200173
 20
232.5565333910694
 30
0.0
 10
93.55381968594413
 20
231.90104878641
 30
0.0
 10
93.567650769935
 20
230.8953174201852
 30
0.0
 10
93.58486756686781
 20
230.2099720365732
 30
0.0
 10
93.5936645056
 20
229.8597941624
 30
0.0
 11
93.5589748753
 21
232.8767430181
 31
0.0
 11
93.5568768803
 21
231.9161208859
 31
0.0
 11
93.56930720450001
 21
230.910377433
 31
0.0
 11
93.5936645056
 21
229.8597941624
 31
0.0
  0
SPLINE
  5
658
330
1B
100
AcDbEntity
  8
0
  6
Continuous
100
AcDbSpline
210
0.0
220
0.0
230
1.0
 70
     8
 71
     3
 72
    16
 73
    12
 74
    10
 42
0.0000000001
 43
0.0000000001
 44
0.0000000001
 40
0.0
 40
0.0
 40
0.0
 40
0.0
 40
5.163549480692488
 40
10.31491739910968
 40
15.45004169412369
 40
20.56735510633383
 40
25.663991952754
 40
30.73453726891134
 40
35.77549900593752
 40
40.78585524100735
 40
45.76050188250797
 40
45.76050188250797
 40
45.76050188250797
 40
45.76050188250797
 10
93.5936645056
 20
229.8597941624
 30
0.0
 10
93.64851894346353
 20
228.1394560790567
 30
0.0
 10
93.75809840961421
 20
224.7028384394697
 30
0.0
 10
94.01551617777272
 20
219.5589934894191
 30
0.0
 10
94.34097535372302
 20
214.4345762055847
 30
0.0
 10
94.7413026369165
 20
209.3337003484768
 30
0.0
 10
95.21542311945326
 20
204.2607947298545
 30
0.0
 10
95.76407275439406
 20
199.2209630073827
 30
0.0
 10
96.39005759454156
 20
194.2192041747552
 30
0.0
 10
97.08674184035016
 20
189.2588730227119
 30
0.0
 10
97.62112986734725
 20
185.9736353282003
 30
0.0
 10
97.88736830880001
 20
184.3368910162
 30
0.0
 11
93.5936645056
 21
229.8597941624
 31
0.0
 11
93.7738347313
 21
224.6993889526
 31
0.0
 11
94.0273110625
 21
219.5542610455
 31
0.0
 11
94.35409098690001
 21
214.4295448186
 31
0.0
 11
94.75450258630001
 21
209.3279208507
 31
0.0
 11
95.2291507039
 21
204.2534340482
 31
0.0
 11
95.77866704989999
 21
199.212753381
 31
0.0
 11
96.4038878218
 21
194.2107143747
 31
0.0
 11
97.1063829305
 21
189.249850516
 31
0.0
 11
97.88736830880001
 21
184.3368910162
 31
0.0
  0
SPLINE
  5
659
330
1B
100
AcDbEntity
  8
0
  6
Continuous
100
AcDbSpline
210
0.0
220
0.0
230
1.0
 70
     8
 71
     3
 72
    45
 73
    41
 74
    39
 42
0.0000000001
 43
0.0000000001
 44
0.0000000001
 40
0.0
 40
0.0
 40
0.0
 40
0.0
 40
0.409969958417422
 40
0.7827033556891189
 40
1.121359507318821
 40
1.429079889361939
 40
1.708985047066661
 40
1.96420548438937
 40
2.19785536747785
 40
2.412664257982163
 40
2.610110439875017
 40
2.791389671309907
 40
2.957712642910943
 40
3.110197935380995
 40
3.249854499355811
 40
3.377701542203187
 40
3.49476605498295
 40
3.602064599453807
 40
3.700386344667882
 40
3.790278865907927
 40
3.872297661508072
 40
3.947007022285407
 40
4.015015479790934
 40
4.076960702289842
 40
4.133342884471887
 40
4.184710449233171
 40
4.231649389072405
 40
4.274766845082176
 40
4.31468002922595
 40
4.352010372943305
 40
4.387383999411421
 40
4.421363663082309
 40
4.453740555536306
 40
4.483914756003088
 40
4.511702892328912
 40
4.536862427308523
 40
4.559219777454153
 40
4.579050479803769
 40
4.597118354016311
 40
4.612769699764045
 40
4.612769699764045
 40
4.612769699764045
 40
4.612769699764045
 10
97.88736830880001
 20
184.3368910162
 30
0.0
 10
97.91016327631428
 20
184.2021486891838
 30
0.0
 10
97.95368280061098
 20
183.9449023487055
 30
0.0
 10
98.01811506426149
 20
183.5767091402904
 30
0.0
 10
98.07810514414393
 20
183.2423437841705
 30
0.0
 10
98.13406464104084
 20
182.938695363704
 30
0.0
 10
98.18628509032281
 20
182.6626414524145
 30
0.0
 10
98.23513608840462
 20
182.4110812719361
 30
0.0
 10
98.28099788747858
 20
182.181047717975
 30
0.0
 10
98.32418690791343
 20
181.9701213298023
 30
0.0
 10
98.3649223338176
 20
181.7765145659049
 30
0.0
 10
98.40334033355454
 20
181.5989390452602
 30
0.0
 10
98.43955190137697
 20
181.4362228531656
 30
0.0
 10
98.47366737156783
 20
181.2872567947392
 30
0.0
 10
98.50579610643808
 20
181.1509960517947
 30
0.0
 10
98.53605339284937
 20
181.0264277122147
 30
0.0
 10
98.5645690922252
 20
180.9125389697366
 30
0.0
 10
98.59146943324507
 20
180.8083943845496
 30
0.0
 10
98.61685429630258
 20
180.7132160667007
 30
0.0
 10
98.64079369136766
 20
180.6263765860393
 30
0.0
 10
98.66334442243951
 20
180.5473220053586
 30
0.0
 10
98.68457533518742
 20
180.4754800559833
 30
0.0
 10
98.70457148831123
 20
180.410254060301
 30
0.0
 10
98.7234216980297
 20
180.3510702068173
 30
0.0
 10
98.74122092266596
 20
180.2973771522509
 30
0.0
 10
98.75806415849549
 20
180.248641233133
 30
0.0
 10
98.7740696809972
 20
180.2042985172289
 30
0.0
 10
98.78938302457169
 20
180.1637701133107
 30
0.0
 10
98.80417797014542
 20
180.1264752012628
 30
0.0
 10
98.81866176640676
 20
180.0918402520853
 30
0.0
 10
98.83307551238025
 20
180.0593277030382
 30
0.0
 10
98.84759740069416
 20
180.0286798221554
 30
0.0
 10
98.86226792456145
 20
180.0000344491691
 30
0.0
 10
98.87701785079048
 20
179.9737719497844
 30
0.0
 10
98.89175107609405
 20
179.9502856896723
 30
0.0
 10
98.90642762408241
 20
179.9299086662489
 30
0.0
 10
98.9210649943428
 20
179.9127958880613
 30
0.0
 10
98.93593622126994
 20
179.8993298233908
 30
0.0
 10
98.95113071720168
 20
179.8892823997182
 30
0.0
 10
98.96227636331307
 20
179.8872028880031
 30
0.0
 10
98.9674498033
 20
179.8862376475
 30
0.0
 11
97.88736830880001
 21
184.3368910162
 31
0.0
 11
97.95615208629999
 21
183.932732435
 31
0.0
 11
98.0203477158
 21
183.5655688385
 31
0.0
 11
98.0802008261
 21
183.2322437806
 31
0.0
 11
98.13599388740001
 21
182.9296236097
 31
0.0
 11
98.18804678340001
 21
182.6546010773
 31
0.0
 11
98.2367240003
 21
182.4040656503
 31
0.0
 11
98.28243176060001
 21
182.1749301696
 31
0.0
 11
98.3255455525
 21
181.9644923869
 31
0.0
 11
98.36622269980001
 21
181.7712817132
 31
0.0
 11
98.4045765195
 21
181.5941062514
 31
0.0
 11
98.44072760460001
 21
181.4317596163
 31
0.0
 11
98.4747880624
 21
181.2831270168
 31
0.0
 11
98.50685844020001
 21
181.1472026013
 31
0.0
 11
98.537054148
 21
181.0229726307
 31
0.0
 11
98.5655064778
 21
180.9094183922
 31
0.0
 11
98.59235982209999
 21
180.8055344399
 31
0.0
 11
98.61771638160001
 21
180.7105385954
 31
0.0
 11
98.64162521820001
 21
180.6238839192
 31
0.0
 11
98.66414289739998
 21
180.5450167083
 31
0.0
 11
98.68533479340002
 21
180.4733759927
 31
0.0
 11
98.7052870181
 21
180.408360156
 31
0.0
 11
98.7241053307
 21
180.3493425171
 31
0.0
 11
98.7418647744
 21
180.2958303444
 31
0.0
 11
98.75866149700001
 21
180.2472865825
 31
0.0
 11
98.77461590039999
 21
180.2031422614
 31
0.0
 11
98.78987472839999
 21
180.1628150599
 31
0.0
 11
98.80461279590001
 21
180.1257225858
 31
0.0
 11
98.8190379425
 21
180.0912919351
 31
0.0
 11
98.8334017207
 21
180.058965857
 31
0.0
 11
98.8479867752
 21
180.0282755698
 31
0.0
 11
98.8627919711
 21
179.9994820056
 31
0.0
 11
98.87762696439999
 21
179.97320644
 31
0.0
 11
98.8924743411
 21
179.9497173803
 31
0.0
 11
98.90727277220002
 21
179.9293701781
 31
0.0
 11
98.9219631893
 21
179.9125166101999
 31
0.0
 11
98.93675463480001
 21
179.8993079049
 31
0.0
 11
98.9522694655
 21
179.8900484175
 31
0.0
 11
98.9674498033
 21
179.8862376475
 31
0.0
  0
SPLINE
  5
65A
330
1B
100
AcDbEntity
  8
0
  6
Continuous
100
AcDbSpline
210
0.0
220
0.0
230
1.0
 70
     8
 71
     3
 72
    15
 73
    11
 74
     9
 42
0.0000000001
 43
0.0000000001
 44
0.0000000001
 40
0.0
 40
0.0
 40
0.0
 40
0.0
 40
1.375985346795588
 40
2.965309313447408
 40
4.711633993095086
 40
6.556095594637672
 40
8.43417017719143
 40
10.27602590792322
 40
12.00800002949747
 40
13.55186362749223
 40
13.55186362749223
 40
13.55186362749223
 40
13.55186362749223
 10
98.9674498033
 20
179.8862376475
 30
0.0
 10
99.42552807309779
 20
179.8629686489445
 30
0.0
 10
100.4127070157243
 20
179.8128229273407
 30
0.0
 10
101.9825372501776
 20
179.7623444879034
 30
0.0
 10
103.7090173398889
 20
179.7321186912046
 30
0.0
 10
105.5319851676137
 20
179.7221745355563
 30
0.0
 10
107.3867909671045
 20
179.7325302034051
 30
0.0
 10
109.2038753523615
 20
179.7630465263413
 30
0.0
 10
110.909084975034
 20
179.8140194445958
 30
0.0
 10
111.9999378487235
 20
179.8631044599371
 30
0.0
 10
112.5140439146
 20
179.8862376475
 30
0.0
 11
98.9674498033
 21
179.8862376475
 31
0.0
 11
100.3418585629
 21
179.820387544
 31
0.0
 11
101.9303096622
 21
179.7677208932
 31
0.0
 11
103.6763480849
 21
179.7361026516
 31
0.0
 11
105.5207797744
 21
179.7255982557
 31
0.0
 11
107.3988247693
 21
179.7361403032
 31
0.0
 11
109.2404083305
 21
179.7678028986
 31
0.0
 11
110.9715807842
 21
179.8204934419
 31
0.0
 11
112.5140439146
 21
179.8862376475
 31
0.0
  0
SPLINE
  5
65B
330
1B
100
AcDbEntity
  8
0
  6
Continuous
100
AcDbSpline
210
0.0
220
0.0
230
1.0
 70
     8
 71
     3
 72
    51
 73
    47
 74
    45
 42
0.0000000001
 43
0.0000000001
 44
0.0000000001
 40
0.0
 40
0.0
 40
0.0
 40
0.0
 40
0.0171446449621644
 40
0.0343631440814334
 40
0.0521962591703409
 40
0.0709173806650476
 40
0.0910546993650802
 40
0.1129957663529987
 40
0.1370600551528599
 40
0.1634990410742315
 40
0.1923980914601186
 40
0.22358301045239
 40
0.2572490747715988
 40
0.2937453968081773
 40
0.3332615427810041
 40
0.3759203348127736
 40
0.4218343367019828
 40
0.4710735912879406
 40
0.5236581928352065
 40
0.5795934401258902
 40
0.6388879985065188
 40
0.7015502253599544
 40
0.7675863722776763
 40
0.8369984436510078
 40
0.9097818776993446
 40
0.9859232994964908
 40
1.065393559764803
 40
1.148164233874684
 40
1.234558658812155
 40
1.325686218619778
 40
1.422880683201347
 40
1.527450715321168
 40
1.64070753280815
 40
1.763965386066705
 40
1.898541810297538
 40
2.045757611919524
 40
2.206936505060291
 40
2.383403477009301
 40
2.576481776300381
 40
2.787488509575759
 40
3.017728316691166
 40
3.268489496155239
 40
3.541135359924386
 40
3.837053992441238
 40
4.157603756323914
 40
4.504147812321877
 40
4.504147812321877
 40
4.504147812321877
 40
4.504147812321877
 10
112.5140439146
 20
179.8862376475
 30
0.0
 10
112.5197391232816
 20
179.8871560122917
 30
0.0
 10
112.5311540739518
 20
179.8889966979245
 30
0.0
 10
112.5461835946768
 20
179.8984632706984
 30
0.0
 10
112.5593014960674
 20
179.9107082759733
 30
0.0
 10
112.5710648564049
 20
179.9255843267289
 30
0.0
 10
112.5819367778435
 20
179.942711521412
 30
0.0
 10
112.5922386603405
 20
179.9622270880572
 30
0.0
 10
112.6021534802251
 20
179.9842590313369
 30
0.0
 10
112.6117682384607
 20
180.0089287806851
 30
0.0
 10
112.6210914130522
 20
180.0362288772816
 30
0.0
 10
112.6301297642816
 20
180.0661491271845
 30
0.0
 10
112.6389123671524
 20
180.0987745679798
 30
0.0
 10
112.6474829232202
 20
180.1343190969299
 30
0.0
 10
112.6558625772941
 20
180.172981627901
 30
0.0
 10
112.66404781454
 20
180.2148887282284
 30
0.0
 10
112.6720254650233
 20
180.2601304007559
 30
0.0
 10
112.6797773278306
 20
180.3087644440026
 30
0.0
 10
112.6872813064867
 20
180.3608144206162
 30
0.0
 10
112.6945209596721
 20
180.4162836041736
 30
0.0
 10
112.7014861108127
 20
180.4751717628297
 30
0.0
 10
112.7081669858384
 20
180.5374800543809
 30
0.0
 10
112.7145550903759
 20
180.6032081579757
 30
0.0
 10
112.7206424472185
 20
180.6723521353533
 30
0.0
 10
112.7264215285385
 20
180.7449020759605
 30
0.0
 10
112.7318850212521
 20
180.8208381767612
 30
0.0
 10
112.7370262031322
 20
180.90013308317
 30
0.0
 10
112.7418459954485
 20
180.9828718218578
 30
0.0
 10
112.7463628751855
 20
181.0695188923035
 30
0.0
 10
112.750604859905
 20
181.1609932129255
 30
0.0
 10
112.7545936665141
 20
181.2585428481945
 30
0.0
 10
112.7583304552482
 20
181.3634839139007
 30
0.0
 10
112.7617944991011
 20
181.4771265153091
 30
0.0
 10
112.7649453233169
 20
181.6007839139371
 30
0.0
 10
112.7677245156042
 20
181.7357725280947
 30
0.0
 10
112.770056202504
 20
181.8834117061606
 30
0.0
 10
112.7718571549074
 20
182.0450227894536
 30
0.0
 10
112.7730336057266
 20
182.2219275073059
 30
0.0
 10
112.7734804365667
 20
182.4154449126303
 30
0.0
 10
112.773083570684
 20
182.6268867466284
 30
0.0
 10
112.7717219541892
 20
182.8575525692064
 30
0.0
 10
112.7692676638457
 20
183.1087567847335
 30
0.0
 10
112.7655936457115
 20
183.3818412562278
 30
0.0
 10
112.7605467747938
 20
183.6781701889224
 30
0.0
 10
112.7540685362156
 20
183.9991097768755
 30
0.0
 10
112.7487043002539
 20
184.2214098532511
 30
0.0
 10
112.7459176696
 20
184.3368910162
 30
0.0
 11
112.5140439146
 21
179.8862376475
 31
0.0
 11
112.5307510873
 21
179.8900859239
 31
0.0
 11
112.5456345261
 21
179.898743866
 31
0.0
 11
112.5587677251
 21
179.9108078238
 31
0.0
 11
112.5705123074
 21
179.925386753
 31
0.0
 11
112.5813919746
 21
179.94233209
 31
0.0
 11
112.5917102813
 21
179.9616955341
 31
0.0
 11
112.6016476276
 21
179.9836121749
 31
0.0
 11
112.6113019016
 21
180.0082254837
 31
0.0
 11
112.6206874127
 21
180.0355580155
 31
0.0
 11
112.6297443408
 21
180.06539878
 31
0.0
 11
112.6385295344
 21
180.097898384
 31
0.0
 11
112.6471149937
 21
180.1333705056
 31
0.0
 11
112.6555131695
 21
180.1719839286
 31
0.0
 11
112.6637162193
 21
180.2138465911
 31
0.0
 11
112.6717129495
 21
180.2590588447
 31
0.0
 11
112.6794850203
 21
180.307680847
 31
0.0
 11
112.6870091725
 21
180.359724362
 31
0.0
 11
112.6942677795
 21
180.4151866421
 31
0.0
 11
112.7012500122
 21
180.4740686689
 31
0.0
 11
112.7079466232
 21
180.5363720402
 31
0.0
 11
112.7143492747
 21
180.602097064
 31
0.0
 11
112.7204502052
 21
180.6712404968
 31
0.0
 11
112.726242033
 21
180.7437931191
 31
0.0
 11
112.7317176797
 21
180.8197373974
 31
0.0
 11
112.736870086
 21
180.8990404552
 31
0.0
 11
112.7416934595
 21
180.9816704713
 31
0.0
 11
112.7462003598
 21
181.0679472614
 31
0.0
 11
112.7504308084
 21
181.1589765724
 31
0.0
 11
112.7544109722
 21
181.2560895079
 31
0.0
 11
112.7581417686
 21
181.3605929661
 31
0.0
 11
112.7616026154
 21
181.4737968938
 31
0.0
 11
112.7647532138
 21
181.5970144742
 31
0.0
 11
112.7675351138
 21
181.7315621423
 31
0.0
 11
112.7698738213
 21
181.8787593661
 31
0.0
 11
112.7716851377
 21
182.0399280812
 31
0.0
 11
112.7728748467
 21
182.2163910427
 31
0.0
 11
112.7733379115
 21
182.4094687867
 31
0.0
 11
112.7729601917
 21
182.6204751819
 31
0.0
 11
112.7716202828
 21
182.8507110901
 31
0.0
 11
112.7691914454
 21
183.1014605066
 31
0.0
 11
112.7655421477
 21
183.3740819468
 31
0.0
 11
112.7605373296
 21
183.6699582535
 31
0.0
 11
112.754040984
 21
183.9904421823
 31
0.0
 11
112.7459176696
 21
184.3368910162
 31
0.0
  0
SPLINE
  5
65C
330
1B
100
AcDbEntity
  8
0
  6
Continuous
100
AcDbSpline
210
0.0
220
0.0
230
1.0
 70
     8
 71
     3
 72
    16
 73
    12
 74
    10
 42
0.0000000001
 43
0.0000000001
 44
0.0000000001
 40
0.0
 40
0.0
 40
0.0
 40
0.0
 40
4.914480766476117
 40
9.876842742362367
 40
14.8803223593706
 40
19.92234530107108
 40
24.99800221344473
 40
30.10063719190105
 40
35.22616608326833
 40
40.37188556264148
 40
45.53272686438747
 40
45.53272686438747
 40
45.53272686438747
 40
45.53272686438747
 10
112.7459176696
 20
184.3368910162
 30
0.0
 10
112.7049093397926
 20
185.9745379006664
 30
0.0
 10
112.6224931408326
 20
189.2657870710223
 30
0.0
 10
112.4991877756933
 20
194.2243617995221
 30
0.0
 10
112.3788006065916
 20
199.2255354160534
 30
0.0
 10
112.263608428008
 20
204.2646070222962
 30
0.0
 10
112.1552860950298
 20
209.3368909695441
 30
0.0
 10
112.0554029268357
 20
214.4371899498397
 30
0.0
 10
111.9652932242048
 20
219.5610280532472
 30
0.0
 10
111.8845754274851
 20
224.7044302344349
 30
0.0
 10
111.8397617009143
 20
228.139659459595
 30
0.0
 10
111.8173219622
 20
229.8597941624
 30
0.0
 11
112.7459176696
 21
184.3368910162
 31
0.0
 11
112.6230343031
 21
189.2498352335
 31
0.0
 11
112.5001829645
 21
194.210676284
 31
0.0
 11
112.380115762
 21
199.2127150828
 31
0.0
 11
112.2651234495
 21
204.2534265517
 31
0.0
 11
112.1569721446
 21
209.3279310977
 31
0.0
 11
112.0572463538
 21
214.4295914637
 31
0.0
 11
111.9670247317
 21
219.5543262349
 31
0.0
 11
111.8869215822
 21
224.6994221957
 31
0.0
 11
111.8173219622
 21
229.8597941624
 31
0.0
  0
SPLINE
  5
65D
330
1B
100
AcDbEntity
  8
0
  6
Continuous
100
AcDbSpline
210
0.0
220
0.0
230
1.0
 70
     8
 71
     3
 72
    10
 73
     6
 74
     4
 42
0.0000000001
 43
0.0000000001
 44
0.0000000001
 40
0.0
 40
0.0
 40
0.0
 40
0.0
 40
1.05073578625643
 40
2.056776192499883
 40
3.018073277985256
 40
3.018073277985256
 40
3.018073277985256
 40
3.018073277985256
 10
111.8173219622
 20
229.8597941624
 30
0.0
 10
111.8122881696607
 20
230.2100023514165
 30
0.0
 10
111.8024347081261
 20
230.8955218464303
 30
0.0
 10
111.779280148314
 20
231.9013235386327
 30
0.0
 10
111.7525932775282
 20
232.5565706380998
 30
0.0
 10
111.739553313
 20
232.8767430181
 30
0.0
 11
111.8173219622
 21
229.8597941624
 31
0.0
 11
111.8006739814
 21
230.9103980541
 31
0.0
 11
111.7759051632
 21
231.9161335087
 31
0.0
 11
111.739553313
 21
232.8767430181
 31
0.0
  0
SPLINE
  5
65E
330
1B
100
AcDbEntity
  8
0
  6
Continuous
100
AcDbSpline
210
0.0
220
0.0
230
1.0
 70
     8
 71
     3
 72
    51
 73
    47
 74
    45
 42
0.0000000001
 43
0.0000000001
 44
0.0000000001
 40
0.0
 40
0.0
 40
0.0
 40
0.0
 40
0.2117017217069545
 40
0.4091440533197391
 40
0.5929525427695843
 40
0.763720992371252
 40
0.9220449331538932
 40
1.068545490954432
 40
1.203827758574211
 40
1.32846044139153
 40
1.443022860078127
 40
1.548102108240009
 40
1.644290413758915
 40
1.732183258727445
 40
1.812377840070024
 40
1.885471929669012
 40
1.952063135862126
 40
2.012748470897401
 40
2.068124139904625
 40
2.118785459040271
 40
2.165326836989576
 40
2.208341779622591
 40
2.248422885403777
 40
2.286161811576556
 40
2.322149189993991
 40
2.356979313189326
 40
2.391224855826904
 40
2.425036955818054
 40
2.458301106011866
 40
2.49087118088708
 40
2.52261225855804
 40
2.553398423413274
 40
2.583113914688645
 40
2.611652567789661
 40
2.63891569177351
 40
2.664808676279966
 40
2.68923679910075
 40
2.712100885456667
 40
2.733273939474672
 40
2.752792968296643
 40
2.77087373359707
 40
2.787229209838478
 40
2.80138677033882
 40
2.813359994861173
 40
2.823272368420374
 40
2.831093771073032
 40
2.831093771073032
 40
2.831093771073032
 40
2.831093771073032
 10
148.5600394901
 20
232.8767430181
 30
0.0
 10
148.5614563324712
 20
232.9472960701683
 30
0.0
 10
148.5641945843192
 20
233.0836499999547
 30
0.0
 10
148.5675501402279
 20
233.2812726571024
 30
0.0
 10
148.5702555694411
 20
233.4652593342521
 30
0.0
 10
148.5723460397229
 20
233.6362136946854
 30
0.0
 10
148.5739005773685
 20
233.7947372081269
 30
0.0
 10
148.5749808051062
 20
233.9414356337722
 30
0.0
 10
148.5756461260032
 20
234.0769059725818
 30
0.0
 10
148.5759506770165
 20
234.2017315189507
 30
0.0
 10
148.5759446343525
 20
234.3164897552347
 30
0.0
 10
148.5756742190309
 20
234.4217661775223
 30
0.0
 10
148.5751817897266
 20
234.5181518238203
 30
0.0
 10
148.5745058338134
 20
234.606241238401
 30
0.0
 10
148.5736809306186
 20
234.6866309353008
 30
0.0
 10
148.5727376668046
 20
234.7599182414147
 30
0.0
 10
148.5717025359813
 20
234.8267005072902
 30
0.0
 10
148.5705977338446
 20
234.8875746243102
 30
0.0
 10
148.5694410057117
 20
234.9431367590024
 30
0.0
 10
148.5682455340272
 20
234.9939822243605
 30
0.0
 10
148.5670197299914
 20
235.0407054189835
 30
0.0
 10
148.565767025249
 20
235.0838997890018
 30
0.0
 10
148.5644856231952
 20
235.1241577806034
 30
0.0
 10
148.5631681807716
 20
235.1620707566982
 30
0.0
 10
148.561801294833
 20
235.1982304656853
 30
0.0
 10
148.5603650619349
 20
235.2332220831828
 30
0.0
 10
148.5588383260246
 20
235.2674840828157
 30
0.0
 10
148.5572044075036
 20
235.3012185608929
 30
0.0
 10
148.5554550642277
 20
235.3343880183143
 30
0.0
 10
148.5535864768006
 20
235.3668595382988
 30
0.0
 10
148.5515953759206
 20
235.3984962207043
 30
0.0
 10
148.5494782418902
 20
235.4291710366346
 30
0.0
 10
148.5472311697033
 20
235.4587662214597
 30
0.0
 10
148.5448496770133
 20
235.4871726596018
 30
0.0
 10
148.5423285886836
 20
235.5142877325548
 30
0.0
 10
148.5396620078086
 20
235.5400118534556
 30
0.0
 10
148.5368435618183
 20
235.5642443607461
 30
0.0
 10
148.5338673670629
 20
235.5868721050389
 30
0.0
 10
148.530721717903
 20
235.6078246067678
 30
0.0
 10
148.5273703553941
 20
235.6271273178331
 30
0.0
 10
148.5237749568499
 20
235.6447580870719
 30
0.0
 10
148.5198823145347
 20
235.6604714993369
 30
0.0
 10
148.5157357808658
 20
235.6740710965001
 30
0.0
 10
148.5110837080466
 20
235.6850492043228
 30
0.0
 10
148.5062761679749
 20
235.6940789038477
 30
0.0
 10
148.5011405540455
 20
235.6971904508267
 30
0.0
 10
148.4988755145
 20
235.6985627847
 30
0.0
 11
148.5600394901
 21
232.8767430181
 31
0.0
 11
148.5641767998
 21
233.088404308
 31
0.0
 11
148.5675497787
 21
233.2858178266
 31
0.0
 11
148.5702408507
 21
233.4696066155
 31
0.0
 11
148.572325237
 21
233.6403623437
 31
0.0
 11
148.573872273
 21
233.798678726
 31
0.0
 11
148.5749460799
 21
233.9451753484
 31
0.0
 11
148.5756055556
 21
234.0804560086
 31
0.0
 11
148.5759049134
 21
234.2050883319
 31
0.0
 11
148.5758943547
 21
234.3196507501
 31
0.0
 11
148.575620153
 21
234.4247296405
 31
0.0
 11
148.5751246991
 21
234.52091667
 31
0.0
 11
148.5744465041
 21
234.6088068984
 31
0.0
 11
148.5736201594
 21
234.6889972222
 31
0.0
 11
148.5726762577
 21
234.762085217
 31
0.0
 11
148.571641276
 21
234.8286683797
 31
0.0
 11
148.5705373965
 21
234.889343674
 31
0.0
 11
148.5693823548
 21
234.9447072956
 31
0.0
 11
148.5681893045
 21
234.9953545649
 31
0.0
 11
148.5669666254
 21
235.0418798797
 31
0.0
 11
148.5657177127
 21
235.0848766878
 31
0.0
 11
148.5644407299
 21
235.1249374461
 31
0.0
 11
148.5631282893
 21
235.1626535441
 31
0.0
 11
148.5617669959
 21
235.1986151665
 31
0.0
 11
148.5603365463
 21
235.2334159035
 31
0.0
 11
148.5588097137
 21
235.2676273924
 31
0.0
 11
148.5571712068
 21
235.3013997687
 31
0.0
 11
148.5554160768
 21
235.3346175833
 31
0.0
 11
148.5535411199
 21
235.3671336457
 31
0.0
 11
148.5515429268
 21
235.3988117649
 31
0.0
 11
148.5494178755
 21
235.4295245001
 31
0.0
 11
148.5471618852
 21
235.4591542306
 31
0.0
 11
148.5447701978
 21
235.4875924892
 31
0.0
 11
148.5422372223
 21
235.5147376907
 31
0.0
 11
148.5395564881
 21
235.5404915314
 31
0.0
 11
148.5367207564
 21
235.5647545034
 31
0.0
 11
148.5337223482
 21
235.5874211307
 31
0.0
 11
148.5305569156
 21
235.6083562269
 31
0.0
 11
148.5271909216
 21
235.6275828379
 31
0.0
 11
148.5235321231
 21
235.6452895391
 31
0.0
 11
148.5195529061
 21
235.6611535687
 31
0.0
 11
148.5152811862
 21
235.6746513066
 31
0.0
 11
148.5106031103
 21
235.6856728179
 31
0.0
 11
148.505229902
 21
235.6940025107
 31
0.0
 11
148.4988755145
 21
235.6985627847
 31
0.0
  0
SPLINE
  5
65F
330
1B
100
AcDbEntity
  8
0
  6
Continuous
100
AcDbSpline
210
0.0
220
0.0
230
1.0
 70
     8
 71
     3
 72
    17
 73
    13
 74
    11
 42
0.0000000001
 43
0.0000000001
 44
0.0000000001
 40
0.0
 40
0.0
 40
0.0
 40
0.0
 40
0.9089378005866423
 40
1.98021898778836
 40
3.201180423645917
 40
4.55155654748738
 40
6.006705135063868
 40
7.532671908577917
 40
9.0892493035015
 40
10.63209540970258
 40
12.10840837932838
 40
13.46230357075154
 40
13.46230357075154
 40
13.46230357075154
 40
13.46230357075154
 10
148.4988755145
 20
235.6985627847
 30
0.0
 10
148.2064314698821
 20
235.7783369302976
 30
0.0
 10
147.5693105913749
 20
235.9521335066366
 30
0.0
 10
146.5156838834403
 20
236.1301494389255
 30
0.0
 10
145.3094660389843
 20
236.2704946374331
 30
0.0
 10
143.9697766290767
 20
236.3625116373844
 30
0.0
 10
142.5257309196976
 20
236.3872938741581
 30
0.0
 10
141.013041842586
 20
236.3597970312223
 30
0.0
 10
139.4737318303203
 20
236.2651308011424
 30
0.0
 10
137.9548864940083
 20
236.1243038877498
 30
0.0
 10
136.5078409946364
 20
235.9435460868696
 30
0.0
 10
135.5789729980251
 20
235.7778346589453
 30
0.0
 10
135.1346276204
 20
235.6985627847
 30
0.0
 11
148.4988755145
 21
235.6985627847
 31
0.0
 11
147.6184584033
 21
235.9244690388
 31
0.0
 11
146.5639461707
 21
236.1132740529
 31
0.0
 11
145.3514050548
 21
236.256420377
 31
0.0
 11
144.0042050047
 21
236.3489822528
 31
0.0
 11
142.5493562528
 21
236.3785207196
 31
0.0
 11
141.0236731341
 21
236.3490993807
 31
0.0
 11
139.4698352591
 21
236.2567898763
 31
0.0
 11
137.9336172269
 21
236.1139323775
 31
0.0
 11
136.4694141735
 21
235.9252278394
 31
0.0
 11
135.1346276204
 21
235.6985627847
 31
0.0
  0
SPLINE
  5
660
330
1B
100
AcDbEntity
  8
0
  6
Continuous
100
AcDbSpline
210
0.0
220
0.0
230
1.0
 70
     8
 71
     3
 72
    48
 73
    44
 74
    42
 42
0.0000000001
 43
0.0000000001
 44
0.0000000001
 40
0.0
 40
0.0
 40
0.0
 40
0.0
 40
0.0107508979102684
 40
0.0231306892155035
 40
0.0374386625480626
 40
0.0534309643328305
 40
0.0704046598979716
 40
0.0873782460799705
 40
0.1045578507944075
 40
0.1222627876320576
 40
0.1407578226480486
 40
0.1603135855706091
 40
0.1812062983468019
 40
0.2037174239213169
 40
0.228133170447401
 40
0.2547431533693323
 40
0.2838374526762957
 40
0.3157012873668852
 40
0.3506067121063535
 40
0.3888013328479625
 40
0.4304954057331811
 40
0.4758490442625453
 40
0.5250529530719257
 40
0.5784528550624962
 40
0.6361991486243913
 40
0.6984192429270137
 40
0.7652392887835274
 40
0.8367834907577607
 40
0.9131677985207269
 40
0.9946237781521443
 40
1.081814531085155
 40
1.175512427093615
 40
1.276493413944087
 40
1.38553265191697
 40
1.503404379524735
 40
1.630881214577606
 40
1.768732826695157
 40
1.917734374631896
 40
2.078664347646334
 40
2.252297054508782
 40
2.43940569406943
 40
2.640762367435929
 40
2.857178246318811
 40
2.857178246318811
 40
2.857178246318811
 40
2.857178246318811
 10
135.1346276204
 20
235.6985627847
 30
0.0
 10
135.1312137213309
 20
235.6973412972646
 30
0.0
 10
135.1238686754528
 20
235.6947132520089
 30
0.0
 10
135.1149670193166
 20
235.6855187487186
 30
0.0
 10
135.1067111271948
 20
235.6739823355121
 30
0.0
 10
135.0991749225237
 20
235.6600827625284
 30
0.0
 10
135.0923358849816
 20
235.6449051591497
 30
0.0
 10
135.0861580244427
 20
235.6290134138707
 30
0.0
 10
135.0805028517831
 20
235.6126761993486
 30
0.0
 10
135.0751752149444
 20
235.5956970125383
 30
0.0
 10
135.0700324658415
 20
235.5778360361862
 30
0.0
 10
135.0649740929613
 20
235.5588493337101
 30
0.0
 10
135.0599228096904
 20
235.5384788332026
 30
0.0
 10
135.0548180203331
 20
235.5164553954342
 30
0.0
 10
135.0496116647013
 20
235.4925016882479
 30
0.0
 10
135.0442656788538
 20
235.4663349000938
 30
0.0
 10
135.0387504675002
 20
235.437670705711
 30
0.0
 10
135.0330441164655
 20
235.4062292714942
 30
0.0
 10
135.0271321276611
 20
235.3717438889262
 30
0.0
 10
135.0210074293627
 20
235.3339720389267
 30
0.0
 10
135.0146703987834
 20
235.2927079048462
 30
0.0
 10
135.0081242658065
 20
235.2477645080266
 30
0.0
 10
135.0013655665342
 20
235.1989102663125
 30
0.0
 10
134.9943921899908
 20
235.1459167096704
 30
0.0
 10
134.9872049679658
 20
235.0885762889697
 30
0.0
 10
134.9798126069438
 20
235.0267542365513
 30
0.0
 10
134.9722228271439
 20
234.9603246779048
 30
0.0
 10
134.9644418792428
 20
234.8891657114387
 30
0.0
 10
134.9564706286264
 20
234.8131206228089
 30
0.0
 10
134.9482910760426
 20
234.7318539974026
 30
0.0
 10
134.9398666574881
 20
234.6448123224076
 30
0.0
 10
134.9311489952893
 20
234.5512608942417
 30
0.0
 10
134.9220923104344
 20
234.4504272545422
 30
0.0
 10
134.9126559912093
 20
234.3415378787313
 30
0.0
 10
134.9028037724187
 20
234.2238200154635
 30
0.0
 10
134.8925029390684
 20
234.0965024939421
 30
0.0
 10
134.8817234588607
 20
233.9588136608252
 30
0.0
 10
134.8704371291015
 20
233.8099797941868
 30
0.0
 10
134.8586177216928
 20
233.6492255115782
 30
0.0
 10
134.8462383765375
 20
233.4757761449731
 30
0.0
 10
134.8332814799403
 20
233.2888585789967
 30
0.0
 10
134.819695658295
 20
233.0876895885218
 30
0.0
 10
134.8106178687083
 20
232.9487282281639
 30
0.0
 10
134.805915363
 20
232.8767430181
 30
0.0
 11
135.1346276204
 21
235.6985627847
 31
0.0
 11
135.1247845715
 21
235.6942388751
 31
0.0
 11
135.1156800473
 21
235.6858503787
 31
0.0
 11
135.107266796
 21
235.6742773366
 31
0.0
 11
135.0995056911
 21
235.6602945269
 31
0.0
 11
135.0924726134
 21
235.6448464798
 31
0.0
 11
135.0862823155
 21
235.6290419602
 31
0.0
 11
135.0806383497
 21
235.6128159173
 31
0.0
 11
135.0753196184
 21
235.5959287658
 31
0.0
 11
135.0701880169
 21
235.5781598889
 31
0.0
 11
135.0651416474
 21
235.5592664504
 31
0.0
 11
135.0601025419
 21
235.5389905321
 31
0.0
 11
135.0550096611
 21
235.5170630758
 31
0.0
 11
135.0498146177
 21
235.4932064163
 31
0.0
 11
135.0444790206
 21
235.4671368441
 31
0.0
 11
135.0389728918
 21
235.438568316
 31
0.0
 11
135.0332738554
 21
235.407218277
 31
0.0
 11
135.0273668951
 21
235.3728162931
 31
0.0
 11
135.0212444579
 21
235.3351155661
 31
0.0
 11
135.0149065652
 21
235.2939060183
 31
0.0
 11
135.0083606842
 21
235.2490272486
 31
0.0
 11
135.0016089517
 21
235.2002887756
 31
0.0
 11
134.9946333298
 21
235.1473464463
 31
0.0
 11
134.9874427038
 21
235.0900495937
 31
0.0
 11
134.9800468048
 21
235.0282706263
 31
0.0
 11
134.9724533903
 21
234.9618834394
 31
0.0
 11
134.9646685373
 21
234.8907640405
 31
0.0
 11
134.956697474
 21
234.8147967803
 31
0.0
 11
134.9485324652
 21
234.7337510571
 31
0.0
 11
134.9401253767
 21
234.6469665639
 31
0.0
 11
134.9314242412
 21
234.5536735526
 31
0.0
 11
134.9223831284
 21
234.4530981183
 31
0.0
 11
134.9129614278
 21
234.3444666911
 31
0.0
 11
134.9031228762
 21
234.2270062847
 31
0.0
 11
134.8928347668
 21
234.0999452825
 31
0.0
 11
134.8820673188
 21
233.9625148309
 31
0.0
 11
134.8707924138
 21
233.8139404798
 31
0.0
 11
134.8589833295
 21
233.6534443685
 31
0.0
 11
134.8466149261
 21
233.480252742
 31
0.0
 11
134.8336631411
 21
233.2935929063
 31
0.0
 11
134.820104864
 21
233.0926932223
 31
0.0
 11
134.805915363
 21
232.8767430181
 31
0.0
  0
SPLINE
  5
661
330
1B
100
AcDbEntity
  8
0
  6
Continuous
100
AcDbSpline
210
0.0
220
0.0
230
1.0
 70
     8
 71
     3
 72
    10
 73
     6
 74
     4
 42
0.0000000001
 43
0.0000000001
 44
0.0000000001
 40
0.0
 40
0.0
 40
0.0
 40
0.0
 40
0.9622561986407768
 40
1.969229173730309
 40
3.020853184462323
 40
3.020853184462323
 40
3.020853184462323
 40
3.020853184462323
 10
134.805915363
 20
232.8767430181
 30
0.0
 10
134.786591235396
 20
232.5565707979247
 30
0.0
 10
134.7470449733003
 20
231.9013477113102
 30
0.0
 10
134.698701245116
 20
230.8955393752353
 30
0.0
 10
134.6686776209009
 20
230.2099990308082
 30
0.0
 10
134.6533402021
 20
229.8597941624
 30
0.0
 11
134.805915363
 21
232.8767430181
 31
0.0
 11
134.7498608275
 21
231.9161208859
 31
0.0
 11
134.7001146768
 21
230.910377433
 31
0.0
 11
134.6533402021
 21
229.8597941624
 31
0.0
  0
SPLINE
  5
662
330
1B
100
AcDbEntity
  8
0
  6
Continuous
100
AcDbSpline
210
0.0
220
0.0
230
1.0
 70
     8
 71
     3
 72
    16
 73
    12
 74
    10
 42
0.0000000001
 43
0.0000000001
 44
0.0000000001
 40
0.0
 40
0.0
 40
0.0
 40
0.0
 40
5.166994064218896
 40
10.32325576817005
 40
15.46481678421631
 40
20.59014242287745
 40
25.69627614985215
 40
30.77753711775712
 40
35.83000661519971
 40
40.85195936750003
 40
45.83729407401302
 40
45.83729407401302
 40
45.83729407401302
 40
45.83729407401302
 10
134.6533402021
 20
229.8597941624
 30
0.0
 10
134.571922328473
 20
228.1393550299648
 30
0.0
 10
134.4092556942355
 20
224.7020502881833
 30
0.0
 10
134.0662946941736
 20
219.5582294675792
 30
0.0
 10
133.6516845353309
 20
214.4337714328347
 30
0.0
 10
133.1591310419216
 20
209.3329405858143
 30
0.0
 10
132.591657957831
 20
204.260158494912
 30
0.0
 10
131.9511444998183
 20
199.2205357142858
 30
0.0
 10
131.2379306301044
 20
194.2190925683149
 30
0.0
 10
130.4611571678289
 20
189.2593644362967
 30
0.0
 10
129.8848293130256
 20
185.9737079327132
 30
0.0
 10
129.5977198172
 20
184.3368910162
 30
0.0
 11
134.6533402021
 21
229.8597941624
 31
0.0
 11
134.3924844367
 21
224.6993889526
 31
0.0
 11
134.0538200317
 21
219.5542610455
 31
0.0
 11
133.6379675633
 21
214.4295448186
 31
0.0
 11
133.1456304913
 21
209.3279208507
 31
0.0
 11
132.5780167767
 21
204.2534340482
 31
0.0
 11
131.9371178492
 21
199.212753381
 31
0.0
 11
131.2250407452
 21
194.2107143747
 31
0.0
 11
130.4441187121
 21
189.249850516
 31
0.0
 11
129.5977198172
 21
184.3368910162
 31
0.0
  0
SPLINE
  5
663
330
1B
100
AcDbEntity
  8
0
  6
Continuous
100
AcDbSpline
210
0.0
220
0.0
230
1.0
 70
     8
 71
     3
 72
    45
 73
    41
 74
    39
 42
0.0000000001
 43
0.0000000001
 44
0.0000000001
 40
0.0
 40
0.0
 40
0.0
 40
0.0
 40
0.4105628513101978
 40
0.7834096881272428
 40
1.121755705807742
 40
1.428795048368915
 40
1.707695655628825
 40
1.961628006072704
 40
2.193736817014913
 40
2.406774014168061
 40
2.60224252419836
 40
2.781363176920868
 40
2.945372445053847
 40
3.095413773689862
 40
3.232519670353442
 40
3.357729522056248
 40
3.472086350251434
 40
3.576618193299605
 40
3.672126906032498
 40
3.75917691241885
 40
3.838338860985223
 40
3.910189984955705
 40
3.9753474166623
 40
4.034452393254496
 40
4.088011142584256
 40
4.136573775612263
 40
4.180721679416401
 40
4.22104920230467
 40
4.258151272428581
 40
4.292615537983111
 40
4.32501941552296
 40
4.355863318316604
 40
4.384933785560954
 40
4.411676230245774
 40
4.435927534682961
 40
4.457498750449078
 40
4.476315372698979
 40
4.492786466540752
 40
4.507983752849268
 40
4.522268338911677
 40
4.522268338911677
 40
4.522268338911677
 40
4.522268338911677
 10
129.5977198172
 20
184.3368910162
 30
0.0
 10
129.5735837930729
 20
184.202181852167
 30
0.0
 10
129.527528980579
 20
183.9451384692935
 30
0.0
 10
129.4624930967681
 20
183.5769187973395
 30
0.0
 10
129.4042005075494
 20
183.2425509968694
 30
0.0
 10
129.3520900619983
 20
182.9388941530526
 30
0.0
 10
129.3055389666812
 20
182.6628336522581
 30
0.0
 10
129.2639461032775
 20
182.4112678002528
 30
0.0
 10
129.2267413809022
 20
182.1812303589442
 30
0.0
 10
129.1934598393896
 20
181.9703011377056
 30
0.0
 10
129.163748571799
 20
181.7766915185761
 30
0.0
 10
129.1373387557754
 20
181.5991111129317
 30
0.0
 10
129.1139680527472
 20
181.4363896953163
 30
0.0
 10
129.0933865652537
 20
181.2874184479961
 30
0.0
 10
129.0753587814318
 20
181.1511526295438
 30
0.0
 10
129.0596597779736
 20
181.0265795665811
 30
0.0
 10
129.0460730381166
 20
180.9126867036461
 30
0.0
 10
129.0344015968754
 20
180.8085385636129
 30
0.0
 10
129.0244760376895
 20
180.7133568103235
 30
0.0
 10
129.016149470794
 20
180.6265137674016
 30
0.0
 10
129.0092863575396
 20
180.5474555894397
 30
0.0
 10
129.0037539763776
 20
180.4756102134822
 30
0.0
 10
128.9994245695264
 20
180.4103812344087
 30
0.0
 10
128.9961807194727
 20
180.3511949067496
 30
0.0
 10
128.9939179176993
 20
180.2974988859855
 30
0.0
 10
128.9925369963448
 20
180.2487603365263
 30
0.0
 10
128.9919494971638
 20
180.2044163673588
 30
0.0
 10
128.9920875428365
 20
180.1638886966243
 30
0.0
 10
128.9929098511421
 20
180.1265973782153
 30
0.0
 10
128.9944104635711
 20
180.0919701527052
 30
0.0
 10
128.996629935515
 20
180.0594711778601
 30
0.0
 10
128.9996501366724
 20
180.0288413926771
 30
0.0
 10
129.003564355545
 20
180.0002131931861
 30
0.0
 10
129.0084458050567
 20
179.9739633739695
 30
0.0
 10
129.0143513840525
 20
179.9504817249115
 30
0.0
 10
129.0213589234218
 20
179.9300831499047
 30
0.0
 10
129.0296048747494
 20
179.9129112485719
 30
0.0
 10
129.0394538302245
 20
179.899242891572
 30
0.0
 10
129.0515570560631
 20
179.889000195493
 30
0.0
 10
129.0613568196301
 20
179.8871392935543
 30
0.0
 10
129.0661050108
 20
179.8862376475
 30
0.0
 11
129.5977198172
 21
184.3368910162
 31
0.0
 11
129.5254861954
 21
183.932732435
 31
0.0
 11
129.4606351574
 21
183.5655688385
 31
0.0
 11
129.4025625007
 21
183.2322437806
 31
0.0
 11
129.3506569129
 21
182.9296236097
 31
0.0
 11
129.3043087155
 21
182.6546010773
 31
0.0
 11
129.2629125995
 21
182.4040656503
 31
0.0
 11
129.2258797546
 21
182.1749301696
 31
0.0
 11
129.1927016446
 21
181.9644923869
 31
0.0
 11
129.1630777694
 21
181.7712817132
 31
0.0
 11
129.1367516613
 21
181.5941062514
 31
0.0
 11
129.1134576684
 21
181.4317596163
 31
0.0
 11
129.0929454607
 21
181.2831270168
 31
0.0
 11
129.0749849437
 21
181.1472026013
 31
0.0
 11
129.0593509625
 21
181.0229726307
 31
0.0
 11
129.0458262047
 21
180.9094183922
 31
0.0
 11
129.0342059351
 21
180.8055344399
 31
0.0
 11
129.0243214151
 21
180.7105385954
 31
0.0
 11
129.0160346362
 21
180.6238839192
 31
0.0
 11
129.0092098911
 21
180.5450167083
 31
0.0
 11
129.0037151769
 21
180.4733759927
 31
0.0
 11
128.9994219398
 21
180.408360156
 31
0.0
 11
128.9962100001
 21
180.3493425171
 31
0.0
 11
128.9939768403
 21
180.2958303444
 31
0.0
 11
128.992623139
 21
180.2472865825
 31
0.0
 11
128.9920607113
 21
180.2031422614
 31
0.0
 11
128.9922217128
 21
180.1628150599
 31
0.0
 11
128.9930654975
 21
180.1257225858
 31
0.0
 11
128.9945873032
 21
180.0912919351
 31
0.0
 11
128.9968313964
 21
180.058965857
 31
0.0
 11
128.9999059063
 21
180.0282755698
 31
0.0
 11
129.0039087461
 21
179.9994820056
 31
0.0
 11
129.0088839848
 21
179.97320644
 31
0.0
 11
129.0149163841
 21
179.9497173803
 31
0.0
 11
129.0220793941
 21
179.9293701781
 31
0.0
 11
129.0304473402
 21
179.9125166101999
 31
0.0
 11
129.0402874132
 21
179.8993079049
 31
0.0
 11
129.0523381146
 21
179.8900484175
 31
0.0
 11
129.0661050108
 21
179.8862376475
 31
0.0
  0
SPLINE
  5
664
330
1B
100
AcDbEntity
  8
0
  6
Continuous
100
AcDbSpline
210
0.0
220
0.0
230
1.0
 70
     8
 71
     3
 72
    15
 73
    11
 74
     9
 42
0.0000000001
 43
0.0000000001
 44
0.0000000001
 40
0.0
 40
0.0
 40
0.0
 40
0.0
 40
1.31290259671403
 40
2.743565672511164
 40
4.216488521539415
 40
5.665127871617871
 40
7.033112442602961
 40
8.275186444348371
 40
9.357963747852194
 40
10.25551947254905
 40
10.25551947254905
 40
10.25551947254905
 40
10.25551947254905
 10
129.0661050108
 20
179.8862376475
 30
0.0
 10
129.5031350890081
 20
179.8631589761054
 30
0.0
 10
130.4163945519931
 20
179.8149315974987
 30
0.0
 10
131.8210278424728
 20
179.7636154359981
 30
0.0
 10
133.2714913054171
 20
179.7328872603789
 30
0.0
 10
134.7013440618258
 20
179.7221943355501
 30
0.0
 10
136.0542718782763
 20
179.7317148655824
 30
0.0
 10
137.2849062583683
 20
179.7616676978423
 30
0.0
 10
138.3580704684989
 20
179.8114088738588
 30
0.0
 10
139.0162008045874
 20
179.8629000552855
 30
0.0
 10
139.3144883362
 20
179.8862376475
 30
0.0
 11
129.0661050108
 21
179.8862376475
 31
0.0
 11
130.3773557673
 21
179.8203993453
 31
0.0
 11
131.8070490832
 21
179.7677319083
 31
0.0
 11
133.279632399
 21
179.7361075946
 31
0.0
 11
134.7282336279
 21
179.7255982547
 31
0.0
 11
136.0961775506
 21
179.7361439079
 31
0.0
 11
137.3378475619
 21
179.7678205373
 31
0.0
 11
138.419341508
 21
179.8205228478
 31
0.0
 11
139.3144883362
 21
179.8862376475
 31
0.0
  0
SPLINE
  5
665
330
1B
100
AcDbEntity
  8
0
  6
Continuous
100
AcDbSpline
210
0.0
220
0.0
230
1.0
 70
     8
 71
     3
 72
    43
 73
    39
 74
    37
 42
0.0000000001
 43
0.0000000001
 44
0.0000000001
 40
0.0
 40
0.0
 40
0.0
 40
0.0
 40
0.0110420469373884
 40
0.0249825477945543
 40
0.0413653260011089
 40
0.0597179868397887
 40
0.0801678448400329
 40
0.1029109770177279
 40
0.1281676136153112
 40
0.1561323154486745
 40
0.1868465885925455
 40
0.2200871565686006
 40
0.256032531222478
 40
0.2950328857785442
 40
0.3372722747857088
 40
0.3828658219510785
 40
0.4319193822153842
 40
0.4844947094171869
 40
0.5406014170655364
 40
0.6002346915084358
 40
0.6633946439100685
 40
0.7300820273309163
 40
0.8002961465695614
 40
0.8740324554091903
 40
0.9512800043904485
 40
1.032018998529164
 40
1.116213390437023
 40
1.203828345413995
 40
1.295201293529916
 40
1.391499078695275
 40
1.4941217360016
 40
1.604438426816834
 40
1.723816656201782
 40
1.853622684855436
 40
1.99522168588603
 40
2.149977711689703
 40
2.31925395506506
 40
2.333949658400687
 40
2.333949658400687
 40
2.333949658400687
 40
2.333949658400687
 10
139.3144883362
 20
179.8862376475
 30
0.0
 10
139.3180524953571
 20
179.8873044183114
 30
0.0
 10
139.3261163785297
 20
179.8897179792147
 30
0.0
 10
139.3365635609281
 20
179.899206206586
 30
0.0
 10
139.3474699480854
 20
179.9111145733333
 30
0.0
 10
139.3585463230546
 20
179.9258665241151
 30
0.0
 10
139.3699821200953
 20
179.9428919095719
 30
0.0
 10
139.3819077270261
 20
179.9623543292228
 30
0.0
 10
139.3944607708161
 20
179.9843473393434
 30
0.0
 10
139.4077151737513
 20
180.0089903413811
 30
0.0
 10
139.4216698249485
 20
180.0362698200943
 30
0.0
 10
139.4363220352603
 20
180.0661747098064
 30
0.0
 10
139.4517131372646
 20
180.0987886284255
 30
0.0
 10
139.4679340977172
 20
180.13432409528
 30
0.0
 10
139.4850589018943
 20
180.1729791893685
 30
0.0
 10
139.5031245346941
 20
180.2148800812419
 30
0.0
 10
139.5221506730799
 20
180.2601165200451
 30
0.0
 10
139.5421435863547
 20
180.3087461390273
 30
0.0
 10
139.5630961543382
 20
180.3607925002281
 30
0.0
 10
139.5849974847545
 20
180.4162588062765
 30
0.0
 10
139.6078386710625
 20
180.4751445917721
 30
0.0
 10
139.6316113327277
 20
180.5374509178321
 30
0.0
 10
139.6563071043977
 20
180.603177378963
 30
0.0
 10
139.6819165400951
 20
180.6723199768086
 30
0.0
 10
139.7084283195426
 20
180.7448687550342
 30
0.0
 10
139.7358278733689
 20
180.8208038793369
 30
0.0
 10
139.7640983586838
 20
180.9000979671845
 30
0.0
 10
139.7932629400687
 20
180.982835869487
 30
0.0
 10
139.8234753955324
 20
181.0694816059614
 30
0.0
 10
139.8550388017407
 20
181.1609537017206
 30
0.0
 10
139.8883556255432
 20
181.2585001664421
 30
0.0
 10
139.9238355155593
 20
181.3634371392542
 30
0.0
 10
139.9618703547995
 20
181.4770747174477
 30
0.0
 10
140.0028376032442
 20
181.6007261933143
 30
0.0
 10
140.047101148964
 20
181.735707868571
 30
0.0
 10
140.0950082781085
 20
181.8833400260814
 30
0.0
 10
140.1295311035403
 20
181.9908422982858
 30
0.0
 10
140.1481832942494
 20
182.049260843883
 30
0.0
 10
140.1496732337
 20
182.053927325
 30
0.0
 11
139.3144883362
 21
179.8862376475
 31
0.0
 11
139.324838098
 21
179.8900859239
 31
0.0
 11
139.3357641038
 21
179.898743866
 31
0.0
 11
139.3468481619
 21
179.9108078238
 31
0.0
 11
139.3579960309
 21
179.925386753
 31
0.0
 11
139.3694438362
 21
179.94233209
 31
0.0
 11
139.3813730899
 21
179.9616955341
 31
0.0
 11
139.3939253227
 21
179.9836121749
 31
0.0
 11
139.4071997183
 21
180.0082254837
 31
0.0
 11
139.4212104028
 21
180.0355580155
 31
0.0
 11
139.4358549968
 21
180.06539878
 31
0.0
 11
139.4512122654
 21
180.097898384
 31
0.0
 11
139.4674220231
 21
180.1333705056
 31
0.0
 11
139.4845442177
 21
180.1719839286
 31
0.0
 11
139.50260769
 21
180.2138465911
 31
0.0
 11
139.5216367178
 21
180.2590588447
 31
0.0
 11
139.5416383658
 21
180.307680847
 31
0.0
 11
139.5626010753
 21
180.359724362
 31
0.0
 11
139.5845114132
 21
180.4151866421
 31
0.0
 11
139.6073606256
 21
180.4740686689
 31
0.0
 11
139.6311408071
 21
180.5363720402
 31
0.0
 11
139.65584392
 21
180.602097064
 31
0.0
 11
139.6814608859
 21
180.6712404968
 31
0.0
 11
139.7079807053
 21
180.7437931191
 31
0.0
 11
139.7353896777
 21
180.8197373974
 31
0.0
 11
139.7636690103
 21
180.8990404552
 31
0.0
 11
139.7928007932
 21
180.9816704713
 31
0.0
 11
139.8228895143
 21
181.0679472614
 31
0.0
 11
139.854304924
 21
181.1589765724
 31
0.0
 11
139.8874785212
 21
181.2560895079
 31
0.0
 11
139.9228168785
 21
181.3605929661
 31
0.0
 11
139.9607118967
 21
181.4737968938
 31
0.0
 11
140.0015412116
 21
181.5970144742
 31
0.0
 11
140.0456683246
 21
181.7315621423
 31
0.0
 11
140.0934428453
 21
181.8787593661
 31
0.0
 11
140.1452027897
 21
182.0399280812
 31
0.0
 11
140.1496732337
 21
182.053927325
 31
0.0
  0
SPLINE
  5
666
330
1B
100
AcDbEntity
  8
0
  6
Continuous
100
AcDbSpline
210
0.0
220
0.0
230
1.0
 70
     8
 71
     3
 72
    15
 73
    11
 74
     9
 42
0.0000000001
 43
0.0000000001
 44
0.0000000001
 40
0.0
 40
0.0
 40
0.0
 40
0.0
 40
1.215875125693412
 40
6.394119932279866
 40
11.57326728489867
 40
16.75368483909406
 40
21.93302361077408
 40
27.1107412382332
 40
32.28864589560619
 40
37.46412177897516
 40
37.46412177897516
 40
37.46412177897516
 40
37.46412177897516
 10
154.2295225171
 20
220.7605270715
 30
0.0
 10
154.1791798830033
 20
220.3583738185766
 30
0.0
 10
153.9144348994772
 20
218.243505214054
 30
0.0
 10
153.3585521195725
 20
214.4253202861418
 30
0.0
 10
152.4666115251903
 20
209.3227439499813
 30
0.0
 10
151.4239567369787
 20
204.2483731663628
 30
0.0
 10
150.2340598497296
 20
199.2069370033115
 30
0.0
 10
148.8942195002768
 20
194.2043570986618
 30
0.0
 10
147.4189520328663
 20
189.2407990998528
 30
0.0
 10
146.3134341761198
 20
185.9712713806032
 30
0.0
 10
145.7608049181
 20
184.3368910162
 30
0.0
 11
154.2295225171
 21
220.7605270715
 31
0.0
 11
154.0769623788
 21
219.5542610455
 31
0.0
 11
153.3343299861
 21
214.4295448186
 31
0.0
 11
152.4415813146999
 21
209.3279208507
 31
0.0
 11
151.3993194824
 21
204.2534340482
 31
0.0
 11
150.208904209
 21
199.212753381
 31
0.0
 11
148.871606333
 21
194.2107143747
 31
0.0
 11
147.3881891913
 21
189.249850516
 31
0.0
 11
145.7608049181
 21
184.3368910162
 31
0.0
  0
SPLINE
  5
667
330
1B
100
AcDbEntity
  8
0
  6
Continuous
100
AcDbSpline
210
0.0
220
0.0
230
1.0
 70
     8
 71
     3
 72
    14
 73
    10
 74
     8
 42
0.0000000001
 43
0.0000000001
 44
0.0000000001
 40
0.0
 40
0.0
 40
0.0
 40
0.0
 40
7.510657204630101
 40
14.54072443608037
 40
21.57429721379389
 40
28.61035738891621
 40
35.64783997583884
 40
41.17713240307664
 40
46.70609171685914
 40
46.70609171685914
 40
46.70609171685914
 40
46.70609171685914
 10
145.7608049181
 20
184.3368910162
 30
0.0
 10
146.6467255870082
 20
186.6791748634512
 30
0.0
 10
148.3618788642582
 20
191.2138651103934
 30
0.0
 10
150.4321716737538
 20
198.1062837433045
 30
0.0
 10
152.1244158965186
 20
204.9353910411086
 30
0.0
 10
153.4494095800329
 20
211.848999527023
 30
0.0
 10
154.3364572901321
 20
218.3253547581114
 30
0.0
 10
154.89070665517
 20
224.3342812274431
 30
0.0
 10
155.0369897580439
 20
228.0179935062066
 30
0.0
 10
155.1101291062
 20
229.8597941624
 30
0.0
 11
145.7608049181
 21
184.3368910162
 31
0.0
 11
148.3332420985
 21
191.393273843
 31
0.0
 11
150.3764564085
 21
198.1198718362
 31
0.0
 11
152.0629382736
 21
204.9482629306
 31
0.0
 11
153.3876774427
 21
211.8584878851
 31
0.0
 11
154.3470774781
 21
218.8302676244
 31
0.0
 11
154.8426096832
 21
224.3373106222
 31
0.0
 11
155.1101291062
 21
229.8597941624
 31
0.0
  0
SPLINE
  5
668
330
1B
100
AcDbEntity
  8
0
  6
Continuous
100
AcDbSpline
210
0.0
220
0.0
230
1.0
 70
     8
 71
     3
 72
    14
 73
    10
 74
     8
 42
0.0000000001
 43
0.0000000001
 44
0.0000000001
 40
0.0
 40
0.0
 40
0.0
 40
0.0
 40
7.22880893201523
 40
14.06355661755001
 40
20.95889450053312
 40
27.90472966718618
 40
34.89062103035649
 40
40.40016195987916
 40
45.92264731238885
 40
45.92264731238885
 40
45.92264731238885
 40
45.92264731238885
 10
129.5977198172
 20
184.3368910162
 30
0.0
 10
130.1419628808764
 20
186.6845996843167
 30
0.0
 10
131.200780898022
 20
191.2520372921009
 30
0.0
 10
132.4217391984192
 20
198.1336590376236
 30
0.0
 10
133.3831620233759
 20
204.9594815633492
 30
0.0
 10
134.0843559297121
 20
211.8682588040946
 30
0.0
 10
134.4927906092989
 20
218.3370803016506
 30
0.0
 10
134.6829701811097
 20
224.3413039714154
 30
0.0
 10
134.6632245845988
 20
228.0188590795377
 30
0.0
 10
134.6533402021
 20
229.8597941624
 30
0.0
 11
129.5977198172
 21
184.3368910162
 31
0.0
 11
131.1671592003
 21
191.393273843
 31
0.0
 11
132.378214675
 21
198.1198718362
 31
0.0
 11
133.3367341492
 21
204.9482629306
 31
0.0
 11
134.0391707944
 21
211.8584878851
 31
0.0
 11
134.482978641
 21
218.8302676244
 31
0.0
 11
134.6488661766
 21
224.3373106222
 31
0.0
 11
134.6533402021
 21
229.8597941624
 31
0.0
  0
SPLINE
  5
669
330
1B
100
AcDbEntity
  8
0
  6
Continuous
100
AcDbSpline
210
0.0
220
0.0
230
1.0
 70
     8
 71
     3
 72
    15
 73
    11
 74
     9
 42
0.0000000001
 43
0.0000000001
 44
0.0000000001
 40
0.0
 40
0.0
 40
0.0
 40
0.0
 40
5.883502002106313
 40
11.82750162557257
 40
18.66240219142559
 40
25.55786002357237
 40
32.50378246862376
 40
39.48972867886728
 40
46.50507855018702
 40
53.53904657467874
 40
53.53904657467874
 40
53.53904657467874
 40
53.53904657467874
 10
129.0661050108
 20
179.8862376475
 30
0.0
 10
129.5660476654732
 20
181.7828250017321
 30
0.0
 10
130.5710736786749
 20
185.5955015347203
 30
0.0
 10
131.8866604923833
 20
191.6775409358685
 30
0.0
 10
133.0524155467669
 20
198.1326096989997
 30
0.0
 10
134.0093436159045
 20
204.959738213678
 30
0.0
 10
134.7129712017102
 20
211.8681936172874
 30
0.0
 10
135.1530279682925
 20
218.8380132110893
 30
0.0
 10
135.3513448455888
 20
225.8494272244248
 30
0.0
 10
135.2627235776249
 20
230.5322358678594
 30
0.0
 10
135.2183542232
 20
232.8767430181
 30
0.0
 11
129.0661050108
 21
179.8862376475
 31
0.0
 11
130.5235552297
 21
185.5863634942
 31
0.0
 11
131.7927769301
 21
191.393273843
 31
0.0
 11
133.0046949071
 21
198.1198718362
 31
0.0
 11
133.9640768836
 21
204.9482629306
 31
0.0
 11
134.6673760311
 21
211.8584878851
 31
0.0
 11
135.1120463799
 21
218.8302676244
 31
0.0
 11
135.2960467452
 21
225.8432040766
 31
0.0
 11
135.2183542232
 21
232.8767430181
 31
0.0
  0
SPLINE
  5
66A
330
1B
100
AcDbEntity
  8
0
  6
Continuous
100
AcDbSpline
210
0.0
220
0.0
230
1.0
 70
     8
 71
     3
 72
    15
 73
    11
 74
     9
 42
0.0000000001
 43
0.0000000001
 44
0.0000000001
 40
0.0
 40
0.0
 40
0.0
 40
0.0
 40
5.975431003560616
 40
11.99996788600763
 40
18.91282754866464
 40
25.87171932075119
 40
32.86664876816356
 40
39.88726570544804
 40
46.92300379967507
 40
53.96312172575068
 40
53.96312172575068
 40
53.96312172575068
 40
53.96312172575068
 10
139.3144883362
 20
179.8862376475
 30
0.0
 10
139.9262491691951
 20
181.7819937838711
 30
0.0
 10
141.1547982638938
 20
185.5890853129339
 30
0.0
 10
142.8214247497792
 20
191.6710647092218
 30
0.0
 10
144.3536707767786
 20
198.1251592349931
 30
0.0
 10
145.6926060719246
 20
204.9524565529416
 30
0.0
 10
146.7782206149114
 20
211.8609271760533
 30
0.0
 10
147.6002109064163
 20
218.8310194130693
 30
0.0
 10
148.1805579684935
 20
225.8416720939309
 30
0.0
 10
148.3464546982676
 20
230.5312329767339
 30
0.0
 10
148.4294288733
 20
232.8767430181
 30
0.0
 11
139.3144883362
 21
179.8862376475
 31
0.0
 11
141.1073466714
 21
185.5863634942
 31
0.0
 11
142.7119764882
 21
191.393273843
 31
0.0
 11
144.3058736472
 21
198.1198718362
 31
0.0
 11
145.6472348057
 21
204.9482629306
 31
0.0
 11
146.7325131352
 21
211.8584878851
 31
0.0
 11
147.559162666
 21
218.8302676244
 31
0.0
 11
148.1251422133
 21
225.8432040766
 31
0.0
 11
148.4294288733
 21
232.8767430181
 31
0.0
  0
SPLINE
  5
66B
330
1B
100
AcDbEntity
  8
0
  6
Continuous
100
AcDbSpline
210
0.0
220
0.0
230
1.0
 70
     8
 71
     3
 72
    14
 73
    10
 74
     8
 42
0.0000000001
 43
0.0000000001
 44
0.0000000001
 40
0.0
 40
0.0
 40
0.0
 40
0.0
 40
7.127309673358321
 40
13.90518610253018
 40
20.77227094113865
 40
27.71046013955684
 40
34.70127897847468
 40
40.21817921209752
 40
45.74692385558335
 40
45.74692385558335
 40
45.74692385558335
 40
45.74692385558335
 10
97.88736830880001
 20
184.3368910162
 30
0.0
 10
97.54365832764682
 20
186.6877391102151
 30
0.0
 10
96.87308956155299
 20
191.2741794003358
 30
0.0
 10
96.03132035806722
 20
198.1474621910626
 30
0.0
 10
95.30283514222676
 20
204.9699518726998
 30
0.0
 10
94.68186390170115
 20
211.8744648282329
 30
0.0
 10
94.20536748971979
 20
218.3391239830175
 30
0.0
 10
93.84235889624542
 20
224.3405290579328
 30
0.0
 10
93.6766218765751
 20
228.0187243996564
 30
0.0
 10
93.5936645056
 20
229.8597941624
 30
0.0
 11
97.88736830880001
 21
184.3368910162
 31
0.0
 11
96.88437051139999
 21
191.393273843
 31
0.0
 11
96.05221167620002
 21
198.1198718362
 31
0.0
 11
95.3242492853
 21
204.9482629306
 31
0.0
 11
94.7019467614
 21
211.8584878851
 31
0.0
 11
94.18635457249999
 21
218.8302676244
 31
0.0
 11
93.856709903
 21
224.3373106222
 31
0.0
 11
93.5936645056
 21
229.8597941624
 31
0.0
  0
SPLINE
  5
66C
330
1B
100
AcDbEntity
  8
0
  6
Continuous
100
AcDbSpline
210
0.0
220
0.0
230
1.0
 70
     8
 71
     3
 72
    15
 73
    11
 74
     9
 42
0.0000000001
 43
0.0000000001
 44
0.0000000001
 40
0.0
 40
0.0
 40
0.0
 40
0.0
 40
5.769530516590148
 40
11.63329233019853
 40
18.41106281005913
 40
25.27805617641618
 40
32.21616798854271
 40
39.20692320300977
 40
46.23167018754336
 40
53.27157016502144
 40
53.27157016502144
 40
53.27157016502144
 40
53.27157016502144
 10
98.9674498033
 20
179.8862376475
 30
0.0
 10
98.66365544971552
 20
181.7853109519448
 30
0.0
 10
98.05110499810604
 20
185.6144743203602
 30
0.0
 10
97.20500381752483
 20
191.6932764423077
 30
0.0
 10
96.40654963438075
 20
198.1471726372549
 30
0.0
 10
95.68141984754151
 20
204.9700396726522
 30
0.0
 10
95.06058320945864
 20
211.8744526374202
 30
0.0
 10
94.54838261409437
 20
218.8404166494702
 30
0.0
 10
94.13578520562243
 20
225.847172671732
 30
0.0
 10
93.95182280331468
 20
230.5318705001082
 30
0.0
 10
93.85974250329998
 20
232.8767430181
 30
0.0
 11
98.9674498033
 21
179.8862376475
 31
0.0
 11
98.0752347431
 21
185.5863634942
 31
0.0
 11
97.260682837
 21
191.393273843
 31
0.0
 11
96.4293873928
 21
198.1198718362
 31
0.0
 11
95.702288393
 21
204.9482629306
 31
0.0
 11
95.0808492602
 21
211.8584878851
 31
0.0
 11
94.56612046239999
 21
218.8302676244
 31
0.0
 11
94.15894419329999
 21
225.8432040766
 31
0.0
 11
93.85974250329998
 21
232.8767430181
 31
0.0
  0
SPLINE
  5
66D
330
1B
100
AcDbEntity
  8
0
  6
Continuous
100
AcDbSpline
210
0.0
220
0.0
230
1.0
 70
     8
 71
     3
 72
    15
 73
    11
 74
     9
 42
0.0000000001
 43
0.0000000001
 44
0.0000000001
 40
0.0
 40
0.0
 40
0.0
 40
0.0
 40
5.7177716842319
 40
11.53653421866938
 40
18.27104590523238
 40
25.10305092879739
 40
32.01425833638395
 40
38.9860449891121
 40
45.99966243474633
 40
53.03620890156684
 40
53.03620890156684
 40
53.03620890156684
 40
53.03620890156684
 10
112.5140439146
 20
179.8862376475
 30
0.0
 10
112.3585136015694
 20
181.7858406291466
 30
0.0
 10
112.0447059021003
 20
185.6185985652651
 30
0.0
 10
111.6620079134784
 20
191.6972394287483
 30
0.0
 10
111.3479077918932
 20
198.1515894055934
 30
0.0
 10
111.1270255954905
 20
204.9742209653385
 30
0.0
 10
111.0104857030782
 20
211.8785294288055
 30
0.0
 10
111.0025648790068
 20
218.8442774203147
 30
0.0
 10
111.0942747476755
 20
225.85140850394
 30
0.0
 10
111.2463443602093
 20
230.5324184712788
 30
0.0
 10
111.3225032507
 20
232.8767430181
 30
0.0
 11
112.5140439146
 21
179.8862376475
 31
0.0
 11
112.0651805002
 21
185.5863634942
 31
0.0
 11
111.69398024
 21
191.393273843
 31
0.0
 11
111.3675953532
 21
198.1198718362
 31
0.0
 11
111.1454069108
 21
204.9482629306
 31
0.0
 11
111.0288783354
 21
211.8584878851
 31
0.0
 11
111.019060095
 21
218.8302676244
 31
0.0
 11
111.1167943833
 21
225.8432040766
 31
0.0
 11
111.3225032507
 21
232.8767430181
 31
0.0
  0
SPLINE
  5
66E
330
1B
100
AcDbEntity
  8
0
  6
Continuous
100
AcDbSpline
210
0.0
220
0.0
230
1.0
 70
     8
 71
     3
 72
    14
 73
    10
 74
     8
 42
0.0000000001
 43
0.0000000001
 44
0.0000000001
 40
0.0
 40
0.0
 40
0.0
 40
0.0
 40
7.071439783764541
 40
13.80590331987068
 40
20.63787605565732
 40
27.5490667577894
 40
34.52085208023762
 40
40.02832085416784
 40
45.55245619533214
 40
45.55245619533214
 40
45.55245619533214
 40
45.55245619533214
 10
112.7459176696
 20
184.3368910162
 30
0.0
 10
112.5834370596574
 20
186.6884927848963
 30
0.0
 10
112.2662185495924
 20
191.2796351347183
 30
0.0
 10
111.9414423546101
 20
198.1517332147186
 30
0.0
 10
111.7192352629872
 20
204.9741932314821
 30
0.0
 10
111.6043714252813
 20
211.8785416849495
 30
0.0
 10
111.5975966009078
 20
218.3422327909239
 30
0.0
 10
111.668381296579
 20
224.3431572784369
 30
0.0
 10
111.7676250944239
 20
228.0190640122556
 30
0.0
 10
111.8173219622
 20
229.8597941624
 30
0.0
 11
112.7459176696
 21
184.3368910162
 31
0.0
 11
112.2846996983
 21
191.393273843
 31
0.0
 11
111.9593098444
 21
198.1198718362
 31
0.0
 11
111.7381164348
 21
204.9482629306
 31
0.0
 11
111.6225828923
 21
211.8584878851
 31
0.0
 11
111.6137596848
 21
218.8302676244
 31
0.0
 11
111.6822411874
 21
224.3373106222
 31
0.0
 11
111.8173219622
 21
229.8597941624
 31
0.0
  0
SPLINE
  5
66F
330
1B
100
AcDbEntity
  8
0
  6
Continuous
100
AcDbSpline
210
0.0
220
0.0
230
1.0
 70
     8
 71
     3
 72
    16
 73
    12
 74
    10
 42
0.0000000001
 43
0.0000000001
 44
0.0000000001
 40
0.0
 40
0.0
 40
0.0
 40
0.0
 40
6.125091923534184
 40
12.25894163576047
 40
19.25426891170289
 40
26.25938220787757
 40
29.76562120551419
 40
33.27394806544245
 40
40.29572783025779
 40
47.32427898289028
 40
54.35850869358291
 40
54.35850869358291
 40
54.35850869358291
 40
54.35850869358291
 10
87.25000898819999
 20
179.8862376475
 30
0.0
 10
86.48392754666864
 20
181.7791655318394
 30
0.0
 10
84.95066930381874
 20
185.5677278496814
 30
0.0
 10
82.89809924363578
 20
191.6524343663579
 30
0.0
 10
81.05047160588472
 20
198.107160685157
 30
0.0
 10
79.74852680439585
 20
203.7988983368175
 30
0.0
 10
78.88700417045158
 20
208.3924376761758
 30
0.0
 10
78.1455907683296
 20
213.0127015979587
 30
0.0
 10
77.45312526730866
 20
218.8267784657264
 30
0.0
 10
76.96383571478779
 20
225.8427990525133
 30
0.0
 10
76.95029891838433
 20
230.5314639344836
 30
0.0
 10
76.9435277871
 20
232.8767430181
 30
0.0
 11
87.25000898819999
 21
179.8862376475
 31
0.0
 11
85.00828723839999
 21
185.5863634942
 31
0.0
 11
83.0324571614
 21
191.393273843
 31
0.0
 11
81.1121751156
 21
198.1198718362
 31
0.0
 11
79.54862551479999
 21
204.9482629306
 31
0.0
 11
78.9022573571
 21
208.3944086201
 31
0.0
 11
78.34681860989998
 21
211.8584878851
 31
0.0
 11
77.51035083870001
 21
218.8302676244
 31
0.0
 11
77.04210557970001
 21
225.8432040766
 31
0.0
 11
76.9435277871
 21
232.8767430181
 31
0.0
  0
SPLINE
  5
670
330
1B
100
AcDbEntity
  8
0
  6
Continuous
100
AcDbSpline
210
0.0
220
0.0
230
1.0
 70
     8
 71
     3
 72
    14
 73
    10
 74
     8
 42
0.0000000001
 43
0.0000000001
 44
0.0000000001
 40
0.0
 40
0.0
 40
0.0
 40
0.0
 40
7.466506633201042
 40
14.4617099584714
 40
21.46672247428053
 40
28.48059897213585
 40
35.50232495636303
 40
41.02377443770362
 40
46.54889202742407
 40
46.54889202742407
 40
46.54889202742407
 40
46.54889202742407
 10
85.95773651570001
 20
184.3368910162
 30
0.0
 10
85.11565291994354
 20
186.6796603193293
 30
0.0
 10
83.48464000843472
 20
191.2173178646677
 30
0.0
 10
81.5409456948331
 20
198.1092810754762
 30
0.0
 10
79.97217888357469
 20
204.9385358402945
 30
0.0
 10
78.77074371844017
 20
211.8521965308623
 30
0.0
 10
77.99847080234017
 20
218.3278745970137
 30
0.0
 10
77.55011724419001
 20
224.3364571945642
 30
0.0
 10
77.46852847281633
 20
228.0182743133551
 30
0.0
 10
77.427720541
 20
229.8597941624
 30
0.0
 11
85.95773651570001
 21
184.3368910162
 31
0.0
 11
83.51720733019999
 21
191.393273843
 31
0.0
 11
81.59737686899999
 21
198.1198718362
 31
0.0
 11
80.03427885269998
 21
204.9482629306
 31
0.0
 11
78.8329235325
 21
211.8584878851
 31
0.0
 11
77.9969073459
 21
218.8302676244
 31
0.0
 11
77.5983075524
 21
224.3373106222
 31
0.0
 11
77.427720541
 21
229.8597941624
 31
0.0
  0
SPLINE
  5
671
330
1B
100
AcDbEntity
  8
0
  6
Continuous
100
AcDbSpline
210
0.0
220
0.0
230
1.0
 70
     8
 71
     3
 72
    15
 73
    11
 74
     9
 42
0.0000000001
 43
0.0000000001
 44
0.0000000001
 40
0.0
 40
0.0
 40
0.0
 40
0.0
 40
0.0845014007399512
 40
0.2516168555129491
 40
0.5269680507809814
 40
0.9232543993384621
 40
1.433890753870292
 40
2.034933343631433
 40
2.686678423676015
 40
3.336757087260301
 40
3.336757087260301
 40
3.336757087260301
 40
3.336757087260301
 10
83.95443320930001
 20
179.8797029344
 30
0.0
 10
83.97334856400781
 20
179.8581687156706
 30
0.0
 10
84.0296721519106
 20
179.7940470282762
 30
0.0
 10
84.21197460204154
 20
179.7584370734973
 30
0.0
 10
84.48498528291339
 20
179.7281472972706
 30
0.0
 10
84.88182428067228
 20
179.7230638960197
 30
0.0
 10
85.38340016415734
 20
179.7343689110295
 30
0.0
 10
85.97079921384719
 20
179.7660346847405
 30
0.0
 10
86.60293465082543
 20
179.8179404733717
 30
0.0
 10
87.03450168674598
 20
179.8634913587922
 30
0.0
 10
87.25000898819999
 20
179.8862376475
 30
0.0
 11
83.95443320930001
 21
179.8797029344
 31
0.0
 11
84.0146442572
 21
179.820414517
 31
0.0
 11
84.1732401269
 21
179.7677369569
 31
0.0
 11
84.44676847069999
 21
179.7361058666
 31
0.0
 11
84.84291548909999
 21
179.7255982567
 31
0.0
 11
85.35344292310001
 21
179.7361446164
 31
0.0
 11
85.95365070059999
 21
179.7678119266
 31
0.0
 11
86.6032624029
 21
179.8205023963
 31
0.0
 11
87.25000898819999
 21
179.8862376475
 31
0.0
  0
SPLINE
  5
672
330
1B
100
AcDbEntity
  8
0
  6
Continuous
100
AcDbSpline
210
0.0
220
0.0
230
1.0
 70
     8
 71
     3
 72
    16
 73
    12
 74
    10
 42
0.0000000001
 43
0.0000000001
 44
0.0000000001
 40
0.0
 40
0.0
 40
0.0
 40
0.0
 40
0.6558764160660646
 40
1.47225104092005
 40
2.288625522165358
 40
3.104999831255231
 40
3.921373926708276
 40
4.737747777164815
 40
5.5541213629068
 40
6.370494641071756
 40
7.039655715805472
 40
7.039655715805472
 40
7.039655715805472
 40
7.039655715805472
 10
134.0504659274
 20
130.4917550822
 30
0.0
 10
134.0610053381839
 20
130.7105950847198
 30
0.0
 10
134.0846632379302
 20
131.2018269900188
 30
0.0
 10
134.2948345794376
 20
131.943125949677
 30
0.0
 10
134.6654671658264
 20
132.6756965556602
 30
0.0
 10
135.1799804012756
 20
133.31741718184
 30
0.0
 10
135.8132475731331
 20
133.8412162176348
 30
0.0
 10
136.540073610196
 20
134.2262609369072
 30
0.0
 10
137.3291452006156
 20
134.4529111213507
 30
0.0
 10
138.1011885671279
 20
134.5208043659278
 30
0.0
 10
138.5924146887015
 20
134.450104138294
 30
0.0
 10
138.813688198
 20
134.4182571196
 30
0.0
 11
134.0504659274
 21
130.4917550822
 31
0.0
 11
134.1042214205
 21
131.1454248919
 31
0.0
 11
134.3191216397
 21
131.9330069028
 31
0.0
 11
134.6894473214
 21
132.6605549652
 31
0.0
 11
135.199772799
 21
133.297763659
 31
0.0
 11
135.828840819
 21
133.8180905658
 31
0.0
 11
136.5504479933
 21
134.1998618975
 31
0.0
 11
137.3345362812
 21
134.4271753117
 31
0.0
 11
138.1484450083
 21
134.4905623234
 31
0.0
 11
138.813688198
 21
134.4182571196
 31
0.0
  0
SPLINE
  5
673
330
1B
100
AcDbEntity
  8
0
  6
Continuous
100
AcDbSpline
210
0.0
220
0.0
230
1.0
 70
     8
 71
     3
 72
     9
 73
     5
 74
     3
 42
0.0000000001
 43
0.0000000001
 44
0.0000000001
 40
0.0
 40
0.0
 40
0.0
 40
0.0
 40
0.284005507747141
 40
0.4577941430070825
 40
0.4577941430070825
 40
0.4577941430070825
 40
0.4577941430070825
 10
117.3081123625
 20
175.6130520034
 30
0.0
 10
117.3215842460226
 20
175.5192720633723
 30
0.0
 10
117.3432998437968
 20
175.3681063074092
 30
0.0
 10
117.3508628905864
 20
175.2156292887402
 30
0.0
 10
117.353733988
 20
175.1577456889
 30
0.0
 11
117.3081123625
 21
175.6130520034
 31
0.0
 11
117.3430811333
 21
175.3312075188
 31
0.0
 11
117.353733988
 21
175.1577456889
 31
0.0
  0
SPLINE
  5
674
330
1B
100
AcDbEntity
  8
0
  6
Continuous
100
AcDbSpline
210
0.0
220
0.0
230
1.0
 70
     8
 71
     3
 72
     9
 73
     5
 74
     3
 42
0.0000000001
 43
0.0000000001
 44
0.0000000001
 40
0.0
 40
0.0
 40
0.0
 40
0.0
 40
0.1738212937302761
 40
0.457806390280262
 40
0.457806390280262
 40
0.457806390280262
 40
0.457806390280262
 10
110.7471725319
 20
175.1577330992
 30
0.0
 10
110.750043882564
 20
175.2156276017838
 30
0.0
 10
110.7576063776675
 20
175.3681087660654
 30
0.0
 10
110.7793235657612
 20
175.5192784365366
 30
0.0
 10
110.7927951072
 20
175.6130515563
 30
0.0
 11
110.7471725319
 21
175.1577330992
 31
0.0
 11
110.7578271126
 21
175.3312275431
 31
0.0
 11
110.7927951072
 21
175.6130515563
 31
0.0
  0
SPLINE
  5
675
330
1B
100
AcDbEntity
  8
0
  6
Continuous
100
AcDbSpline
210
0.0
220
0.0
230
1.0
 70
     8
 71
     3
 72
    10
 73
     6
 74
     4
 42
0.0000000001
 43
0.0000000001
 44
0.0000000001
 40
0.0
 40
0.0
 40
0.0
 40
0.0
 40
0.4214260083898359
 40
0.8467231264237708
 40
1.264685827287385
 40
1.264685827287385
 40
1.264685827287385
 40
1.264685827287385
 10
111.4365402981
 20
164.3950550865
 30
0.0
 10
111.3810220044762
 20
164.5242779690064
 30
0.0
 10
111.2694754406311
 20
164.7839107417898
 30
0.0
 10
111.1745934320365
 20
165.197947169741
 30
0.0
 10
111.1619951388393
 20
165.4790886117362
 30
0.0
 10
111.1557507803
 20
165.6184366914
 30
0.0
 11
111.4365402981
 21
164.3950550865
 31
0.0
 11
111.2818813586
 21
164.7870761229
 31
0.0
 11
111.1869311173
 21
165.2016386517
 31
0.0
 11
111.1557507803
 21
165.6184366914
 31
0.0
  0
SPLINE
  5
676
330
1B
100
AcDbEntity
  8
0
  6
Continuous
100
AcDbSpline
210
0.0
220
0.0
230
1.0
 70
     8
 71
     3
 72
    12
 73
     8
 74
     6
 42
0.0000000001
 43
0.0000000001
 44
0.0000000001
 40
0.0
 40
0.0
 40
0.0
 40
0.0
 40
0.1208025602010076
 40
0.3640251680795711
 40
0.7166120719151974
 40
1.15560789349009
 40
1.651729806469161
 40
1.651729806469161
 40
1.651729806469161
 40
1.651729806469161
 10
111.4365509215
 20
164.3950600574
 30
0.0
 10
111.4098536666386
 20
164.3647109750079
 30
0.0
 10
111.3294044388076
 20
164.2732573683918
 30
0.0
 10
111.121981895445
 20
164.1489670481909
 30
0.0
 10
110.8288737378334
 20
163.9696182120142
 30
0.0
 10
110.4504107999463
 20
163.7656541151024
 30
0.0
 10
110.1723063127407
 20
163.6250724033138
 30
0.0
 10
110.0247594049
 20
163.5504874979
 30
0.0
 11
111.4365509215
 21
164.3950600574
 31
0.0
 11
111.3537151015
 21
164.3071311914
 31
0.0
 11
111.1542527862
 21
164.1679477809
 31
0.0
 11
110.8516755838
 21
163.9869379432
 31
0.0
 11
110.4664800808
 21
163.7763631208
 31
0.0
 11
110.0247594049
 21
163.5504874979
 31
0.0
  0
SPLINE
  5
677
330
1B
100
AcDbEntity
  8
0
  6
Continuous
100
AcDbSpline
210
0.0
220
0.0
230
1.0
 70
     8
 71
     3
 72
    10
 73
     6
 74
     4
 42
0.0000000001
 43
0.0000000001
 44
0.0000000001
 40
0.0
 40
0.0
 40
0.0
 40
0.0
 40
0.7032592646209575
 40
1.420533150988221
 40
2.124751115400528
 40
2.124751115400528
 40
2.124751115400528
 40
2.124751115400528
 10
110.0247626713
 20
163.550487499
 30
0.0
 10
109.9402582368302
 20
163.7694056187417
 30
0.0
 10
109.7695653549745
 20
164.2116044806546
 30
0.0
 10
109.6262729466355
 20
164.9097797599959
 30
0.0
 10
109.6072123365926
 20
165.3836685503614
 30
0.0
 10
109.5977695642
 20
165.6184366914
 30
0.0
 11
110.0247626713
 21
163.550487499
 31
0.0
 11
109.7896049206
 21
164.2132653091
 31
0.0
 11
109.6449478557
 21
164.9158008325
 31
0.0
 11
109.5977695642
 21
165.6184366914
 31
0.0
  0
SPLINE
  5
678
330
1B
100
AcDbEntity
  8
0
  6
Continuous
100
AcDbSpline
210
0.0
220
0.0
230
1.0
 70
     8
 71
     3
 72
    19
 73
    15
 74
    13
 42
0.0000000001
 43
0.0000000001
 44
0.0000000001
 40
0.0
 40
0.0
 40
0.0
 40
0.0
 40
0.4966791432300419
 40
1.044100643474733
 40
1.628416112522272
 40
2.214370489986352
 40
2.775026553645113
 40
3.286355380845957
 40
3.800711571602897
 40
4.358083745467091
 40
4.940741151985555
 40
5.523704714542187
 40
6.071069959068599
 40
6.567911174888303
 40
6.567911174888303
 40
6.567911174888303
 40
6.567911174888303
 10
116.6643665212
 20
164.3950550865
 30
0.0
 10
116.5854751154305
 20
164.2491189149822
 30
0.0
 10
116.4196325012371
 20
163.9423372579209
 30
0.0
 10
116.0658089036195
 20
163.5253215255094
 30
0.0
 10
115.6227007144428
 20
163.1579059862041
 30
0.0
 10
115.1099679878768
 20
162.8842199924871
 30
0.0
 10
114.576588846053
 20
162.7259727218582
 30
0.0
 10
114.0470184342204
 20
162.6765095185372
 30
0.0
 10
113.5186110746328
 20
162.7271058174811
 30
0.0
 10
112.9867816605852
 20
162.8861835723481
 30
0.0
 10
112.4767107782529
 20
163.1591001498596
 30
0.0
 10
112.0348963325195
 20
163.5255806603441
 30
0.0
 10
111.6813229421674
 20
163.9422611117014
 30
0.0
 10
111.5154594051276
 20
164.2490721215119
 30
0.0
 10
111.4365402981
 20
164.3950550865
 30
0.0
 11
116.6643665212
 21
164.3950550865
 31
0.0
 11
116.4138839336
 21
163.9661627403
 31
0.0
 11
116.0630519695
 21
163.5459399043
 31
0.0
 11
115.6119636884
 21
163.1745318672
 31
0.0
 11
115.0948403903
 21
162.8989850889
 31
0.0
 11
114.5571659801
 21
162.7401095076
 31
0.0
 11
114.0480398174
 21
162.6926993823
 31
0.0
 11
113.5360112964
 21
162.7415776459
 31
0.0
 11
113.0018394635
 21
162.9007134154
 31
0.0
 11
112.4879030907
 21
163.1752294588
 31
0.0
 11
112.0379298203
 21
163.5458648203
 31
0.0
 11
111.6871156555
 21
163.9660292318
 31
0.0
 11
111.4365402981
 21
164.3950550865
 31
0.0
  0
SPLINE
  5
679
330
1B
100
AcDbEntity
  8
0
  6
Continuous
100
AcDbSpline
210
0.0
220
0.0
230
1.0
 70
     8
 71
     3
 72
    12
 73
     8
 74
     6
 42
0.0000000001
 43
0.0000000001
 44
0.0000000001
 40
0.0
 40
0.0
 40
0.0
 40
0.0
 40
0.1207981165239587
 40
0.3640208607287536
 40
0.7166124483121399
 40
1.155616251736932
 40
1.65174763769977
 40
1.65174763769977
 40
1.65174763769977
 40
1.65174763769977
 10
116.6643410897
 20
164.3950669962
 30
0.0
 10
116.6910360241148
 20
164.3647177980731
 30
0.0
 10
116.77148026681
 20
164.2732615606542
 30
0.0
 10
116.9789037719815
 20
164.1489708471541
 30
0.0
 10
117.2720145193177
 20
163.9696188823456
 30
0.0
 10
117.650485259452
 20
163.7656532034382
 30
0.0
 10
117.9285965473273
 20
163.6250721104465
 30
0.0
 10
118.0761471264
 20
163.5504875014
 30
0.0
 11
116.6643410897
 21
164.3950669962
 31
0.0
 11
116.7471702708
 21
164.307137981
 31
0.0
 11
116.9466312215
 21
164.1679523767
 31
0.0
 11
117.2492121587
 21
163.9869396587
 31
0.0
 11
117.634415643
 21
163.776362796
 31
0.0
 11
118.0761471264
 21
163.5504875014
 31
0.0
  0
SPLINE
  5
67A
330
1B
100
AcDbEntity
  8
0
  6
Continuous
100
AcDbSpline
210
0.0
220
0.0
230
1.0
 70
     8
 71
     3
 72
    19
 73
    15
 74
    13
 42
0.0000000001
 43
0.0000000001
 44
0.0000000001
 40
0.0
 40
0.0
 40
0.0
 40
0.0
 40
0.5798265217828045
 40
1.263528825383759
 40
2.048938996862185
 40
2.891408359395844
 40
3.738521486020386
 40
4.530574989200291
 40
5.327185673813632
 40
6.168998772488866
 40
7.006490408741093
 40
7.790014251918359
 40
8.473649947274026
 40
9.053673542913931
 40
9.053673542913931
 40
9.053673542913931
 40
9.053673542913931
 10
118.076144148
 20
163.550487499
 30
0.0
 10
117.9536928161645
 20
163.4003008887896
 30
0.0
 10
117.6868530258683
 20
163.0730217732982
 30
0.0
 10
117.1399402200305
 20
162.6540925210644
 30
0.0
 10
116.4583099718011
 20
162.2890925906618
 30
0.0
 10
115.6732165202155
 20
162.0238415599861
 30
0.0
 10
114.8576223708288
 20
161.8721275507367
 30
0.0
 10
114.0451782795005
 20
161.8247329326059
 30
0.0
 10
113.2345389077752
 20
161.8732090001671
 30
0.0
 10
112.4210817816769
 20
162.025789503303
 30
0.0
 10
111.6401000227068
 20
162.2903752523782
 30
0.0
 10
110.9605943515841
 20
162.6543950966882
 30
0.0
 10
110.4141327402366
 20
163.0729440889257
 30
0.0
 10
110.1472586976266
 20
163.4002520936637
 30
0.0
 10
110.0247626713
 20
163.550487499
 30
0.0
 11
118.076144148
 21
163.550487499
 31
0.0
 11
117.6939592325
 21
163.1144445129
 31
0.0
 11
117.1581949356
 21
162.689702876
 31
0.0
 11
116.4666719935
 21
162.3173251672
 31
0.0
 11
115.6698833068
 21
162.0436786515
 31
0.0
 11
114.837384271
 21
161.8870070054
 31
0.0
 11
114.0467043076
 21
161.8403813968
 31
0.0
 11
113.2515452755
 21
161.8884511015
 31
0.0
 11
112.424489699
 21
162.0453853759
 31
0.0
 11
111.6326209052
 21
162.3180317663
 31
0.0
 11
110.9428207126
 21
162.6896300805
 31
0.0
 11
110.4070910842
 21
163.1143082283
 31
0.0
 11
110.0247626713
 21
163.550487499
 31
0.0
  0
SPLINE
  5
67B
330
1B
100
AcDbEntity
  8
0
  6
Continuous
100
AcDbSpline
210
0.0
220
0.0
230
1.0
 70
     8
 71
     3
 72
    10
 73
     6
 74
     4
 42
0.0000000001
 43
0.0000000001
 44
0.0000000001
 40
0.0
 40
0.0
 40
0.0
 40
0.0
 40
0.4178064177533626
 40
0.8430677214587841
 40
1.264685821426131
 40
1.264685821426131
 40
1.264685821426131
 40
1.264685821426131
 10
116.9451560391
 20
165.6184366914
 30
0.0
 10
116.9389161493565
 20
165.4791408249192
 30
0.0
 10
116.9263250320241
 20
165.1980636471341
 30
0.0
 10
116.831470469694
 20
164.7840213460524
 30
0.0
 10
116.7199078597197
 20
164.5243381279197
 30
0.0
 10
116.6643665212
 20
164.3950550865
 30
0.0
 11
116.9451560391
 21
165.6184366914
 31
0.0
 11
116.9139990171
 21
165.2017936275
 31
0.0
 11
116.8190825159
 21
164.7872601135
 31
0.0
 11
116.6643665212
 21
164.3950550865
 31
0.0
  0
SPLINE
  5
67C
330
1B
100
AcDbEntity
  8
0
  6
Continuous
100
AcDbSpline
210
0.0
220
0.0
230
1.0
 70
     8
 71
     3
 72
    10
 73
     6
 74
     4
 42
0.0000000001
 43
0.0000000001
 44
0.0000000001
 40
0.0
 40
0.0
 40
0.0
 40
0.0
 40
0.7040595477541669
 40
1.421193273370636
 40
2.124751019063084
 40
2.124751019063084
 40
2.124751019063084
 40
2.124751019063084
 10
118.5031372552
 20
165.6184366914
 30
0.0
 10
118.493698249604
 20
165.3837214722553
 30
0.0
 10
118.4746449588658
 20
164.9099324416678
 30
0.0
 10
118.3313866717791
 20
164.211751581457
 30
0.0
 10
118.1606812414811
 20
163.7695001569486
 30
0.0
 10
118.076144148
 20
163.550487499
 30
0.0
 11
118.5031372552
 21
165.6184366914
 31
0.0
 11
118.4559795719
 21
164.9159582222
 31
0.0
 11
118.3113823325
 21
164.2135534822
 31
0.0
 11
118.076144148
 21
163.550487499
 31
0.0
  0
SPLINE
  5
67D
330
1B
100
AcDbEntity
  8
0
  6
Continuous
100
AcDbSpline
210
0.0
220
0.0
230
1.0
 70
     8
 71
     3
 72
    13
 73
     9
 74
     7
 42
0.0000000001
 43
0.0000000001
 44
0.0000000001
 40
0.0
 40
0.0
 40
0.0
 40
0.0
 40
2.205690171162608
 40
3.894397835534579
 40
5.123340525322434
 40
5.955765275201964
 40
6.439987929338125
 40
6.600874704701163
 40
6.600874704701163
 40
6.600874704701163
 40
6.600874704701163
 10
130.8511030325
 20
136.263736153
 30
0.0
 10
131.1862587874362
 20
135.6092757771941
 30
0.0
 10
131.7780145397422
 20
134.4537512596058
 30
0.0
 10
132.6076681302096
 20
132.9607837794882
 30
0.0
 10
133.2298656519424
 20
131.8766030071461
 30
0.0
 10
133.6600464253081
 20
131.1451867807272
 30
0.0
 10
133.9121720894881
 20
130.7221014331013
 30
0.0
 10
134.0228507540453
 20
130.5377351104322
 30
0.0
 10
134.0504534097
 20
130.4917551545
 30
0.0
 11
130.8511030325
 21
136.263736153
 31
0.0
 11
131.8690447248
 21
134.3069878702
 31
0.0
 11
132.6860106969
 21
132.8290500582
 31
0.0
 11
133.2979069744
 21
131.763271901
 31
0.0
 11
133.7197570879
 21
131.0456553976
 31
0.0
 11
133.9676826075
 21
130.6297172826
 31
0.0
 11
134.0504534097
 21
130.4917551545
 31
0.0
  0
SPLINE
  5
67E
330
1B
100
AcDbEntity
  8
0
  6
Continuous
100
AcDbSpline
210
0.0
220
0.0
230
1.0
 70
     8
 71
     3
 72
    13
 73
     9
 74
     7
 42
0.0000000001
 43
0.0000000001
 44
0.0000000001
 40
0.0
 40
0.0
 40
0.0
 40
0.0
 40
0.7914950835407726
 40
1.647043491928362
 40
2.54473257619347
 40
3.457381288418538
 40
4.356070902349636
 40
5.213502141525725
 40
5.213502141525725
 40
5.213502141525725
 40
5.213502141525725
 10
130.8510981521
 20
136.2637361532
 30
0.0
 10
130.9823080261648
 20
136.4934719270962
 30
0.0
 10
131.255346196141
 20
136.9715353025075
 30
0.0
 10
131.8363117374353
 20
137.5982572939029
 30
0.0
 10
132.5242744114501
 20
138.1642237212424
 30
0.0
 10
133.3012442491173
 20
138.6293346249121
 30
0.0
 10
134.1212883617374
 20
138.9870656751154
 30
0.0
 10
134.6945653313937
 20
139.1113473147373
 30
0.0
 10
134.97446952
 20
139.1720281956
 30
0.0
 11
130.8510981521
 21
136.2637361532
 31
0.0
 11
131.2685101635
 21
136.9362178853
 31
0.0
 11
131.8391156708
 21
137.5736913625
 31
0.0
 11
132.533209835
 21
138.1429707168
 31
0.0
 11
133.3146591897
 21
138.6144201605
 31
0.0
 11
134.1427826931
 21
138.9634967786
 31
0.0
 11
134.97446952
 21
139.1720281956
 31
0.0
  0
SPLINE
  5
67F
330
1B
100
AcDbEntity
  8
0
  6
Continuous
100
AcDbSpline
210
0.0
220
0.0
230
1.0
 70
     8
 71
     3
 72
    13
 73
     9
 74
     7
 42
0.0000000001
 43
0.0000000001
 44
0.0000000001
 40
0.0
 40
0.0
 40
0.0
 40
0.0
 40
2.013420029169327
 40
3.575509554628783
 40
4.72247844251512
 40
5.503884040646245
 40
5.960040187869582
 40
6.111923076063389
 40
6.111923076063389
 40
6.111923076063389
 40
6.111923076063389
 10
134.9744689385
 20
139.17202598
 30
0.0
 10
135.3781380666439
 20
138.635781501997
 30
0.0
 10
136.094989396062
 20
137.6834977127532
 30
0.0
 10
137.0861095506827
 20
136.4602380520066
 30
0.0
 10
137.8307631472093
 20
135.5662592098888
 30
0.0
 10
138.3458361667654
 20
134.9608705695843
 30
0.0
 10
138.6478995600268
 20
134.6097798238297
 30
0.0
 10
138.7805535681511
 20
134.4565414961958
 30
0.0
 10
138.8136893912
 20
134.4182638883
 30
0.0
 11
134.9744689385
 21
139.17202598
 31
0.0
 11
136.1961153137
 21
137.5715759346
 31
0.0
 11
137.1763545298
 21
136.3553297569
 31
0.0
 11
137.9105713738
 21
135.4741582323
 31
0.0
 11
138.4167791079
 21
134.8788864971
 31
0.0
 11
138.7143110696
 21
134.5331218916
 31
0.0
 11
138.8136893912
 21
134.4182638883
 31
0.0
  0
SPLINE
  5
680
330
1B
100
AcDbEntity
  8
0
  6
Continuous
100
AcDbSpline
210
0.0
220
0.0
230
1.0
 70
     8
 71
     3
 72
    11
 73
     7
 74
     5
 42
0.0000000001
 43
0.0000000001
 44
0.0000000001
 40
0.0
 40
0.0
 40
0.0
 40
0.0
 40
0.8602748898563867
 40
1.631637064907708
 40
2.329981815463802
 40
2.964774149713039
 40
2.964774149713039
 40
2.964774149713039
 40
2.964774149713039
 10
128.2065763597
 20
137.5866118086
 30
0.0
 10
128.4758112219781
 20
137.4874295669198
 30
0.0
 10
128.986454489192
 20
137.2993159492678
 30
0.0
 10
129.6865930113409
 20
136.9609853767162
 30
0.0
 10
130.300398441963
 20
136.620451894767
 30
0.0
 10
130.6734629966715
 20
136.3788014679382
 30
0.0
 10
130.8511030325
 20
136.263736153
 30
0.0
 11
128.2065763597
 21
137.5866118086
 31
0.0
 11
129.0086235832
 21
137.2754958537
 31
0.0
 11
129.7049603142
 21
136.9436604093
 31
0.0
 11
130.3146089969
 21
136.6030523144
 31
0.0
 11
130.8511030325
 21
136.263736153
 31
0.0
  0
SPLINE
  5
681
330
1B
100
AcDbEntity
  8
0
  6
Continuous
100
AcDbSpline
210
0.0
220
0.0
230
1.0
 70
     8
 71
     3
 72
    15
 73
    11
 74
     9
 42
0.0000000001
 43
0.0000000001
 44
0.0000000001
 40
0.0
 40
0.0
 40
0.0
 40
0.0
 40
0.501774647339521
 40
1.116777134610808
 40
1.822266069315385
 40
2.591028798174336
 40
3.392933434842193
 40
4.196361568028562
 40
4.969627012774615
 40
5.682394460312508
 40
5.682394460312508
 40
5.682394460312508
 40
5.682394460312508
 10
128.2065763597
 20
137.5866118086
 30
0.0
 10
128.2635124913788
 20
137.7439725989112
 30
0.0
 10
128.3902326641282
 20
138.0942033916299
 30
0.0
 10
128.6531445457886
 20
138.6426651836928
 30
0.0
 10
128.9789785763745
 20
139.2581576482363
 30
0.0
 10
129.3625521598923
 20
139.9130744227781
 30
0.0
 10
129.785938862379
 20
140.5818356155225
 30
0.0
 10
130.2335552817326
 20
141.2363896277451
 30
0.0
 10
130.6841191169654
 20
141.8527284856016
 30
0.0
 10
130.9974094409956
 20
142.2365104421984
 30
0.0
 10
131.14767741
 20
142.4205893324
 30
0.0
 11
128.2065763597
 21
137.5866118086
 31
0.0
 11
128.3843304094
 21
138.0558466054
 31
0.0
 11
128.6434347972
 21
138.6136036991
 31
0.0
 11
128.9733512394
 21
139.2371979407
 31
0.0
 11
129.3606613293
 21
139.901266482
 31
0.0
 11
129.7896123841
 21
140.5788002737
 31
0.0
 11
130.2427580587
 21
141.242242632
 31
0.0
 11
130.701668023
 21
141.8646099614
 31
0.0
 11
131.14767741
 21
142.4205893324
 31
0.0
  0
SPLINE
  5
682
330
1B
100
AcDbEntity
  8
0
  6
Continuous
100
AcDbSpline
210
0.0
220
0.0
230
1.0
 70
     8
 71
     3
 72
    11
 73
     7
 74
     5
 42
0.0000000001
 43
0.0000000001
 44
0.0000000001
 40
0.0
 40
0.0
 40
0.0
 40
0.0
 40
1.459815329883383
 40
2.782981573132682
 40
3.980345614727839
 40
5.057650902499079
 40
5.057650902499079
 40
5.057650902499079
 40
5.057650902499079
 10
131.1468822009
 20
142.4212748487
 30
0.0
 10
131.5674339103825
 20
142.1753026910434
 30
0.0
 10
132.3691707013867
 20
141.7063831172801
 30
0.0
 10
133.4112422505646
 20
140.8798833766335
 30
0.0
 10
134.2811327188281
 20
140.0497169151298
 30
0.0
 10
134.751634680795
 20
139.4541107787959
 30
0.0
 10
134.9744689385
 20
139.17202598
 30
0.0
 11
131.1468822009
 21
142.4212748487
 31
0.0
 11
132.3884125184
 21
141.653379499
 31
0.0
 11
133.4302699845
 21
140.8377190748
 31
0.0
 11
134.2881402822
 21
140.0024112271
 31
0.0
 11
134.9744689385
 21
139.17202598
 31
0.0
  0
SPLINE
  5
683
330
1B
100
AcDbEntity
  8
0
  6
Continuous
100
AcDbSpline
210
0.0
220
0.0
230
1.0
 70
     8
 71
     3
 72
    15
 73
    11
 74
     9
 42
0.0000000001
 43
0.0000000001
 44
0.0000000001
 40
0.0
 40
0.0
 40
0.0
 40
0.0
 40
2.50320729586901
 40
4.830768874038384
 40
7.050637582724196
 40
9.23572689332401
 40
11.45179377576135
 40
13.7713042871046
 40
16.26327188735943
 40
18.93832757125707
 40
18.93832757125707
 40
18.93832757125707
 40
18.93832757125707
 10
126.5610560456
 20
158.6515080134
 30
0.0
 10
126.3011113921969
 20
157.858085326146
 30
0.0
 10
125.7994619512159
 20
156.3269130465399
 30
0.0
 10
125.3172928244244
 20
154.0216983227771
 30
0.0
 10
125.0691797867343
 20
151.7877511906677
 30
0.0
 10
125.0630634763604
 20
149.5763690209208
 30
0.0
 10
125.294449322899
 20
147.343961593694
 30
0.0
 10
125.7732823205134
 20
145.0476006837391
 30
0.0
 10
126.4940820585168
 20
142.6543138843314
 30
0.0
 10
127.1440951764986
 20
141.0585283731904
 30
0.0
 10
127.4806180041
 20
140.2323631196
 30
0.0
 11
126.5610560456
 21
158.6515080134
 31
0.0
 11
125.8272151208
 21
156.2582833555
 31
0.0
 11
125.3474954538
 21
153.9806942922
 31
0.0
 11
125.1080919314
 21
151.7737726721
 31
0.0
 11
125.1014447168
 21
149.5886934722
 31
0.0
 11
125.3273851763
 21
147.3841746276
 31
0.0
 11
125.7930006923
 21
145.1118781673
 31
0.0
 11
126.5119335282
 21
142.7258693454
 31
0.0
 11
127.4806180041
 21
140.2323631196
 31
0.0
  0
SPLINE
  5
684
330
1B
100
AcDbEntity
  8
0
  6
Continuous
100
AcDbSpline
210
0.0
220
0.0
230
1.0
 70
     8
 71
     3
 72
    12
 73
     8
 74
     6
 42
0.0000000001
 43
0.0000000001
 44
0.0000000001
 40
0.0
 40
0.0
 40
0.0
 40
0.0
 40
0.7035809768892049
 40
1.472459985552195
 40
2.279366854607495
 40
3.094796548485646
 40
3.888762467891966
 40
3.888762467891966
 40
3.888762467891966
 40
3.888762467891966
 10
126.5610585765
 20
158.6515080137
 30
0.0
 10
126.7499506961192
 20
158.5122517709289
 30
0.0
 10
127.1452656589472
 20
158.2208151744968
 30
0.0
 10
127.8043315795736
 20
157.83993306304
 30
0.0
 10
128.5193814789171
 20
157.4872889716575
 30
0.0
 10
129.2643936570067
 20
157.1782924853945
 30
0.0
 10
129.7766017620126
 20
157.0180898710241
 30
0.0
 10
130.0292902717
 20
156.9390568384
 30
0.0
 11
126.5610585765
 21
158.6515080137
 31
0.0
 11
127.1346845956
 21
158.2441023421
 31
0.0
 11
127.79704552
 21
157.8536501225
 31
0.0
 11
128.5205634399
 21
157.4964099863
 31
0.0
 11
129.2751156942
 21
157.1872555246
 31
0.0
 11
130.0292902717
 21
156.9390568384
 31
0.0
  0
SPLINE
  5
685
330
1B
100
AcDbEntity
  8
0
  6
Continuous
100
AcDbSpline
210
0.0
220
0.0
230
1.0
 70
     8
 71
     3
 72
    16
 73
    12
 74
    10
 42
0.0000000001
 43
0.0000000001
 44
0.0000000001
 40
0.0
 40
0.0
 40
0.0
 40
0.0
 40
1.873034951114494
 40
3.574711916358949
 40
5.15820432558226
 40
6.684741738099391
 40
8.213025513962938
 40
9.802451901844737
 40
11.51424270171678
 40
13.3975911880441
 40
15.46142624362358
 40
15.46142624362358
 40
15.46142624362358
 40
15.46142624362358
 10
130.0293577754
 20
156.9391957238
 30
0.0
 10
129.7466449213128
 20
156.3819241455488
 30
0.0
 10
129.2070837092745
 20
155.3183639860133
 30
0.0
 10
128.635432578237
 20
153.6911279128004
 30
0.0
 10
128.2928963754125
 20
152.1196721302586
 30
0.0
 10
128.1847288692371
 20
150.5715259545861
 30
0.0
 10
128.3072440861827
 20
149.0228096717178
 30
0.0
 10
128.6622968643216
 20
147.4473890274622
 30
0.0
 10
129.25691302782
 20
145.8208436435142
 30
0.0
 10
130.0861072445981
 20
144.1223186097197
 30
0.0
 10
130.7826736220392
 20
143.0053145897408
 30
0.0
 10
131.1468822009
 20
142.4212748487
 30
0.0
 11
130.0293577754
 21
156.9391957238
 31
0.0
 11
129.2205882089
 21
155.2497722374
 31
0.0
 11
128.6572716188
 21
153.6440390985
 31
0.0
 11
128.3274349449
 21
152.0952796018
 31
0.0
 11
128.2226826925
 21
150.5723405231
 31
0.0
 11
128.3409444822
 21
149.0486392897
 31
0.0
 11
128.6848082049
 21
147.4968551608
 31
0.0
 11
129.2631864684
 21
145.8857355728
 31
0.0
 11
130.0865695915
 21
144.1919109793
 31
0.0
 11
131.1468822009
 21
142.4212748487
 31
0.0
  0
SPLINE
  5
686
330
1B
100
AcDbEntity
  8
0
  6
Continuous
100
AcDbSpline
210
0.0
220
0.0
230
1.0
 70
     8
 71
     3
 72
    13
 73
     9
 74
     7
 42
0.0000000001
 43
0.0000000001
 44
0.0000000001
 40
0.0
 40
0.0
 40
0.0
 40
0.0
 40
0.6500197430248552
 40
1.354814672598505
 40
2.095598527356076
 40
2.85158470942953
 40
3.600315521961263
 40
4.317882088673454
 40
4.317882088673454
 40
4.317882088673454
 40
4.317882088673454
 10
127.4806213366
 20
140.2323631202
 30
0.0
 10
127.632408966586
 20
140.3872772471094
 30
0.0
 10
127.9487749084374
 20
140.7101596431932
 30
0.0
 10
128.5018906205991
 20
141.1397822888245
 30
0.0
 10
129.115865316454
 20
141.542841302725
 30
0.0
 10
129.7753340920289
 20
141.898481769789
 30
0.0
 10
130.453489996322
 20
142.1999172424139
 30
0.0
 10
130.9195836773249
 20
142.3480816497333
 30
0.0
 10
131.14767741
 20
142.4205893324
 30
0.0
 11
127.4806213366
 21
140.2323631202
 31
0.0
 11
127.9454742043
 21
140.6867170326
 31
0.0
 11
128.4975251795
 21
141.1248672506
 31
0.0
 11
129.1170530698
 21
141.5310025884
 31
0.0
 11
129.781824118
 21
141.8909950341
 31
0.0
 11
130.467859234
 21
142.1909177729
 31
0.0
 11
131.14767741
 21
142.4205893324
 31
0.0
  0
SPLINE
  5
687
330
1B
100
AcDbEntity
  8
0
  6
Continuous
100
AcDbSpline
210
0.0
220
0.0
230
1.0
 70
     8
 71
     3
 72
    12
 73
     8
 74
     6
 42
0.0000000001
 43
0.0000000001
 44
0.0000000001
 40
0.0
 40
0.0
 40
0.0
 40
0.0
 40
0.6558783235184894
 40
1.370656821106945
 40
2.148048859970122
 40
3.003000116875148
 40
3.959397619752566
 40
3.959397619752566
 40
3.959397619752566
 40
3.959397619752566
 10
130.6632330308
 20
163.550487499
 30
0.0
 10
130.5009338231822
 20
163.4039152410311
 30
0.0
 10
130.1617603698073
 20
163.0976080221976
 30
0.0
 10
129.5930190076057
 20
162.6612078223359
 30
0.0
 10
128.9404529897813
 20
162.2288527541103
 30
0.0
 10
128.1855475925492
 20
161.8074146688566
 30
0.0
 10
127.6281973319561
 20
161.5741102732576
 30
0.0
 10
127.3339147458
 20
161.4509248623
 30
0.0
 11
130.6632330308
 21
163.550487499
 31
0.0
 11
130.1709002324
 21
163.1171460737
 31
0.0
 11
129.6050581532
 21
162.6804184217
 31
0.0
 11
128.9569878929
 21
162.2510662122
 31
0.0
 11
128.2086383786
 21
161.8376479541
 31
0.0
 11
127.3339147458
 21
161.4509248623
 31
0.0
  0
SPLINE
  5
688
330
1B
100
AcDbEntity
  8
0
  6
Continuous
100
AcDbSpline
210
0.0
220
0.0
230
1.0
 70
     8
 71
     3
 72
    13
 73
     9
 74
     7
 42
0.0000000001
 43
0.0000000001
 44
0.0000000001
 40
0.0
 40
0.0
 40
0.0
 40
0.0
 40
0.7329041357405305
 40
1.531481379242575
 40
2.374234555286765
 40
3.235266412951411
 40
4.086996861511712
 40
4.902693650678062
 40
4.902693650678062
 40
4.902693650678062
 40
4.902693650678062
 10
130.6632236745
 20
163.5504874999
 30
0.0
 10
130.8045222647475
 20
163.3505701313734
 30
0.0
 10
131.0997807430731
 20
162.9328214622703
 30
0.0
 10
131.6780721380765
 20
162.3860935755314
 30
0.0
 10
132.3466185051181
 20
161.8849087156303
 30
0.0
 10
133.0884390960528
 20
161.4626816198483
 30
0.0
 10
133.8642411649805
 20
161.1249818371015
 30
0.0
 10
134.403956933923
 20
160.9889231293313
 30
0.0
 10
134.6679830994
 20
160.9223639125
 30
0.0
 11
130.6632236745
 21
163.5504874999
 31
0.0
 11
131.1049288195
 21
162.9656413346
 31
0.0
 11
131.6764804457
 21
162.4079188656
 31
0.0
 11
132.3513711346
 21
161.9031857938
 31
0.0
 11
133.0983010583
 21
161.4748500038
 31
0.0
 11
133.8826298305
 21
161.1427760149
 31
0.0
 11
134.6679830994
 21
160.9223639125
 31
0.0
  0
SPLINE
  5
689
330
1B
100
AcDbEntity
  8
0
  6
Continuous
100
AcDbSpline
210
0.0
220
0.0
230
1.0
 70
     8
 71
     3
 72
    12
 73
     8
 74
     6
 42
0.0000000001
 43
0.0000000001
 44
0.0000000001
 40
0.0
 40
0.0
 40
0.0
 40
0.0
 40
1.026805523859718
 40
2.151290146966406
 40
3.373106635833241
 40
4.705646263776131
 40
6.175825088479843
 40
6.175825088479843
 40
6.175825088479843
 40
6.175825088479843
 10
134.6679869872
 20
160.9223505203
 30
0.0
 10
134.4677467699163
 20
160.6444513589357
 30
0.0
 10
134.0482176609867
 20
160.0622167353373
 30
0.0
 10
133.2800007687372
 20
159.2371524580475
 30
0.0
 10
132.3642996197894
 20
158.4199432845267
 30
0.0
 10
131.279598513283
 20
157.6242387869321
 30
0.0
 10
130.4595290009899
 20
157.174898980877
 30
0.0
 10
130.0293577754
 20
156.9391957238
 30
0.0
 11
134.6679869872
 21
160.9223505203
 31
0.0
 11
134.0512232851
 21
160.1014168326
 31
0.0
 11
133.2907629123
 21
159.2730656456
 31
0.0
 11
132.3798136122
 21
158.458813286
 31
0.0
 11
131.3020756533
 21
157.6751406809
 31
0.0
 11
130.0293577754
 21
156.9391957238
 31
0.0
  0
SPLINE
  5
68A
330
1B
100
AcDbEntity
  8
0
  6
Continuous
100
AcDbSpline
210
0.0
220
0.0
230
1.0
 70
     8
 71
     3
 72
    14
 73
    10
 74
     8
 42
0.0000000001
 43
0.0000000001
 44
0.0000000001
 40
0.0
 40
0.0
 40
0.0
 40
0.0
 40
0.1446508344533053
 40
0.5791785833027265
 40
1.32404480801746
 40
2.41953980724504
 40
3.915837560454093
 40
5.85682329807651
 40
8.266908812580393
 40
8.266908812580393
 40
8.266908812580393
 40
8.266908812580393
 10
134.5504534097
 20
170.842308383
 30
0.0
 10
134.525808736662
 20
170.8008654815821
 30
0.0
 10
134.4271320379061
 20
170.6349290663384
 30
0.0
 10
134.2026706447204
 20
170.2549202065375
 30
0.0
 10
133.8205261149076
 20
169.5999506690674
 30
0.0
 10
133.2686909668859
 20
168.6342445467443
 30
0.0
 10
132.5384529370297
 20
167.3114831624895
 30
0.0
 10
131.6278601521872
 20
165.5876476309161
 30
0.0
 10
131.0070845243236
 20
164.276654676322
 30
0.0
 10
130.6632330308
 20
163.550487499
 30
0.0
 11
134.5504534097
 21
170.842308383
 31
0.0
 11
134.4765499716
 21
170.7179615063
 31
0.0
 11
134.2555284681
 21
170.3438440655
 31
0.0
 11
133.8802093933
 21
169.7004458336
 31
0.0
 11
133.3369615753
 21
168.749135631
 31
0.0
 11
132.6135937684
 21
167.4393089317
 31
0.0
 11
131.7122154559
 21
165.7203142338
 31
0.0
 11
130.6632330308
 21
163.550487499
 31
0.0
  0
SPLINE
  5
68B
330
1B
100
AcDbEntity
  8
0
  6
Continuous
100
AcDbSpline
210
0.0
220
0.0
230
1.0
 70
     8
 71
     3
 72
    14
 73
    10
 74
     8
 42
0.0000000001
 43
0.0000000001
 44
0.0000000001
 40
0.0
 40
0.0
 40
0.0
 40
0.0
 40
0.5272997300131067
 40
1.185080736314717
 40
1.943378342399849
 40
2.767849342898864
 40
3.621108864635388
 40
4.464371407133759
 40
5.259282180259838
 40
5.259282180259838
 40
5.259282180259838
 40
5.259282180259838
 10
127.3339144936
 20
161.4509248613
 30
0.0
 10
127.4116280461238
 20
161.2932512864774
 30
0.0
 10
127.5862855109478
 20
160.9388875242512
 30
0.0
 10
127.8987059370614
 20
160.3712128287029
 30
0.0
 10
128.2700141735154
 20
159.7232110016788
 30
0.0
 10
128.6869477729209
 20
159.0263438475678
 30
0.0
 10
129.1297805138598
 20
158.3121432615602
 30
0.0
 10
129.5773276600439
 20
157.6125023045189
 30
0.0
 10
129.8816299624174
 20
157.1590776172156
 30
0.0
 10
130.0292902717
 20
156.9390568384
 30
0.0
 11
127.3339144936
 21
161.4509248613
 31
0.0
 11
127.5701946825
 21
160.9795262215
 31
0.0
 11
127.884062375
 21
160.4014579523
 31
0.0
 11
128.2610208886
 21
159.7434932584
 31
0.0
 11
128.6838457943
 21
159.0356998353
 31
0.0
 11
129.1332430047
 21
158.3103764876
 31
0.0
 11
129.5886709964
 21
157.6006743952
 31
0.0
 11
130.0292902717
 21
156.9390568384
 31
0.0
  0
SPLINE
  5
68C
330
1B
100
AcDbEntity
  8
0
  6
Continuous
100
AcDbSpline
210
0.0
220
0.0
230
1.0
 70
     8
 71
     3
 72
    14
 73
    10
 74
     8
 42
0.0000000001
 43
0.0000000001
 44
0.0000000001
 40
0.0
 40
0.0
 40
0.0
 40
0.0
 40
0.1361546155316867
 40
0.5443733372305623
 40
1.241931561566186
 40
2.262613562967861
 40
3.645967011896941
 40
5.420045115376724
 40
7.586835730596917
 40
7.586835730596917
 40
7.586835730596917
 40
7.586835730596917
 10
139.3136893912
 20
166.9157996492
 30
0.0
 10
139.2842244398752
 20
166.8812800413124
 30
0.0
 10
139.1664176815702
 20
166.7432637568679
 30
0.0
 10
138.8985351055012
 20
166.4276418591928
 30
0.0
 10
138.4426808274832
 20
165.8848466701784
 30
0.0
 10
137.7847690433551
 20
165.0872884207199
 30
0.0
 10
136.9145902918349
 20
163.9998945670638
 30
0.0
 10
135.8315632294548
 20
162.5933310213014
 30
0.0
 10
135.0807844180928
 20
161.5151577922573
 30
0.0
 10
134.6679869872
 20
160.9223505203
 30
0.0
 11
139.3136893912
 21
166.9157996492
 31
0.0
 11
139.2253187048
 21
166.8122202057
 31
0.0
 11
138.9611449653
 21
166.5010052316
 31
0.0
 11
138.5125873931
 21
165.9667921835
 31
0.0
 11
137.8633674426
 21
165.1791976153
 31
0.0
 11
136.9989097294
 21
164.0992070474
 31
0.0
 11
135.9217526513
 21
162.6895667577
 31
0.0
 11
134.6679869872
 21
160.9223505203
 31
0.0
  0
HATCH
  5
99D
330
1B
100
AcDbEntity
  8
0
100
AcDbHatch
 10
0.0
 20
0.0
 30
0.0
210
0.0
220
0.0
230
1.0
  2
SOLID
 70
     1
 71
     0
 91
        4
 92
        7
 72
     0
 73
     1
 93
        4
 10
206.9090613064
 20
171.1184366914
 10
201.0194303919
 20
173.6184366914
 10
201.0194303919
 20
150.6184366914
 10
206.9090613064
 20
150.6184366914
 97
        0
 92
        7
 72
     0
 73
     1
 93
        4
 10
206.9090613064
 20
150.6184366914
 10
201.0194303919
 20
150.6184366914
 10
201.0194303919
 20
127.6184366914
 10
206.9090613064
 20
130.1184366914
 97
        0
 92
        7
 72
     0
 73
     1
 93
        4
 10
201.0194303919
 20
150.6184366914
 10
198.9090613064
 20
150.6184366913999
 10
198.9090613064
 20
127.6184366914
 10
201.0194303919
 20
127.6184366914
 97
        0
 92
        7
 72
     0
 73
     1
 93
        4
 10
201.0194303919
 20
173.6184366914
 10
198.9090613064
 20
173.6184366914
 10
198.9090613064
 20
150.6184366914
 10
201.0194303919
 20
150.6184366914
 97
        0
 75
     0
 76
     1
 47
0.3674928821049453
 98
        4
 10
203.1931064906665
 20
162.9488466663211
 10
202.8252977373212
 20
137.9593300624295
 10
199.1472122002473
 20
137.5918370891648
 10
199.8828297069375
 20
165.5212963635516
  0
ENDSEC
  0
SECTION
  2
OBJECTS
  0
DICTIONARY
  5
68D
330
0
100
AcDbDictionary
281
     1
  3
ACAD_COLOR
350
6CD
  3
ACAD_GROUP
350
68E
  3
ACAD_LAYOUT
350
6CE
  3
ACAD_MATERIAL
350
6CC
  3
ACAD_MLINESTYLE
350
68F
  3
ACAD_PLOTSETTINGS
350
6CF
  3
ACAD_PLOTSTYLENAME
350
6CA
  3
ACDBHEADERROUNDTRIPXREC
350
D25
  3
AcDbVariableDictionary
350
D22
  0
DICTIONARY
  5
6CD
102
{ACAD_REACTORS
330
68D
102
}
330
68D
100
AcDbDictionary
281
     1
  0
DICTIONARY
  5
68E
102
{ACAD_REACTORS
330
68D
102
}
330
68D
100
AcDbDictionary
281
     1
  0
DICTIONARY
  5
6CE
102
{ACAD_REACTORS
330
68D
102
}
330
68D
100
AcDbDictionary
281
     1
  3
Layout1
350
6D1
  3
Model
350
6D0
  0
DICTIONARY
  5
6CC
102
{ACAD_REACTORS
330
68D
102
}
330
68D
100
AcDbDictionary
281
     1
  0
DICTIONARY
  5
68F
102
{ACAD_REACTORS
330
68D
102
}
330
68D
100
AcDbDictionary
281
     1
  3
STANDARD
350
690
  0
DICTIONARY
  5
6CF
102
{ACAD_REACTORS
330
68D
102
}
330
68D
100
AcDbDictionary
281
     1
  0
ACDBDICTIONARYWDFLT
  5
6CA
102
{ACAD_REACTORS
330
68D
102
}
330
68D
100
AcDbDictionary
281
     1
  3
Normal
350
6CB
100
AcDbDictionaryWithDefault
340
6CB
  0
DICTIONARY
  5
D25
102
{ACAD_REACTORS
330
68D
102
}
330
68D
100
AcDbDictionary
281
     1
  3
COLORDICT
350
D26
  3
MATERIALDICT
350
D27
  0
DICTIONARY
  5
D22
102
{ACAD_REACTORS
330
68D
102
}
330
68D
100
AcDbDictionary
281
     1
  3
DIMASSOC
350
D23
  3
HIDETEXT
350
D24
  0
LAYOUT
  5
6D1
102
{ACAD_REACTORS
330
6CE
102
}
330
6CE
100
AcDbPlotSettings
  1

  2
\\alderaan\HP LaserJet 4050 Ricerca
  4

  6

 40
0.0
 41
0.0
 42
0.0
 43
0.0
 44
0.0
 45
0.0
 46
0.0
 47
0.0
 48
0.0
 49
0.0
140
0.0
141
0.0
142
1.0
143
1.0
 70
   688
 72
     0
 73
     0
 74
     5
  7

 75
    16
147
1.0
148
0.0
149
0.0
100
AcDbLayout
  1
Layout1
 70
     0
 71
     1
 10
0.0
 20
0.0
 11
12.0
 21
9.0
 12
0.0
 22
0.0
 32
0.0
 14
1.000000000000000E+20
 24
1.000000000000000E+20
 34
1.000000000000000E+20
 15
-1.000000000000000E+20
 25
-1.000000000000000E+20
 35
-1.000000000000000E+20
146
0.0
 13
0.0
 23
0.0
 33
0.0
 16
1.0
 26
0.0
 36
0.0
 17
0.0
 27
1.0
 37
0.0
 76
     0
330
1C
  0
LAYOUT
  5
6D0
102
{ACAD_REACTORS
330
6CE
102
}
330
6CE
100
AcDbPlotSettings
  1

  2
\\alderaan\HP LaserJet 4050 Ricerca
  4
A4
  6

 40
5.027083396911621
 41
5.069430828094482
 42
5.365737915039062
 43
5.365753173828125
 44
209.8886566162109
 45
297.0530090332031
 46
0.0
 47
48.26
 48
34.39685157682698
 49
38.05778486419786
140
272.8104517694562
141
288.117942030467
142
1.0
143
31.83789768010059
 70
 11956
 72
     0
 73
     1
 74
     4
  7

 75
     0
147
0.0314091090450681
148
-873.6800300514051
149
-966.6677355506255
100
AcDbLayout
  1
Model
 70
     1
 71
     0
 10
0.0
 20
0.0
 11
12.0
 21
9.0
 12
0.0
 22
0.0
 32
0.0
 14
0.0
 24
0.0
 34
0.0
 15
0.0
 25
0.0
 35
0.0
146
0.0
 13
0.0
 23
0.0
 33
0.0
 16
1.0
 26
0.0
 36
0.0
 17
0.0
 27
1.0
 37
0.0
 76
     0
330
1B
  0
MLINESTYLE
  5
690
102
{ACAD_REACTORS
330
68F
102
}
330
68F
100
AcDbMlineStyle
  2
STANDARD
 70
     0
  3

 62
   256
 51
90.00000000000019
 52
90.00000000000019
 71
     2
 49
0.5
 62
   256
  6
BYLAYER
 49
-0.5
 62
   256
  6
BYLAYER
  0
ACDBPLACEHOLDER
  5
6CB
102
{ACAD_REACTORS
330
6CA
102
}
330
6CA
  0
XRECORD
  5
D26
102
{ACAD_REACTORS
330
D25
102
}
330
D25
100
AcDbXrecord
280
     1
340
6CD
  0
XRECORD
  5
D27
102
{ACAD_REACTORS
330
D25
102
}
330
D25
100
AcDbXrecord
280
     1
340
6CC
  0
DICTIONARYVAR
  5
D23
102
{ACAD_REACTORS
330
D22
102
}
330
D22
100
DictionaryVariables
280
     0
  1
1
  0
DICTIONARYVAR
  5
D24
102
{ACAD_REACTORS
330
D22
102
}
330
D22
100
DictionaryVariables
280
     0
  1
0
  0
ENDSEC
  0
EOF
