  0
SECTION
  2
HEADER
  9
$ACADVER
  1
AC1015
  9
$ACADMAINTVER
 70
     6
  9
$DWGCODEPAGE
  3
ANSI_1252
  9
$INSBASE
 10
0.0
 20
0.0
 30
0.0
  9
$EXTMIN
 10
59.36252187415962
 20
67.5583311437407
 30
0.0
  9
$EXTMAX
 10
189.2354864797941
 20
197.2855432346112
 30
0.0
  9
$LIMMIN
 10
0.0
 20
0.0
  9
$LIMMAX
 10
297.0
 20
210.0
  9
$ORTHOMODE
 70
     1
  9
$REGENMODE
 70
     1
  9
$FILLMODE
 70
     1
  9
$QTEXTMODE
 70
     0
  9
$MIRRTEXT
 70
     1
  9
$LTSCALE
 40
16.335
  9
$ATTMODE
 70
     1
  9
$TEXTSIZE
 40
0.2
  9
$TRACEWID
 40
0.05
  9
$TEXTSTYLE
  7
STANDARD
  9
$CLAYER
  8
0
  9
$CELTYPE
  6
BYLAYER
  9
$CECOLOR
 62
   256
  9
$CELTSCALE
 40
1.0
  9
$DISPSILH
 70
     0
  9
$DIMSCALE
 40
1.0
  9
$DIMASZ
 40
3.0
  9
$DIMEXO
 40
1.85625
  9
$DIMDLI
 40
11.286
  9
$DIMRND
 40
0.0
  9
$DIMDLE
 40
0.0
  9
$DIMEXE
 40
5.346
  9
$DIMTP
 40
0.003
  9
$DIMTM
 40
0.003
  9
$DIMTXT
 40
1.5
  9
$DIMCEN
 40
2.673
  9
$DIMTSZ
 40
0.0
  9
$DIMTOL
 70
     1
  9
$DIMLIM
 70
     0
  9
$DIMTIH
 70
     1
  9
$DIMTOH
 70
     1
  9
$DIMSE1
 70
     0
  9
$DIMSE2
 70
     0
  9
$DIMTAD
 70
     0
  9
$DIMZIN
 70
     0
  9
$DIMBLK
  1

  9
$DIMASO
 70
     1
  9
$DIMSHO
 70
     1
  9
$DIMPOST
  1

  9
$DIMAPOST
  1

  9
$DIMALT
 70
     0
  9
$DIMALTD
 70
     2
  9
$DIMALTF
 40
25.4
  9
$DIMLFAC
 40
1.0
  9
$DIMTOFL
 70
     0
  9
$DIMTVP
 40
0.0
  9
$DIMTIX
 70
     0
  9
$DIMSOXD
 70
     0
  9
$DIMSAH
 70
     0
  9
$DIMBLK1
  1

  9
$DIMBLK2
  1

  9
$DIMSTYLE
  2
STANDARD
  9
$DIMCLRD
 70
     0
  9
$DIMCLRE
 70
     0
  9
$DIMCLRT
 70
     0
  9
$DIMTFAC
 40
1.0
  9
$DIMGAP
 40
0.09
  9
$DIMJUST
 70
     0
  9
$DIMSD1
 70
     0
  9
$DIMSD2
 70
     0
  9
$DIMTOLJ
 70
     1
  9
$DIMTZIN
 70
     0
  9
$DIMALTZ
 70
     0
  9
$DIMALTTZ
 70
     0
  9
$DIMUPT
 70
     0
  9
$DIMDEC
 70
     4
  9
$DIMTDEC
 70
     4
  9
$DIMALTU
 70
     2
  9
$DIMALTTD
 70
     2
  9
$DIMTXSTY
  7
STANDARD
  9
$DIMAUNIT
 70
     0
  9
$DIMADEC
 70
     0
  9
$DIMALTRND
 40
0.0
  9
$DIMAZIN
 70
     0
  9
$DIMDSEP
 70
    46
  9
$DIMATFIT
 70
     3
  9
$DIMFRAC
 70
     0
  9
$DIMLDRBLK
  1

  9
$DIMLUNIT
 70
     2
  9
$DIMLWD
 70
    -2
  9
$DIMLWE
 70
    -2
  9
$DIMTMOVE
 70
     0
  9
$LUNITS
 70
     2
  9
$LUPREC
 70
     4
  9
$SKETCHINC
 40
0.1
  9
$FILLETRAD
 40
0.0
  9
$AUNITS
 70
     0
  9
$AUPREC
 70
     0
  9
$MENU
  1
acad
  9
$ELEVATION
 40
0.0
  9
$PELEVATION
 40
0.0
  9
$THICKNESS
 40
0.0
  9
$LIMCHECK
 70
     0
  9
$CHAMFERA
 40
0.0
  9
$CHAMFERB
 40
0.0
  9
$CHAMFERC
 40
0.0
  9
$CHAMFERD
 40
0.0
  9
$SKPOLY
 70
     0
  9
$TDCREATE
 40
2444972.041666667
  9
$TDUCREATE
 40
2444972.0
  9
$TDUPDATE
 40
2453410.36331272
  9
$TDUUPDATE
 40
2453410.321646053
  9
$TDINDWG
 40
0.0168620718
  9
$TDUSRTIMER
 40
0.0168620718
  9
$USRTIMER
 70
     1
  9
$ANGBASE
 50
0.0
  9
$ANGDIR
 70
     0
  9
$PDMODE
 70
     0
  9
$PDSIZE
 40
0.0
  9
$PLINEWID
 40
0.0
  9
$SPLFRAME
 70
     0
  9
$SPLINETYPE
 70
     6
  9
$SPLINESEGS
 70
     8
  9
$HANDSEED
  5
C31
  9
$SURFTAB1
 70
     6
  9
$SURFTAB2
 70
     6
  9
$SURFTYPE
 70
     6
  9
$SURFU
 70
     6
  9
$SURFV
 70
     6
  9
$UCSBASE
  2

  9
$UCSNAME
  2

  9
$UCSORG
 10
0.0
 20
0.0
 30
0.0
  9
$UCSXDIR
 10
1.0
 20
0.0
 30
0.0
  9
$UCSYDIR
 10
0.0
 20
1.0
 30
0.0
  9
$UCSORTHOREF
  2

  9
$UCSORTHOVIEW
 70
     0
  9
$UCSORGTOP
 10
0.0
 20
0.0
 30
0.0
  9
$UCSORGBOTTOM
 10
0.0
 20
0.0
 30
0.0
  9
$UCSORGLEFT
 10
0.0
 20
0.0
 30
0.0
  9
$UCSORGRIGHT
 10
0.0
 20
0.0
 30
0.0
  9
$UCSORGFRONT
 10
0.0
 20
0.0
 30
0.0
  9
$UCSORGBACK
 10
0.0
 20
0.0
 30
0.0
  9
$PUCSBASE
  2

  9
$PUCSNAME
  2

  9
$PUCSORG
 10
0.0
 20
0.0
 30
0.0
  9
$PUCSXDIR
 10
1.0
 20
0.0
 30
0.0
  9
$PUCSYDIR
 10
0.0
 20
1.0
 30
0.0
  9
$PUCSORTHOREF
  2

  9
$PUCSORTHOVIEW
 70
     0
  9
$PUCSORGTOP
 10
0.0
 20
0.0
 30
0.0
  9
$PUCSORGBOTTOM
 10
0.0
 20
0.0
 30
0.0
  9
$PUCSORGLEFT
 10
0.0
 20
0.0
 30
0.0
  9
$PUCSORGRIGHT
 10
0.0
 20
0.0
 30
0.0
  9
$PUCSORGFRONT
 10
0.0
 20
0.0
 30
0.0
  9
$PUCSORGBACK
 10
0.0
 20
0.0
 30
0.0
  9
$USERI1
 70
     0
  9
$USERI2
 70
     0
  9
$USERI3
 70
     0
  9
$USERI4
 70
     0
  9
$USERI5
 70
     0
  9
$USERR1
 40
0.0
  9
$USERR2
 40
0.0
  9
$USERR3
 40
0.0
  9
$USERR4
 40
0.0
  9
$USERR5
 40
0.0
  9
$WORLDVIEW
 70
     1
  9
$SHADEDGE
 70
     3
  9
$SHADEDIF
 70
    70
  9
$TILEMODE
 70
     1
  9
$MAXACTVP
 70
    16
  9
$PINSBASE
 10
0.0
 20
0.0
 30
0.0
  9
$PLIMCHECK
 70
     0
  9
$PEXTMIN
 10
1.000000000000000E+20
 20
1.000000000000000E+20
 30
1.000000000000000E+20
  9
$PEXTMAX
 10
-1.000000000000000E+20
 20
-1.000000000000000E+20
 30
-1.000000000000000E+20
  9
$PLIMMIN
 10
0.0
 20
0.0
  9
$PLIMMAX
 10
12.0
 20
9.0
  9
$UNITMODE
 70
     0
  9
$VISRETAIN
 70
     0
  9
$PLINEGEN
 70
     1
  9
$PSLTSCALE
 70
     0
  9
$TREEDEPTH
 70
  3020
  9
$CMLSTYLE
  2
STANDARD
  9
$CMLJUST
 70
     0
  9
$CMLSCALE
 40
1.0
  9
$PROXYGRAPHICS
 70
     1
  9
$MEASUREMENT
 70
     0
  9
$CELWEIGHT
370
    -1
  9
$ENDCAPS
280
     0
  9
$JOINSTYLE
280
     0
  9
$LWDISPLAY
290
     0
  9
$INSUNITS
 70
     0
  9
$HYPERLINKBASE
  1

  9
$STYLESHEET
  1

  9
$XEDIT
290
     1
  9
$CEPSNTYPE
380
     0
  9
$PSTYLEMODE
290
     1
  9
$FINGERPRINTGUID
  2
{9163B8CF-68AD-4804-BDDE-48E59D2418CA}
  9
$VERSIONGUID
  2
{CAFC2936-B230-4D0F-9B12-F1A935BEEEC3}
  9
$EXTNAMES
290
     1
  9
$PSVPSCALE
 40
0.0
  9
$OLESTARTUP
290
     0
  0
ENDSEC
  0
SECTION
  2
CLASSES
  0
CLASS
  1
IMAGE
  2
AcDbRasterImage
  3
ISM
 90
      127
280
     0
281
     1
  0
CLASS
  1
DICTIONARYVAR
  2
AcDbDictionaryVar
  3
ObjectDBX Classes
 90
        0
280
     0
281
     0
  0
CLASS
  1
RASTERVARIABLES
  2
AcDbRasterVariables
  3
ISM
 90
        0
280
     0
281
     0
  0
CLASS
  1
IMAGEDEF
  2
AcDbRasterImageDef
  3
ISM
 90
        0
280
     0
281
     0
  0
CLASS
  1
IMAGEDEF_REACTOR
  2
AcDbRasterImageDefReactor
  3
ISM
 90
        1
280
     0
281
     0
  0
CLASS
  1
IDBUFFER
  2
AcDbIdBuffer
  3
ObjectDBX Classes
 90
        0
280
     0
281
     0
  0
CLASS
  1
SPATIAL_FILTER
  2
AcDbSpatialFilter
  3
ObjectDBX Classes
 90
        0
280
     0
281
     0
  0
CLASS
  1
SORTENTSTABLE
  2
AcDbSortentsTable
  3
ObjectDBX Classes
 90
        0
280
     0
281
     0
  0
CLASS
  1
LAYER_INDEX
  2
AcDbLayerIndex
  3
ObjectDBX Classes
 90
        0
280
     0
281
     0
  0
CLASS
  1
SPATIAL_INDEX
  2
AcDbSpatialIndex
  3
AutoCAD 2000
 90
        0
280
     0
281
     0
  0
CLASS
  1
OBJECT_PTR
  2
CAseDLPNTableRecord
  3
ASE-LPNTableRecord
 90
        1
280
     0
281
     0
  0
CLASS
  1
PLOTSETTINGS
  2
AcDbPlotSettings
  3
ObjectDBX Classes
 90
        0
280
     0
281
     0
  0
CLASS
  1
ACDBDICTIONARYWDFLT
  2
AcDbDictionaryWithDefault
  3
ObjectDBX Classes
 90
        0
280
     0
281
     0
  0
CLASS
  1
WIPEOUT
  2
AcDbWipeout
  3
WipeOut|AutoCAD Express Tool|expresstools@autodesk.com
 90
      127
280
     0
281
     1
  0
CLASS
  1
WIPEOUTVARIABLES
  2
AcDbWipeoutVariables
  3
WipeOut|AutoCAD Express Tool|expresstools@autodesk.com
 90
        0
280
     0
281
     0
  0
CLASS
  1
RTEXT
  2
RText
  3
RText|AutoCAD Express Tool|expresstools@autodesk.com
 90
        0
280
     0
281
     1
  0
CLASS
  1
ARCALIGNEDTEXT
  2
AcDbArcAlignedText
  3
ATEXT|AutoCAD Express Tool|expresstools@autodesk.com
 90
        0
280
     0
281
     1
  0
CLASS
  1
ACDBPLACEHOLDER
  2
AcDbPlaceHolder
  3
ObjectDBX Classes
 90
        0
280
     0
281
     0
  0
CLASS
  1
LAYOUT
  2
AcDbLayout
  3
ObjectDBX Classes
 90
        0
280
     0
281
     0
  0
ENDSEC
  0
SECTION
  2
TABLES
  0
TABLE
  2
VPORT
  5
8
330
0
100
AcDbSymbolTable
 70
     1
  0
VPORT
  5
C25
330
8
100
AcDbSymbolTableRecord
100
AcDbViewportTableRecord
  2
*Active
 70
     0
 10
0.0
 20
0.0
 11
1.0
 21
1.0
 12
187.7431865347472
 22
124.2924752897633
 13
0.0
 23
0.0
 14
1.0
 24
1.0
 15
0.0
 25
0.0
 16
0.0
 26
0.0
 36
1.0
 17
0.0
 27
0.0
 37
0.0
 40
257.7086896929443
 41
1.888667992047713
 42
50.0
 43
0.0
 44
0.0
 50
0.0
 51
0.0
 71
     0
 72
   100
 73
     1
 74
     1
 75
     0
 76
     0
 77
     0
 78
     0
281
     0
 65
     1
110
0.0
120
0.0
130
0.0
111
1.0
121
0.0
131
0.0
112
0.0
122
1.0
132
0.0
 79
     0
146
0.0
  0
ENDTAB
  0
TABLE
  2
LTYPE
  5
5
330
0
100
AcDbSymbolTable
 70
     2
  0
LTYPE
  5
14
330
5
100
AcDbSymbolTableRecord
100
AcDbLinetypeTableRecord
  2
BYBLOCK
 70
     0
  3

 72
    65
 73
     0
 40
0.0
  0
LTYPE
  5
15
330
5
100
AcDbSymbolTableRecord
100
AcDbLinetypeTableRecord
  2
BYLAYER
 70
     0
  3

 72
    65
 73
     0
 40
0.0
  0
LTYPE
  5
16
330
5
100
AcDbSymbolTableRecord
100
AcDbLinetypeTableRecord
  2
CONTINUOUS
 70
     0
  3
Solid line
 72
    65
 73
     0
 40
0.0
  0
LTYPE
  5
7EE
330
5
100
AcDbSymbolTableRecord
100
AcDbLinetypeTableRecord
  2
CENTER
 70
     0
  3
____ _ ____ _ ____ _ ____ _ ____ _ ____ _ ____
 72
    65
 73
     4
 40
0.6
 49
0.375
 74
     0
 49
-0.075
 74
     0
 49
0.075
 74
     0
 49
-0.075
 74
     0
  0
ENDTAB
  0
TABLE
  2
LAYER
  5
2
330
0
100
AcDbSymbolTable
 70
     2
  0
LAYER
  5
10
330
2
100
AcDbSymbolTableRecord
100
AcDbLayerTableRecord
  2
0
 70
     0
 62
     7
  6
CONTINUOUS
370
    -3
390
6E5
  0
LAYER
  5
6F1
330
2
100
AcDbSymbolTableRecord
100
AcDbLayerTableRecord
  2
Defpoints
 70
     0
 62
     7
  6
CONTINUOUS
290
     0
370
    -3
390
6E5
  0
ENDTAB
  0
TABLE
  2
STYLE
  5
3
330
0
100
AcDbSymbolTable
 70
     2
  0
STYLE
  5
11
330
3
100
AcDbSymbolTableRecord
100
AcDbTextStyleTableRecord
  2
STANDARD
 70
     0
 40
0.0
 41
1.0
 50
0.0
 71
     0
 42
0.2
  3
txt
  4

  0
STYLE
  5
204
330
3
100
AcDbSymbolTableRecord
100
AcDbTextStyleTableRecord
  2
TEXTSTYLE_1
 70
     0
 40
0.0
 41
1.0
 50
0.0
 71
     0
 42
0.2
  3
txt
  4

  0
ENDTAB
  0
TABLE
  2
VIEW
  5
6
330
0
100
AcDbSymbolTable
 70
     0
  0
ENDTAB
  0
TABLE
  2
UCS
  5
7
330
0
100
AcDbSymbolTable
 70
     0
  0
ENDTAB
  0
TABLE
  2
APPID
  5
9
330
0
100
AcDbSymbolTable
 70
     1
  0
APPID
  5
206
330
9
100
AcDbSymbolTableRecord
100
AcDbRegAppTableRecord
  2
ACAD
 70
     0
  0
ENDTAB
  0
TABLE
  2
DIMSTYLE
  5
A
330
0
100
AcDbSymbolTable
 70
     1
100
AcDbDimStyleTable
  0
DIMSTYLE
105
207
330
A
100
AcDbSymbolTableRecord
100
AcDbDimStyleTableRecord
  2
STANDARD
 70
     0
 41
3.0
 47
0.003
 48
0.003
 71
     1
 73
     0
 74
     0
 77
     1
 78
     8
140
1.5
271
     3
272
     3
284
     8
340
11
  0
ENDTAB
  0
TABLE
  2
BLOCK_RECORD
  5
1
330
0
100
AcDbSymbolTable
 70
     0
  0
BLOCK_RECORD
  5
1B
330
1
100
AcDbSymbolTableRecord
100
AcDbBlockTableRecord
  2
*MODEL_SPACE
340
6EA
  0
BLOCK_RECORD
  5
1C
330
1
100
AcDbSymbolTableRecord
100
AcDbBlockTableRecord
  2
*PAPER_SPACE
340
6EB
  0
ENDTAB
  0
ENDSEC
  0
SECTION
  2
BLOCKS
  0
BLOCK
  5
1E
330
1B
100
AcDbEntity
  8
0
100
AcDbBlockBegin
  2
*MODEL_SPACE
 70
     0
 71
     0
 10
0.0
 20
0.0
 30
0.0
  3
*MODEL_SPACE
  1

  0
ENDBLK
  5
1F
330
1B
100
AcDbEntity
  8
0
100
AcDbBlockEnd
  0
BLOCK
  5
20
330
1C
100
AcDbEntity
 67
     1
  8
0
100
AcDbBlockBegin
  2
*PAPER_SPACE
 70
     0
 71
     0
 10
0.0
 20
0.0
 30
0.0
  3
*PAPER_SPACE
  1

  0
ENDBLK
  5
21
330
1C
100
AcDbEntity
 67
     1
  8
0
100
AcDbBlockEnd
  0
ENDSEC
  0
SECTION
  2
ENTITIES
  0
TEXT
  5
25E
330
1B
100
AcDbEntity
  8
0
  6
Continuous
 62
     1
100
AcDbText
 10
205.1601222733
 20
31.9721688953
 30
0.0
 40
1.5
  1
 
 41
1.2307692308
  7
TEXTSTYLE_1
 72
     5
 11
207.0062761194
 21
31.9721688953
 31
0.0
100
AcDbText
  0
TEXT
  5
261
330
1B
100
AcDbEntity
  8
0
  6
Continuous
 62
     1
100
AcDbText
 10
229.717814581
 20
31.9721688953
 30
0.0
 40
1.5
  1
 
 41
1.2307692308
  7
TEXTSTYLE_1
 72
     5
 11
231.5639684271
 21
31.9721688953
 31
0.0
100
AcDbText
  0
TEXT
  5
26B
330
1B
100
AcDbEntity
  8
0
  6
Continuous
 62
     1
100
AcDbText
 10
278.467814581
 20
20.8288996646
 30
0.0
 40
1.5
  1
 
 41
1.2307692308
  7
TEXTSTYLE_1
 72
     5
 11
280.3139684271
 21
20.8288996646
 31
0.0
100
AcDbText
  0
LWPOLYLINE
  5
2E7
330
1B
100
AcDbEntity
  8
0
  6
Continuous
100
AcDbPolyline
 90
        7
 70
     0
 43
0.0
 10
136.3837917799
 20
180.2780320203
 10
136.4513269178
 20
180.3032115917
 10
136.518749189
 20
180.3280073839
 10
136.5860585933
 20
180.3524193968
 10
136.6532551309
 20
180.3764476305
 10
136.7203388017
 20
180.4000920849
 10
136.7873096057
 20
180.4233527601
  0
LINE
  5
2F0
330
1B
100
AcDbEntity
  8
0
  6
Continuous
100
AcDbLine
 10
157.9442741613
 20
88.75776562625273
 30
0.0
 11
126.7442741613
 21
88.75776562625273
 31
0.0
  0
LINE
  5
2F1
330
1B
100
AcDbEntity
  8
0
  6
Continuous
100
AcDbLine
 10
125.3442741613
 20
90.15776562625273
 30
0.0
 11
125.3524378196
 21
90.15776562625273
 31
0.0
  0
LINE
  5
2F2
330
1B
100
AcDbEntity
  8
0
  6
Continuous
100
AcDbLine
 10
129.9567413693
 20
90.15776562625273
 30
0.0
 11
130.7017215493
 21
90.15776562625273
 31
0.0
  0
LINE
  5
2F3
330
1B
100
AcDbEntity
  8
0
  6
Continuous
100
AcDbLine
 10
141.8174936242
 20
90.15776562625273
 30
0.0
 11
142.8710546985
 21
90.15776562625273
 31
0.0
  0
LINE
  5
2F4
330
1B
100
AcDbEntity
  8
0
  6
Continuous
100
AcDbLine
 10
153.9868267734
 20
90.15776562625273
 30
0.0
 11
154.7318069534
 21
90.15776562625273
 31
0.0
  0
LINE
  5
2F5
330
1B
100
AcDbEntity
  8
0
  6
Continuous
100
AcDbLine
 10
159.3361105031
 20
90.15776562625273
 30
0.0
 11
159.3442741613
 21
90.15776562625273
 31
0.0
  0
LINE
  5
2F6
330
1B
100
AcDbEntity
  8
0
  6
Continuous
100
AcDbLine
 10
138.3523648468
 20
180.3112165831
 30
0.0
 11
138.2631770215
 21
180.2780320203
 31
0.0
  0
LINE
  5
2F7
330
1B
100
AcDbEntity
  8
0
  6
Continuous
100
AcDbLine
 10
138.4419401939
 20
180.3439342715
 30
0.0
 11
138.3523648468
 21
180.3112165831
 31
0.0
  0
LINE
  5
2F8
330
1B
100
AcDbEntity
  8
0
  6
Continuous
100
AcDbLine
 10
138.5318274394
 20
180.3761564269
 30
0.0
 11
138.4419401939
 21
180.3439342715
 31
0.0
  0
LWPOLYLINE
  5
2F9
330
1B
100
AcDbEntity
  8
0
  6
Continuous
100
AcDbPolyline
 90
        3
 70
     0
 43
0.0
 10
138.6666948472
 20
180.4233527601
 10
138.6217240895
 20
180.4077684145
 10
138.5318274394
 20
180.3761564269
  0
LINE
  5
2FE
330
1B
100
AcDbEntity
  8
0
  6
Continuous
100
AcDbLine
 10
125.3483559905
 20
90.15368379715272
 30
0.0
 11
126.7442741613
 21
88.75776562625273
 31
0.0
  0
LINE
  5
2FF
330
1B
100
AcDbEntity
  8
0
  6
Continuous
100
AcDbLine
 10
125.3442741613
 20
98.15776562625273
 30
0.0
 11
125.3524378196
 21
98.15776562625273
 31
0.0
  0
LINE
  5
300
330
1B
100
AcDbEntity
  8
0
  6
Continuous
100
AcDbLine
 10
129.9567413693
 20
98.15776562625273
 30
0.0
 11
130.7017215493
 21
98.15776562625273
 31
0.0
  0
LINE
  5
301
330
1B
100
AcDbEntity
  8
0
  6
Continuous
100
AcDbLine
 10
141.8174936242
 20
98.15776562625273
 30
0.0
 11
142.8710546985
 21
98.15776562625273
 31
0.0
  0
LINE
  5
302
330
1B
100
AcDbEntity
  8
0
  6
Continuous
100
AcDbLine
 10
153.9868267734
 20
98.15776562625273
 30
0.0
 11
154.7318069534
 21
98.15776562625273
 31
0.0
  0
LINE
  5
303
330
1B
100
AcDbEntity
  8
0
  6
Continuous
100
AcDbLine
 10
159.3361105031
 20
98.15776562625273
 30
0.0
 11
159.3442741613
 21
98.15776562625273
 31
0.0
  0
LINE
  5
304
330
1B
100
AcDbEntity
  8
0
  6
Continuous
100
AcDbLine
 10
157.9442741613
 20
99.55776562625275
 30
0.0
 11
126.7442741613
 21
99.55776562625275
 31
0.0
  0
LINE
  5
306
330
1B
100
AcDbEntity
  8
0
  6
Continuous
100
AcDbLine
 10
164.7442741613
 20
100.0210463259
 30
0.0
 11
119.9442741613
 21
100.0210463259
 31
0.0
  0
LINE
  5
307
330
1B
100
AcDbEntity
  8
0
  6
Continuous
100
AcDbLine
 10
164.7442741613
 20
101.5210463259
 30
0.0
 11
119.9442741613
 21
101.5210463259
 31
0.0
  0
LINE
  5
308
330
1B
100
AcDbEntity
  8
0
  6
Continuous
100
AcDbLine
 10
114.9942741613
 20
119.9210463259
 30
0.0
 11
115.1205268078
 21
122.2210463259
 31
0.0
  0
LINE
  5
309
330
1B
100
AcDbEntity
  8
0
  6
Continuous
100
AcDbLine
 10
115.174354258
 20
126.1210463234
 30
0.0
 11
115.2069434359
 21
126.5710463259
 31
0.0
  0
LINE
  5
30A
330
1B
100
AcDbEntity
  8
0
  6
Continuous
100
AcDbLine
 10
135.14626181
 20
104.1210463259
 30
0.0
 11
140.5118580863
 21
104.1210463259
 31
0.0
  0
LINE
  5
30B
330
1B
100
AcDbEntity
  8
0
  6
Continuous
100
AcDbLine
 10
169.8442324657
 20
104.5210463259
 30
0.0
 11
139.833749641
 21
104.5210463259
 31
0.0
  0
LINE
  5
30C
330
1B
100
AcDbEntity
  8
0
  6
Continuous
100
AcDbLine
 10
135.14626181
 20
104.5210463259
 30
0.0
 11
114.8442757196
 21
104.5210463259
 31
0.0
  0
LINE
  5
30D
330
1B
100
AcDbEntity
  8
0
  6
Continuous
100
AcDbLine
 10
119.8442741613
 20
117.4210463259
 30
0.0
 11
119.8442741613
 21
119.9210463259
 31
0.0
  0
LINE
  5
30E
330
1B
100
AcDbEntity
  8
0
  6
Continuous
100
AcDbLine
 10
119.9442741613
 20
100.0210463259
 30
0.0
 11
119.9442741613
 21
101.5210463259
 31
0.0
  0
LWPOLYLINE
  5
30F
330
1B
100
AcDbEntity
  8
0
  6
Continuous
100
AcDbPolyline
 90
        4
 70
     0
 43
0.0
 10
121.9611801966
 20
150.4576925547
 10
122.1392595172
 20
152.265326252
 10
122.4823975262
 20
155.4455301728
 10
122.855011949
 20
158.6220463259
  0
LWPOLYLINE
  5
315
330
1B
100
AcDbEntity
  8
0
  6
Continuous
100
AcDbPolyline
 90
       10
 70
     0
 43
0.0
 10
122.855011949
 20
158.6220463259
 10
123.2463621351
 20
161.0389890746
 10
123.6547279308
 20
163.4517830036
 10
124.0801093361
 20
165.8604281129
 10
124.5225366149
 20
168.2650772626
 10
124.9819795032
 20
170.6655775926
 10
125.4583472096
 20
173.061470522
 10
125.95160947
 20
175.4526031905
 10
126.4617965485
 20
177.8391284585
 10
126.9889084449
 20
180.2210463259
  0
LWPOLYLINE
  5
321
330
1B
100
AcDbEntity
  8
0
  6
Continuous
100
AcDbPolyline
 90
        9
 70
     0
 43
0.0
 10
123.0857306554
 20
135.6748782192
 10
123.1149396613
 20
136.3111752338
 10
123.2879416878
 20
139.5076328921
 10
123.4871199783
 20
142.7018595167
 10
123.7124488216
 20
145.893490924
 10
123.9638510837
 20
149.0814345636
 10
124.2413010533
 20
152.265326252
 10
124.5448244417
 20
155.4455301728
 10
124.8744212489
 20
158.6220463259
  0
LWPOLYLINE
  5
32C
330
1B
100
AcDbEntity
  8
0
  6
Continuous
100
AcDbPolyline
 90
       10
 70
     0
 43
0.0
 10
127.4246431893
 20
158.6220463259
 10
127.7151139418
 20
161.0389890746
 10
128.0182141425
 20
163.4517830036
 10
128.3339437914
 20
165.8604281129
 10
128.6623253513
 20
168.2650772626
 10
129.0033363594
 20
170.6655775926
 10
129.3569094278
 20
173.061470522
 10
129.7230220937
 20
175.4526031905
 10
130.1016968199
 20
177.8391284585
 10
130.4929336063
 20
180.2210463259
  0
LWPOLYLINE
  5
338
330
1B
100
AcDbEntity
  8
0
  6
Continuous
100
AcDbPolyline
 90
       10
 70
     0
 43
0.0
 10
124.8744212489
 20
158.6220463259
 10
125.2205908116
 20
161.0389890746
 10
125.5818115647
 20
163.4517830036
 10
125.9580835082
 20
165.8604281129
 10
126.3494334119
 20
168.2650772626
 10
126.7558345059
 20
170.6655775926
 10
127.1772064804
 20
173.061470522
 10
127.6135225653
 20
175.4526031905
 10
128.0648095307
 20
177.8391284585
 10
128.5310673765
 20
180.2210463259
  0
LINE
  5
344
330
1B
100
AcDbEntity
  8
0
  6
Continuous
100
AcDbLine
 10
139.643617198
 20
113.0820463259
 30
0.0
 11
139.8345926915
 21
113.0820463259
 31
0.0
  0
LINE
  5
345
330
1B
100
AcDbEntity
  8
0
  6
Continuous
100
AcDbLine
 10
139.425950459
 20
114.6955652496
 30
0.0
 11
139.6187772007
 21
114.6955652496
 31
0.0
  0
LINE
  5
346
330
1B
100
AcDbEntity
  8
0
  6
Continuous
100
AcDbLine
 10
125.3442741613
 20
90.15776562625273
 30
0.0
 11
125.3442741613
 21
98.15776562625273
 31
0.0
  0
LINE
  5
347
330
1B
100
AcDbEntity
  8
0
  6
Continuous
100
AcDbLine
 10
125.3524378196
 20
90.15776562625273
 30
0.0
 11
125.3524378196
 21
98.15776562625273
 31
0.0
  0
LINE
  5
348
330
1B
100
AcDbEntity
  8
0
  6
Continuous
100
AcDbLine
 10
127.3442741613
 20
101.5210463259
 30
0.0
 11
127.3442741613
 21
104.5210463259
 31
0.0
  0
LWPOLYLINE
  5
349
330
1B
100
AcDbEntity
  8
0
  6
Continuous
100
AcDbPolyline
 90
       10
 70
     0
 43
0.0
 10
125.7267709225
 20
130.0056637781
 10
125.8250398207
 20
133.1121223581
 10
125.9482628381
 20
136.3111752338
 10
126.0934287747
 20
139.5076328921
 10
126.2605592049
 20
142.7018595167
 10
126.4496325542
 20
145.893490924
 10
126.6605840996
 20
149.0814345636
 10
126.8933922667
 20
152.265326252
 10
127.14807863
 20
155.4455301728
 10
127.4246431893
 20
158.6220463259
  0
LWPOLYLINE
  5
355
330
1B
100
AcDbEntity
  8
0
  6
Continuous
100
AcDbPolyline
 90
       10
 70
     0
 43
0.0
 10
130.4281905672
 20
158.6220463259
 10
130.6541367025
 20
161.0389890746
 10
130.8899068045
 20
163.4517830036
 10
131.1355008734
 20
165.8604281129
 10
131.3909363819
 20
168.2650772626
 10
131.6561958572
 20
170.6655775926
 10
131.9312268807
 20
173.061470522
 10
132.2160119795
 20
175.4526031905
 10
132.5105686266
 20
177.8391284585
 10
132.8148968219
 20
180.2210463259
  0
LINE
  5
361
330
1B
100
AcDbEntity
  8
0
  6
Continuous
100
AcDbLine
 10
114.9443186596
 20
117.4210463259
 30
0.0
 11
136.1133357249
 21
117.4210463259
 31
0.0
  0
LINE
  5
362
330
1B
100
AcDbEntity
  8
0
  6
Continuous
100
AcDbLine
 10
138.8729228164
 20
117.4210463259
 30
0.0
 11
169.7442676155
 21
117.4210463259
 31
0.0
  0
LINE
  5
363
330
1B
100
AcDbEntity
  8
0
  6
Continuous
100
AcDbLine
 10
169.6942741613
 20
119.9210463259
 30
0.0
 11
138.189984942
 21
119.9210463259
 31
0.0
  0
LINE
  5
364
330
1B
100
AcDbEntity
  8
0
  6
Continuous
100
AcDbLine
 10
136.8007438879
 20
119.9210463259
 30
0.0
 11
114.9942741613
 21
119.9210463259
 31
0.0
  0
LINE
  5
365
330
1B
100
AcDbEntity
  8
0
  6
Continuous
100
AcDbLine
 10
157.9442741613
 20
99.55776562625275
 30
0.0
 11
159.3442741613
 21
98.15776562625273
 31
0.0
  0
LINE
  5
366
330
1B
100
AcDbEntity
  8
0
  6
Continuous
100
AcDbLine
 10
128.875721318
 20
180.4233527601
 30
0.0
 11
128.875721318
 21
180.381187906
 31
0.0
  0
LINE
  5
368
330
1B
100
AcDbEntity
  8
0
  6
Continuous
100
AcDbLine
 10
129.9567413693
 20
90.15776562625273
 30
0.0
 11
129.9567413693
 21
98.15776562625273
 31
0.0
  0
LINE
  5
369
330
1B
100
AcDbEntity
  8
0
  6
Continuous
100
AcDbLine
 10
130.1529312103
 20
180.4233527601
 30
0.0
 11
130.1529312103
 21
180.2780320203
 31
0.0
  0
LINE
  5
36A
330
1B
100
AcDbEntity
  8
0
  6
Continuous
100
AcDbLine
 10
130.7017215493
 20
90.15776562625273
 30
0.0
 11
130.7017215493
 21
98.15776562625273
 31
0.0
  0
LINE
  5
36B
330
1B
100
AcDbEntity
  8
0
  6
Continuous
100
AcDbLine
 10
132.9005969875
 20
180.4233527601
 30
0.0
 11
132.9005969875
 21
180.2210463259
 31
0.0
  0
LWPOLYLINE
  5
36C
330
1B
100
AcDbEntity
  8
0
  6
Continuous
100
AcDbPolyline
 90
       10
 70
     0
 43
0.0
 10
132.8903877145
 20
130.0059348528
 10
132.9426709403
 20
133.1121223581
 10
133.0082365385
 20
136.3111752338
 10
133.08547772
 20
139.5076328921
 10
133.1744059644
 20
142.7018595167
 10
133.2750097923
 20
145.893490924
 10
133.3872547651
 20
149.0814345636
 10
133.5111294035
 20
152.265326252
 10
133.6466451868
 20
155.4455301728
 10
133.7938021152
 20
158.6220463259
  0
LWPOLYLINE
  5
378
330
1B
100
AcDbEntity
  8
0
  6
Continuous
100
AcDbPolyline
 90
       10
 70
     0
 43
0.0
 10
129.1074894198
 20
130.0060304598
 10
129.1839200301
 20
133.1121223581
 10
129.2797705222
 20
136.3111752338
 10
129.3926895755
 20
139.5076328921
 10
129.5226939716
 20
142.7018595167
 10
129.6697669289
 20
145.893490924
 10
129.8338581016
 20
149.0814345636
 10
130.014950708
 20
152.265326252
 10
130.2130615298
 20
155.4455301728
 10
130.4281905672
 20
158.6220463259
  0
LWPOLYLINE
  5
384
330
1B
100
AcDbEntity
  8
0
  6
Continuous
100
AcDbPolyline
 90
       10
 70
     0
 43
0.0
 10
133.7938021152
 20
158.6220463259
 10
133.9483583743
 20
161.0389890746
 10
134.1096346226
 20
163.4517830036
 10
134.2776308598
 20
165.8604281129
 10
134.4523590383
 20
168.2650772626
 10
134.6338072058
 20
170.6655775926
 10
134.8219395059
 20
173.061470522
 10
135.0167439866
 20
175.4526031905
 10
135.2182325999
 20
177.8391284585
 10
135.4264053458
 20
180.2210463259
  0
LINE
  5
390
330
1B
100
AcDbEntity
  8
0
  6
Continuous
100
AcDbLine
 10
169.7972898258
 20
121.7210463259
 30
0.0
 11
169.5822911273
 21
121.7210463259
 31
0.0
  0
LINE
  5
391
330
1B
100
AcDbEntity
  8
0
  6
Continuous
100
AcDbLine
 10
118.6678216687
 20
121.7210463259
 30
0.0
 11
119.8457177027
 21
121.7210463259
 31
0.0
  0
LINE
  5
392
330
1B
100
AcDbEntity
  8
0
  6
Continuous
100
AcDbLine
 10
158.204809363
 20
121.7210463259
 30
0.0
 11
161.475930983
 21
121.7210463259
 31
0.0
  0
LINE
  5
393
330
1B
100
AcDbEntity
  8
0
  6
Continuous
100
AcDbLine
 10
137.6816657426
 20
121.8310135691
 30
0.0
 11
137.6468788247
 21
121.8310135691
 31
0.0
  0
LINE
  5
394
330
1B
100
AcDbEntity
  8
0
  6
Continuous
100
AcDbLine
 10
137.394939504
 20
122.0820463259
 30
0.0
 11
137.5803582488
 21
122.0820463259
 31
0.0
  0
LINE
  5
395
330
1B
100
AcDbEntity
  8
0
  6
Continuous
100
AcDbLine
 10
114.9201825407
 20
122.2210463259
 30
0.0
 11
115.1205268078
 21
122.2210463259
 31
0.0
  0
LINE
  5
396
330
1B
100
AcDbEntity
  8
0
  6
Continuous
100
AcDbLine
 10
115.001727258
 20
122.80189938
 30
0.0
 11
115.2024407715
 21
122.80189938
 31
0.0
  0
LINE
  5
397
330
1B
100
AcDbEntity
  8
0
  6
Continuous
100
AcDbLine
 10
117.6197080236
 20
123.1544923259
 30
0.0
 11
118.741602134
 21
123.1544923259
 31
0.0
  0
LINE
  5
398
330
1B
100
AcDbEntity
  8
0
  6
Continuous
100
AcDbLine
 10
119.7456841683
 20
123.1544923259
 30
0.0
 11
120.2317010168
 21
123.1544923259
 31
0.0
  0
LINE
  5
399
330
1B
100
AcDbEntity
  8
0
  6
Continuous
100
AcDbLine
 10
160.7486361555
 20
123.3592703259
 30
0.0
 11
161.4128527207
 21
123.3592703259
 31
0.0
  0
LINE
  5
39A
330
1B
100
AcDbEntity
  8
0
  6
Continuous
100
AcDbLine
 10
158.7213932636
 20
123.6103446092
 30
0.0
 11
158.5923756509
 21
123.6103446092
 31
0.0
  0
LINE
  5
39C
330
1B
100
AcDbEntity
  8
0
  6
Continuous
100
AcDbLine
 10
115.0637363953
 20
123.7960463259
 30
0.0
 11
115.2644927215
 21
123.7960463259
 31
0.0
  0
LINE
  5
39D
330
1B
100
AcDbEntity
  8
0
  6
Continuous
100
AcDbLine
 10
135.14626181
 20
113.0820463259
 30
0.0
 11
135.14626181
 21
104.1210463259
 31
0.0
  0
LINE
  5
39E
330
1B
100
AcDbEntity
  8
0
  6
Continuous
100
AcDbLine
 10
136.7873096057
 20
180.4233527601
 30
0.0
 11
136.7873096057
 21
180.2210463259
 31
0.0
  0
LWPOLYLINE
  5
39F
330
1B
100
AcDbEntity
  8
0
  6
Continuous
100
AcDbPolyline
 90
       10
 70
     0
 43
0.0
 10
136.9605366157
 20
130.0055484789
 10
136.987084807
 20
133.1121223581
 10
137.0203733336
 20
136.3111752338
 10
137.0595897092
 20
139.5076328921
 10
137.1047397622
 20
142.7018595167
 10
137.1558176642
 20
145.893490924
 10
137.2128059305
 20
149.0814345636
 10
137.2756987326
 20
152.265326252
 10
137.344501899
 20
155.4455301728
 10
137.4192154296
 20
158.6220463259
  0
LWPOLYLINE
  5
3AB
330
1B
100
AcDbEntity
  8
0
  6
Continuous
100
AcDbPolyline
 90
       10
 70
     0
 43
0.0
 10
137.4192154296
 20
158.6220463259
 10
137.4976856989
 20
161.0389890746
 10
137.579567796
 20
163.4517830036
 10
137.664861721
 20
165.8604281129
 10
137.7535735421
 20
168.2650772626
 10
137.8456971911
 20
170.6655775926
 10
137.9412144632
 20
173.061470522
 10
138.0401192901
 20
175.4526031905
 10
138.14241774
 20
177.8391284585
 10
138.2481098131
 20
180.2210463259
  0
LINE
  5
3B7
330
1B
100
AcDbEntity
  8
0
  6
Continuous
100
AcDbLine
 10
115.1597714221
 20
124.2869258817
 30
0.0
 11
115.3610274439
 21
124.2869258817
 31
0.0
  0
LINE
  5
3B8
330
1B
100
AcDbEntity
  8
0
  6
Continuous
100
AcDbLine
 10
118.478329756
 20
124.7927163259
 30
0.0
 11
118.8331508761
 21
124.7927163259
 31
0.0
  0
LINE
  5
3B9
330
1B
100
AcDbEntity
  8
0
  6
Continuous
100
AcDbLine
 10
119.8374761948
 20
124.7927163259
 30
0.0
 11
120.323718097
 21
124.7927163259
 31
0.0
  0
LINE
  5
3BA
330
1B
100
AcDbEntity
  8
0
  6
Continuous
100
AcDbLine
 10
115.15996365
 20
125.0422954546
 30
0.0
 11
115.3608798721
 21
125.0422954546
 31
0.0
  0
LINE
  5
3BB
330
1B
100
AcDbEntity
  8
0
  6
Continuous
100
AcDbLine
 10
159.9209819995
 20
125.2525673275
 30
0.0
 11
159.7921198039
 21
125.2525673275
 31
0.0
  0
LINE
  5
3BC
330
1B
100
AcDbEntity
  8
0
  6
Continuous
100
AcDbLine
 10
167.7635863255
 20
125.4684837259
 30
0.0
 11
167.9610294672
 21
125.4684837259
 31
0.0
  0
LINE
  5
3BE
330
1B
100
AcDbEntity
  8
0
  6
Continuous
100
AcDbLine
 10
115.2500071784
 20
125.9710463259
 30
0.0
 11
115.4511572952
 21
125.9710463259
 31
0.0
  0
LINE
  5
3BF
330
1B
100
AcDbEntity
  8
0
  6
Continuous
100
AcDbLine
 10
135.6689746854
 20
126.0828177259
 30
0.0
 11
136.4148002366
 21
126.0828177259
 31
0.0
  0
LINE
  5
3C0
330
1B
100
AcDbEntity
  8
0
  6
Continuous
100
AcDbLine
 10
115.2016230187
 20
126.1382285456
 30
0.0
 11
115.4023309569
 21
126.1382285456
 31
0.0
  0
LINE
  5
3C1
330
1B
100
AcDbEntity
  8
0
  6
Continuous
100
AcDbLine
 10
115.2573807781
 20
127.0702778778
 30
0.0
 11
115.4580410691
 21
127.0702778778
 31
0.0
  0
LINE
  5
3C2
330
1B
100
AcDbEntity
  8
0
  6
Continuous
100
AcDbLine
 10
118.8430160169
 20
127.7210417259
 30
0.0
 11
120.1951487361
 21
127.7210417259
 31
0.0
  0
LINE
  5
3C3
330
1B
100
AcDbEntity
  8
0
  6
Continuous
100
AcDbLine
 10
135.6901618351
 20
127.7210417259
 30
0.0
 11
139.0763222387
 21
127.7210417259
 31
0.0
  0
LINE
  5
3C4
330
1B
100
AcDbEntity
  8
0
  6
Continuous
100
AcDbLine
 10
169.1797656021
 20
127.7210417259
 30
0.0
 11
169.3952517889
 21
127.7210417259
 31
0.0
  0
LINE
  5
3C5
330
1B
100
AcDbEntity
  8
0
  6
Continuous
100
AcDbLine
 10
139.425950459
 20
114.6955652496
 30
0.0
 11
137.394939504
 21
122.0820463259
 31
0.0
  0
LINE
  5
3C6
330
1B
100
AcDbEntity
  8
0
  6
Continuous
100
AcDbLine
 10
139.5447841714
 20
117.4210463259
 30
0.0
 11
138.8573760084
 21
119.9210463259
 31
0.0
  0
LWPOLYLINE
  5
3C7
330
1B
100
AcDbEntity
  8
0
  6
Continuous
100
AcDbPolyline
 90
       10
 70
     0
 43
0.0
 10
139.643617198
 20
113.0820463259
 10
139.6408929061
 20
113.2638088297
 10
139.6327867538
 20
113.4450739901
 10
139.6192987411
 20
113.6258418071
 10
139.6004066878
 20
113.8062766972
 10
139.5761327742
 20
113.9862142438
 10
139.5465435405
 20
114.1651611974
 10
139.5116611668
 20
114.3429531412
 10
139.471463473
 20
114.519754492
 10
139.425950459
 20
114.6955652496
  0
LINE
  5
3D3
330
1B
100
AcDbEntity
  8
0
  6
Continuous
100
AcDbLine
 10
139.643617198
 20
104.1210463259
 30
0.0
 11
139.643617198
 21
113.0820463259
 31
0.0
  0
LINE
  5
3D4
330
1B
100
AcDbEntity
  8
0
  6
Continuous
100
AcDbLine
 10
140.5118580863
 20
104.1210463259
 30
0.0
 11
140.5118580863
 21
104.5210463259
 31
0.0
  0
LINE
  5
3D5
330
1B
100
AcDbEntity
  8
0
  6
Continuous
100
AcDbLine
 10
141.1942741613
 20
130.0049598463
 30
0.0
 11
141.1942741613
 21
180.2210463259
 31
0.0
  0
LINE
  5
3D6
330
1B
100
AcDbEntity
  8
0
  6
Continuous
100
AcDbLine
 10
141.3442741613
 20
180.2210463259
 30
0.0
 11
141.3442741613
 21
180.4233527601
 31
0.0
  0
LWPOLYLINE
  5
3D7
330
1B
100
AcDbEntity
  8
0
  6
Continuous
100
AcDbPolyline
 90
       10
 70
     0
 43
0.0
 10
135.363928549
 20
114.6955652496
 10
135.3184155351
 20
114.519754492
 10
135.2782178412
 20
114.3429531412
 10
135.2433354675
 20
114.1651611974
 10
135.2137462338
 20
113.9862142438
 10
135.1894723202
 20
113.8062766972
 10
135.170580267
 20
113.6258418071
 10
135.1570922542
 20
113.4450739901
 10
135.1489861019
 20
113.2638088297
 10
135.14626181
 20
113.0820463259
  0
LINE
  5
3E3
330
1B
100
AcDbEntity
  8
0
  6
Continuous
100
AcDbLine
 10
137.394939504
 20
122.0820463259
 30
0.0
 11
135.363928549
 21
114.6955652496
 31
0.0
  0
LINE
  5
3E4
330
1B
100
AcDbEntity
  8
0
  6
Continuous
100
AcDbLine
 10
169.0098479544
 20
130.0060438623
 30
0.0
 11
168.9851304241
 21
130.0049598463
 31
0.0
  0
LINE
  5
3E5
330
1B
100
AcDbEntity
  8
0
  6
Continuous
100
AcDbLine
 10
115.7034178986
 20
130.0049598463
 30
0.0
 11
115.6787003683
 21
130.0060438623
 31
0.0
  0
LINE
  5
3E6
330
1B
100
AcDbEntity
  8
0
  6
Continuous
100
AcDbLine
 10
141.8174936242
 20
90.15776562625273
 30
0.0
 11
141.8174936242
 21
98.15776562625273
 31
0.0
  0
LINE
  5
3E8
330
1B
100
AcDbEntity
  8
0
  6
Continuous
100
AcDbLine
 10
142.8710546985
 20
90.15776562625273
 30
0.0
 11
142.8710546985
 21
98.15776562625273
 31
0.0
  0
LINE
  5
3E9
330
1B
100
AcDbEntity
  8
0
  6
Continuous
100
AcDbLine
 10
143.3442741613
 20
180.4233527601
 30
0.0
 11
143.3442741613
 21
180.2210463259
 31
0.0
  0
LINE
  5
3EA
330
1B
100
AcDbEntity
  8
0
  6
Continuous
100
AcDbLine
 10
143.4942741613
 20
180.2210463259
 30
0.0
 11
143.4942741613
 21
130.0049598463
 31
0.0
  0
LWPOLYLINE
  5
3EB
330
1B
100
AcDbEntity
  8
0
  6
Continuous
100
AcDbPolyline
 90
       10
 70
     0
 43
0.0
 10
147.2693328931
 20
158.6220463259
 10
147.1908626238
 20
161.0389890746
 10
147.1089805267
 20
163.4517830036
 10
147.0236866017
 20
165.8604281129
 10
146.9349747805
 20
168.2650772626
 10
146.8428511316
 20
170.6655775926
 10
146.7473338595
 20
173.061470522
 10
146.6484290326
 20
175.4526031905
 10
146.5461305826
 20
177.8391284585
 10
146.4404385096
 20
180.2210463259
  0
LWPOLYLINE
  5
3F7
330
1B
100
AcDbEntity
  8
0
  6
Continuous
100
AcDbPolyline
 90
       10
 70
     0
 43
0.0
 10
147.728011707
 20
130.0055484744
 10
147.7014635157
 20
133.1121223581
 10
147.6681749891
 20
136.3111752338
 10
147.6289586135
 20
139.5076328921
 10
147.5838085605
 20
142.7018595167
 10
147.5327306585
 20
145.893490924
 10
147.4757423922
 20
149.0814345636
 10
147.4128495901
 20
152.265326252
 10
147.3440464237
 20
155.4455301728
 10
147.2693328931
 20
158.6220463259
  0
LINE
  5
403
330
1B
100
AcDbEntity
  8
0
  6
Continuous
100
AcDbLine
 10
147.901238717
 20
180.4233527601
 30
0.0
 11
147.901238717
 21
180.2210463259
 31
0.0
  0
LWPOLYLINE
  5
404
330
1B
100
AcDbEntity
  8
0
  6
Continuous
100
AcDbPolyline
 90
       10
 70
     0
 43
0.0
 10
150.8947462075
 20
158.6220463259
 10
150.7401899483
 20
161.0389890746
 10
150.5789137001
 20
163.4517830036
 10
150.4109174629
 20
165.8604281129
 10
150.2361892844
 20
168.2650772626
 10
150.0547411169
 20
170.6655775926
 10
149.8666088168
 20
173.061470522
 10
149.6718043361
 20
175.4526031905
 10
149.4703157228
 20
177.8391284585
 10
149.2621429769
 20
180.2210463259
  0
LWPOLYLINE
  5
410
330
1B
100
AcDbEntity
  8
0
  6
Continuous
100
AcDbPolyline
 90
       10
 70
     0
 43
0.0
 10
151.7981606082
 20
130.0059348549
 10
151.7458773823
 20
133.1121223581
 10
151.6803117842
 20
136.3111752338
 10
151.6030706027
 20
139.5076328921
 10
151.5141423583
 20
142.7018595167
 10
151.4135385304
 20
145.893490924
 10
151.3012935576
 20
149.0814345636
 10
151.1774189192
 20
152.265326252
 10
151.0419031359
 20
155.4455301728
 10
150.8947462075
 20
158.6220463259
  0
LINE
  5
41C
330
1B
100
AcDbEntity
  8
0
  6
Continuous
100
AcDbLine
 10
151.7879513352
 20
180.4233527601
 30
0.0
 11
151.7879513352
 21
180.2210463259
 31
0.0
  0
LINE
  5
41D
330
1B
100
AcDbEntity
  8
0
  6
Continuous
100
AcDbLine
 10
153.9868267734
 20
90.15776562625273
 30
0.0
 11
153.9868267734
 21
98.15776562625273
 31
0.0
  0
LWPOLYLINE
  5
41E
330
1B
100
AcDbEntity
  8
0
  6
Continuous
100
AcDbPolyline
 90
       10
 70
     0
 43
0.0
 10
154.2603577555
 20
158.6220463259
 10
154.0344116202
 20
161.0389890746
 10
153.7986415181
 20
163.4517830036
 10
153.5530474493
 20
165.8604281129
 10
153.2976119408
 20
168.2650772626
 10
153.0323524655
 20
170.6655775926
 10
152.757321442
 20
173.061470522
 10
152.4725363432
 20
175.4526031905
 10
152.1779796961
 20
177.8391284585
 10
151.8736515008
 20
180.2210463259
  0
LWPOLYLINE
  5
42A
330
1B
100
AcDbEntity
  8
0
  6
Continuous
100
AcDbPolyline
 90
       10
 70
     0
 43
0.0
 10
155.581058903
 20
130.0060304554
 10
155.5046282926
 20
133.1121223581
 10
155.4087778004
 20
136.3111752338
 10
155.2958587472
 20
139.5076328921
 10
155.165854351
 20
142.7018595167
 10
155.0187813938
 20
145.893490924
 10
154.854690221
 20
149.0814345636
 10
154.6735976147
 20
152.265326252
 10
154.4754867928
 20
155.4455301728
 10
154.2603577555
 20
158.6220463259
  0
LINE
  5
436
330
1B
100
AcDbEntity
  8
0
  6
Continuous
100
AcDbLine
 10
154.5356171124
 20
180.4233527601
 30
0.0
 11
154.5356171124
 21
180.2780320203
 31
0.0
  0
LINE
  5
437
330
1B
100
AcDbEntity
  8
0
  6
Continuous
100
AcDbLine
 10
154.7318069534
 20
90.15776562625273
 30
0.0
 11
154.7318069534
 21
98.15776562625273
 31
0.0
  0
LINE
  5
439
330
1B
100
AcDbEntity
  8
0
  6
Continuous
100
AcDbLine
 10
155.8128270047
 20
180.4233527601
 30
0.0
 11
155.8128270047
 21
180.3811935186
 31
0.0
  0
LINE
  5
43A
330
1B
100
AcDbEntity
  8
0
  6
Continuous
100
AcDbLine
 10
157.3442741613
 20
101.5210463259
 30
0.0
 11
157.3442741613
 21
104.5210463259
 31
0.0
  0
LINE
  5
43B
330
1B
100
AcDbEntity
  8
0
  6
Continuous
100
AcDbLine
 10
126.7442741613
 20
99.55776562625275
 30
0.0
 11
125.3483559905
 21
98.16184745535274
 31
0.0
  0
LWPOLYLINE
  5
43C
330
1B
100
AcDbEntity
  8
0
  6
Continuous
100
AcDbPolyline
 90
        9
 70
     0
 43
0.0
 10
161.602809108
 20
135.6750646771
 10
161.5736086614
 20
136.3111752338
 10
161.4006066349
 20
139.5076328921
 10
161.2014283444
 20
142.7018595167
 10
160.9760995011
 20
145.893490924
 10
160.724697239
 20
149.0814345636
 10
160.4472472694
 20
152.265326252
 10
160.143723881
 20
155.4455301728
 10
159.8141270738
 20
158.6220463259
  0
LWPOLYLINE
  5
447
330
1B
100
AcDbEntity
  8
0
  6
Continuous
100
AcDbPolyline
 90
       10
 70
     0
 43
0.0
 10
158.9617774
 20
130.0056637837
 10
158.863508502
 20
133.1121223581
 10
158.7402854846
 20
136.3111752338
 10
158.5951195479
 20
139.5076328921
 10
158.4279891178
 20
142.7018595167
 10
158.2389157685
 20
145.893490924
 10
158.0279642231
 20
149.0814345636
 10
157.795156056
 20
152.265326252
 10
157.5404696927
 20
155.4455301728
 10
157.2639051334
 20
158.6220463259
  0
LINE
  5
453
330
1B
100
AcDbEntity
  8
0
  6
Continuous
100
AcDbLine
 10
159.3361105031
 20
90.15776562625273
 30
0.0
 11
159.3361105031
 21
98.15776562625273
 31
0.0
  0
LINE
  5
454
330
1B
100
AcDbEntity
  8
0
  6
Continuous
100
AcDbLine
 10
159.3442741613
 20
90.15776562625273
 30
0.0
 11
159.3442741613
 21
98.15776562625273
 31
0.0
  0
LWPOLYLINE
  5
455
330
1B
100
AcDbEntity
  8
0
  6
Continuous
100
AcDbPolyline
 90
       10
 70
     0
 43
0.0
 10
157.2639051334
 20
158.6220463259
 10
156.9734343809
 20
161.0389890746
 10
156.6703341802
 20
163.4517830036
 10
156.3546045313
 20
165.8604281129
 10
156.0262229714
 20
168.2650772626
 10
155.6852119633
 20
170.6655775926
 10
155.3316388949
 20
173.061470522
 10
154.965526229
 20
175.4526031905
 10
154.5868515028
 20
177.8391284585
 10
154.1956147163
 20
180.2210463259
  0
LWPOLYLINE
  5
461
330
1B
100
AcDbEntity
  8
0
  6
Continuous
100
AcDbPolyline
 90
        4
 70
     0
 43
0.0
 10
162.7276686676
 20
150.4546418412
 10
162.5492888055
 20
152.265326252
 10
162.2061507965
 20
155.4455301728
 10
161.8335363737
 20
158.6220463259
  0
LINE
  5
467
330
1B
100
AcDbEntity
  8
0
  6
Continuous
100
AcDbLine
 10
164.7442741613
 20
100.0210463259
 30
0.0
 11
164.7442741613
 21
101.5210463259
 31
0.0
  0
LINE
  5
468
330
1B
100
AcDbEntity
  8
0
  6
Continuous
100
AcDbLine
 10
164.8442741613
 20
117.4210463259
 30
0.0
 11
164.8442741613
 21
119.9210463259
 31
0.0
  0
LWPOLYLINE
  5
469
330
1B
100
AcDbEntity
  8
0
  6
Continuous
100
AcDbPolyline
 90
       10
 70
     0
 43
0.0
 10
161.8335363737
 20
158.6220463259
 10
161.4421861876
 20
161.0389890746
 10
161.0338203919
 20
163.4517830036
 10
160.6084389866
 20
165.8604281129
 10
160.1660117078
 20
168.2650772626
 10
159.7065688195
 20
170.6655775926
 10
159.2302011131
 20
173.061470522
 10
158.7369388526
 20
175.4526031905
 10
158.2267517742
 20
177.8391284585
 10
157.6996398777
 20
180.2210463259
  0
LWPOLYLINE
  5
475
330
1B
100
AcDbEntity
  8
0
  6
Continuous
100
AcDbPolyline
 90
       10
 70
     0
 43
0.0
 10
159.8141270738
 20
158.6220463259
 10
159.467957511
 20
161.0389890746
 10
159.1067367579
 20
163.4517830036
 10
158.7304648145
 20
165.8604281129
 10
158.3391149108
 20
168.2650772626
 10
157.9327138168
 20
170.6655775926
 10
157.5113418423
 20
173.061470522
 10
157.0750257574
 20
175.4526031905
 10
156.623738792
 20
177.8391284585
 10
156.1574809462
 20
180.2210463259
  0
LINE
  5
481
330
1B
100
AcDbEntity
  8
0
  6
Continuous
100
AcDbLine
 10
169.1946594146
 20
127.7210417259
 30
0.0
 11
169.0098479544
 21
130.0060438623
 31
0.0
  0
LINE
  5
482
330
1B
100
AcDbEntity
  8
0
  6
Continuous
100
AcDbLine
 10
169.7972900022
 20
121.7210463259
 30
0.0
 11
169.3952519733
 21
127.7210417259
 31
0.0
  0
LINE
  5
483
330
1B
100
AcDbEntity
  8
0
  6
Continuous
100
AcDbLine
 10
169.6942741613
 20
119.9210463259
 30
0.0
 11
169.5969649572
 21
121.7210463259
 31
0.0
  0
LINE
  5
491
330
1B
100
AcDbEntity
  8
0
  6
Continuous
100
AcDbLine
 10
159.3442741613
 20
90.15776562625273
 30
0.0
 11
157.9442741613
 21
88.75776562625273
 31
0.0
  0
LINE
  5
492
330
1B
100
AcDbEntity
  8
0
  6
Continuous
100
AcDbLine
 10
146.1117701286
 20
180.3920397922
 30
0.0
 11
146.0218534755
 21
180.4233527601
 31
0.0
  0
LINE
  5
493
330
1B
100
AcDbEntity
  8
0
  6
Continuous
100
AcDbLine
 10
146.2016523515
 20
180.3601262892
 30
0.0
 11
146.1117701286
 21
180.3920397922
 31
0.0
  0
LINE
  5
494
330
1B
100
AcDbEntity
  8
0
  6
Continuous
100
AcDbLine
 10
146.2914282323
 20
180.3276395054
 30
0.0
 11
146.2016523515
 21
180.3601262892
 31
0.0
  0
LWPOLYLINE
  5
495
330
1B
100
AcDbEntity
  8
0
  6
Continuous
100
AcDbPolyline
 90
        3
 70
     0
 43
0.0
 10
146.4253713012
 20
180.2780320203
 10
146.3808101236
 20
180.2946884572
 10
146.2914282323
 20
180.3276395054
  0
LINE
  5
49A
330
1B
100
AcDbEntity
  8
0
  6
Continuous
100
AcDbLine
 10
132.142231541
 20
180.2780320203
 30
0.0
 11
132.39343118
 21
180.3275403195
 31
0.0
  0
LINE
  5
49B
330
1B
100
AcDbEntity
  8
0
  6
Continuous
100
AcDbLine
 10
133.9374891458
 20
180.3298325758
 30
0.0
 11
133.6743204272
 21
180.2780320203
 31
0.0
  0
LINE
  5
49C
330
1B
100
AcDbEntity
  8
0
  6
Continuous
100
AcDbLine
 10
134.1902776279
 20
180.3782728223
 30
0.0
 11
133.9374891458
 21
180.3298325758
 31
0.0
  0
LINE
  5
49D
330
1B
100
AcDbEntity
  8
0
  6
Continuous
100
AcDbLine
 10
132.39343118
 20
180.3275403195
 30
0.0
 11
132.6462196621
 21
180.3759805661
 31
0.0
  0
LINE
  5
49E
330
1B
100
AcDbEntity
  8
0
  6
Continuous
100
AcDbLine
 10
132.6462196621
 20
180.3759805661
 30
0.0
 11
132.9005969875
 21
180.4233527601
 31
0.0
  0
LINE
  5
49F
330
1B
100
AcDbEntity
  8
0
  6
Continuous
100
AcDbLine
 10
134.4326858737
 20
180.4233527601
 30
0.0
 11
134.1902776279
 21
180.3782728223
 31
0.0
  0
LINE
  5
4A0
330
1B
100
AcDbEntity
  8
0
  6
Continuous
100
AcDbLine
 10
130.5876531458
 20
180.3444820592
 30
0.0
 11
130.1311882082
 21
180.2780320203
 31
0.0
  0
LINE
  5
4A1
330
1B
100
AcDbEntity
  8
0
  6
Continuous
100
AcDbLine
 10
129.1311882082
 20
180.2780320203
 30
0.0
 11
129.6349885048
 21
180.351230489
 31
0.0
  0
LINE
  5
4A2
330
1B
100
AcDbEntity
  8
0
  6
Continuous
100
AcDbLine
 10
129.6349885048
 20
180.351230489
 30
0.0
 11
130.1529312103
 21
180.4233527601
 31
0.0
  0
LWPOLYLINE
  5
4A3
330
1B
100
AcDbEntity
  8
0
  6
Continuous
100
AcDbPolyline
 90
        3
 70
     0
 43
0.0
 10
131.1529312103
 20
180.4233527601
 10
131.0399964607
 20
180.4078978104
 10
130.5876531458
 20
180.3444820592
  0
LINE
  5
4A8
330
1B
100
AcDbEntity
  8
0
  6
Continuous
100
AcDbLine
 10
128.6450462946
 20
180.3526079514
 30
0.0
 11
128.0611344011
 21
180.2780320203
 31
0.0
  0
LINE
  5
4A9
330
1B
100
AcDbEntity
  8
0
  6
Continuous
100
AcDbLine
 10
127.7138380458
 20
180.2780320203
 30
0.0
 11
128.2950361044
 21
180.3522685674
 31
0.0
  0
LINE
  5
4AA
330
1B
100
AcDbEntity
  8
0
  6
Continuous
100
AcDbLine
 10
128.2950361044
 20
180.3522685674
 30
0.0
 11
128.875721318
 21
180.4233527601
 31
0.0
  0
LINE
  5
4AB
330
1B
100
AcDbEntity
  8
0
  6
Continuous
100
AcDbLine
 10
129.2230176733
 20
180.4233527601
 30
0.0
 11
128.6450462946
 21
180.3526079514
 31
0.0
  0
LINE
  5
4AC
330
1B
100
AcDbEntity
  8
0
  6
Continuous
100
AcDbLine
 10
124.2808442545
 20
180.2210463259
 30
0.0
 11
160.4077040682
 21
180.2210463259
 31
0.0
  0
LINE
  5
4AD
330
1B
100
AcDbEntity
  8
0
  6
Continuous
100
AcDbLine
 10
157.0581023263
 20
180.2780320203
 30
0.0
 11
156.9747102769
 21
180.2780320203
 31
0.0
  0
LINE
  5
4AE
330
1B
100
AcDbEntity
  8
0
  6
Continuous
100
AcDbLine
 10
156.6274139216
 20
180.2780320203
 30
0.0
 11
155.5573601145
 21
180.2780320203
 31
0.0
  0
LINE
  5
4AF
330
1B
100
AcDbEntity
  8
0
  6
Continuous
100
AcDbLine
 10
154.5573601145
 20
180.2780320203
 30
0.0
 11
152.5463167817
 21
180.2780320203
 31
0.0
  0
LINE
  5
4B0
330
1B
100
AcDbEntity
  8
0
  6
Continuous
100
AcDbLine
 10
151.0142278955
 20
180.2780320203
 30
0.0
 11
148.3047565428
 21
180.2780320203
 31
0.0
  0
LINE
  5
4B1
330
1B
100
AcDbEntity
  8
0
  6
Continuous
100
AcDbLine
 10
146.4253713012
 20
180.2780320203
 30
0.0
 11
143.3442741613
 21
180.2780320203
 31
0.0
  0
LINE
  5
4B2
330
1B
100
AcDbEntity
  8
0
  6
Continuous
100
AcDbLine
 10
141.3442741613
 20
180.2780320203
 30
0.0
 11
138.2631770215
 21
180.2780320203
 31
0.0
  0
LINE
  5
4B3
330
1B
100
AcDbEntity
  8
0
  6
Continuous
100
AcDbLine
 10
136.3837917799
 20
180.2780320203
 30
0.0
 11
133.6743204272
 21
180.2780320203
 31
0.0
  0
LINE
  5
4B4
330
1B
100
AcDbEntity
  8
0
  6
Continuous
100
AcDbLine
 10
132.142231541
 20
180.2780320203
 30
0.0
 11
130.1311882082
 21
180.2780320203
 31
0.0
  0
LINE
  5
4B5
330
1B
100
AcDbEntity
  8
0
  6
Continuous
100
AcDbLine
 10
129.1311882082
 20
180.2780320203
 30
0.0
 11
128.0611344011
 21
180.2780320203
 31
0.0
  0
LINE
  5
4B6
330
1B
100
AcDbEntity
  8
0
  6
Continuous
100
AcDbLine
 10
127.7138380458
 20
180.2780320203
 30
0.0
 11
127.6304459963
 21
180.2780320203
 31
0.0
  0
LINE
  5
4B7
330
1B
100
AcDbEntity
  8
0
  6
Continuous
100
AcDbLine
 10
156.0409253381
 20
180.3529301221
 30
0.0
 11
155.4655306493
 21
180.4233527601
 31
0.0
  0
LINE
  5
4B8
330
1B
100
AcDbEntity
  8
0
  6
Continuous
100
AcDbLine
 10
155.8128270047
 20
180.4233527601
 30
0.0
 11
156.3935120981
 21
180.3522685824
 31
0.0
  0
LINE
  5
4B9
330
1B
100
AcDbEntity
  8
0
  6
Continuous
100
AcDbLine
 10
156.6274139216
 20
180.2780320203
 30
0.0
 11
156.0409253381
 21
180.3529301221
 31
0.0
  0
LINE
  5
4BA
330
1B
100
AcDbEntity
  8
0
  6
Continuous
100
AcDbLine
 10
156.3935120981
 20
180.3522685824
 30
0.0
 11
156.9747102769
 21
180.2780320203
 31
0.0
  0
LINE
  5
4BB
330
1B
100
AcDbEntity
  8
0
  6
Continuous
100
AcDbLine
 10
153.9921544907
 20
180.3599462687
 30
0.0
 11
153.5356171124
 21
180.4233527601
 31
0.0
  0
LINE
  5
4BC
330
1B
100
AcDbEntity
  8
0
  6
Continuous
100
AcDbLine
 10
154.5356171124
 20
180.4233527601
 30
0.0
 11
155.0501168649
 21
180.3517203856
 31
0.0
  0
LINE
  5
4BD
330
1B
100
AcDbEntity
  8
0
  6
Continuous
100
AcDbLine
 10
155.0501168649
 20
180.3517203856
 30
0.0
 11
155.5573601145
 21
180.2780320203
 31
0.0
  0
LWPOLYLINE
  5
4BE
330
1B
100
AcDbEntity
  8
0
  6
Continuous
100
AcDbPolyline
 90
        3
 70
     0
 43
0.0
 10
154.5573601145
 20
180.2780320203
 10
154.4451702555
 20
180.2945952228
 10
153.9921544907
 20
180.3599462687
  0
LINE
  5
4C3
330
1B
100
AcDbEntity
  8
0
  6
Continuous
100
AcDbLine
 10
151.7879513352
 20
180.4233527601
 30
0.0
 11
152.0404809106
 21
180.3763346636
 31
0.0
  0
LINE
  5
4C4
330
1B
100
AcDbEntity
  8
0
  6
Continuous
100
AcDbLine
 10
150.509267044
 20
180.3761683707
 30
0.0
 11
150.255862449
 21
180.4233527601
 31
0.0
  0
LINE
  5
4C5
330
1B
100
AcDbEntity
  8
0
  6
Continuous
100
AcDbLine
 10
152.0404809106
 20
180.3763346636
 30
0.0
 11
152.2932693927
 21
180.327894417
 31
0.0
  0
LINE
  5
4C6
330
1B
100
AcDbEntity
  8
0
  6
Continuous
100
AcDbLine
 10
150.7623820903
 20
180.3276618912
 30
0.0
 11
150.509267044
 21
180.3761683707
 31
0.0
  0
LINE
  5
4C7
330
1B
100
AcDbEntity
  8
0
  6
Continuous
100
AcDbLine
 10
152.2932693927
 20
180.327894417
 30
0.0
 11
152.5463167817
 21
180.2780320203
 31
0.0
  0
LINE
  5
4C8
330
1B
100
AcDbEntity
  8
0
  6
Continuous
100
AcDbLine
 10
151.0142278955
 20
180.2780320203
 30
0.0
 11
150.7623820903
 21
180.3276618912
 31
0.0
  0
LWPOLYLINE
  5
4C9
330
1B
100
AcDbEntity
  8
0
  6
Continuous
100
AcDbPolyline
 90
        7
 70
     0
 43
0.0
 10
147.901238717
 20
180.4233527601
 10
147.9679857612
 20
180.4001726554
 10
148.0349351762
 20
180.3765765433
 10
148.1020869618
 20
180.3525644237
 10
148.1694411181
 20
180.3281362967
 10
148.2369976451
 20
180.3032921622
 10
148.3047565428
 20
180.2780320203
  0
ARC
  5
4F0
330
1B
100
AcDbEntity
  8
0
  6
Continuous
100
AcDbCircle
 10
416.5560309181
 20
104.5210463259
 30
0.0
 40
302.1547203443
100
AcDbArc
 50
176.4327650768004
 51
176.5308564997004
  0
ARC
  5
4F1
330
1B
100
AcDbEntity
  8
0
  6
Continuous
100
AcDbCircle
 10
128.3942741613
 20
99.02104632590002
 30
0.0
 40
1.0
100
AcDbArc
 50
32.46058542265489
 51
90.00000000000019
  0
ARC
  5
4F2
330
1B
100
AcDbEntity
  8
0
  6
Continuous
100
AcDbCircle
 10
156.2942741613
 20
99.02104632590002
 30
0.0
 40
1.0
100
AcDbArc
 50
90.00000000000019
 51
147.5394145773451
  0
ARC
  5
4F3
330
1B
100
AcDbEntity
  8
0
  6
Continuous
100
AcDbCircle
 10
127.6942741613
 20
179.7821227894
 30
0.0
 40
0.5
100
AcDbArc
 50
97.33418149580021
 51
118.5360870430002
  0
ARC
  5
4F4
330
1B
100
AcDbEntity
  8
0
  6
Continuous
100
AcDbCircle
 10
156.9942741613
 20
179.7821227894
 30
0.0
 40
0.5
100
AcDbArc
 50
61.46391295700014
 51
82.66581850420019
  0
ARC
  5
4F5
330
1B
100
AcDbEntity
  8
0
  6
Continuous
100
AcDbCircle
 10
142.3442741613
 20
65.9597963259
 30
0.0
 40
115.26125
100
AcDbArc
 50
82.66581850420019
 51
97.33418149580021
  0
ARC
  5
4F6
330
1B
100
AcDbEntity
  8
0
  6
Continuous
100
AcDbCircle
 10
416.7710237307
 20
108.6309164843
 30
0.0
 40
301.9547203443
100
AcDbArc
 50
178.3318409420004
 51
180.7798701918004
  0
ARC
  5
4F7
330
1B
100
AcDbEntity
  8
0
  6
Continuous
100
AcDbCircle
 10
-132.082475408
 20
108.6309164843
 30
0.0
 40
301.9547203443
100
AcDbArc
 50
359.2201298082009
 51
1.668159058000003
  0
ARC
  5
4F8
330
1B
100
AcDbEntity
  8
0
  6
Continuous
100
AcDbCircle
 10
416.5560309181
 20
104.5210463259
 30
0.0
 40
301.9547203443
100
AcDbArc
 50
175.1584729350004
 51
175.7171036427004
  0
SPLINE
  5
4FE
330
1B
100
AcDbEntity
  8
0
  6
Continuous
100
AcDbSpline
210
0.0
220
0.0
230
1.0
 70
     8
 71
     3
 72
    17
 73
    13
 74
    11
 42
0.0000000001
 43
0.0000000001
 44
0.0000000001
 40
0.0
 40
0.0
 40
0.0
 40
0.0
 40
0.0333264740140069
 40
0.1197158198536761
 40
0.2057306033865775
 40
0.2945451305811542
 40
0.3888330522555294
 40
0.4855190950558201
 40
0.5824985671984431
 40
0.6800146105964477
 40
0.77661601578416
 40
0.8692050885864262
 40
0.8692050885864262
 40
0.8692050885864262
 40
0.8692050885864262
 10
159.6258500245
 20
125.8780126851
 30
0.0
 10
159.6147368053576
 20
125.87756813774
 30
0.0
 10
159.5748157461936
 20
125.8759712285789
 30
0.0
 10
159.5081610230923
 20
125.8533410990288
 30
0.0
 10
159.4375669672406
 20
125.8005080924789
 30
0.0
 10
159.3826339765191
 20
125.728299768228
 30
0.0
 10
159.34486163456
 20
125.6421915066417
 30
0.0
 10
159.3253650866189
 20
125.5475707493953
 30
0.0
 10
159.3240849942949
 20
125.4499087794903
 30
0.0
 10
159.3409659240821
 20
125.3539599304359
 30
0.0
 10
159.3736594490119
 20
125.2631324648716
 30
0.0
 10
159.4095415264853
 20
125.2110065052768
 30
0.0
 10
159.4271020735
 20
125.1854962665
 30
0.0
 11
159.6258500245
 21
125.8780126851
 31
0.0
 11
159.5925982695
 21
125.8757822906
 31
0.0
 11
159.5103660545
 21
125.849306228
 31
0.0
 11
159.441121959
 21
125.7982788018
 31
0.0
 11
159.3867288859
 21
125.7280690173
 31
0.0
 11
159.3483181449
 21
125.6419596267
 31
0.0
 11
159.3284409662
 21
125.5473388645
 31
0.0
 11
159.3271041344
 21
125.4503686067
 31
0.0
 11
159.3437642667
 21
125.3542862529
 31
0.0
 11
159.3778474245
 21
125.2638972611
 31
0.0
 11
159.4271020735
 21
125.1854962665
 31
0.0
  0
SPLINE
  5
4FF
330
1B
100
AcDbEntity
  8
0
  6
Continuous
100
AcDbSpline
210
0.0
220
0.0
230
1.0
 70
     8
 71
     3
 72
    20
 73
    16
 74
    14
 42
0.0000000001
 43
0.0000000001
 44
0.0000000001
 40
0.0
 40
0.0
 40
0.0
 40
0.0
 40
0.0905054759101839
 40
0.3916318166942605
 40
0.7011860542924352
 40
1.022294972353881
 40
1.358406907949583
 40
1.711369154592628
 40
2.077994509115551
 40
2.458540140416051
 40
2.845095638999495
 40
3.236161393090788
 40
3.622680309245878
 40
4.0018610208592
 40
4.367769658394196
 40
4.367769658394196
 40
4.367769658394196
 40
4.367769658394196
 10
159.5381281599
 20
127.7210257804
 30
0.0
 10
159.5682960393787
 20
127.7203991361077
 30
0.0
 10
159.6988373279277
 20
127.7176875450116
 30
0.0
 10
159.9309139021066
 20
127.674035037217
 30
0.0
 10
160.2192618885311
 20
127.5531948995512
 30
0.0
 10
160.4866697707445
 20
127.3695870861852
 30
0.0
 10
160.7259856954551
 20
127.1303353776476
 30
0.0
 10
160.9313281244828
 20
126.8427654526642
 30
0.0
 10
161.0983337094532
 20
126.5149160188748
 30
0.0
 10
161.2227733425179
 20
126.1568981506435
 30
0.0
 10
161.3019342821565
 20
125.7780495358962
 30
0.0
 10
161.3339575351627
 20
125.3902063179852
 30
0.0
 10
161.3165335941366
 20
125.0042986437542
 30
0.0
 10
161.2549390714227
 20
124.6302983370028
 30
0.0
 10
161.1712708652685
 20
124.3960041984629
 30
0.0
 10
161.1301819417
 20
124.2809438381
 30
0.0
 11
159.5381281599
 21
127.7210257804
 31
0.0
 11
159.6285826591
 21
127.717988554
 31
0.0
 11
159.9249289059
 21
127.6645472299
 31
0.0
 11
160.2106936824
 21
127.54554169
 31
0.0
 11
160.4762923557
 21
127.3650748454
 31
0.0
 11
160.7150432716
 21
127.1284966693
 31
0.0
 11
160.9212772646
 21
126.8420531536
 31
0.0
 11
161.0886570664
 21
126.5158658569
 31
0.0
 11
161.2142959582
 21
126.1566586098
 31
0.0
 11
161.2937779157
 21
125.778362731
 31
0.0
 11
161.3257099623
 21
125.3886028454
 31
0.0
 11
161.3087418462
 21
125.0024565576
 31
0.0
 11
161.2430511966
 21
124.6290094387
 31
0.0
 11
161.1301819417
 21
124.2809438381
 31
0.0
  0
SPLINE
  5
500
330
1B
100
AcDbEntity
  8
0
  6
Continuous
100
AcDbSpline
210
0.0
220
0.0
230
1.0
 70
     8
 71
     3
 72
    13
 73
     9
 74
     7
 42
0.0000000001
 43
0.0000000001
 44
0.0000000001
 40
0.0
 40
0.0
 40
0.0
 40
0.0
 40
0.087073065375492
 40
0.3778491907701526
 40
0.6682989832629275
 40
0.9586532952061104
 40
1.249148820962532
 40
1.540096868172295
 40
1.540096868172295
 40
1.540096868172295
 40
1.540096868172295
 10
137.0039884491
 20
121.7210464058
 30
0.0
 10
136.974964554556
 20
121.7214559441147
 30
0.0
 10
136.8490168229683
 20
121.7232331150473
 30
0.0
 10
136.6269555009241
 20
121.7512966521286
 30
0.0
 10
136.3461414183207
 20
121.8300283539362
 30
0.0
 10
136.0814191630236
 20
121.9517745375297
 30
0.0
 10
135.8359443580987
 20
122.1104604505657
 30
0.0
 10
135.6961070851937
 20
122.2452041674857
 30
0.0
 10
135.626134033
 20
122.3126284596
 30
0.0
 11
137.0039884491
 21
121.7210464058
 31
0.0
 11
136.9169378269
 21
121.7230232438
 31
0.0
 11
136.6283146838
 21
121.758342309
 31
0.0
 11
136.3487781497
 21
121.8372118726
 31
0.0
 11
136.084691695
 21
121.9578931508
 31
0.0
 11
135.8420328808
 21
122.117593966
 31
0.0
 11
135.626134033
 21
122.3126284596
 31
0.0
  0
SPLINE
  5
501
330
1B
100
AcDbEntity
  8
0
  6
Continuous
100
AcDbSpline
210
0.0
220
0.0
230
1.0
 70
     8
 71
     3
 72
     9
 73
     5
 74
     3
 42
0.0000000001
 43
0.0000000001
 44
0.0000000001
 40
0.0
 40
0.0
 40
0.0
 40
0.0
 40
0.0181113218277032
 40
0.0708620749171654
 40
0.0708620749171654
 40
0.0708620749171654
 40
0.0708620749171654
 10
136.0726636339
 20
123.5348248169
 30
0.0
 10
136.078701541144
 20
123.5348598887649
 30
0.0
 10
136.1023253627258
 20
123.534997110396
 30
0.0
 10
136.1258937126019
 20
123.5367466009429
 30
0.0
 10
136.143438333
 20
123.538048947
 30
0.0
 11
136.0726636339
 21
123.5348248169
 31
0.0
 11
136.090773732
 21
123.5350353523
 31
0.0
 11
136.143438333
 21
123.538048947
 31
0.0
  0
SPLINE
  5
502
330
1B
100
AcDbEntity
  8
0
  6
Continuous
100
AcDbSpline
210
0.0
220
0.0
230
1.0
 70
     8
 71
     3
 72
    23
 73
    19
 74
    17
 42
0.0000000001
 43
0.0000000001
 44
0.0000000001
 40
0.0
 40
0.0
 40
0.0
 40
0.0
 40
0.1055836791957706
 40
0.2658821197578435
 40
0.4305259861504374
 40
0.5980368400599473
 40
0.7680940125202282
 40
0.9470281320493468
 40
1.130334112429873
 40
1.308748268254912
 40
1.478141455975326
 40
1.645152980673638
 40
1.80926871164689
 40
1.969159586954398
 40
2.127193106769566
 40
2.285907461246477
 40
2.445079228284215
 40
2.468642229571504
 40
2.468642229571504
 40
2.468642229571504
 40
2.468642229571504
 10
136.143438333
 20
123.538048947
 30
0.0
 10
136.1783788714978
 20
123.5426520960844
 30
0.0
 10
136.266366565354
 20
123.5542438027331
 30
0.0
 10
136.4031294642122
 20
123.6019925272982
 30
0.0
 10
136.5457839294616
 20
123.6851034230285
 30
0.0
 10
136.670993608368
 20
123.7980755369329
 30
0.0
 10
136.7735813888724
 20
123.9377970773725
 30
0.0
 10
136.8471970717168
 20
124.1007370878799
 30
0.0
 10
136.8847956594269
 20
124.2784659738072
 30
0.0
 10
136.88344211866
 20
124.4568570514875
 30
0.0
 10
136.8462533630857
 20
124.625613008647
 30
0.0
 10
136.7774892680936
 20
124.7789066697095
 30
0.0
 10
136.6809177636146
 20
124.9124669963888
 30
0.0
 10
136.5616712789768
 20
125.0217681738427
 30
0.0
 10
136.4244931466411
 20
125.1040948380428
 30
0.0
 10
136.2738052279356
 20
125.156854900795
 30
0.0
 10
136.1600742202533
 20
125.1723922117429
 30
0.0
 10
136.0991676869866
 20
125.1729699477834
 30
0.0
 10
136.0913140052
 20
125.1730444448
 30
0.0
 11
136.143438333
 21
123.538048947
 31
0.0
 11
136.2477038663
 21
123.5546805999
 31
0.0
 11
136.3995362223
 21
123.6060861027
 31
0.0
 11
136.5416591859
 21
123.6892044879
 31
0.0
 11
136.6661447166
 21
123.8012903426
 31
0.0
 11
136.7668196023
 21
123.9383451101
 31
0.0
 11
136.8405153568
 21
124.1013983373
 31
0.0
 11
136.8784391146
 21
124.2807384361
 31
0.0
 11
136.8770412185
 21
124.4591471155
 31
0.0
 11
136.8405243898
 21
124.6245574334
 31
0.0
 11
136.7720970017
 21
124.7769074972
 31
0.0
 11
136.6758720287
 21
124.9098538312
 31
0.0
 11
136.5579611824
 21
125.0178451472
 31
0.0
 11
136.4224166016
 21
125.0990994394
 31
0.0
 11
136.2726458266
 21
125.1516252547
 31
0.0
 11
136.114874375
 21
125.172692302
 31
0.0
 11
136.0913140052
 21
125.1730444448
 31
0.0
  0
SPLINE
  5
503
330
1B
100
AcDbEntity
  8
0
  6
Continuous
100
AcDbSpline
210
0.0
220
0.0
230
1.0
 70
     8
 71
     3
 72
    29
 73
    25
 74
    23
 42
0.0000000001
 43
0.0000000001
 44
0.0000000001
 40
0.0
 40
0.0
 40
0.0
 40
0.0
 40
0.2608388794328966
 40
0.8810567922954788
 40
1.500786950559376
 40
2.120552229316385
 40
2.740889667973528
 40
3.362305917682099
 40
3.985268487903031
 40
4.610223044095259
 40
5.237360757119872
 40
5.865830336272553
 40
6.494695600968327
 40
7.123667245593588
 40
7.75267375948844
 40
8.381192185663943
 40
9.008329667257419
 40
9.633004174202492
 40
10.25428731906538
 40
10.87175110572879
 40
11.48571495215208
 40
12.09728586198818
 40
12.70819052859777
 40
13.14504698141948
 40
13.14504698141948
 40
13.14504698141948
 40
13.14504698141948
 10
137.093272742
 20
129.1328117622
 30
0.0
 10
137.006322747151
 20
129.131119168191
 30
0.0
 10
136.7126246461685
 20
129.1254019551303
 30
0.0
 10
136.2151336903011
 20
129.0527347814623
 30
0.0
 10
135.6193166719041
 20
128.8741707437958
 30
0.0
 10
135.0575022073958
 20
128.6062080397655
 30
0.0
 10
134.5420192855248
 20
128.2566746271472
 30
0.0
 10
134.0836384099484
 20
127.8334637475696
 30
0.0
 10
133.6915133503832
 20
127.3463444575425
 30
0.0
 10
133.3731516435146
 20
126.8059575722155
 30
0.0
 10
133.1346558629838
 20
126.2239418565757
 30
0.0
 10
132.9806590523146
 20
125.6127854654725
 30
0.0
 10
132.9141882629062
 20
124.9854365880645
 30
0.0
 10
132.9367774778147
 20
124.3547834192898
 30
0.0
 10
133.0486776989351
 20
123.7337943189873
 30
0.0
 10
133.2486672669491
 20
123.1359058342386
 30
0.0
 10
133.5335277553074
 20
122.5750082642735
 30
0.0
 10
133.8975932021472
 20
122.0648472132031
 30
0.0
 10
134.332631509148
 20
121.6180674932407
 30
0.0
 10
134.8281916575152
 20
121.2455203858339
 30
0.0
 10
135.372361020149
 20
120.9548447443583
 30
0.0
 10
135.9525328946169
 20
120.753411655039
 30
0.0
 10
136.4986165202317
 20
120.6484343678958
 30
0.0
 10
136.8480047566166
 20
120.6374185395806
 30
0.0
 10
136.9936796655
 20
120.6328255693
 30
0.0
 11
137.093272742
 21
129.1328117622
 31
0.0
 11
136.8325664518
 21
129.1244960377
 31
0.0
 11
136.218417314
 21
129.03794492
 31
0.0
 11
135.6249992781
 21
128.8592818188
 31
0.0
 11
135.0654689356
 21
128.5927582803
 31
0.0
 11
134.5519550188
 21
128.2447324263
 31
0.0
 11
134.0952058513
 21
127.823379423
 31
0.0
 11
133.7043641546
 21
127.3382762051
 31
0.0
 11
133.3869249275
 21
126.7999449554
 31
0.0
 11
133.1489525945
 21
126.2197114853
 31
0.0
 11
132.9952924842
 21
125.6103162257
 31
0.0
 11
132.9290352952
 21
124.9849511275
 31
0.0
 11
132.9516658085
 21
124.3563867397
 31
0.0
 11
133.0634304383
 21
123.7373892744
 31
0.0
 11
133.2630907751
 21
123.1414268914
 31
0.0
 11
133.5473702722
 21
122.5824218929
 31
0.0
 11
133.9104968707
 21
122.0741332809
 31
0.0
 11
134.3441226433
 21
121.6292047075
 31
0.0
 11
134.8377301968
 21
121.2582422957
 31
0.0
 11
135.3794219179
 21
120.9692411123
 31
0.0
 11
135.9567747
 21
120.7675414773
 31
0.0
 11
136.557449682
 21
120.6562127852
 31
0.0
 11
136.9936796655
 21
120.6328255693
 31
0.0
  0
SPLINE
  5
504
330
1B
100
AcDbEntity
  8
0
  6
Continuous
100
AcDbSpline
210
0.0
220
0.0
230
1.0
 70
     8
 71
     3
 72
     9
 73
     5
 74
     3
 42
0.0000000001
 43
0.0000000001
 44
0.0000000001
 40
0.0
 40
0.0
 40
0.0
 40
0.0
 40
0.0156283965545449
 40
0.0348309014721697
 40
0.0348309014721697
 40
0.0348309014721697
 40
0.0348309014721697
 10
137.0883168336
 20
128.7828176189
 30
0.0
 10
137.0935263118051
 20
128.7828122409743
 30
0.0
 10
137.1051366405709
 20
128.7828002552277
 30
0.0
 10
137.1167466131225
 20
128.7827073075601
 30
0.0
 10
137.1231472673
 20
128.7826560649
 30
0.0
 11
137.0883168336
 21
128.7828176189
 31
0.0
 11
137.1039451965
 21
128.7827851854
 31
0.0
 11
137.1231472673
 21
128.7826560649
 31
0.0
  0
SPLINE
  5
505
330
1B
100
AcDbEntity
  8
0
  6
Continuous
100
AcDbSpline
210
0.0
220
0.0
230
1.0
 70
     8
 71
     3
 72
    26
 73
    22
 74
    20
 42
0.0000000001
 43
0.0000000001
 44
0.0000000001
 40
0.0
 40
0.0
 40
0.0
 40
0.0
 40
0.5683505301192787
 40
1.15689461012579
 40
1.746470315842319
 40
2.336929064329149
 40
2.928114192462112
 40
3.520011511579561
 40
4.112884315842258
 40
4.707185629338777
 40
5.302774726529027
 40
5.899468370932628
 40
6.49789409655523
 40
7.098588697948905
 40
7.701476606791299
 40
8.305749158637164
 40
8.909923612210529
 40
9.512157579755099
 40
10.11071031645637
 40
10.70438278119575
 40
11.25921566461011
 40
11.25921566461011
 40
11.25921566461011
 40
11.25921566461011
 10
137.1231472673
 20
128.7826560649
 30
0.0
 10
137.3126871054963
 20
128.7725660034535
 30
0.0
 10
137.6985011508659
 20
128.752027379691
 30
0.0
 10
138.2664498503579
 20
128.6089433534216
 30
0.0
 10
138.8131556978207
 20
128.3835209275068
 30
0.0
 10
139.3192707681398
 20
128.0746245512274
 30
0.0
 10
139.7727832630727
 20
127.6918690634975
 30
0.0
 10
140.1629566203266
 20
127.2435405200537
 30
0.0
 10
140.4804942160981
 20
126.7399311119027
 30
0.0
 10
140.7175271580776
 20
126.1924226072015
 30
0.0
 10
140.8679091186004
 20
125.6137445250738
 30
0.0
 10
140.9276601853897
 20
125.0174553391399
 30
0.0
 10
140.895062540536
 20
124.4173672405125
 30
0.0
 10
140.7705505029144
 20
123.8273291138224
 30
0.0
 10
140.5568246354096
 20
123.2613789943034
 30
0.0
 10
140.2591147418016
 20
122.7334007852798
 30
0.0
 10
139.8851912378632
 20
122.2567634984337
 30
0.0
 10
139.4453197741
 20
121.8426635669828
 30
0.0
 10
138.9508383752187
 20
121.5029638186915
 30
0.0
 10
138.4264422610272
 20
121.2421407907654
 30
0.0
 10
138.0574877106565
 20
121.1376005825729
 30
0.0
 10
137.879248996
 20
121.0870981228
 30
0.0
 11
137.1231472673
 21
128.7826560649
 31
0.0
 11
137.6894512339
 21
128.7344674511
 31
0.0
 11
138.2613876711
 21
128.5956407753
 31
0.0
 11
138.8059964016
 21
128.3698071121
 31
0.0
 11
139.3102018368
 21
128.0625313194
 31
0.0
 11
139.7619625548
 21
127.6812019219
 31
0.0
 11
140.1505555003
 21
127.2347291242
 31
0.0
 11
140.4667596744
 21
126.7332183244
 31
0.0
 11
140.7028750496
 21
126.1878344405
 31
0.0
 11
140.8527005247
 21
125.6113982344
 31
0.0
 11
140.9122540494
 21
125.0176839235
 31
0.0
 11
140.8798893928
 21
124.4201340276
 31
0.0
 11
140.7559745517
 21
123.832359312
 31
0.0
 11
140.5430960502
 21
123.268305614
 31
0.0
 11
140.2463623923
 21
122.7419079951
 31
0.0
 11
139.873537369
 21
122.2664836874
 31
0.0
 11
139.434800023
 21
121.8539363654
 31
0.0
 11
138.9421014148
 21
121.5140636538
 31
0.0
 11
138.4083128065
 21
121.2542238627
 31
0.0
 11
137.879248996
 21
121.0870981228
 31
0.0
  0
SPLINE
  5
506
330
1B
100
AcDbEntity
  8
0
  6
Continuous
100
AcDbSpline
210
0.0
220
0.0
230
1.0
 70
    24
 71
     3
 72
     8
 73
     4
 74
     2
 42
0.0000000001
 43
0.0000000001
 44
0.0000000001
 40
0.0
 40
0.0
 40
0.0
 40
0.0
 40
0.0336907496958731
 40
0.0336907496958731
 40
0.0336907496958731
 40
0.0336907496958731
 10
137.879248996
 20
121.0870981228
 30
0.0
 10
137.8683141859333
 20
121.0845391305
 30
0.0
 10
137.8573793758666
 20
121.0819801382
 30
0.0
 10
137.8464445658
 20
121.0794211459
 30
0.0
 11
137.879248996
 21
121.0870981228
 31
0.0
 11
137.8464445658
 21
121.0794211459
 31
0.0
  0
SPLINE
  5
507
330
1B
100
AcDbEntity
  8
0
  6
Continuous
100
AcDbSpline
210
0.0
220
0.0
230
1.0
 70
     8
 71
     3
 72
    15
 73
    11
 74
     9
 42
0.0000000001
 43
0.0000000001
 44
0.0000000001
 40
0.0
 40
0.0
 40
0.0
 40
0.0
 40
0.2738178236254822
 40
0.5377899036776755
 40
0.7813173958460636
 40
0.9946843659246407
 40
1.169554202190985
 40
1.299238672338877
 40
1.378944810156025
 40
1.40582490107411
 40
1.40582490107411
 40
1.40582490107411
 40
1.40582490107411
 10
115.1132483082
 20
124.7210463259
 30
0.0
 10
115.1069004169564
 20
124.6299941018598
 30
0.0
 10
115.0944328873587
 20
124.451163643901
 30
0.0
 10
115.0733804416589
 20
124.1915716628979
 30
0.0
 10
115.0521140324286
 20
123.9522238568997
 30
0.0
 10
115.0318737046204
 20
123.7426087831206
 30
0.0
 10
115.0142033154401
 20
123.5708741529285
 30
0.0
 10
115.0004585044675
 20
123.4435265690902
 30
0.0
 10
114.9917496453371
 20
123.3652525594492
 30
0.0
 10
114.9877518525778
 20
123.3299494527715
 30
0.0
 10
114.9867436451
 20
123.3210463259
 30
0.0
 11
115.1132483082
 21
124.7210463259
 31
0.0
 11
115.0936801668
 21
124.447928607
 31
0.0
 11
115.072478569
 21
124.184809335
 31
0.0
 11
115.0508950056
 21
123.9422401918
 31
0.0
 11
115.0303964223
 21
123.7298601739
 31
0.0
 11
115.0124958515
 21
123.5559089474
 31
0.0
 11
114.9985832439
 21
123.4269729123
 31
0.0
 11
114.9897638753
 21
123.3477562023
 31
0.0
 11
114.9867436451
 21
123.3210463259
 31
0.0
  0
SPLINE
  5
508
330
1B
100
AcDbEntity
  8
0
  6
Continuous
100
AcDbSpline
210
0.0
220
0.0
230
1.0
 70
     8
 71
     3
 72
    15
 73
    11
 74
     9
 42
0.0000000001
 43
0.0000000001
 44
0.0000000001
 40
0.0
 40
0.0
 40
0.0
 40
0.0
 40
0.0001135781396462
 40
0.0233206160193823
 40
0.0824783242040412
 40
0.176521039642929
 40
0.3042180143884995
 40
0.4618984900584002
 40
0.6414575526235149
 40
0.834690748515017
 40
0.834690748515017
 40
0.834690748515017
 40
0.834690748515017
 10
130.0491033958
 20
180.5391084631
 30
0.0
 10
130.0491316330093
 20
180.5390830183817
 30
0.0
 10
130.0549294838835
 20
180.5338585402628
 30
0.0
 10
129.9996856292038
 20
180.53214858235
 30
0.0
 10
129.9664022482421
 20
180.5185600696262
 30
0.0
 10
129.8606273165658
 20
180.5065499654718
 30
0.0
 10
129.7409311557618
 20
180.4882526821976
 30
0.0
 10
129.5852429944483
 20
180.468286743003
 30
0.0
 10
129.4104751409784
 20
180.4459807729448
 30
0.0
 10
129.2870130383405
 20
180.4310776480977
 30
0.0
 10
129.2230176733
 20
180.4233527601
 30
0.0
 11
130.0491033958
 21
180.5391084631
 31
0.0
 11
130.0491875994
 21
180.5390322414
 31
0.0
 11
130.026911314
 21
180.5325258049
 31
0.0
 11
129.9686921113
 21
180.5220301451
 31
0.0
 11
129.8757367276
 21
180.5077707984
 31
0.0
 11
129.7492822722
 21
180.4900003716
 31
0.0
 11
129.5929675122
 21
180.4692922038
 31
0.0
 11
129.4148309677
 21
180.4467349774
 31
0.0
 11
129.2230176733
 21
180.4233527601
 31
0.0
  0
SPLINE
  5
509
330
1B
100
AcDbEntity
  8
0
  6
Continuous
100
AcDbSpline
210
0.0
220
0.0
230
1.0
 70
     8
 71
     3
 72
     9
 73
     5
 74
     3
 42
0.0000000001
 43
0.0000000001
 44
0.0000000001
 40
0.0
 40
0.0
 40
0.0
 40
0.0
 40
0.0197747074881477
 40
0.0742098632372863
 40
0.0742098632372863
 40
0.0742098632372863
 40
0.0742098632372863
 10
138.7255193035
 20
180.4639857361
 30
0.0
 10
138.7226607331747
 20
180.4578465843525
 30
0.0
 10
138.7119331857242
 20
180.4348077802715
 30
0.0
 10
138.6858371041082
 20
180.4281998642636
 30
0.0
 10
138.6666948472
 20
180.4233527601
 30
0.0
 11
138.7255193035
 21
180.4639857361
 31
0.0
 11
138.7158523298
 21
180.4467349774
 31
0.0
 11
138.6666948472
 21
180.4233527601
 31
0.0
  0
SPLINE
  5
50A
330
1B
100
AcDbEntity
  8
0
  6
Continuous
100
AcDbSpline
210
0.0
220
0.0
230
1.0
 70
     8
 71
     3
 72
    11
 73
     7
 74
     5
 42
0.0000000001
 43
0.0000000001
 44
0.0000000001
 40
0.0
 40
0.0
 40
0.0
 40
0.0
 40
0.0093050595030631
 40
0.0538602616341666
 40
0.1347105494898668
 40
0.2491851401340444
 40
0.2491851401340444
 40
0.2491851401340444
 40
0.2491851401340444
 10
134.663383555
 20
180.4991224418
 30
0.0
 10
134.6630770085718
 20
180.4959211803984
 30
0.0
 10
134.6613026329408
 20
180.4773913927502
 30
0.0
 10
134.6052007713063
 20
180.4667779559165
 30
0.0
 10
134.5369175248051
 20
180.4416381690058
 30
0.0
 10
134.4712007092011
 20
180.4301094362978
 30
0.0
 10
134.4326858737
 20
180.4233527601
 30
0.0
 11
134.663383555
 21
180.4991224418
 31
0.0
 11
134.6618473834
 21
180.4899450615
 31
0.0
 11
134.6224027993
 21
180.469225727
 31
0.0
 11
134.5447555642
 21
180.446694062
 31
0.0
 11
134.4326858737
 21
180.4233527601
 31
0.0
  0
SPLINE
  5
50B
330
1B
100
AcDbEntity
  8
0
  6
Continuous
100
AcDbSpline
210
0.0
220
0.0
230
1.0
 70
     8
 71
     3
 72
    13
 73
     9
 74
     7
 42
0.0000000001
 43
0.0000000001
 44
0.0000000001
 40
0.0
 40
0.0
 40
0.0
 40
0.0
 40
0.0024319684919783
 40
0.0350478042405118
 40
0.1045095675044961
 40
0.210644538012577
 40
0.3486064501781758
 40
0.5120702648427553
 40
0.5120702648427553
 40
0.5120702648427553
 40
0.5120702648427553
 10
131.6506210317
 20
180.5243345211
 30
0.0
 10
131.6509170913961
 20
180.5235516855003
 30
0.0
 10
131.65518369366
 20
180.5122700143191
 30
0.0
 10
131.5992894080506
 20
180.5059592289408
 30
0.0
 10
131.5492533811251
 20
180.4851276549622
 30
0.0
 10
131.4379340585344
 20
180.4674909197631
 30
0.0
 10
131.3072504600818
 20
180.4446650031546
 30
0.0
 10
131.2071927304977
 20
180.4308465413917
 30
0.0
 10
131.1529312103
 20
180.4233527601
 30
0.0
 11
131.6506210317
 21
180.5243345211
 31
0.0
 11
131.6513984132
 21
180.5220301451
 31
0.0
 11
131.6220647504
 21
180.5077707984
 31
0.0
 11
131.5549145569
 21
180.4900003716
 31
0.0
 11
131.4508193901
 21
180.4692922038
 31
0.0
 11
131.3147140605
 21
180.4467349774
 31
0.0
 11
131.1529312103
 21
180.4233527601
 31
0.0
  0
SPLINE
  5
50C
330
1B
100
AcDbEntity
  8
0
  6
Continuous
100
AcDbSpline
210
0.0
220
0.0
230
1.0
 70
     8
 71
     3
 72
    16
 73
    12
 74
    10
 42
0.0000000001
 43
0.0000000001
 44
0.0000000001
 40
0.0
 40
0.0
 40
0.0
 40
0.0
 40
7.190643102317612
 40
13.6032797396221
 40
19.43223685543163
 40
24.87241873831807
 40
30.11706241971923
 40
35.3344145063512
 40
40.55960189985859
 40
45.78516582420708
 40
51.0034737307535
 40
51.0034737307535
 40
51.0034737307535
 40
51.0034737307535
 10
124.2808442545
 20
180.2210463259
 30
0.0
 10
123.6946935756021
 20
177.8968211859517
 30
0.0
 10
122.5858119997596
 20
173.4998452400326
 30
0.0
 10
121.1846263675589
 20
167.1749997216651
 30
0.0
 10
120.0176870789073
 20
161.397484512114
 30
0.0
 10
119.0311268150464
 20
155.9816794361491
 30
0.0
 10
118.1732878461268
 20
150.7505764031844
 30
0.0
 10
117.4163987395426
 20
145.5762942426996
 30
0.0
 10
116.7517297863196
 20
140.3958575991521
 30
0.0
 10
116.170425607398
 20
135.2048875891177
 30
0.0
 10
115.8590150159931
 20
131.7374660816197
 30
0.0
 10
115.7034178986
 20
130.0049598463
 30
0.0
 11
124.2808442545
 21
180.2210463259
 31
0.0
 11
122.5581572566
 21
173.2398073433
 31
0.0
 11
121.1630625013
 21
166.9807643441
 31
0.0
 11
120.0108884638
 21
161.2668133428
 31
0.0
 11
119.035501649
 21
155.9147857382
 31
0.0
 11
118.1867909563
 21
150.7392686138
 31
0.0
 11
117.43196639
 21
145.5768077016
 31
0.0
 11
116.7656519145
 21
140.3942785587
 31
0.0
 11
116.1891941209
 21
135.2006079165
 31
0.0
 11
115.7034178986
 21
130.0049598463
 31
0.0
  0
SPLINE
  5
50D
330
1B
100
AcDbEntity
  8
0
  6
Continuous
100
AcDbSpline
210
0.0
220
0.0
230
1.0
 70
     8
 71
     3
 72
    10
 73
     6
 74
     4
 42
0.0000000001
 43
0.0000000001
 44
0.0000000001
 40
0.0
 40
0.0
 40
0.0
 40
0.0
 40
0.1547527950803263
 40
0.2879209700803213
 40
0.3993979727264141
 40
0.3993979727264141
 40
0.3993979727264141
 40
0.3993979727264141
 10
116.3078477713
 20
130.0049598463
 30
0.0
 10
116.2562649433795
 20
130.0053383446394
 30
0.0
 10
116.1602939604537
 20
130.006042549103
 30
0.0
 10
116.0271587141559
 20
130.0061937927756
 30
0.0
 10
115.9456141974048
 20
130.0053461088305
 30
0.0
 10
115.9084569626
 20
130.0049598463
 30
0.0
 11
116.3078477713
 21
130.0049598463
 31
0.0
 11
116.153097976
 21
130.0059234021
 31
0.0
 11
116.019929801
 21
130.0059233908
 31
0.0
 11
115.9084569626
 21
130.0049598463
 31
0.0
  0
SPLINE
  5
50E
330
1B
100
AcDbEntity
  8
0
  6
Continuous
100
AcDbSpline
210
0.0
220
0.0
230
1.0
 70
     8
 71
     3
 72
    16
 73
    12
 74
    10
 42
0.0000000001
 43
0.0000000001
 44
0.0000000001
 40
0.0
 40
0.0
 40
0.0
 40
0.0
 40
7.184418042745998
 40
13.59247709649586
 40
19.41799955237542
 40
24.85554415618378
 40
30.09811674467847
 40
35.3138221069436
 40
40.5377282903947
 40
45.76233336142026
 40
50.97995942926794
 40
50.97995942926794
 40
50.97995942926794
 40
50.97995942926794
 10
124.7549637474
 20
180.2210463259
 30
0.0
 10
124.1777000476796
 20
177.8967393371021
 30
0.0
 10
123.0855526294193
 20
173.4992934587461
 30
0.0
 10
121.7057103618212
 20
167.1746369233283
 30
0.0
 10
120.5565181586701
 20
161.3971925658577
 30
0.0
 10
119.5849613613791
 20
155.9814432644228
 30
0.0
 10
118.740163547489
 20
150.7503714333535
 30
0.0
 10
117.9947800568428
 20
145.5761113186423
 30
0.0
 10
117.3402146618288
 20
140.3957002054229
 30
0.0
 10
116.7677464226855
 20
135.2047400709419
 30
0.0
 10
116.4610790019786
 20
131.7374474730407
 30
0.0
 10
116.3078477713
 20
130.0049598463
 30
0.0
 11
124.7549637474
 21
180.2210463259
 31
0.0
 11
123.0584482359
 21
173.2398073433
 31
0.0
 11
121.6845481047
 21
166.9807643441
 31
0.0
 11
120.5498781797
 21
161.2668133428
 31
0.0
 11
119.5893096824
 21
155.9147857382
 31
0.0
 11
118.7534928121
 21
150.7392686138
 31
0.0
 11
118.010135727
 21
145.5768077016
 31
0.0
 11
117.3539440656
 21
140.3942785587
 31
0.0
 11
116.7862439612
 21
135.2006079165
 31
0.0
 11
116.3078477713
 21
130.0049598463
 31
0.0
  0
SPLINE
  5
50F
330
1B
100
AcDbEntity
  8
0
  6
Continuous
100
AcDbSpline
210
0.0
220
0.0
230
1.0
 70
     8
 71
     3
 72
    10
 73
     6
 74
     4
 42
0.0000000001
 43
0.0000000001
 44
0.0000000001
 40
0.0
 40
0.0
 40
0.0
 40
0.0
 40
0.2827950832456666
 40
0.5451308066456674
 40
0.7866498930001449
 40
0.7866498930001449
 40
0.7866498930001449
 40
0.7866498930001449
 10
117.7033812847
 20
130.0049598463
 30
0.0
 10
117.6091170095002
 20
130.005342790065
 30
0.0
 10
117.4274081912713
 20
130.0060809727843
 30
0.0
 10
117.1651903489398
 20
130.0061524160558
 30
0.0
 10
116.997240483913
 20
130.0053462676107
 30
0.0
 10
116.916734955
 20
130.0049598463
 30
0.0
 11
117.7033812847
 21
130.0049598463
 31
0.0
 11
117.4205878428
 21
130.0059233432
 31
0.0
 11
117.1582521194
 21
130.0059233678
 31
0.0
 11
116.916734955
 21
130.0049598463
 31
0.0
  0
SPLINE
  5
510
330
1B
100
AcDbEntity
  8
0
  6
Continuous
100
AcDbSpline
210
0.0
220
0.0
230
1.0
 70
     8
 71
     3
 72
    16
 73
    12
 74
    10
 42
0.0000000001
 43
0.0000000001
 44
0.0000000001
 40
0.0
 40
0.0
 40
0.0
 40
0.0
 40
7.166463497633724
 40
13.56132362392158
 40
19.37694504133639
 40
24.80688874874002
 40
30.04349328795627
 40
35.25445418995864
 40
40.47466951984032
 40
45.69651269940246
 40
50.91217499314118
 40
50.91217499314118
 40
50.91217499314118
 40
50.91217499314118
 10
125.7635255366
 20
180.2210463259
 30
0.0
 10
125.2126572710242
 20
177.8965022604511
 30
0.0
 10
124.1702319763041
 20
173.4976946254123
 30
0.0
 10
122.8537575150691
 20
167.1735871742398
 30
0.0
 10
121.7572626720032
 20
161.3963484107925
 30
0.0
 10
120.8302565480445
 20
155.9807609416195
 30
0.0
 10
120.0241837628902
 20
150.7497796235118
 30
0.0
 10
119.3129658054915
 20
145.5755834807248
 30
0.0
 10
118.6884026135597
 20
140.3952462514966
 30
0.0
 10
118.1421725196585
 20
135.2043148253571
 30
0.0
 10
117.8495872752737
 20
131.7373938251354
 30
0.0
 10
117.7033812847
 20
130.0049598463
 30
0.0
 11
125.7635255366
 21
180.2210463259
 31
0.0
 11
124.1447292768
 21
173.2398073433
 31
0.0
 11
122.8337690299
 21
166.9807643441
 31
0.0
 11
121.751079589
 21
161.2668133428
 31
0.0
 11
120.8345157968
 21
155.9147857382
 31
0.0
 11
120.0369886216
 21
150.7392686138
 31
0.0
 11
119.3276855466
 21
145.5768077016
 31
0.0
 11
118.7015547509
 21
140.3942785587
 31
0.0
 11
118.1598616161
 21
135.2006079165
 31
0.0
 11
117.7033812847
 21
130.0049598463
 31
0.0
  0
SPLINE
  5
511
330
1B
100
AcDbEntity
  8
0
  6
Continuous
100
AcDbSpline
210
0.0
220
0.0
230
1.0
 70
     8
 71
     3
 72
    10
 73
     6
 74
     4
 42
0.0000000001
 43
0.0000000001
 44
0.0000000001
 40
0.0
 40
0.0
 40
0.0
 40
0.0
 40
0.4023113603837904
 40
0.7857543488837983
 40
1.150002428316905
 40
1.150002428316905
 40
1.150002428316905
 40
1.150002428316905
 10
119.8476158593
 20
130.0049598463
 30
0.0
 10
119.7135125950269
 20
130.0053439041574
 30
0.0
 10
119.4515954992693
 20
130.0060940075883
 30
0.0
 10
119.0682605405738
 20
130.0061387957363
 30
0.0
 10
118.819031328506
 20
130.0053460455528
 30
0.0
 10
118.6976158593
 20
130.0049598463
 30
0.0
 11
119.8476158593
 21
130.0049598463
 31
0.0
 11
119.4453056528
 21
130.0059234021
 31
0.0
 11
119.0618626643
 21
130.0059233908
 31
0.0
 11
118.6976158593
 21
130.0049598463
 31
0.0
  0
SPLINE
  5
512
330
1B
100
AcDbEntity
  8
0
  6
Continuous
100
AcDbSpline
210
0.0
220
0.0
230
1.0
 70
     8
 71
     3
 72
    16
 73
    12
 74
    10
 42
0.0000000001
 43
0.0000000001
 44
0.0000000001
 40
0.0
 40
0.0
 40
0.0
 40
0.0
 40
7.138867949582316
 40
13.51345313593686
 40
19.31387250048825
 40
24.73215027660941
 40
29.95959801761754
 40
35.16328159413521
 40
40.3778371410838
 40
45.59544602163769
 40
50.80809820386998
 40
50.80809820386998
 40
50.80809820386998
 40
50.80809820386998
 10
127.2758849825
 20
180.2210463259
 30
0.0
 10
126.7681311495185
 20
177.8961349490834
 30
0.0
 10
125.8069832931573
 20
173.4952157616574
 30
0.0
 10
124.5939371749191
 20
167.1719639925959
 30
0.0
 10
123.5834758191043
 20
161.3950448360962
 30
0.0
 10
122.729203212849
 20
155.9797089118011
 30
0.0
 10
121.9863566219737
 20
150.7488682184433
 30
0.0
 10
121.3309212436977
 20
145.5747715203594
 30
0.0
 10
120.7553432131962
 20
140.3945485672205
 30
0.0
 10
120.2519529345962
 20
135.2036619145729
 30
0.0
 10
119.982352177586
 20
131.7373114394144
 30
0.0
 10
119.8476158593
 20
130.0049598463
 30
0.0
 11
127.2758849825
 21
180.2210463259
 31
0.0
 11
125.7839942796
 21
173.2398073433
 31
0.0
 11
124.5758067808
 21
166.9807643441
 31
0.0
 11
123.5779947948
 21
161.2668133428
 31
0.0
 11
122.7332850347
 21
155.9147857382
 31
0.0
 11
121.9982800143
 21
150.7392686138
 31
0.0
 11
121.3445827644
 21
145.5768077016
 31
0.0
 11
120.7675375017
 21
140.3942785587
 31
0.0
 11
120.2683104083
 21
135.2006079165
 31
0.0
 11
119.8476158593
 21
130.0049598463
 31
0.0
  0
SPLINE
  5
513
330
1B
100
AcDbEntity
  8
0
  6
Continuous
100
AcDbSpline
210
0.0
220
0.0
230
1.0
 70
     8
 71
     3
 72
    10
 73
     6
 74
     4
 42
0.0000000001
 43
0.0000000001
 44
0.0000000001
 40
0.0
 40
0.0
 40
0.0
 40
0.0
 40
0.5095705568029969
 40
1.002515451003005
 40
1.478413388742148
 40
1.478413388742148
 40
1.478413388742148
 40
1.478413388742148
 10
122.6754000125
 20
130.0049598463
 30
0.0
 10
122.5055435702363
 20
130.0053443882859
 30
0.0
 10
122.1713725598662
 20
130.0061009258786
 30
0.0
 10
121.6785674656143
 20
130.0061316884426
 30
0.0
 10
121.3556207275156
 20
130.005345851368
 30
0.0
 10
121.1969885102
 20
130.0049598463
 30
0.0
 11
122.6754000125
 21
130.0049598463
 31
0.0
 11
122.1658303667
 21
130.0059234021
 31
0.0
 11
121.6728854725
 21
130.0059233908
 31
0.0
 11
121.1969885102
 21
130.0049598463
 31
0.0
  0
SPLINE
  5
514
330
1B
100
AcDbEntity
  8
0
  6
Continuous
100
AcDbSpline
210
0.0
220
0.0
230
1.0
 70
     8
 71
     3
 72
    16
 73
    12
 74
    10
 42
0.0000000001
 43
0.0000000001
 44
0.0000000001
 40
0.0
 40
0.0
 40
0.0
 40
0.0
 40
7.104870620117988
 40
13.45449649536612
 40
19.23621319239414
 40
24.64014619092129
 40
29.85633950314534
 40
35.05108219521267
 40
40.25868658977232
 40
45.4710966359705
 40
50.68005399421542
 40
50.68005399421542
 40
50.68005399421542
 40
50.68005399421542
 10
129.2460898087
 20
180.2210463259
 30
0.0
 10
128.7968770856643
 20
177.8956774850412
 30
0.0
 10
127.946202762244
 20
173.4921255285596
 30
0.0
 10
126.8734479561475
 20
167.1699478979292
 30
0.0
 10
125.9797237944971
 20
161.3934285814515
 30
0.0
 10
125.2241424395175
 20
155.9784072947065
 30
0.0
 10
124.5670935799964
 20
150.7477423773757
 30
0.0
 10
123.9873562158824
 20
145.5737700687203
 30
0.0
 10
123.4782522260885
 20
140.3936890978323
 30
0.0
 10
123.0329971795609
 20
135.2028586839887
 30
0.0
 10
122.7945727375029
 20
131.7372100592082
 30
0.0
 10
122.6754000125
 20
130.0049598463
 30
0.0
 11
129.2460898087
 21
180.2210463259
 31
0.0
 11
127.9264350067
 21
173.2398073433
 31
0.0
 11
126.8577304218
 21
166.9807643441
 31
0.0
 11
125.9751139029
 21
161.2668133428
 31
0.0
 11
125.2279242535
 21
155.9147857382
 31
0.0
 11
124.5777741435
 21
150.7392686138
 31
0.0
 11
123.9995449789
 21
145.5768077016
 31
0.0
 11
123.4891184776
 21
140.3942785587
 31
0.0
 11
123.0475261882
 21
135.2006079165
 31
0.0
 11
122.6754000125
 21
130.0049598463
 31
0.0
  0
SPLINE
  5
515
330
1B
100
AcDbEntity
  8
0
  6
Continuous
100
AcDbSpline
210
0.0
220
0.0
230
1.0
 70
     8
 71
     3
 72
    10
 73
     6
 74
     4
 42
0.0000000001
 43
0.0000000001
 44
0.0000000001
 40
0.0
 40
0.0
 40
0.0
 40
0.0
 40
0.6013468412674573
 40
1.188815759867453
 40
1.761903801181434
 40
1.761903801181434
 40
1.761903801181434
 40
1.761903801181434
 10
126.1008129538
 20
130.0049598463
 30
0.0
 10
125.9003643528023
 20
130.0053446726871
 30
0.0
 10
125.5040931170422
 20
130.0061054444121
 30
0.0
 10
124.9167913214917
 20
130.0061270843044
 30
0.0
 10
124.52993972463
 20
130.0053456981562
 30
0.0
 10
124.3389107346
 20
130.0049598463
 30
0.0
 11
126.1008129538
 21
130.0049598463
 31
0.0
 11
125.4994668845
 21
130.0059234021
 31
0.0
 11
124.9119979659
 21
130.0059233908
 31
0.0
 11
124.3389107346
 21
130.0049598463
 31
0.0
  0
SPLINE
  5
516
330
1B
100
AcDbEntity
  8
0
  6
Continuous
100
AcDbSpline
210
0.0
220
0.0
230
1.0
 70
     8
 71
     3
 72
    16
 73
    12
 74
    10
 42
0.0000000001
 43
0.0000000001
 44
0.0000000001
 40
0.0
 40
0.0
 40
0.0
 40
0.0
 40
7.068511825589093
 40
13.39146834547472
 40
19.15321540157171
 40
24.54184106557504
 40
29.74603093330741
 40
34.93124200221765
 40
40.13143892964327
 40
45.33831079068418
 40
50.54333331867628
 40
50.54333331867628
 40
50.54333331867628
 40
50.54333331867628
 10
131.6142763384
 20
180.2210463259
 30
0.0
 10
131.2372711656993
 20
177.8951821222647
 30
0.0
 10
130.5230256553466
 20
173.4887755649326
 30
0.0
 10
129.623103901555
 20
167.1677716127714
 30
0.0
 10
128.873254357847
 20
161.3916874462279
 30
0.0
 10
128.2393073990901
 20
155.9770085155309
 30
0.0
 10
127.6880119891824
 20
150.7465346930459
 30
0.0
 10
127.2015810872539
 20
145.5726977130809
 30
0.0
 10
126.774414382999
 20
140.392770044487
 30
0.0
 10
126.4008188765465
 20
135.2020010873227
 30
0.0
 10
126.2008030859576
 20
131.7371017845681
 30
0.0
 10
126.1008129538
 20
130.0049598463
 30
0.0
 11
131.6142763384
 21
180.2210463259
 31
0.0
 11
130.5069544808
 21
173.2398073433
 31
0.0
 11
129.6102048577
 21
166.9807643441
 31
0.0
 11
128.8696016622
 21
161.2668133428
 31
0.0
 11
128.242635103
 21
155.9147857382
 31
0.0
 11
127.6970943855
 21
150.7392686138
 31
0.0
 11
127.2119025068
 21
145.5768077016
 31
0.0
 11
126.7836038178
 21
140.3942785587
 31
0.0
 11
126.4130638906
 21
135.2006079165
 31
0.0
 11
126.1008129538
 21
130.0049598463
 31
0.0
  0
SPLINE
  5
517
330
1B
100
AcDbEntity
  8
0
  6
Continuous
100
AcDbSpline
210
0.0
220
0.0
230
1.0
 70
     8
 71
     3
 72
    10
 73
     6
 74
     4
 42
0.0000000001
 43
0.0000000001
 44
0.0000000001
 40
0.0
 40
0.0
 40
0.0
 40
0.0
 40
0.6748515846847643
 40
1.338994581884767
 40
1.991859827618565
 40
1.991859827618565
 40
1.991859827618565
 40
1.991859827618565
 10
130.0197752443
 20
130.0049598463
 30
0.0
 10
129.794825023608
 20
130.0053448681108
 30
0.0
 10
129.3484941065058
 20
130.0061088021819
 30
0.0
 10
128.6845403637345
 20
130.0061236822359
 30
0.0
 10
128.2455382499579
 20
130.0053455705806
 30
0.0
 10
128.0279168156
 20
130.0049598463
 30
0.0
 11
130.0197752443
 21
130.0049598463
 31
0.0
 11
129.3449243475
 21
130.0059234021
 31
0.0
 11
128.6807813503
 21
130.0059233908
 31
0.0
 11
128.0279168156
 21
130.0049598463
 31
0.0
  0
SPLINE
  5
518
330
1B
100
AcDbEntity
  8
0
  6
Continuous
100
AcDbSpline
210
0.0
220
0.0
230
1.0
 70
     8
 71
     3
 72
    16
 73
    12
 74
    10
 42
0.0000000001
 43
0.0000000001
 44
0.0000000001
 40
0.0
 40
0.0
 40
0.0
 40
0.0
 40
7.03417446154442
 40
13.33196705973554
 40
19.07488550757087
 40
24.44908724736643
 40
29.64197228026396
 40
34.81821055738212
 40
40.01143711339137
 40
45.21309940890814
 40
50.41442169309079
 40
50.41442169309079
 40
50.41442169309079
 40
50.41442169309079
 10
134.3084884223
 20
180.2210463259
 30
0.0
 10
134.015177692806
 20
177.8947084003331
 30
0.0
 10
133.4592618557367
 20
173.4855683138839
 30
0.0
 10
132.7594165876933
 20
167.1656970265974
 30
0.0
 10
132.1761923765269
 20
161.3900310700186
 30
0.0
 10
131.6831146768422
 20
155.9756811037748
 30
0.0
 10
131.2543082593818
 20
150.7453907232654
 30
0.0
 10
130.8759518397388
 20
145.5716837385517
 30
0.0
 10
130.5436915813189
 20
140.3919022295322
 30
0.0
 10
130.2530990244255
 20
135.2011925505871
 30
0.0
 10
130.0975481429992
 20
131.7369996731484
 30
0.0
 10
130.0197752443
 20
130.0049598463
 30
0.0
 11
134.3084884223
 21
180.2210463259
 31
0.0
 11
133.4471449233
 21
173.2398073433
 31
0.0
 11
132.7495975457
 21
166.9807643441
 31
0.0
 11
132.1735105269
 21
161.2668133428
 31
0.0
 11
131.6858171195
 21
155.9147857382
 31
0.0
 11
131.2614617732
 21
150.7392686138
 31
0.0
 11
130.88404949
 21
145.5768077016
 31
0.0
 11
130.5508922523
 21
140.3942785587
 31
0.0
 11
130.2626633555
 21
135.2006079165
 31
0.0
 11
130.0197752443
 21
130.0049598463
 31
0.0
  0
SPLINE
  5
519
330
1B
100
AcDbEntity
  8
0
  6
Continuous
100
AcDbSpline
210
0.0
220
0.0
230
1.0
 70
     8
 71
     3
 72
    10
 73
     6
 74
     4
 42
0.0000000001
 43
0.0000000001
 44
0.0000000001
 40
0.0
 40
0.0
 40
0.0
 40
0.0
 40
0.7277971096949407
 40
1.448558030294927
 40
2.161294316937649
 40
2.161294316937649
 40
2.161294316937649
 40
2.161294316937649
 10
134.313211198
 20
130.0049598463
 30
0.0
 10
134.0706124459378
 20
130.0053449945619
 30
0.0
 10
133.5877603354278
 20
130.0061115675533
 30
0.0
 10
132.8673284663306
 20
130.0061209325519
 30
0.0
 10
132.3894966439306
 20
130.0053454279741
 30
0.0
 10
132.1519181701
 20
130.0049598463
 30
0.0
 11
134.313211198
 21
130.0049598463
 31
0.0
 11
133.5854147261
 21
130.005923366
 31
0.0
 11
132.8646538055
 21
130.0059233442
 31
0.0
 11
132.1519181701
 21
130.0049598463
 31
0.0
  0
SPLINE
  5
51A
330
1B
100
AcDbEntity
  8
0
  6
Continuous
100
AcDbSpline
210
0.0
220
0.0
230
1.0
 70
     8
 71
     3
 72
    16
 73
    12
 74
    10
 42
0.0000000001
 43
0.0000000001
 44
0.0000000001
 40
0.0
 40
0.0
 40
0.0
 40
0.0
 40
7.006057871154804
 40
13.2832620157732
 40
19.01078544501871
 40
24.3731999882605
 40
29.5568509940463
 40
34.72576305982847
 40
39.91330038729678
 40
45.11071194259272
 40
50.30901581159657
 40
50.30901581159657
 40
50.30901581159657
 40
50.30901581159657
 10
137.2468637895
 20
180.2210463259
 30
0.0
 10
137.0461975541776
 20
177.8943161713964
 30
0.0
 10
136.6657407794085
 20
173.4829100924486
 30
0.0
 10
136.1871150626836
 20
167.1639842105253
 30
0.0
 10
135.7881975068215
 20
161.3886660138542
 30
0.0
 10
135.4509382917142
 20
155.9745895499348
 30
0.0
 10
135.1576317256915
 20
150.7444515412535
 30
0.0
 10
134.8988317891977
 20
145.5708525911462
 30
0.0
 10
134.6715616479712
 20
140.3911917587646
 30
0.0
 10
134.472792028744
 20
135.2005315102019
 30
0.0
 10
134.366407852068
 20
131.7369161671278
 30
0.0
 10
134.313211198
 20
130.0049598463
 30
0.0
 11
137.2468637895
 21
180.2210463259
 31
0.0
 11
136.6576701356
 21
173.2398073433
 31
0.0
 11
136.1805196275
 21
166.9807643441
 31
0.0
 11
135.786452898
 21
161.2668133428
 31
0.0
 11
135.4528509598
 21
155.9147857382
 31
0.0
 11
135.1625748071
 21
150.7392686138
 31
0.0
 11
134.9044096007
 21
145.5768077016
 31
0.0
 11
134.6765166283
 21
140.3942785587
 31
0.0
 11
134.4793564511
 21
135.2006079165
 31
0.0
 11
134.313211198
 21
130.0049598463
 31
0.0
  0
SPLINE
  5
51B
330
1B
100
AcDbEntity
  8
0
  6
Continuous
100
AcDbSpline
210
0.0
220
0.0
230
1.0
 70
     8
 71
     3
 72
    10
 73
     6
 74
     4
 42
0.0000000001
 43
0.0000000001
 44
0.0000000001
 40
0.0
 40
0.0
 40
0.0
 40
0.0
 40
0.7587357818336367
 40
1.513971434933652
 40
2.265059061782966
 40
2.265059061782966
 40
2.265059061782966
 40
2.265059061782966
 10
138.8506669358
 20
130.0049598463
 30
0.0
 10
138.5977552809243
 20
130.0053451422666
 30
0.0
 10
138.093098679494
 20
130.0061139567885
 30
0.0
 10
137.3380785820639
 20
130.0061184915161
 30
0.0
 10
136.8359713719871
 20
130.0053453516961
 30
0.0
 10
136.5856091039
 20
130.0049598463
 30
0.0
 11
138.8506669358
 21
130.0049598463
 31
0.0
 11
138.0919317658
 21
130.0059234021
 31
0.0
 11
137.3366961127
 21
130.0059233908
 31
0.0
 11
136.5856091039
 21
130.0049598463
 31
0.0
  0
SPLINE
  5
51C
330
1B
100
AcDbEntity
  8
0
  6
Continuous
100
AcDbSpline
210
0.0
220
0.0
230
1.0
 70
     8
 71
     3
 72
    16
 73
    12
 74
    10
 42
0.0000000001
 43
0.0000000001
 44
0.0000000001
 40
0.0
 40
0.0
 40
0.0
 40
0.0
 40
6.987645049944129
 40
13.2513745357662
 40
18.96882722200463
 40
24.32353422432356
 40
29.5011492645042
 40
34.66527387957503
 40
39.84909445910422
 40
45.04372966466774
 40
50.24006245741433
 40
50.24006245741433
 40
50.24006245741433
 40
50.24006245741433
 10
140.3401213916
 20
180.2210463259
 30
0.0
 10
140.2382304575384
 20
177.8940571735653
 30
0.0
 10
140.0450044251055
 20
173.4811534588154
 30
0.0
 10
139.8020323286382
 20
167.1628556179859
 30
0.0
 10
139.5995070816053
 20
161.3877677812225
 30
0.0
 10
139.4282847459291
 20
155.9738724659919
 30
0.0
 10
139.2793738874749
 20
150.7438353026146
 30
0.0
 10
139.1479814281447
 20
145.5703078795725
 30
0.0
 10
139.0325964440878
 20
140.3907265602524
 30
0.0
 10
138.9316809295202
 20
135.2000991154582
 30
0.0
 10
138.8776745414068
 20
131.7368615340317
 30
0.0
 10
138.8506669358
 20
130.0049598463
 30
0.0
 11
140.3401213916
 21
180.2210463259
 31
0.0
 11
140.0409799337
 21
173.2398073433
 31
0.0
 11
139.7987242718
 21
166.9807643441
 31
0.0
 11
139.5986513498
 21
161.2668133428
 31
0.0
 11
139.4292772069
 21
155.9147857382
 31
0.0
 11
139.2819001417
 21
150.7392686138
 31
0.0
 11
139.1508262313
 21
145.5768077016
 31
0.0
 11
139.0351219369
 21
140.3942785587
 31
0.0
 11
138.9350210916
 21
135.2006079165
 31
0.0
 11
138.8506669358
 21
130.0049598463
 31
0.0
  0
SPLINE
  5
51D
330
1B
100
AcDbEntity
  8
0
  6
Continuous
100
AcDbSpline
210
0.0
220
0.0
230
1.0
 70
     8
 71
     3
 72
    10
 73
     6
 74
     4
 42
0.0000000001
 43
0.0000000001
 44
0.0000000001
 40
0.0
 40
0.0
 40
0.0
 40
0.0
 40
0.766564256283724
 40
1.533450791683814
 40
2.300001211167412
 40
2.300001211167412
 40
2.300001211167412
 40
2.300001211167412
 10
143.4942741613
 20
130.0049598463
 30
0.0
 10
143.2387530116781
 20
130.0053452525186
 30
0.0
 10
142.7276032861752
 20
130.0061162269882
 30
0.0
 10
141.9609358118902
 20
130.0061162177089
 30
0.0
 10
141.4497906986565
 20
130.0053452471063
 30
0.0
 10
141.1942741613
 20
130.0049598463
 30
0.0
 11
143.4942741613
 21
130.0049598463
 31
0.0
 11
142.7277105106
 21
130.0059234008
 31
0.0
 11
141.9608239751999
 21
130.0059233921
 31
0.0
 11
141.1942741613
 21
130.0049598463
 31
0.0
  0
SPLINE
  5
51E
330
1B
100
AcDbEntity
  8
0
  6
Continuous
100
AcDbSpline
210
0.0
220
0.0
230
1.0
 70
     8
 71
     3
 72
    16
 73
    12
 74
    10
 42
0.0000000001
 43
0.0000000001
 44
0.0000000001
 40
0.0
 40
0.0
 40
0.0
 40
0.0
 40
5.208658604341112
 40
10.42282740134806
 40
15.62560184925971
 40
20.80046592958394
 40
25.97680217430802
 40
31.32128118341954
 40
37.02300276192149
 40
43.26891907581573
 40
50.24006249492506
 40
50.24006249492506
 40
50.24006249492506
 40
50.24006249492506
 10
145.8378813869
 20
130.0049598463
 30
0.0
 10
145.8108059771328
 20
131.7409695891903
 30
0.0
 10
145.7566265147682
 20
135.2148255839227
 30
0.0
 10
145.6553116133449
 20
140.4223863484982
 30
0.0
 10
145.5394353978872
 20
145.6183698384034
 30
0.0
 10
145.4076294112703
 20
150.8013613789654
 30
0.0
 10
145.2585351404167
 20
156.0311374356203
 30
0.0
 10
145.0874193538335
 20
161.4359522216572
 30
0.0
 10
144.8852578165175
 20
167.1964530196171
 30
0.0
 10
144.6428233776255
 20
173.4980770292462
 30
0.0
 10
144.4500843116674
 20
177.8995527875146
 30
0.0
 10
144.3484269311
 20
180.2210463259
 30
0.0
 11
145.8378813869
 21
130.0049598463
 31
0.0
 11
145.7533084117
 21
135.2129317998
 31
0.0
 11
145.6527636143
 21
140.4261311042
 31
0.0
 11
145.5365094163
 21
145.62760656
 31
0.0
 11
145.4049902458
 21
150.8007990905
 31
0.0
 11
145.2574608326
 21
155.9750325594
 31
0.0
 11
145.0882321342
 21
161.3168316502
 31
0.0
 11
144.888562871
 21
167.0150560354
 31
0.0
 11
144.6468980281
 21
173.2562953918
 31
0.0
 11
144.3484269311
 21
180.2210463259
 31
0.0
  0
SPLINE
  5
51F
330
1B
100
AcDbEntity
  8
0
  6
Continuous
100
AcDbSpline
210
0.0
220
0.0
230
1.0
 70
     8
 71
     3
 72
    10
 73
     6
 74
     4
 42
0.0000000001
 43
0.0000000001
 44
0.0000000001
 40
0.0
 40
0.0
 40
0.0
 40
0.0
 40
0.7511054018491866
 40
1.506341145049176
 40
2.265059061782892
 40
2.265059061782892
 40
2.265059061782892
 40
2.265059061782892
 10
148.1029392188
 20
130.0049598463
 30
0.0
 10
147.8525710257145
 20
130.0053453587153
 30
0.0
 10
147.3504578606011
 20
130.0061185034851
 30
0.0
 10
146.5954377631711
 20
130.0061139447976
 30
0.0
 10
146.0907870867441
 20
130.0053451352335
 30
0.0
 10
145.8378813869
 20
130.0049598463
 30
0.0
 11
148.1029392188
 21
130.0049598463
 31
0.0
 11
147.351834435
 21
130.0059234021
 31
0.0
 11
146.5965986918
 21
130.0059233908
 31
0.0
 11
145.8378813869
 21
130.0049598463
 31
0.0
  0
SPLINE
  5
520
330
1B
100
AcDbEntity
  8
0
  6
Continuous
100
AcDbSpline
210
0.0
220
0.0
230
1.0
 70
     8
 71
     3
 72
    16
 73
    12
 74
    10
 42
0.0000000001
 43
0.0000000001
 44
0.0000000001
 40
0.0
 40
0.0
 40
0.0
 40
0.0
 40
5.210635231265741
 40
10.42759456473053
 40
15.63410750126824
 40
20.81378160469968
 40
25.99616778581339
 40
31.34835581763858
 40
37.06013520377221
 40
43.31949876235377
 40
50.30901595538813
 40
50.30901595538813
 40
50.30901595538813
 40
50.30901595538813
 10
150.3753371247
 20
130.0049598463
 30
0.0
 10
150.3220069110091
 20
131.7410244927202
 30
0.0
 10
150.2152817572156
 20
135.2152608319687
 30
0.0
 10
150.0157254192803
 20
140.4228554526401
 30
0.0
 10
149.7874877095277
 20
145.6189183739269
 30
0.0
 10
149.5278733430692
 20
150.801979596801
 30
0.0
 10
149.2342056620366
 20
156.0318538473633
 30
0.0
 10
148.8971564881615
 20
161.4368471039541
 30
0.0
 10
148.4989554764337
 20
167.197576025644
 30
0.0
 10
148.0213890748055
 20
173.4998250496382
 30
0.0
 10
147.6418908375817
 20
177.8998106333763
 30
0.0
 10
147.4416845331
 20
180.2210463259
 30
0.0
 11
150.3753371247
 21
130.0049598463
 31
0.0
 11
150.2087608813
 21
135.2129317998
 31
0.0
 11
150.0107262893
 21
140.4261311042
 31
0.0
 11
149.7817502184
 21
145.62760656
 31
0.0
 11
149.5227080208
 21
150.8007990905
 31
0.0
 11
149.232131801
 21
155.9750325594
 31
0.0
 11
148.8988163325
 21
161.3168316502
 31
0.0
 11
148.5055446557
 21
167.0150560354
 31
0.0
 11
148.0295578338
 21
173.2562953918
 31
0.0
 11
147.4416845331
 21
180.2210463259
 31
0.0
  0
SPLINE
  5
521
330
1B
100
AcDbEntity
  8
0
  6
Continuous
100
AcDbSpline
210
0.0
220
0.0
230
1.0
 70
     8
 71
     3
 72
    10
 73
     6
 74
     4
 42
0.0000000001
 43
0.0000000001
 44
0.0000000001
 40
0.0
 40
0.0
 40
0.0
 40
0.0
 40
0.7127478833426764
 40
1.43350951284268
 40
2.16129431683767
 40
2.16129431683767
 40
2.16129431683767
 40
2.16129431683767
 10
152.5366301525
 20
130.0049598463
 30
0.0
 10
152.2990478131039
 20
130.0053454327997
 30
0.0
 10
151.821211888835
 20
130.0061209411223
 30
0.0
 10
151.1007800197708
 20
130.0061115592475
 30
0.0
 10
150.6179317748634
 20
130.0053449895021
 30
0.0
 10
150.3753371247
 20
130.0049598463
 30
0.0
 11
152.5366301525
 21
130.0049598463
 31
0.0
 11
151.8238829204
 21
130.005923352
 31
0.0
 11
151.1031212909
 21
130.0059233579
 31
0.0
 11
150.3753371247
 21
130.0049598463
 31
0.0
  0
SPLINE
  5
522
330
1B
100
AcDbEntity
  8
0
  6
Continuous
100
AcDbSpline
210
0.0
220
0.0
230
1.0
 70
     8
 71
     3
 72
    16
 73
    12
 74
    10
 42
0.0000000001
 43
0.0000000001
 44
0.0000000001
 40
0.0
 40
0.0
 40
0.0
 40
0.0
 40
5.213662145826657
 40
10.43489393627122
 40
15.64712936852481
 40
20.83416420306955
 40
26.02580574942702
 40
31.38978319890904
 40
37.11693777940611
 40
43.39684785941677
 40
50.41442199478927
 40
50.41442199478927
 40
50.41442199478927
 40
50.41442199478927
 10
154.6687730783
 20
130.0049598463
 30
0.0
 10
154.5908049031035
 20
131.741108411932
 30
0.0
 10
154.4347553517855
 20
135.2159262335051
 30
0.0
 10
154.1430125099682
 20
140.4235718843293
 30
0.0
 10
153.8093376907361
 20
145.6197553476248
 30
0.0
 10
153.4297907885268
 20
150.8029217819294
 30
0.0
 10
153.000456762182
 20
156.0329443606547
 30
0.0
 10
152.5076865238326
 20
161.4382070489943
 30
0.0
 10
151.925510219674
 20
167.1992803424676
 30
0.0
 10
151.2272143084036
 20
173.5024702234477
 30
0.0
 10
150.6726984328437
 20
177.9002011149707
 30
0.0
 10
150.3800599004
 20
180.2210463259
 30
0.0
 11
154.6687730783
 21
130.0049598463
 31
0.0
 11
154.4252549016
 21
135.2129317998
 31
0.0
 11
154.1357476959
 21
140.4261311042
 31
0.0
 11
153.801007074
 21
145.62760656
 31
0.0
 11
153.4223127155
 21
150.8007990905
 31
0.0
 11
152.9975187005
 21
155.9750325594
 31
0.0
 11
152.5102440838
 21
161.3168316502
 31
0.0
 11
151.9353193541
 21
167.0150560354
 31
0.0
 11
151.239473172
 21
173.2562953918
 31
0.0
 11
150.3800599004
 21
180.2210463259
 31
0.0
  0
SPLINE
  5
523
330
1B
100
AcDbEntity
  8
0
  6
Continuous
100
AcDbSpline
210
0.0
220
0.0
230
1.0
 70
     8
 71
     3
 72
    10
 73
     6
 74
     4
 42
0.0000000001
 43
0.0000000001
 44
0.0000000001
 40
0.0
 40
0.0
 40
0.0
 40
0.0
 40
0.652880786633544
 40
1.317024043133556
 40
1.991859827618288
 40
1.991859827618288
 40
1.991859827618288
 40
1.991859827618288
 10
156.660631507
 20
130.0049598463
 30
0.0
 10
156.4430048923438
 20
130.0053455775829
 30
0.0
 10
156.0039975118298
 20
130.0061236941766
 30
0.0
 10
155.3400437690595
 20
130.0061087901695
 30
0.0
 10
154.8937180322605
 20
130.0053448610629
 30
0.0
 10
154.6687730783
 20
130.0049598463
 30
0.0
 11
156.660631507
 21
130.0049598463
 31
0.0
 11
156.0077514314
 21
130.0059234021
 31
0.0
 11
155.3436081749
 21
130.0059233908
 31
0.0
 11
154.6687730783
 21
130.0049598463
 31
0.0
  0
SPLINE
  5
524
330
1B
100
AcDbEntity
  8
0
  6
Continuous
100
AcDbSpline
210
0.0
220
0.0
230
1.0
 70
     8
 71
     3
 72
    16
 73
    12
 74
    10
 42
0.0000000001
 43
0.0000000001
 44
0.0000000001
 40
0.0
 40
0.0
 40
0.0
 40
0.0
 40
5.217372807891577
 40
10.44384077281586
 40
15.6630873163924
 40
20.85913718375643
 40
26.06210963123937
 40
31.44051364930296
 40
37.18647251065822
 40
43.49149518817849
 40
50.54333380621198
 40
50.54333380621198
 40
50.54333380621198
 40
50.54333380621198
 10
158.5877353689
 20
130.0049598463
 30
0.0
 10
158.4874941540777
 20
131.7412110283332
 30
0.0
 10
158.2868369794756
 20
135.2167401029165
 30
0.0
 10
157.9117624145714
 20
140.4244469738817
 30
0.0
 10
157.4827770779466
 20
145.6207764162212
 30
0.0
 10
156.9948159330659
 20
150.8040693879453
 30
0.0
 10
156.4428427227487
 20
156.0342704788801
 30
0.0
 10
155.8092916556104
 20
161.4398571915375
 30
0.0
 10
155.0607898826499
 20
167.2013446007037
 30
0.0
 10
154.1628610874578
 20
173.5056617101242
 30
0.0
 10
153.4504132725409
 20
177.9006727220455
 30
0.0
 10
153.0742719843
 20
180.2210463259
 30
0.0
 11
158.5877353689
 21
130.0049598463
 31
0.0
 11
158.2746744354
 21
135.2129317998
 31
0.0
 11
157.9024911459
 21
140.4261311042
 31
0.0
 11
157.4721568975
 21
145.62760656
 31
0.0
 11
156.9853168144
 21
150.8007990905
 31
0.0
 11
156.4392121554
 21
155.9750325594
 31
0.0
 11
155.8127839831
 21
161.3168316502
 31
0.0
 11
155.0736749977
 21
167.0150560354
 31
0.0
 11
154.1791123894
 21
173.2562953918
 31
0.0
 11
153.0742719843
 21
180.2210463259
 31
0.0
  0
SPLINE
  5
525
330
1B
100
AcDbEntity
  8
0
  6
Continuous
100
AcDbSpline
210
0.0
220
0.0
230
1.0
 70
     8
 71
     3
 72
    10
 73
     6
 74
     4
 42
0.0000000001
 43
0.0000000001
 44
0.0000000001
 40
0.0
 40
0.0
 40
0.0
 40
0.0
 40
0.5731017361136415
 40
1.160570988013631
 40
1.761903801080977
 40
1.761903801080977
 40
1.761903801080977
 40
1.761903801080977
 10
160.349637588
 20
130.0049598463
 30
0.0
 10
160.1586040330386
 20
130.005345705147
 30
0.0
 10
159.7717477601389
 20
130.0061270962248
 30
0.0
 10
159.184445964623
 20
130.0061054323876
 30
0.0
 10
158.7881792938333
 20
130.0053446656302
 30
0.0
 10
158.5877353689
 20
130.0049598463
 30
0.0
 11
160.349637588
 21
130.0049598463
 31
0.0
 11
159.7765366619
 21
130.0059234021
 31
0.0
 11
159.18906741
 21
130.0059233908
 31
0.0
 11
158.5877353689
 21
130.0049598463
 31
0.0
  0
SPLINE
  5
526
330
1B
100
AcDbEntity
  8
0
  6
Continuous
100
AcDbSpline
210
0.0
220
0.0
230
1.0
 70
     8
 71
     3
 72
    16
 73
    12
 74
    10
 42
0.0000000001
 43
0.0000000001
 44
0.0000000001
 40
0.0
 40
0.0
 40
0.0
 40
0.0
 40
5.221318715604319
 40
10.45335314545874
 40
15.68005042841176
 40
20.88567674614831
 40
26.10068024689213
 40
31.49439431790148
 40
37.26029692120157
 40
43.59193447246825
 40
50.68005467028878
 40
50.68005467028878
 40
50.68005467028878
 40
50.68005467028878
 10
162.0131483102
 20
130.0049598463
 30
0.0
 10
161.8936763060447
 20
131.7413198381111
 30
0.0
 10
161.6544871052977
 20
135.2176033539596
 30
0.0
 10
161.2074690322799
 20
140.4253737235977
 30
0.0
 10
160.6961975465753
 20
145.6218562577888
 30
0.0
 10
160.1146367802127
 20
150.8052808851994
 30
0.0
 10
159.456780755311
 20
156.0356678615311
 30
0.0
 10
158.7016719924737
 20
161.4415917365845
 30
0.0
 10
157.8095548008933
 20
167.2035100122248
 30
0.0
 10
156.7391765255116
 20
173.5089951823592
 30
0.0
 10
155.8906420438644
 20
177.9011658681313
 30
0.0
 10
155.442458514
 20
180.2210463259
 30
0.0
 11
162.0131483102
 21
130.0049598463
 31
0.0
 11
161.6400568181
 21
135.2129317998
 31
0.0
 11
161.1965060456
 21
140.4261311042
 31
0.0
 11
160.6836536591
 21
145.62760656
 31
0.0
 11
160.1034602411
 21
150.8007990905
 31
0.0
 11
159.4526380518
 21
155.9750325594
 31
0.0
 11
158.706090027
 21
161.3168316502
 31
0.0
 11
157.8252542383
 21
167.0150560354
 31
0.0
 11
156.7591560361
 21
173.2562953918
 31
0.0
 11
155.442458514
 21
180.2210463259
 31
0.0
  0
SPLINE
  5
527
330
1B
100
AcDbEntity
  8
0
  6
Continuous
100
AcDbSpline
210
0.0
220
0.0
230
1.0
 70
     8
 71
     3
 72
    10
 73
     6
 74
     4
 42
0.0000000001
 43
0.0000000001
 44
0.0000000001
 40
0.0
 40
0.0
 40
0.0
 40
0.0
 40
0.4759093703385796
 40
0.9688546617385707
 40
1.478413388741362
 40
1.478413388741362
 40
1.478413388741362
 40
1.478413388741362
 10
163.4915598125
 20
130.0049598463
 30
0.0
 10
163.33292378432
 20
130.0053458583426
 30
0.0
 10
163.0099731029487
 20
130.0061317003332
 30
0.0
 10
162.5171680086991
 20
130.0061009138404
 30
0.0
 10
162.1830008091997
 20
130.0053443812177
 30
0.0
 10
162.0131483102
 20
130.0049598463
 30
0.0
 11
163.4915598125
 21
130.0049598463
 31
0.0
 11
163.0156514176
 21
130.0059234021
 31
0.0
 11
162.5227061262
 21
130.0059233908
 31
0.0
 11
162.0131483102
 21
130.0049598463
 31
0.0
  0
SPLINE
  5
528
330
1B
100
AcDbEntity
  8
0
  6
Continuous
100
AcDbSpline
210
0.0
220
0.0
230
1.0
 70
     8
 71
     3
 72
    16
 73
    12
 74
    10
 42
0.0000000001
 43
0.0000000001
 44
0.0000000001
 40
0.0
 40
0.0
 40
0.0
 40
0.0
 40
5.22502394019235
 40
10.46228374413794
 40
15.69597276518587
 40
20.91058197481513
 40
26.13686572679212
 40
31.54492704141996
 40
37.32950796644944
 40
43.6860537604847
 40
50.80809904873761
 40
50.80809904873761
 40
50.80809904873761
 40
50.80809904873761
 10
164.8409324634
 20
130.0049598463
 30
0.0
 10
164.7058577517643
 20
131.7414217190733
 30
0.0
 10
164.4353920130488
 20
135.2184118786939
 30
0.0
 10
163.9300082331327
 20
140.4262403831862
 30
0.0
 10
163.3519796745677
 20
145.6228646849994
 30
0.0
 10
162.6944831989676
 20
150.8064102568604
 30
0.0
 10
161.9507247349377
 20
156.0369681483203
 30
0.0
 10
161.0969872281569
 20
161.4432018392443
 30
0.0
 10
160.0883433733072
 20
167.2055159977299
 30
0.0
 10
158.877985427454
 20
173.5120701795329
 30
0.0
 10
157.9192540143708
 20
177.9016212803435
 30
0.0
 10
157.4126633402
 20
180.2210463259
 30
0.0
 11
164.8409324634
 21
130.0049598463
 31
0.0
 11
164.4191466088
 21
135.2129317998
 31
0.0
 11
163.9177054192
 21
140.4261311042
 31
0.0
 11
163.3379176548
 21
145.62760656
 31
0.0
 11
162.6819997853
 21
150.8007990905
 31
0.0
 11
161.9462349686
 21
155.9750325594
 31
0.0
 11
161.1022505752
 21
161.3168316502
 31
0.0
 11
160.106451733
 21
167.0150560354
 31
0.0
 11
158.9012107912
 21
173.2562953918
 31
0.0
 11
157.4126633402
 21
180.2210463259
 31
0.0
  0
SPLINE
  5
529
330
1B
100
AcDbEntity
  8
0
  6
Continuous
100
AcDbSpline
210
0.0
220
0.0
230
1.0
 70
     8
 71
     3
 72
    10
 73
     6
 74
     4
 42
0.0000000001
 43
0.0000000001
 44
0.0000000001
 40
0.0
 40
0.0
 40
0.0
 40
0.0
 40
0.3642569023321147
 40
0.7477003399321083
 40
1.150002428315428
 40
1.150002428315428
 40
1.150002428315428
 40
1.150002428315428
 10
165.9909324634
 20
130.0049598463
 30
0.0
 10
165.86951405323
 20
130.0053460525012
 30
0.0
 10
165.6202817504876
 20
130.0061388075762
 30
0.0
 10
165.2369467917961
 20
130.0060939955348
 30
0.0
 10
164.97503263701
 20
130.0053438970739
 30
0.0
 10
164.8409324634
 20
130.0049598463
 30
0.0
 11
165.9909324634
 21
130.0049598463
 31
0.0
 11
165.6266768355
 21
130.0059234021
 31
0.0
 11
165.2432333979
 21
130.0059233908
 31
0.0
 11
164.8409324634
 21
130.0049598463
 31
0.0
  0
SPLINE
  5
52A
330
1B
100
AcDbEntity
  8
0
  6
Continuous
100
AcDbSpline
210
0.0
220
0.0
230
1.0
 70
     8
 71
     3
 72
    16
 73
    12
 74
    10
 42
0.0000000001
 43
0.0000000001
 44
0.0000000001
 40
0.0
 40
0.0
 40
0.0
 40
0.0
 40
5.228042524039283
 40
10.46955823769241
 40
15.70894007259918
 40
20.93086076964642
 40
26.1663222843459
 40
31.58605147806273
 40
37.38581460350754
 40
43.7625937972703
 40
50.91217596980663
 40
50.91217596980663
 40
50.91217596980663
 40
50.91217596980663
 10
166.985167038
 20
130.0049598463
 30
0.0
 10
166.8385938219505
 20
131.7415045115104
 30
0.0
 10
166.5450696559821
 20
135.2190690915949
 30
0.0
 10
165.9966761599872
 20
140.4269438990797
 30
0.0
 10
165.3694538681002
 20
145.6236822901239
 30
0.0
 10
164.6559997442412
 20
150.807324503138
 30
0.0
 10
163.8489380822029
 20
156.0380190812175
 30
0.0
 10
162.9225132995987
 20
161.4445004279532
 30
0.0
 10
161.8279912557275
 20
167.2071310152981
 30
0.0
 10
160.5144349024219
 20
173.5145368056111
 30
0.0
 10
159.4746292652589
 20
177.9019869409611
 30
0.0
 10
158.9250227861
 20
180.2210463259
 30
0.0
 11
166.985167038
 21
130.0049598463
 31
0.0
 11
166.5275025706
 21
135.2129317998
 31
0.0
 11
165.9834070008
 21
140.4261311042
 31
0.0
 11
165.3543004163
 21
145.62760656
 31
0.0
 11
164.6425878278
 21
150.8007990905
 31
0.0
 11
163.8442362253
 21
155.9750325594
 31
0.0
 11
162.9284595021
 21
161.3168316502
 31
0.0
 11
161.8479544502
 21
167.0150560354
 31
0.0
 11
160.5401914051
 21
173.2562953918
 31
0.0
 11
158.9250227861
 21
180.2210463259
 31
0.0
  0
SPLINE
  5
52B
330
1B
100
AcDbEntity
  8
0
  6
Continuous
100
AcDbSpline
210
0.0
220
0.0
230
1.0
 70
     8
 71
     3
 72
    10
 73
     6
 74
     4
 42
0.0000000001
 43
0.0000000001
 44
0.0000000001
 40
0.0
 40
0.0
 40
0.0
 40
0.0
 40
0.2415231561527805
 40
0.5038586712527888
 40
0.786649892997723
 40
0.786649892997723
 40
0.786649892997723
 40
0.786649892997723
 10
167.7718133677
 20
130.0049598463
 30
0.0
 10
167.6913064821897
 20
130.0053462723285
 30
0.0
 10
167.5233553299852
 20
130.0061524232101
 30
0.0
 10
167.2611374876636
 20
130.0060809648765
 30
0.0
 10
167.0794300260367
 20
130.0053427858035
 30
0.0
 10
166.985167038
 20
130.0049598463
 30
0.0
 11
167.7718133677
 21
130.0049598463
 31
0.0
 11
167.5302921335
 21
130.0059233755
 31
0.0
 11
167.2679566184
 21
130.0059233364
 31
0.0
 11
166.985167038
 21
130.0049598463
 31
0.0
  0
SPLINE
  5
52C
330
1B
100
AcDbEntity
  8
0
  6
Continuous
100
AcDbSpline
210
0.0
220
0.0
230
1.0
 70
     8
 71
     3
 72
    16
 73
    12
 74
    10
 42
0.0000000001
 43
0.0000000001
 44
0.0000000001
 40
0.0
 40
0.0
 40
0.0
 40
0.0
 40
5.230011825016383
 40
10.47430352360573
 40
15.71739774500069
 40
20.94408516001635
 40
26.18552836618269
 40
31.6128596977422
 40
37.4225109014238
 40
43.81246195323146
 40
50.97996048922794
 40
50.97996048922794
 40
50.97996048922794
 40
50.97996048922794
 10
168.3807005514
 20
130.0049598463
 30
0.0
 10
168.2270844324392
 20
131.741558424159
 30
0.0
 10
167.9194327654932
 20
135.2194971385902
 30
0.0
 10
167.3446970357197
 20
140.4274016449029
 30
0.0
 10
166.6873447946321
 20
145.6242137923548
 30
0.0
 10
165.9396179526142
 20
150.8079181497549
 30
0.0
 10
165.0937841696668
 20
156.0387006822427
 30
0.0
 10
164.1228371159954
 20
161.4453413427005
 30
0.0
 10
162.9757128985358
 20
167.2081754726526
 30
0.0
 10
161.5989296933341
 20
173.5161277381893
 30
0.0
 10
160.5095261228559
 20
177.902222950598
 30
0.0
 10
159.9335845753
 20
180.2210463259
 30
0.0
 11
168.3807005514
 21
130.0049598463
 31
0.0
 11
167.9010633746
 21
135.2129317998
 31
0.0
 11
167.330845493
 21
140.4261311042
 31
0.0
 11
166.6715351737
 21
145.62760656
 31
0.0
 11
165.925652893
 21
150.8007990905
 31
0.0
 11
165.0889720143
 21
155.9750325594
 31
0.0
 11
164.1292283735
 21
161.3168316502
 31
0.0
 11
162.9968477112
 21
167.0150560354
 31
0.0
 11
161.626298281
 21
173.2562953918
 31
0.0
 11
159.9335845753
 21
180.2210463259
 31
0.0
  0
SPLINE
  5
52D
330
1B
100
AcDbEntity
  8
0
  6
Continuous
100
AcDbSpline
210
0.0
220
0.0
230
1.0
 70
     8
 71
     3
 72
    10
 73
     6
 74
     4
 42
0.0000000001
 43
0.0000000001
 44
0.0000000001
 40
0.0
 40
0.0
 40
0.0
 40
0.0
 40
0.1114798894359176
 40
0.2446485751359033
 40
0.3993979727117347
 40
0.3993979727117347
 40
0.3993979727117347
 40
0.3993979727117347
 10
168.7800913601
 20
130.0049598463
 30
0.0
 10
168.7429331630348
 20
130.0053461155488
 30
0.0
 10
168.6613875137468
 20
130.0061938040584
 30
0.0
 10
168.5282522674908
 20
130.0060425371848
 30
0.0
 10
168.4322822468352
 20
130.0053383375366
 30
0.0
 10
168.3807005514
 20
130.0049598463
 30
0.0
 11
168.7800913601
 21
130.0049598463
 31
0.0
 11
168.6686156349
 21
130.0059234021
 31
0.0
 11
168.5354469492
 21
130.0059233908
 31
0.0
 11
168.3807005514
 21
130.0049598463
 31
0.0
  0
SPLINE
  5
52E
330
1B
100
AcDbEntity
  8
0
  6
Continuous
100
AcDbSpline
210
0.0
220
0.0
230
1.0
 70
     8
 71
     3
 72
    16
 73
    12
 74
    10
 42
0.0000000001
 43
0.0000000001
 44
0.0000000001
 40
0.0
 40
0.0
 40
0.0
 40
0.0
 40
5.230695582623128
 40
10.47595102693863
 40
15.72033393181465
 40
20.94867579385956
 40
26.19219482323328
 40
31.62216385949785
 40
37.43524522166203
 40
43.82976446400755
 40
51.00347481913844
 40
51.00347481913844
 40
51.00347481913844
 40
51.00347481913844
 10
168.9851304241
 20
130.0049598463
 30
0.0
 10
168.8291424695348
 20
131.7415771245469
 30
0.0
 10
168.5167323613561
 20
135.2196456284544
 30
0.0
 10
167.9331256340635
 20
140.4275603529026
 30
0.0
 10
167.2656268146129
 20
145.6243979853191
 30
0.0
 10
166.5063582685257
 20
150.8081237542839
 30
0.0
 10
165.6474674838623
 20
156.0389366021928
 30
0.0
 10
164.661526543142
 20
161.4456321662429
 30
0.0
 10
163.4966873073248
 20
167.208536439947
 30
0.0
 10
162.0986082275419
 20
173.5166767914439
 30
0.0
 10
160.9925122734653
 20
177.9023044307907
 30
0.0
 10
160.4077040682
 20
180.2210463259
 30
0.0
 11
168.9851304241
 21
130.0049598463
 31
0.0
 11
168.4980940706
 21
135.2129317998
 31
0.0
 11
167.9190796591
 21
140.4261311042
 31
0.0
 11
167.2495984154
 21
145.62760656
 31
0.0
 11
166.4922096983
 21
150.8007990905
 31
0.0
 11
165.6426216683
 21
155.9750325594
 31
0.0
 11
164.6680724349
 21
161.3168316502
 31
0.0
 11
163.5182229756
 21
167.0150560354
 31
0.0
 11
162.1265306113
 21
173.2562953918
 31
0.0
 11
160.4077040682
 21
180.2210463259
 31
0.0
  0
SPLINE
  5
52F
330
1B
100
AcDbEntity
  8
0
  6
Continuous
100
AcDbSpline
210
0.0
220
0.0
230
1.0
 70
    24
 71
     3
 72
     8
 73
     4
 74
     2
 42
0.0000000001
 43
0.0000000001
 44
0.0000000001
 40
0.0
 40
0.0
 40
0.0
 40
0.0
 40
0.0029944682226213
 40
0.0029944682226213
 40
0.0029944682226213
 40
0.0029944682226213
 10
114.9870804964
 20
123.3240217874
 30
0.0
 10
114.9869682126333
 20
123.3230299669
 30
0.0
 10
114.9868559288667
 20
123.3220381464
 30
0.0
 10
114.9867436451
 20
123.3210463259
 30
0.0
 11
114.9870804964
 21
123.3240217874
 31
0.0
 11
114.9867436451
 21
123.3210463259
 31
0.0
  0
SPLINE
  5
530
330
1B
100
AcDbEntity
  8
0
  6
Continuous
100
AcDbSpline
210
0.0
220
0.0
230
1.0
 70
     8
 71
     3
 72
    14
 73
    10
 74
     8
 42
0.0000000001
 43
0.0000000001
 44
0.0000000001
 40
0.0
 40
0.0
 40
0.0
 40
0.0
 40
0.2741587444454609
 40
0.5374384231514583
 40
0.7796640457824373
 40
0.9916926548609757
 40
1.165634115031782
 40
1.294913119995117
 40
1.327171192187578
 40
1.327171192187578
 40
1.327171192187578
 40
1.327171192187578
 10
115.1132483082
 20
124.7210463259
 30
0.0
 10
115.1191273255171
 20
124.8122439112879
 30
0.0
 10
115.130652071164
 20
124.9910202132632
 30
0.0
 10
115.1444171555968
 20
125.2505486101838
 30
0.0
 10
115.1552229753356
 20
125.4894843060996
 30
0.0
 10
115.1630555242638
 20
125.698738282892
 30
0.0
 10
115.1683831502476
 20
125.8704062794045
 30
0.0
 10
115.1712666019456
 20
125.9821956424917
 30
0.0
 10
115.172525998071
 20
126.0360266026204
 30
0.0
 10
115.1727774926
 20
126.0467763514
 30
0.0
 11
115.1132483082
 21
124.7210463259
 31
0.0
 11
115.1303554952
 21
124.9946708155
 31
0.0
 11
115.1444329686
 21
125.257573866
 31
0.0
 11
115.1553430249
 21
125.4995536646
 31
0.0
 11
115.1632824978
 21
125.7114335736
 31
0.0
 11
115.1686708516
 21
125.8852915536
 31
0.0
 11
115.1720178639
 21
126.0145272245
 31
0.0
 11
115.1727774926
 21
126.0467763514
 31
0.0
  0
SPLINE
  5
531
330
1B
100
AcDbEntity
  8
0
  6
Continuous
100
AcDbSpline
210
0.0
220
0.0
230
1.0
 70
     8
 71
     3
 72
     9
 73
     5
 74
     3
 42
0.0000000001
 43
0.0000000001
 44
0.0000000001
 40
0.0
 40
0.0
 40
0.0
 40
0.0
 40
0.0473869819712587
 40
0.0742867186364831
 40
0.0742867186364831
 40
0.0742867186364831
 40
0.0742867186364831
 10
115.1727774926
 20
126.0467763514
 30
0.0
 10
115.1731234710515
 20
126.0625682258475
 30
0.0
 10
115.1736658479408
 20
126.0873245299003
 30
0.0
 10
115.1741712489757
 20
126.1120816138783
 30
0.0
 10
115.1743542582
 20
126.1210463259
 30
0.0
 11
115.1727774926
 21
126.0467763514
 31
0.0
 11
115.1738003822
 21
126.0941522921
 31
0.0
 11
115.1743542582
 21
126.1210463259
 31
0.0
  0
SPLINE
  5
532
330
1B
100
AcDbEntity
  8
0
  6
Continuous
100
AcDbSpline
210
0.0
220
0.0
230
1.0
 70
     8
 71
     3
 72
    10
 73
     6
 74
     4
 42
0.0000000001
 43
0.0000000001
 44
0.0000000001
 40
0.0
 40
0.0
 40
0.0
 40
0.0
 40
0.5736492028695301
 40
1.148999400667701
 40
1.726028662194442
 40
1.726028662194442
 40
1.726028662194442
 40
1.726028662194442
 10
159.4271020735
 20
125.1854962665
 30
0.0
 10
159.3499461122891
 20
125.0105369441994
 30
0.0
 10
159.1954054056239
 20
124.6600995070704
 30
0.0
 10
158.9601591844985
 20
124.1350434085337
 30
0.0
 10
158.8010591756269
 20
123.7854140170578
 30
0.0
 10
158.7213932636
 20
123.6103446092
 30
0.0
 11
159.4271020735
 21
125.1854962665
 31
0.0
 11
159.1951206473
 21
124.6608458821
 31
0.0
 11
158.9598799244
 21
124.135784312
 31
0.0
 11
158.7213932636
 21
123.6103446092
 31
0.0
  0
SPLINE
  5
533
330
1B
100
AcDbEntity
  8
0
  6
Continuous
100
AcDbSpline
210
0.0
220
0.0
230
1.0
 70
     8
 71
     3
 72
    10
 73
     6
 74
     4
 42
0.0000000001
 43
0.0000000001
 44
0.0000000001
 40
0.0
 40
0.0
 40
0.0
 40
0.0
 40
0.3316884200731508
 40
0.6641996452092177
 40
0.9975295010280387
 40
0.9975295010280387
 40
0.9975295010280387
 40
0.9975295010280387
 10
161.1301819422
 20
124.2809438381
 30
0.0
 10
161.0882578687935
 20
124.1786378363849
 30
0.0
 10
161.0043057227519
 20
123.973772046898
 30
0.0
 10
160.8771214700201
 20
123.6665463872892
 30
0.0
 10
160.7914996834386
 20
123.4617795978072
 30
0.0
 10
160.7486361555
 20
123.3592703259
 30
0.0
 11
161.1301819422
 21
124.2809438381
 31
0.0
 11
161.0042269747
 21
123.9741009562
 31
0.0
 11
160.877044403
 21
123.6668741535
 31
0.0
 11
160.7486361555
 21
123.3592703259
 31
0.0
  0
SPLINE
  5
534
330
1B
100
AcDbEntity
  8
0
  6
Continuous
100
AcDbSpline
210
0.0
220
0.0
230
1.0
 70
     8
 71
     3
 72
    10
 73
     6
 74
     4
 42
0.0000000001
 43
0.0000000001
 44
0.0000000001
 40
0.0
 40
0.0
 40
0.0
 40
0.0
 40
0.5464396227173242
 40
1.092919576625337
 40
1.639438682084849
 40
1.639438682084849
 40
1.639438682084849
 40
1.639438682084849
 10
161.4128527207
 20
123.3592703259
 30
0.0
 10
161.4201163663394
 20
123.1772686592612
 30
0.0
 10
161.4346441937278
 20
122.8132518929463
 30
0.0
 10
161.4556702606874
 20
122.2671767267874
 30
0.0
 10
161.4691772476211
 20
121.9030941400447
 30
0.0
 10
161.475930983
 20
121.7210463259
 30
0.0
 11
161.4128527207
 21
123.3592703259
 31
0.0
 11
161.4345159279
 21
122.8132602832
 31
0.0
 11
161.4555420419
 21
122.2671849747
 31
0.0
 11
161.475930983
 21
121.7210463259
 31
0.0
  0
SPLINE
  5
535
330
1B
100
AcDbEntity
  8
0
  6
Continuous
100
AcDbSpline
210
0.0
220
0.0
230
1.0
 70
     8
 71
     3
 72
    10
 73
     6
 74
     4
 42
0.0000000001
 43
0.0000000001
 44
0.0000000001
 40
0.0
 40
0.0
 40
0.0
 40
0.0
 40
0.4513388878814094
 40
0.9026345318475493
 40
1.353885847593335
 40
1.353885847593335
 40
1.353885847593335
 40
1.353885847593335
 10
135.626134033
 20
122.3126284596
 30
0.0
 10
135.627690826276
 20
122.4630667011742
 30
0.0
 10
135.6308042636678
 20
122.7639287704559
 30
0.0
 10
135.6356157938401
 20
123.2151984132409
 30
0.0
 10
135.6389177540715
 20
123.5160292800748
 30
0.0
 10
135.6405686531
 20
123.6664373259
 30
0.0
 11
135.626134033
 21
122.3126284596
 31
0.0
 11
135.6308280165
 21
122.7639429378
 31
0.0
 11
135.6356395608
 21
123.2152129316
 31
0.0
 11
135.6405686531
 21
123.6664373259
 31
0.0
  0
SPLINE
  5
536
330
1B
100
AcDbEntity
  8
0
  6
Continuous
100
AcDbSpline
210
0.0
220
0.0
230
1.0
 70
     8
 71
     3
 72
    10
 73
     6
 74
     4
 42
0.0000000001
 43
0.0000000001
 44
0.0000000001
 40
0.0
 40
0.0
 40
0.0
 40
0.0
 40
0.3430799373428165
 40
0.6861225483403663
 40
1.029123402563674
 40
1.029123402563674
 40
1.029123402563674
 40
1.029123402563674
 10
135.9566182985
 20
125.1613167259
 30
0.0
 10
136.0074683675644
 20
125.2637495120918
 30
0.0
 10
136.1091629733172
 20
125.4686039400127
 30
0.0
 10
136.2618903235947
 20
125.775770992337
 30
0.0
 10
136.3638323338683
 20
125.9804729678477
 30
0.0
 10
136.4148002366
 20
126.0828177259
 30
0.0
 11
135.9566182985
 21
125.1613167259
 31
0.0
 11
136.1092009106
 21
125.4685989901
 31
0.0
 11
136.2619289083
 21
125.7757673343
 31
0.0
 11
136.4148002366
 21
126.0828177259
 31
0.0
  0
SPLINE
  5
537
330
1B
100
AcDbEntity
  8
0
  6
Continuous
100
AcDbSpline
210
0.0
220
0.0
230
1.0
 70
     8
 71
     3
 72
    10
 73
     6
 74
     4
 42
0.0000000001
 43
0.0000000001
 44
0.0000000001
 40
0.0
 40
0.0
 40
0.0
 40
0.0
 40
0.5461981809603318
 40
1.092319157811391
 40
1.638361055966034
 40
1.638361055966034
 40
1.638361055966034
 40
1.638361055966034
 10
135.6689746854
 20
126.0828177259
 30
0.0
 10
135.6712598307978
 20
126.2648694459872
 30
0.0
 10
135.6758297985922
 20
126.6289471534854
 30
0.0
 10
135.6828921604546
 20
127.1750218570978
 30
0.0
 10
135.6877387271911
 20
127.5390438887091
 30
0.0
 10
135.6901618351
 20
127.7210417259
 30
0.0
 11
135.6689746854
 21
126.0828177259
 31
0.0
 11
135.6758647794
 21
126.6289724471
 31
0.0
 11
135.6829271716
 21
127.1750477569
 31
0.0
 11
135.6901618351
 21
127.7210417259
 31
0.0
  0
SPLINE
  5
538
330
1B
100
AcDbEntity
  8
0
  6
Continuous
100
AcDbSpline
210
0.0
220
0.0
230
1.0
 70
    24
 71
     3
 72
     8
 73
     4
 74
     2
 42
0.0000000001
 43
0.0000000001
 44
0.0000000001
 40
0.0
 40
0.0
 40
0.0
 40
0.0
 40
0.0962088397182353
 40
0.0962088397182353
 40
0.0962088397182353
 40
0.0962088397182353
 10
137.0931466735
 20
120.9840617662
 30
0.0
 10
137.0610796875333
 20
120.9836512734
 30
0.0
 10
137.0290127015667
 20
120.9832407806
 30
0.0
 10
136.9969457156
 20
120.9828302878
 30
0.0
 11
137.0931466735
 21
120.9840617662
 31
0.0
 11
136.9969457156
 21
120.9828302878
 31
0.0
  0
SPLINE
  5
539
330
1B
100
AcDbEntity
  8
0
  6
Continuous
100
AcDbSpline
210
0.0
220
0.0
230
1.0
 70
     8
 71
     3
 72
    10
 73
     6
 74
     4
 42
0.0000000001
 43
0.0000000001
 44
0.0000000001
 40
0.0
 40
0.0
 40
0.0
 40
0.0
 40
1.36737591631823
 40
2.734656340928454
 40
4.101834575333535
 40
4.101834575333535
 40
4.101834575333535
 40
4.101834575333535
 10
118.6678216687
 20
121.7210463259
 30
0.0
 10
118.6908369156778
 20
122.1762572236428
 30
0.0
 10
118.7368658023466
 20
123.0866472291389
 30
0.0
 10
118.812336870122
 20
124.4518479364192
 30
0.0
 10
118.8669353890461
 20
125.3616981968277
 30
0.0
 10
118.8942336283
 20
125.8166063259
 30
0.0
 11
118.6678216687
 21
121.7210463259
 31
0.0
 11
118.7379392339
 21
123.0866232822
 31
0.0
 11
118.8134103984
 21
124.4518191886
 31
0.0
 11
118.8942336283
 21
125.8166063259
 31
0.0
  0
SPLINE
  5
53A
330
1B
100
AcDbEntity
  8
0
  6
Continuous
100
AcDbSpline
210
0.0
220
0.0
230
1.0
 70
     8
 71
     3
 72
    10
 73
     6
 74
     4
 42
0.0000000001
 43
0.0000000001
 44
0.0000000001
 40
0.0
 40
0.0
 40
0.0
 40
0.0
 40
0.5469547854282769
 40
1.093887273659282
 40
1.640796889709677
 40
1.640796889709677
 40
1.640796889709677
 40
1.640796889709677
 10
117.6197080236
 20
123.1544923259
 30
0.0
 10
117.6295672237168
 20
123.3365438393833
 30
0.0
 10
117.6492852220297
 20
123.7006394448252
 30
0.0
 10
117.6798940752508
 20
124.2467150166959
 30
0.0
 10
117.7009878453735
 20
124.610718426596
 30
0.0
 10
117.7115345099
 20
124.7927163259
 30
0.0
 11
117.6197080236
 21
123.1544923259
 31
0.0
 11
117.6494577127
 21
123.700637447
 31
0.0
 11
117.680066581
 21
124.2467127567
 31
0.0
 11
117.7115345099
 21
124.7927163259
 31
0.0
  0
SPLINE
  5
53B
330
1B
100
AcDbEntity
  8
0
  6
Continuous
100
AcDbSpline
210
0.0
220
0.0
230
1.0
 70
     8
 71
     3
 72
    10
 73
     6
 74
     4
 42
0.0000000001
 43
0.0000000001
 44
0.0000000001
 40
0.0
 40
0.0
 40
0.0
 40
0.0
 40
1.042106740261576
 40
2.088651944036549
 40
3.139578181734251
 40
3.139578181734251
 40
3.139578181734251
 40
3.139578181734251
 10
117.7115345099
 20
124.7927163259
 30
0.0
 10
117.8305945477562
 20
125.119049215954
 30
0.0
 10
118.0692217151259
 20
125.7731048888339
 30
0.0
 10
118.4465253169355
 20
126.7493414570756
 30
0.0
 10
118.7106685430238
 20
127.396690925351
 30
0.0
 10
118.8430160169
 20
127.7210417259
 30
0.0
 11
117.7115345099
 21
124.7927163259
 31
0.0
 11
118.071796426
 21
125.770570001
 31
0.0
 11
118.4490053188
 21
126.7467719856
 31
0.0
 11
118.8430160169
 21
127.7210417259
 31
0.0
  0
SPLINE
  5
53C
330
1B
100
AcDbEntity
  8
0
  6
Continuous
100
AcDbSpline
210
0.0
220
0.0
230
1.0
 70
     8
 71
     3
 72
    10
 73
     6
 74
     4
 42
0.0000000001
 43
0.0000000001
 44
0.0000000001
 40
0.0
 40
0.0
 40
0.0
 40
0.0
 40
0.167101521409162
 40
0.3343648341252915
 40
0.5018295511516
 40
0.5018295511516
 40
0.5018295511516
 40
0.5018295511516
 10
115.2069434359
 20
126.5710463259
 30
0.0
 10
115.2113160120148
 20
126.6265759604789
 30
0.0
 10
115.2200653978672
 20
126.7376889946299
 30
0.0
 10
115.2368857543924
 20
126.9041366538795
 30
0.0
 10
115.250546363689
 20
127.0148752595239
 30
0.0
 10
115.2573807781
 20
127.0702778778
 30
0.0
 11
115.2069434359
 21
126.5710463259
 31
0.0
 11
115.220675039
 21
126.7375826929
 31
0.0
 11
115.2374885627
 21
126.9039988015
 31
0.0
 11
115.2573807781
 21
127.0702778778
 31
0.0
  0
SPLINE
  5
53D
330
1B
100
AcDbEntity
  8
0
  6
Continuous
100
AcDbSpline
210
0.0
220
0.0
230
1.0
 70
     8
 71
     3
 72
    10
 73
     6
 74
     4
 42
0.0000000001
 43
0.0000000001
 44
0.0000000001
 40
0.0
 40
0.0
 40
0.0
 40
0.0
 40
0.0616781376370484
 40
0.1226684536526003
 40
0.1831959898387927
 40
0.1831959898387927
 40
0.1831959898387927
 40
0.1831959898387927
 10
115.001727258
 20
122.80189938
 30
0.0
 10
114.9970293589132
 20
122.8219188483296
 30
0.0
 10
114.9876859507224
 20
122.8617345320876
 30
0.0
 10
114.9781024746174
 20
122.9221222444744
 30
0.0
 10
114.9747958089167
 20
122.9625019928658
 30
0.0
 10
114.9731487725
 20
122.9826149774
 30
0.0
 11
115.001727258
 21
122.80189938
 31
0.0
 11
114.9883733605
 21
122.8621145449
 31
0.0
 11
114.9788466498
 21
122.9223562284
 31
0.0
 11
114.9731487725
 21
122.9826149774
 31
0.0
  0
SPLINE
  5
53E
330
1B
100
AcDbEntity
  8
0
  6
Continuous
100
AcDbSpline
210
0.0
220
0.0
230
1.0
 70
     8
 71
     3
 72
     9
 73
     5
 74
     3
 42
0.0000000001
 43
0.0000000001
 44
0.0000000001
 40
0.0
 40
0.0
 40
0.0
 40
0.0
 40
0.101616671404832
 40
0.1827671802182295
 40
0.1827671802182295
 40
0.1827671802182295
 40
0.1827671802182295
 10
128.0611344011
 20
180.2780320203
 30
0.0
 10
128.0276191580853
 20
180.2718444819984
 30
0.0
 10
127.9673388283379
 20
180.260715610011
 30
0.0
 10
127.912551452826
 20
180.2334203388029
 30
0.0
 10
127.8882252943
 20
180.2213009575
 30
0.0
 11
128.0611344011
 21
180.2780320203
 31
0.0
 11
127.9622866791
 21
180.2544719744
 31
0.0
 11
127.8882252943
 21
180.2213009575
 31
0.0
  0
SPLINE
  5
53F
330
1B
100
AcDbEntity
  8
0
  6
Continuous
100
AcDbSpline
210
0.0
220
0.0
230
1.0
 70
     8
 71
     3
 72
     9
 73
     5
 74
     3
 42
0.0000000001
 43
0.0000000001
 44
0.0000000001
 40
0.0
 40
0.0
 40
0.0
 40
0.0
 40
0.081150499423719
 40
0.1827671804225182
 40
0.1827671804225182
 40
0.1827671804225182
 40
0.1827671804225182
 10
156.8003230286
 20
180.2213009574
 30
0.0
 10
156.7759968729674
 20
180.2334203374196
 30
0.0
 10
156.7212094975717
 20
180.2607156089258
 30
0.0
 10
156.6609291677711
 20
180.2718444812397
 30
0.0
 10
156.6274139216
 20
180.2780320203
 30
0.0
 11
156.8003230286
 21
180.2213009574
 31
0.0
 11
156.7262616527
 21
180.2544719712
 31
0.0
 11
156.6274139216
 21
180.2780320203
 31
0.0
  0
SPLINE
  5
540
330
1B
100
AcDbEntity
  8
0
  6
Continuous
100
AcDbSpline
210
0.0
220
0.0
230
1.0
 70
     8
 71
     3
 72
     9
 73
     5
 74
     3
 42
0.0000000001
 43
0.0000000001
 44
0.0000000001
 40
0.0
 40
0.0
 40
0.0
 40
0.0
 40
0.0731197339940472
 40
0.1631812271521399
 40
0.1631812271521399
 40
0.1631812271521399
 40
0.1631812271521399
 10
154.7094395339
 20
180.2212842043
 30
0.0
 10
154.6881261916703
 20
180.2333967911838
 30
0.0
 10
154.6405612300685
 20
180.2604284375495
 30
0.0
 10
154.5869491849828
 20
180.2717716036314
 30
0.0
 10
154.5573601145
 20
180.2780320203
 30
0.0
 11
154.7094395339
 21
180.2212842043
 31
0.0
 11
154.6442853504
 21
180.2544719712
 31
0.0
 11
154.5573601145
 21
180.2780320203
 31
0.0
  0
SPLINE
  5
541
330
1B
100
AcDbEntity
  8
0
  6
Continuous
100
AcDbSpline
210
0.0
220
0.0
230
1.0
 70
     8
 71
     3
 72
     9
 73
     5
 74
     3
 42
0.0000000001
 43
0.0000000001
 44
0.0000000001
 40
0.0
 40
0.0
 40
0.0
 40
0.0
 40
0.0587208816697699
 40
0.1274062777321556
 40
0.1274062777321556
 40
0.1274062777321556
 40
0.1274062777321556
 10
151.1271600241
 20
180.2212418545
 30
0.0
 10
151.1115401528782
 20
180.2333239277919
 30
0.0
 10
151.0776498298035
 20
180.2595383159556
 30
0.0
 10
151.0364428146365
 20
180.2715541960101
 30
0.0
 10
151.0142278955
 20
180.2780320203
 30
0.0
 11
151.1271600241
 21
180.2212418545
 31
0.0
 11
151.0787461698
 21
180.2544719712
 31
0.0
 11
151.0142278955
 21
180.2780320203
 31
0.0
  0
SPLINE
  5
542
330
1B
100
AcDbEntity
  8
0
  6
Continuous
100
AcDbSpline
210
0.0
220
0.0
230
1.0
 70
     8
 71
     3
 72
     9
 73
     5
 74
     3
 42
0.0000000001
 43
0.0000000001
 44
0.0000000001
 40
0.0
 40
0.0
 40
0.0
 40
0.0
 40
0.0421681415782931
 40
0.0572257438287952
 40
0.0572257438287952
 40
0.0572257438287952
 40
0.0572257438287952
 10
146.4855556376
 20
180.221160151
 30
0.0
 10
146.4776107657158
 20
180.2328900823179
 30
0.0
 10
146.4668289008724
 20
180.2488085937723
 30
0.0
 10
146.4523263580502
 20
180.2612684801306
 30
0.0
 10
146.4485103566
 20
180.2645470048
 30
0.0
 11
146.4855556376
 21
180.221160151
 31
0.0
 11
146.459700758
 21
180.2544719712
 31
0.0
 11
146.4485103566
 21
180.2645470048
 31
0.0
  0
SPLINE
  5
543
330
1B
100
AcDbEntity
  8
0
  6
Continuous
100
AcDbSpline
210
0.0
220
0.0
230
1.0
 70
    24
 71
     3
 72
     8
 73
     4
 74
     2
 42
0.0000000001
 43
0.0000000001
 44
0.0000000001
 40
0.0
 40
0.0
 40
0.0
 40
0.0
 40
0.0267817387008417
 40
0.0267817387008417
 40
0.0267817387008417
 40
0.0267817387008417
 10
146.4485103566
 20
180.2645470048
 30
0.0
 10
146.4407973381333
 20
180.2690420099667
 30
0.0
 10
146.4330843196667
 20
180.2735370151333
 30
0.0
 10
146.4253713012
 20
180.2780320203
 30
0.0
 11
146.4485103566
 21
180.2645470048
 31
0.0
 11
146.4253713012
 21
180.2780320203
 31
0.0
  0
SPLINE
  5
544
330
1B
100
AcDbEntity
  8
0
  6
Continuous
100
AcDbSpline
210
0.0
220
0.0
230
1.0
 70
     8
 71
     3
 72
     9
 73
     5
 74
     3
 42
0.0000000001
 43
0.0000000001
 44
0.0000000001
 40
0.0
 40
0.0
 40
0.0
 40
0.0
 40
0.0416363725338639
 40
0.0762767056098441
 40
0.0762767056098441
 40
0.0762767056098441
 40
0.0762767056098441
 10
138.2631770215
 20
180.2780320203
 30
0.0
 10
138.2509894763173
 20
180.2709831111043
 30
0.0
 10
138.2286622239791
 20
180.2580697005724
 30
0.0
 10
138.2138297979078
 20
180.2370568821983
 30
0.0
 10
138.2070937941
 20
180.2275141126
 30
0.0
 11
138.2631770215
 21
180.2780320203
 31
0.0
 11
138.2288475647
 21
180.2544719712
 31
0.0
 11
138.2070937941
 21
180.2275141126
 31
0.0
  0
SPLINE
  5
545
330
1B
100
AcDbEntity
  8
0
  6
Continuous
100
AcDbSpline
210
0.0
220
0.0
230
1.0
 70
     8
 71
     3
 72
     9
 73
     5
 74
     3
 42
0.0000000001
 43
0.0000000001
 44
0.0000000001
 40
0.0
 40
0.0
 40
0.0
 40
0.0
 40
0.0686853960623857
 40
0.1274062778146162
 40
0.1274062778146162
 40
0.1274062778146162
 40
0.1274062778146162
 10
133.6743204272
 20
180.2780320203
 30
0.0
 10
133.6521055080674
 20
180.2715541960043
 30
0.0
 10
133.6108984928808
 20
180.2595383159312
 30
0.0
 10
133.5770081697564
 20
180.2333239277905
 30
0.0
 10
133.5613882985
 20
180.2212418545
 30
0.0
 11
133.6743204272
 21
180.2780320203
 31
0.0
 11
133.6098021529
 21
180.2544719712
 31
0.0
 11
133.5613882985
 21
180.2212418545
 31
0.0
  0
SPLINE
  5
546
330
1B
100
AcDbEntity
  8
0
  6
Continuous
100
AcDbSpline
210
0.0
220
0.0
230
1.0
 70
     8
 71
     3
 72
     9
 73
     5
 74
     3
 42
0.0000000001
 43
0.0000000001
 44
0.0000000001
 40
0.0
 40
0.0
 40
0.0
 40
0.0
 40
0.0900614931580927
 40
0.1631812271521399
 40
0.1631812271521399
 40
0.1631812271521399
 40
0.1631812271521399
 10
130.1311882082
 20
180.2780320203
 30
0.0
 10
130.1015991377172
 20
180.2717716036314
 30
0.0
 10
130.0479870926315
 20
180.2604284375496
 30
0.0
 10
130.0004221310297
 20
180.2333967911838
 30
0.0
 10
129.9791087888
 20
180.2212842043
 30
0.0
 11
130.1311882082
 21
180.2780320203
 31
0.0
 11
130.0442629723
 21
180.2544719712
 31
0.0
 11
129.9791087888
 21
180.2212842043
 31
0.0
  0
SPLINE
  5
547
330
1B
100
AcDbEntity
  8
0
  6
Continuous
100
AcDbSpline
210
0.0
220
0.0
230
1.0
 70
     8
 71
     3
 72
    13
 73
     9
 74
     7
 42
0.0000000001
 43
0.0000000001
 44
0.0000000001
 40
0.0
 40
0.0
 40
0.0
 40
0.0
 40
0.1636821240437444
 40
0.3018983455194291
 40
0.4076846071410394
 40
0.4769117511088985
 40
0.5095683033380559
 40
0.5120470163921078
 40
0.5120470163921078
 40
0.5120470163921078
 40
0.5120470163921078
 10
153.5356171124
 20
180.4233527601
 30
0.0
 10
153.4812847228946
 20
180.4308555159254
 30
0.0
 10
153.3810730559479
 20
180.444693737929
 30
0.0
 10
153.2503341055319
 20
180.4675485964262
 30
0.0
 10
153.1392016781523
 20
180.485145885806
 30
0.0
 10
153.0891723408159
 20
180.5059969422244
 30
0.0
 10
153.0334719469436
 20
180.5121864228031
 30
0.0
 10
153.0376785588009
 20
180.523527075916
 30
0.0
 10
153.0379753256999
 20
180.5243271332
 30
0.0
 11
153.5356171124
 21
180.4233527601
 31
0.0
 11
153.3736184926
 21
180.4467682446
 31
0.0
 11
153.2372637628
 21
180.4693760207
 31
0.0
 11
153.1335128813
 21
180.4900276002
 31
0.0
 11
153.0665888835
 21
180.5077356769
 31
0.0
 11
153.0371992917
 21
180.5219730325999
 31
0.0
 11
153.0379753256999
 21
180.5243271332
 31
0.0
  0
SPLINE
  5
548
330
1B
100
AcDbEntity
  8
0
  6
Continuous
100
AcDbSpline
210
0.0
220
0.0
230
1.0
 70
     8
 71
     3
 72
    11
 73
     7
 74
     5
 42
0.0000000001
 43
0.0000000001
 44
0.0000000001
 40
0.0
 40
0.0
 40
0.0
 40
0.0
 40
0.1145952533997308
 40
0.1955424062436845
 40
0.2399091879283993
 40
0.2491919689778523
 40
0.2491919689778523
 40
0.2491919689778523
 40
0.2491919689778523
 10
150.255862449
 20
180.4233527601
 30
0.0
 10
150.2173074437953
 20
180.4301185386036
 30
0.0
 10
150.1515181700968
 20
180.4416634898076
 30
0.0
 10
150.0832264858838
 20
180.4668033040858
 30
0.0
 10
150.0272216301094
 20
180.4774705352681
 30
0.0
 10
150.0254529256475
 20
180.4959272982637
 30
0.0
 10
150.0251468934
 20
180.4991208022
 30
0.0
 11
150.255862449
 21
180.4233527601
 31
0.0
 11
150.143675412
 21
180.4467224163
 31
0.0
 11
150.0659410236
 21
180.4693013094
 31
0.0
 11
150.0266803536
 21
180.4899655565
 31
0.0
 11
150.0251468934
 21
180.4991208022
 31
0.0
  0
SPLINE
  5
549
330
1B
100
AcDbEntity
  8
0
  6
Continuous
100
AcDbSpline
210
0.0
220
0.0
230
1.0
 70
     8
 71
     3
 72
     9
 73
     5
 74
     3
 42
0.0000000001
 43
0.0000000001
 44
0.0000000001
 40
0.0
 40
0.0
 40
0.0
 40
0.0
 40
0.0544881181989545
 40
0.0742070965167708
 40
0.0742070965167708
 40
0.0742070965167708
 40
0.0742070965167708
 10
146.0218534755
 20
180.4233527601
 30
0.0
 10
146.0026761715584
 20
180.4281975028425
 30
0.0
 10
145.9765586969315
 20
180.4347955338293
 30
0.0
 10
145.9658943351122
 20
180.4578661462053
 30
0.0
 10
145.9630605048
 20
180.4639966772
 30
0.0
 11
146.0218534755
 21
180.4233527601
 31
0.0
 11
145.9726531695
 21
180.4467682446
 31
0.0
 11
145.9630605048
 21
180.4639966772
 31
0.0
  0
SPLINE
  5
54A
330
1B
100
AcDbEntity
  8
0
  6
Continuous
100
AcDbSpline
210
0.0
220
0.0
230
1.0
 70
     8
 71
     3
 72
    16
 73
    12
 74
    10
 42
0.0000000001
 43
0.0000000001
 44
0.0000000001
 40
0.0
 40
0.0
 40
0.0
 40
0.0
 40
7.166463497633727
 40
13.56132362392158
 40
19.37694504133639
 40
24.80688874874002
 40
30.04349328795627
 40
35.25445418995864
 40
40.47466951984032
 40
45.69651269940246
 40
50.91217499314993
 40
50.91217499314993
 40
50.91217499314993
 40
50.91217499314993
 10
159.7116691157
 20
180.2210463259
 30
0.0
 10
160.2625373812759
 20
177.8965022604512
 30
0.0
 10
161.304962675996
 20
173.4976946254124
 30
0.0
 10
162.6214371372309
 20
167.1735871742398
 30
0.0
 10
163.7179319802969
 20
161.3963484107925
 30
0.0
 10
164.6449381042555
 20
155.9807609416195
 30
0.0
 10
165.4510108894103
 20
150.7497796235119
 30
0.0
 10
166.1622288468066
 20
145.5755834807247
 30
0.0
 10
166.7867920387473
 20
140.3952462514972
 30
0.0
 10
167.3330221326152
 20
135.2043148253518
 30
0.0
 10
167.6256073770841
 20
131.7373938251346
 30
0.0
 10
167.7718133677
 20
130.0049598463
 30
0.0
 11
159.7116691157
 21
180.2210463259
 31
0.0
 11
161.3304653755
 21
173.2398073433
 31
0.0
 11
162.6414256224
 21
166.9807643441
 31
0.0
 11
163.7241150633
 21
161.2668133428
 31
0.0
 11
164.6406788555
 21
155.9147857382
 31
0.0
 11
165.4382060307
 21
150.7392686138
 31
0.0
 11
166.1475091057
 21
145.5768077016
 31
0.0
 11
166.7736399014
 21
140.3942785587
 31
0.0
 11
167.3153330362
 21
135.2006079165
 31
0.0
 11
167.7718133677
 21
130.0049598463
 31
0.0
  0
SPLINE
  5
54B
330
1B
100
AcDbEntity
  8
0
  6
Continuous
100
AcDbSpline
210
0.0
220
0.0
230
1.0
 70
     8
 71
     3
 72
    10
 73
     6
 74
     4
 42
0.0000000001
 43
0.0000000001
 44
0.0000000001
 40
0.0
 40
0.0
 40
0.0
 40
0.0
 40
0.1664269010591702
 40
0.3331935270315786
 40
0.5003393531309325
 40
0.5003393531309325
 40
0.5003393531309325
 40
0.5003393531309325
 10
115.2644927215
 20
123.7960463259
 30
0.0
 10
115.2739764390794
 20
123.8507063760028
 30
0.0
 10
115.2929632332185
 20
123.9601380530067
 30
0.0
 10
115.3251569940627
 20
124.1238007490954
 30
0.0
 10
115.3490615783873
 20
124.2325096865494
 30
0.0
 10
115.3610274439
 20
124.2869258817
 30
0.0
 11
115.2644927215
 21
123.7960463259
 31
0.0
 11
115.2935556649
 21
123.9599159653
 31
0.0
 11
115.3257360647
 21
124.1235482647
 31
0.0
 11
115.3610274439
 21
124.2869258817
 31
0.0
  0
SPLINE
  5
54D
330
1B
100
AcDbEntity
  8
0
  6
Continuous
100
AcDbSpline
210
0.0
220
0.0
230
1.0
 70
     8
 71
     3
 72
    10
 73
     6
 74
     4
 42
0.0000000001
 43
0.0000000001
 44
0.0000000001
 40
0.0
 40
0.0
 40
0.0
 40
0.0
 40
0.2517601843851984
 40
0.5035533081182371
 40
0.7553837556046732
 40
0.7553837556046732
 40
0.7553837556046732
 40
0.7553837556046732
 10
115.3610274439
 20
124.2869258817
 30
0.0
 10
115.3602555820025
 20
124.370842645387
 30
0.0
 10
115.35871175722
 20
124.5386871521123
 30
0.0
 10
115.3586625250076
 20
124.7904864552231
 30
0.0
 10
115.360140719886
 20
124.958354974539
 30
0.0
 10
115.3608798721
 20
125.0422954546
 30
0.0
 11
115.3610274439
 21
124.2869258817
 31
0.0
 11
115.3590895602
 21
124.5386786077
 31
0.0
 11
115.3590402261
 21
124.7904717266
 31
0.0
 11
115.3608798721
 21
125.0422954546
 31
0.0
  0
SPLINE
  5
54E
330
1B
100
AcDbEntity
  8
0
  6
Continuous
100
AcDbSpline
210
0.0
220
0.0
230
1.0
 70
     8
 71
     3
 72
    10
 73
     6
 74
     4
 42
0.0000000001
 43
0.0000000001
 44
0.0000000001
 40
0.0
 40
0.0
 40
0.0
 40
0.0
 40
0.3113183728297957
 40
0.6223618529988301
 40
0.9331303321874866
 40
0.9331303321874866
 40
0.9331303321874866
 40
0.9331303321874866
 10
115.3608798721
 20
125.0422954546
 30
0.0
 10
115.3705934818864
 20
125.1456126644801
 30
0.0
 10
115.3900121243873
 20
125.3521558556293
 30
0.0
 10
115.4201045642613
 20
125.6617409265466
 30
0.0
 10
115.440809437182
 20
125.8679749289578
 30
0.0
 10
115.4511572952
 20
125.9710463259
 30
0.0
 11
115.3608798721
 21
125.0422954546
 31
0.0
 11
115.3901838083
 21
125.3522315909
 31
0.0
 11
115.4202766051
 21
125.6618159415
 31
0.0
 11
115.4511572952
 21
125.9710463259
 31
0.0
  0
SPLINE
  5
54F
330
1B
100
AcDbEntity
  8
0
  6
Continuous
100
AcDbSpline
210
0.0
220
0.0
230
1.0
 70
     8
 71
     3
 72
    16
 73
    12
 74
    10
 42
0.0000000001
 43
0.0000000001
 44
0.0000000001
 40
0.0
 40
0.0
 40
0.0
 40
0.0
 40
7.184418042745998
 40
13.59247709651731
 40
19.41799955237738
 40
24.85554415620341
 40
30.09811674468216
 40
35.31382210694729
 40
40.53772829041095
 40
45.76233336142564
 40
50.97995942928248
 40
50.97995942928248
 40
50.97995942928248
 40
50.97995942928248
 10
160.3329753839
 20
180.2210463259
 30
0.0
 10
160.9102390836019
 20
177.8967393370982
 30
0.0
 10
162.002386501829
 20
173.4992934587278
 30
0.0
 10
163.3822287696603
 20
167.1746369233588
 30
0.0
 10
164.5314209725446
 20
161.397192565829
 30
0.0
 10
165.5029777700961
 20
155.9814432644475
 30
0.0
 10
166.3477755837778
 20
150.7503714333419
 30
0.0
 10
167.0931590744229
 20
145.5761113186345
 30
0.0
 10
167.7477244696454
 20
140.3957002054391
 30
0.0
 10
168.3201927085469
 20
135.2047400709281
 30
0.0
 10
168.6268601293654
 20
131.7374474730383
 30
0.0
 10
168.7800913601
 20
130.0049598463
 30
0.0
 11
160.3329753839
 21
180.2210463259
 31
0.0
 11
162.0294908954
 21
173.2398073433
 31
0.0
 11
163.4033910267
 21
166.9807643441
 31
0.0
 11
164.5380609516
 21
161.2668133428
 31
0.0
 11
165.498629449
 21
155.9147857382
 31
0.0
 11
166.3344463192
 21
150.7392686138
 31
0.0
 11
167.0778034043
 21
145.5768077016
 31
0.0
 11
167.7339950658
 21
140.3942785587
 31
0.0
 11
168.3016951701
 21
135.2006079165
 31
0.0
 11
168.7800913601
 21
130.0049598463
 31
0.0
  0
SPLINE
  5
550
330
1B
100
AcDbEntity
  8
0
  6
Continuous
100
AcDbSpline
210
0.0
220
0.0
230
1.0
 70
     8
 71
     3
 72
    10
 73
     6
 74
     4
 42
0.0000000001
 43
0.0000000001
 44
0.0000000001
 40
0.0
 40
0.0
 40
0.0
 40
0.0
 40
0.0592467017844525
 40
0.1173054327694656
 40
0.1744138509616526
 40
0.1744138509616526
 40
0.1744138509616526
 40
0.1744138509616526
 10
115.4511572952
 20
125.9710463259
 30
0.0
 10
115.4441813686942
 20
125.989526260321
 30
0.0
 10
115.4303693917724
 20
126.0261155832626
 30
0.0
 10
115.4139852257922
 20
126.081983067845
 30
0.0
 10
115.4061942839625
 20
126.1195834741364
 30
0.0
 10
115.4023309569
 20
126.1382285456
 30
0.0
 11
115.4511572952
 21
125.9710463259
 31
0.0
 11
115.430941849
 21
126.0267375048
 31
0.0
 11
115.4146654183
 21
126.0824680534
 31
0.0
 11
115.4023309569
 21
126.1382285456
 31
0.0
  0
SPLINE
  5
551
330
1B
100
AcDbEntity
  8
0
  6
Continuous
100
AcDbSpline
210
0.0
220
0.0
230
1.0
 70
     8
 71
     3
 72
    10
 73
     6
 74
     4
 42
0.0000000001
 43
0.0000000001
 44
0.0000000001
 40
0.0
 40
0.0
 40
0.0
 40
0.0
 40
0.3113446971421235
 40
0.6225829720766332
 40
0.9337147220925913
 40
0.9337147220925913
 40
0.9337147220925913
 40
0.9337147220925913
 10
115.4023309569
 20
126.1382285456
 30
0.0
 10
115.408213418667
 20
126.2418432991244
 30
0.0
 10
115.4199763314887
 20
126.4490373891227
 30
0.0
 10
115.4385463854487
 20
126.7597217892105
 30
0.0
 10
115.4515435827501
 20
126.9667709944581
 30
0.0
 10
115.4580410691
 20
127.0702778778
 30
0.0
 11
115.4023309569
 21
126.1382285456
 31
0.0
 11
115.4201332054
 21
126.4490638724
 31
0.0
 11
115.4387033767
 21
126.7597476546
 31
0.0
 11
115.4580410691
 21
127.0702778778
 31
0.0
  0
SPLINE
  5
552
330
1B
100
AcDbEntity
  8
0
  6
Continuous
100
AcDbSpline
210
0.0
220
0.0
230
1.0
 70
     8
 71
     3
 72
    10
 73
     6
 74
     4
 42
0.0000000001
 43
0.0000000001
 44
0.0000000001
 40
0.0
 40
0.0
 40
0.0
 40
0.0
 40
0.3320285879568664
 40
0.664055954007363
 40
0.9960820233837038
 40
0.9960820233837038
 40
0.9960820233837038
 40
0.9960820233837038
 10
115.2024407715
 20
122.80189938
 30
0.0
 10
115.2091894280235
 20
122.912369636534
 30
0.0
 10
115.2226867162345
 20
123.1333097430577
 30
0.0
 10
115.2433707161037
 20
123.4646923264899
 30
0.0
 10
115.2574520622
 20
123.6855951365464
 30
0.0
 10
115.2644927215
 20
123.7960463259
 30
0.0
 11
115.2024407715
 21
122.80189938
 31
0.0
 11
115.2227597592
 21
123.1333056593
 31
0.0
 11
115.243443753
 21
123.4646881335
 31
0.0
 11
115.2644927215
 21
123.7960463259
 31
0.0
  0
SPLINE
  5
553
330
1B
100
AcDbEntity
  8
0
  6
Continuous
100
AcDbSpline
210
0.0
220
0.0
230
1.0
 70
     8
 71
     3
 72
    10
 73
     6
 74
     4
 42
0.0000000001
 43
0.0000000001
 44
0.0000000001
 40
0.0
 40
0.0
 40
0.0
 40
0.0
 40
2.004507990281399
 40
4.00903104741022
 40
6.013570928486057
 40
6.013570928486057
 40
6.013570928486057
 40
6.013570928486057
 10
169.1797656021
 20
127.7210417259
 30
0.0
 10
169.2298036343901
 20
127.0547470836525
 30
0.0
 10
169.3298800750802
 20
125.7221527909661
 30
0.0
 10
169.4640591725901
 20
123.7220954926561
 30
0.0
 10
169.5428803654729
 20
122.3880645808961
 30
0.0
 10
169.5822911273
 20
121.7210463259
 30
0.0
 11
169.1797656021
 21
127.7210417259
 31
0.0
 11
169.3272237011
 21
125.7219648409
 31
0.0
 11
169.4614008475
 21
123.7219375461
 31
0.0
 11
169.5822911273
 21
121.7210463259
 31
0.0
  0
SPLINE
  5
554
330
1B
100
AcDbEntity
  8
0
  6
Continuous
100
AcDbSpline
210
0.0
220
0.0
230
1.0
 70
     8
 71
     3
 72
    10
 73
     6
 74
     4
 42
0.0000000001
 43
0.0000000001
 44
0.0000000001
 40
0.0
 40
0.0
 40
0.0
 40
0.0
 40
0.3111344415582139
 40
0.6223736412174539
 40
0.933717548615428
 40
0.933717548615428
 40
0.933717548615428
 40
0.933717548615428
 10
115.2573807781
 20
127.0702778778
 30
0.0
 10
115.2508793748789
 20
126.9667703417726
 30
0.0
 10
115.2378743794321
 20
126.7597204190182
 30
0.0
 10
115.2192884442423
 20
126.4490360305888
 30
0.0
 10
115.2075121540704
 20
126.2418426560467
 30
0.0
 10
115.2016230187
 20
126.1382285456
 30
0.0
 11
115.2573807781
 21
127.0702778778
 31
0.0
 11
115.2380306307
 21
126.7597457337
 31
0.0
 11
115.2194445812
 21
126.4490619746
 31
0.0
 11
115.2016230187
 21
126.1382285456
 31
0.0
  0
SPLINE
  5
555
330
1B
100
AcDbEntity
  8
0
  6
Continuous
100
AcDbSpline
210
0.0
220
0.0
230
1.0
 70
     8
 71
     3
 72
     9
 73
     5
 74
     3
 42
0.0000000001
 43
0.0000000001
 44
0.0000000001
 40
0.0
 40
0.0
 40
0.0
 40
0.0
 40
0.0570827148341502
 40
0.0956463067412018
 40
0.0956463067412018
 40
0.0956463067412018
 40
0.0956463067412018
 10
115.2016230187
 20
126.1382285456
 30
0.0
 10
115.2053910408221
 20
126.1195663497084
 30
0.0
 10
115.2117046403196
 20
126.0882964614788
 30
0.0
 10
115.2205792645861
 20
126.0576621815213
 30
0.0
 10
115.2241574204
 20
126.0453107598
 30
0.0
 11
115.2016230187
 21
126.1382285456
 31
0.0
 11
115.2138392778
 21
126.0824683506
 31
0.0
 11
115.2241574204
 21
126.0453107598
 31
0.0
  0
SPLINE
  5
556
330
1B
100
AcDbEntity
  8
0
  6
Continuous
100
AcDbSpline
210
0.0
220
0.0
230
1.0
 70
     8
 71
     3
 72
     9
 73
     5
 74
     3
 42
0.0000000001
 43
0.0000000001
 44
0.0000000001
 40
0.0
 40
0.0
 40
0.0
 40
0.0
 40
0.019460632965604
 40
0.0786477242739825
 40
0.0786477242739825
 40
0.0786477242739825
 40
0.0786477242739825
 10
115.2241574204
 20
126.0453107598
 30
0.0
 10
115.2260622943994
 20
126.0391090309448
 30
0.0
 10
115.2337606054124
 20
126.014045516213
 30
0.0
 10
115.2430308031293
 20
125.9895104344961
 30
0.0
 10
115.2500071784
 20
125.9710463259
 30
0.0
 11
115.2241574204
 21
126.0453107598
 31
0.0
 11
115.229968284
 21
126.0267379275
 31
0.0
 11
115.2500071784
 21
125.9710463259
 31
0.0
  0
SPLINE
  5
557
330
1B
100
AcDbEntity
  8
0
  6
Continuous
100
AcDbSpline
210
0.0
220
0.0
230
1.0
 70
     8
 71
     3
 72
    10
 73
     6
 74
     4
 42
0.0000000001
 43
0.0000000001
 44
0.0000000001
 40
0.0
 40
0.0
 40
0.0
 40
0.0
 40
0.3107653473664545
 40
0.6218012678378865
 40
0.933107711337276
 40
0.933107711337276
 40
0.933107711337276
 40
0.933107711337276
 10
115.2500071784
 20
125.9710463259
 30
0.0
 10
115.239686749909
 20
125.8679732283982
 30
0.0
 10
115.2190369072714
 20
125.6617372910591
 30
0.0
 10
115.1890224323284
 20
125.3521522344236
 30
0.0
 10
115.1696527173524
 20
125.1456109746856
 30
0.0
 10
115.15996365
 20
125.0422954546
 30
0.0
 11
115.2500071784
 21
125.9710463259
 31
0.0
 11
115.2192079755
 21
125.6618109621
 31
0.0
 11
115.1891931525
 21
125.3522266372
 31
0.0
 11
115.15996365
 21
125.0422954546
 31
0.0
  0
SPLINE
  5
558
330
1B
100
AcDbEntity
  8
0
  6
Continuous
100
AcDbSpline
210
0.0
220
0.0
230
1.0
 70
     8
 71
     3
 72
    10
 73
     6
 74
     4
 42
0.0000000001
 43
0.0000000001
 44
0.0000000001
 40
0.0
 40
0.0
 40
0.0
 40
0.0
 40
0.251830910589147
 40
0.5036239123048579
 40
0.7553835781368067
 40
0.7553835781368067
 40
0.7553835781368067
 40
0.7553835781368067
 10
115.15996365
 20
125.0422954546
 30
0.0
 10
115.1591917521009
 20
124.9583551182289
 30
0.0
 10
115.1576480724989
 20
124.7904870812808
 30
0.0
 10
115.1575840413507
 20
124.5386879031596
 30
0.0
 10
115.1590423273637
 20
124.3708428516616
 30
0.0
 10
115.1597714221
 20
124.2869258817
 30
0.0
 11
115.15996365
 21
125.0422954546
 31
0.0
 11
115.1580232601
 21
124.7904720196
 31
0.0
 11
115.1579593308
 21
124.538679026
 31
0.0
 11
115.1597714221
 21
124.2869258817
 31
0.0
  0
SPLINE
  5
559
330
1B
100
AcDbEntity
  8
0
  6
Continuous
100
AcDbSpline
210
0.0
220
0.0
230
1.0
 70
     8
 71
     3
 72
    10
 73
     6
 74
     4
 42
0.0000000001
 43
0.0000000001
 44
0.0000000001
 40
0.0
 40
0.0
 40
0.0
 40
0.0
 40
0.167110192664102
 40
0.3338445168304988
 40
0.5002423631309918
 40
0.5002423631309918
 40
0.5002423631309918
 40
0.5002423631309918
 10
115.1597714221
 20
124.2869258817
 30
0.0
 10
115.1478698118322
 20
124.2325077695895
 30
0.0
 10
115.1240933607012
 20
124.1237939439709
 30
0.0
 10
115.0920664763288
 20
123.9601317280307
 30
0.0
 10
115.0731733947004
 20
123.8507046179093
 30
0.0
 10
115.0637363953
 20
123.7960463259
 30
0.0
 11
115.1597714221
 21
124.2869258817
 31
0.0
 11
115.1246686477
 21
124.1235440843
 31
0.0
 11
115.0926549022
 21
123.9599120124
 31
0.0
 11
115.0637363953
 21
123.7960463259
 31
0.0
  0
SPLINE
  5
55B
330
1B
100
AcDbEntity
  8
0
  6
Continuous
100
AcDbSpline
210
0.0
220
0.0
230
1.0
 70
     8
 71
     3
 72
    10
 73
     6
 74
     4
 42
0.0000000001
 43
0.0000000001
 44
0.0000000001
 40
0.0
 40
0.0
 40
0.0
 40
0.0
 40
0.3320252227652074
 40
0.6640516957839208
 40
0.9960793566785859
 40
0.9960793566785859
 40
0.9960793566785859
 40
0.9960793566785859
 10
115.0637363953
 20
123.7960463259
 30
0.0
 10
115.0567005932476
 20
123.6855951098163
 30
0.0
 10
115.0426289626492
 20
123.4646922617407
 30
0.0
 10
115.0219592339215
 20
123.1333096786671
 30
0.0
 10
115.0084712580164
 20
122.9123696112966
 30
0.0
 10
115.001727258
 20
122.80189938
 30
0.0
 11
115.0637363953
 21
123.7960463259
 31
0.0
 11
115.042701948
 21
123.4646880597
 31
0.0
 11
115.0220322255
 21
123.1333055898
 31
0.0
 11
115.001727258
 21
122.80189938
 31
0.0
  0
SPLINE
  5
55C
330
1B
100
AcDbEntity
  8
0
  6
Continuous
100
AcDbSpline
210
0.0
220
0.0
230
1.0
 70
     8
 71
     3
 72
    28
 73
    24
 74
    22
 42
0.0000000001
 43
0.0000000001
 44
0.0000000001
 40
0.0
 40
0.0
 40
0.0
 40
0.0
 40
0.3070295814318522
 40
0.885696995908391
 40
1.464623302248355
 40
2.045495434515619
 40
2.629447413188272
 40
3.216911686819401
 40
3.807609228116145
 40
4.40077322180945
 40
4.995448647616142
 40
5.590795371056555
 40
6.186228069224503
 40
6.781489476447799
 40
7.376232188975207
 40
7.969442134263197
 40
8.56046756221834
 40
9.149559234876666
 40
9.737157848000281
 40
10.32373931298878
 40
10.90982222785828
 40
11.49593552909436
 40
12.06697899049224
 40
12.06697899049224
 40
12.06697899049224
 40
12.06697899049224
 10
136.9969457156
 20
120.9828302878
 30
0.0
 10
136.8945873319512
 20
120.9853454633107
 30
0.0
 10
136.5993111814223
 20
120.9926010618871
 30
0.0
 10
136.1151976803674
 20
121.0736746970796
 30
0.0
 10
135.562401055973
 20
121.2543112308531
 30
0.0
 10
135.0435903841918
 20
121.522078963993
 30
0.0
 10
134.5714285840735
 20
121.8700216223235
 30
0.0
 10
134.1578086584959
 20
122.290515867484
 30
0.0
 10
133.8131688386049
 20
122.77287340164
 30
0.0
 10
133.5457517578128
 20
123.3045787917139
 30
0.0
 10
133.3612652674776
 20
123.8719771190674
 30
0.0
 10
133.2629781840726
 20
124.4611629382279
 30
0.0
 10
133.2521138061875
 20
125.0585425086164
 30
0.0
 10
133.328296191861
 20
125.650925839304
 30
0.0
 10
133.4897072676599
 20
126.2252061720344
 30
0.0
 10
133.7329151844007
 20
126.7683979399806
 30
0.0
 10
134.0528067991019
 20
127.2680780509581
 30
0.0
 10
134.4427643691977
 20
127.712852112145
 30
0.0
 10
134.8946830534005
 20
128.0921657505032
 30
0.0
 10
135.3987940244014
 20
128.3973858926239
 30
0.0
 10
135.9437173083603
 20
128.6186585292674
 30
0.0
 10
136.5116964056367
 20
128.7573695836191
 30
0.0
 10
136.897786060303
 20
128.7744089091044
 30
0.0
 10
137.0883168336
 20
128.7828176189
 30
0.0
 11
136.9969457156
 21
120.9828302878
 31
0.0
 11
136.6901733566
 21
120.995395463
 31
0.0
 11
136.1189159876
 21
121.0877046984
 31
0.0
 11
135.5689304794
 21
121.2684575931
 31
0.0
 11
135.0526380996
 21
121.5346428906
 31
0.0
 11
134.5824834494
 21
121.8809873987
 31
0.0
 11
134.1703325021
 21
122.299611179
 31
0.0
 11
133.8266783393
 21
122.7800541014
 31
0.0
 11
133.5598707115
 21
123.3098250077
 31
0.0
 11
133.3757207606
 21
123.8752696625
 31
0.0
 11
133.2775576863
 21
124.4624678675
 31
0.0
 11
133.2666290319
 21
125.0578002642
 31
0.0
 11
133.3425656162
 21
125.648198247
 31
0.0
 11
133.5036008662
 21
126.2207247026
 31
0.0
 11
133.7461929926
 21
126.7620629512
 31
0.0
 11
134.0650573894
 21
127.2596938917
 31
0.0
 11
134.4536211371
 21
127.7024660823
 31
0.0
 11
134.9037913395
 21
128.0801152833
 31
0.0
 11
135.4058164495
 21
128.3835104118
 31
0.0
 11
135.948392759
 21
128.6051049322
 31
0.0
 11
136.5189326073
 21
128.7393177609
 31
0.0
 11
137.0883168336
 21
128.7828176189
 31
0.0
  0
SPLINE
  5
55D
330
1B
100
AcDbEntity
  8
0
  6
Continuous
100
AcDbSpline
210
0.0
220
0.0
230
1.0
 70
    24
 71
     3
 72
     8
 73
     4
 74
     2
 42
0.0000000001
 43
0.0000000001
 44
0.0000000001
 40
0.0
 40
0.0
 40
0.0
 40
0.0
 40
0.1780987568158847
 40
0.1780987568158847
 40
0.1780987568158847
 40
0.1780987568158847
 10
114.9731487725
 20
122.9826149774
 30
0.0
 10
114.9685384267333
 20
122.9234280141333
 30
0.0
 10
114.9639280809666
 20
122.8642410508666
 30
0.0
 10
114.9593177352
 20
122.8050540876
 30
0.0
 11
114.9731487725
 21
122.9826149774
 31
0.0
 11
114.9593177352
 21
122.8050540876
 31
0.0
  0
SPLINE
  5
55E
330
1B
100
AcDbEntity
  8
0
  6
Continuous
100
AcDbSpline
210
0.0
220
0.0
230
1.0
 70
     8
 71
     3
 72
    10
 73
     6
 74
     4
 42
0.0000000001
 43
0.0000000001
 44
0.0000000001
 40
0.0
 40
0.0
 40
0.0
 40
0.0
 40
0.0762634388205145
 40
0.3307359248403154
 40
0.4710296222414311
 40
0.4710296222414311
 40
0.4710296222414311
 40
0.4710296222414311
 10
114.9593177352
 20
122.8050540876
 30
0.0
 10
114.9574253655769
 20
122.7797034804847
 30
0.0
 10
114.9492186202854
 20
122.669764083321
 30
0.0
 10
114.9383044529714
 20
122.5131317420471
 30
0.0
 10
114.9300102708675
 20
122.3818045953758
 30
0.0
 10
114.9270626489
 20
122.3351329914
 30
0.0
 11
114.9593177352
 21
122.8050540876
 31
0.0
 11
114.9536695141
 21
122.7290000956
 31
0.0
 11
114.9360132337
 21
122.4751408789
 31
0.0
 11
114.9270626489
 21
122.3351329914
 31
0.0
  0
SPLINE
  5
55F
330
1B
100
AcDbEntity
  8
0
  6
Continuous
100
AcDbSpline
210
0.0
220
0.0
230
1.0
 70
    24
 71
     3
 72
     8
 73
     4
 74
     2
 42
0.0000000001
 43
0.0000000001
 44
0.0000000001
 40
0.0
 40
0.0
 40
0.0
 40
0.0
 40
0.1142939330574986
 40
0.1142939330574986
 40
0.1142939330574986
 40
0.1142939330574986
 10
114.9270626489
 20
122.3351329914
 30
0.0
 10
114.9247692795
 20
122.2971041029
 30
0.0
 10
114.9224759101
 20
122.2590752144
 30
0.0
 10
114.9201825407
 20
122.2210463259
 30
0.0
 11
114.9270626489
 21
122.3351329914
 31
0.0
 11
114.9201825407
 21
122.2210463259
 31
0.0
  0
SPLINE
  5
560
330
1B
100
AcDbEntity
  8
0
  6
Continuous
100
AcDbSpline
210
0.0
220
0.0
230
1.0
 70
     8
 71
     3
 72
    16
 73
    12
 74
    10
 42
0.0000000001
 43
0.0000000001
 44
0.0000000001
 40
0.0
 40
0.0
 40
0.0
 40
0.0
 40
5.230011825025555
 40
10.4743035236149
 40
15.71739774499729
 40
20.94408516001295
 40
26.18552836619525
 40
31.61285969773708
 40
37.42251090141868
 40
43.81246195322634
 40
50.97996048924643
 40
50.97996048924643
 40
50.97996048924643
 40
50.97996048924643
 10
115.9084569626
 20
130.0049598463
 30
0.0
 10
116.0620730816003
 20
131.7415584241586
 30
0.0
 10
116.369724748625
 20
135.2194971385857
 30
0.0
 10
116.9444604784054
 20
140.4274016448954
 30
0.0
 10
117.6018127193465
 20
145.6242137923614
 30
0.0
 10
118.3495395613513
 20
150.8079181497663
 30
0.0
 10
119.1953733444999
 20
156.0387006822199
 30
0.0
 10
120.1663203979562
 20
161.4453413427151
 30
0.0
 10
121.3134446154841
 20
167.2081754726488
 30
0.0
 10
122.690227820641
 20
173.5161277382032
 30
0.0
 10
123.7796313912003
 20
177.9022229506004
 30
0.0
 10
124.3555729388
 20
180.2210463259
 30
0.0
 11
115.9084569626
 21
130.0049598463
 31
0.0
 11
116.3880941395
 21
135.2129317998
 31
0.0
 11
116.9583120211
 21
140.4261311042
 31
0.0
 11
117.6176223403
 21
145.62760656
 31
0.0
 11
118.363504621
 21
150.8007990905
 31
0.0
 11
119.2001854998
 21
155.9750325594
 31
0.0
 11
120.1599291405
 21
161.3168316502
 31
0.0
 11
121.2923098028
 21
167.0150560354
 31
0.0
 11
122.662859233
 21
173.2562953918
 31
0.0
 11
124.3555729388
 21
180.2210463259
 31
0.0
  0
SPLINE
  5
561
330
1B
100
AcDbEntity
  8
0
  6
Continuous
100
AcDbSpline
210
0.0
220
0.0
230
1.0
 70
     8
 71
     3
 72
    16
 73
    12
 74
    10
 42
0.0000000001
 43
0.0000000001
 44
0.0000000001
 40
0.0
 40
0.0
 40
0.0
 40
0.0
 40
5.228042524039285
 40
10.46955823769242
 40
15.70894007259919
 40
20.93086076964642
 40
26.1663222843459
 40
31.58605147806273
 40
37.38581460350754
 40
43.7625937972908
 40
50.91217596982713
 40
50.91217596982713
 40
50.91217596982713
 40
50.91217596982713
 10
116.916734955
 20
130.0049598463
 30
0.0
 10
117.0633081710495
 20
131.7415045115104
 30
0.0
 10
117.3568323370179
 20
135.2190690915948
 30
0.0
 10
117.9052258330129
 20
140.4269438990797
 30
0.0
 10
118.5324481248997
 20
145.6236822901239
 30
0.0
 10
119.2459022487593
 20
150.8073245031379
 30
0.0
 10
120.0529639107954
 20
156.0380190812179
 30
0.0
 10
120.9793886934086
 20
161.4445004279517
 30
0.0
 10
122.0739107372432
 20
167.2071310153113
 30
0.0
 10
123.3874670907141
 20
173.5145368055966
 30
0.0
 10
124.4272727278541
 20
177.9019869409584
 30
0.0
 10
124.976879207
 20
180.2210463259
 30
0.0
 11
116.916734955
 21
130.0049598463
 31
0.0
 11
117.3743994224
 21
135.2129317998
 31
0.0
 11
117.9184949922
 21
140.4261311042
 31
0.0
 11
118.5476015767
 21
145.62760656
 31
0.0
 11
119.2593141652
 21
150.8007990905
 31
0.0
 11
120.0576657677
 21
155.9750325594
 31
0.0
 11
120.9734424909
 21
161.3168316502
 31
0.0
 11
122.0539475428
 21
167.0150560354
 31
0.0
 11
123.361710588
 21
173.2562953918
 31
0.0
 11
124.976879207
 21
180.2210463259
 31
0.0
  0
SPLINE
  5
562
330
1B
100
AcDbEntity
  8
0
  6
Continuous
100
AcDbSpline
210
0.0
220
0.0
230
1.0
 70
     8
 71
     3
 72
    10
 73
     6
 74
     4
 42
0.0000000001
 43
0.0000000001
 44
0.0000000001
 40
0.0
 40
0.0
 40
0.0
 40
0.0
 40
2.853646561902781
 40
5.707396033540092
 40
8.561007781069943
 40
8.561007781069943
 40
8.561007781069943
 40
8.561007781069943
 10
139.833749641
 20
104.5210463259
 30
0.0
 10
139.8319634981405
 20
105.472260307148
 30
0.0
 10
139.8283911480086
 20
107.3747225728332
 30
0.0
 10
139.8286721434204
 20
110.2283943993175
 30
0.0
 10
139.8326192072223
 20
112.130844319687
 30
0.0
 10
139.8345926915
 20
113.0820463259
 30
0.0
 11
139.833749641
 21
104.5210463259
 31
0.0
 11
139.8293310991
 21
107.374689467
 31
0.0
 11
139.8296121265
 21
110.2284389248
 31
0.0
 11
139.8345926915
 21
113.0820463259
 31
0.0
  0
SPLINE
  5
563
330
1B
100
AcDbEntity
  8
0
  6
Continuous
100
AcDbSpline
210
0.0
220
0.0
230
1.0
 70
     8
 71
     3
 72
    10
 73
     6
 74
     4
 42
0.0000000001
 43
0.0000000001
 44
0.0000000001
 40
0.0
 40
0.0
 40
0.0
 40
0.0
 40
0.5444994572422973
 40
1.088521722074274
 40
1.632327230897939
 40
1.632327230897939
 40
1.632327230897939
 40
1.632327230897939
 10
139.8345926915
 20
113.0820463259
 30
0.0
 10
139.8301386050165
 20
113.2635712332455
 30
0.0
 10
139.8212343355542
 20
113.6264619618128
 30
0.0
 10
139.7488634676083
 20
114.1672291932805
 30
0.0
 10
139.662133529188
 20
114.5194766266098
 30
0.0
 10
139.6187772007
 20
114.6955652496
 30
0.0
 11
139.8345926915
 21
113.0820463259
 31
0.0
 11
139.8113826948
 21
113.6260508801
 31
0.0
 11
139.7392250212
 21
114.1652665093
 31
0.0
 11
139.6187772007
 21
114.6955652496
 31
0.0
  0
SPLINE
  5
564
330
1B
100
AcDbEntity
  8
0
  6
Continuous
100
AcDbSpline
210
0.0
220
0.0
230
1.0
 70
     8
 71
     3
 72
    10
 73
     6
 74
     4
 42
0.0000000001
 43
0.0000000001
 44
0.0000000001
 40
0.0
 40
0.0
 40
0.0
 40
0.0
 40
0.9418951956711131
 40
1.88380239658226
 40
2.825694639193261
 40
2.825694639193261
 40
2.825694639193261
 40
2.825694639193261
 10
139.6187772007
 20
114.6955652496
 30
0.0
 10
139.5355768978432
 20
114.9983057000477
 30
0.0
 10
139.3691752316723
 20
115.6037904596227
 30
0.0
 10
139.1205568127359
 20
116.5122846022098
 30
0.0
 10
138.9554670448805
 20
117.1181273549004
 30
0.0
 10
138.8729228164
 20
117.4210463259
 30
0.0
 11
139.6187772007
 21
114.6955652496
 31
0.0
 11
139.3693401721
 21
115.6038315808
 31
0.0
 11
139.1207195268
 21
116.5123341674
 31
0.0
 11
138.8729228164
 21
117.4210463259
 31
0.0
  0
SPLINE
  5
565
330
1B
100
AcDbEntity
  8
0
  6
Continuous
100
AcDbSpline
210
0.0
220
0.0
230
1.0
 70
     8
 71
     3
 72
    17
 73
    13
 74
    11
 42
0.0000000001
 43
0.0000000001
 44
0.0000000001
 40
0.0
 40
0.0
 40
0.0
 40
0.0
 40
1.218909098132951
 40
2.381958948956724
 40
3.506950548693359
 40
4.607854542577734
 40
5.697074891377358
 40
6.786270379470101
 40
7.887092892871526
 40
9.011954678594021
 40
10.17480431269154
 40
11.39357783503495
 40
11.39357783503495
 40
11.39357783503495
 40
11.39357783503495
 10
153.9868267734
 20
98.15776562625273
 30
0.0
 10
153.6048238214139
 20
98.29659294117089
 30
0.0
 10
152.8583240607632
 20
98.56788549747017
 30
0.0
 10
151.7289812292783
 20
98.87487114744735
 30
0.0
 10
150.6203742834695
 20
99.09641771693282
 30
0.0
 10
149.5220391634568
 20
99.22832030949472
 30
0.0
 10
148.428662531812
 20
99.27242086995989
 30
0.0
 10
147.3353149567112
 20
99.22827630769397
 30
0.0
 10
146.2370630642066
 20
99.09634364787284
 30
0.0
 10
145.1285968100406
 20
98.87479489631511
 30
0.0
 10
143.9994087861779
 20
98.56783401563483
 30
0.0
 10
143.253014856944
 20
98.29657824606036
 30
0.0
 10
142.8710546985
 20
98.15776562625273
 30
0.0
 11
153.9868267734
 21
98.15776562625273
 31
0.0
 11
152.8354334461
 21
98.55780661835273
 31
0.0
 11
151.7137134263
 21
98.86509988655273
 31
0.0
 11
150.6101141158
 21
99.08344516665272
 31
0.0
 11
149.5170036622
 21
99.21420884655272
 31
0.0
 11
148.4286545567
 21
99.25776562325272
 31
0.0
 11
147.3403320794
 21
99.21416520255274
 31
0.0
 11
146.2473072185
 21
99.08337200905272
 31
0.0
 11
145.1438410467
 21
98.86502264525272
 31
0.0
 11
144.0223184963
 21
98.55776633455272
 31
0.0
 11
142.8710546985
 21
98.15776562625273
 31
0.0
  0
SPLINE
  5
566
330
1B
100
AcDbEntity
  8
0
  6
Continuous
100
AcDbSpline
210
0.0
220
0.0
230
1.0
 70
     8
 71
     3
 72
    17
 73
    13
 74
    11
 42
0.0000000001
 43
0.0000000001
 44
0.0000000001
 40
0.0
 40
0.0
 40
0.0
 40
0.0
 40
1.218909098132947
 40
2.381958948956723
 40
3.506950548693358
 40
4.607854542577734
 40
5.697074891377358
 40
6.786270379470102
 40
7.887092892871525
 40
9.011954678574607
 40
10.17480431267213
 40
11.39357783504836
 40
11.39357783504836
 40
11.39357783504836
 40
11.39357783504836
 10
153.9868267734
 20
90.15776562625273
 30
0.0
 10
153.6048238214139
 20
90.01893831133459
 30
0.0
 10
152.8583240607632
 20
89.74764575503536
 30
0.0
 10
151.7289812292784
 20
89.44066010505802
 30
0.0
 10
150.6203742834695
 20
89.21911353557282
 30
0.0
 10
149.5220391634567
 20
89.08721094301012
 30
0.0
 10
148.4286625318125
 20
89.04311038254784
 30
0.0
 10
147.3353149567095
 20
89.08725494480296
 30
0.0
 10
146.2370630642192
 20
89.2191876046644
 30
0.0
 10
145.128596810029
 20
89.44073635606127
 30
0.0
 10
143.9994087861614
 20
89.74769723676077
 30
0.0
 10
143.2530148569417
 20
90.01895300640663
 30
0.0
 10
142.8710546985
 20
90.15776562625273
 30
0.0
 11
153.9868267734
 21
90.15776562625273
 31
0.0
 11
152.8354334461
 21
89.75772463415274
 31
0.0
 11
151.7137134263
 21
89.45043136595272
 31
0.0
 11
150.6101141158
 21
89.23208608585273
 31
0.0
 11
149.5170036622
 21
89.10132240595272
 31
0.0
 11
148.4286545567
 21
89.05776562925273
 31
0.0
 11
147.3403320794
 21
89.10136604995273
 31
0.0
 11
146.2473072185
 21
89.23215924345273
 31
0.0
 11
145.1438410467
 21
89.45050860715273
 31
0.0
 11
144.0223184963
 21
89.75776491785273
 31
0.0
 11
142.8710546985
 21
90.15776562625273
 31
0.0
  0
SPLINE
  5
567
330
1B
100
AcDbEntity
  8
0
  6
Continuous
100
AcDbSpline
210
0.0
220
0.0
230
1.0
 70
     8
 71
     3
 72
    17
 73
    13
 74
    11
 42
0.0000000001
 43
0.0000000001
 44
0.0000000001
 40
0.0
 40
0.0
 40
0.0
 40
0.0
 40
0.6224824278736176
 40
1.17953451590378
 40
1.686128852767963
 40
2.157414931442041
 40
2.610323900724608
 40
3.063228661584164
 40
3.534490702538236
 40
4.041040483277888
 40
4.598010735656679
 40
5.220424848062301
 40
5.220424848062301
 40
5.220424848062301
 40
5.220424848062301
 10
159.3361105031
 20
98.15776562625273
 30
0.0
 10
159.1802225060571
 20
98.29499076399199
 30
0.0
 10
158.8848322028236
 20
98.55501703809267
 30
0.0
 10
158.4150654847254
 20
98.86699574188559
 30
0.0
 10
157.9535126274463
 20
99.09188575502111
 30
0.0
 10
157.4935215247356
 20
99.22728190715716
 30
0.0
 10
157.03384752098
 20
99.27271507809557
 30
0.0
 10
156.5741861052929
 20
99.22723900156451
 30
0.0
 10
156.1142295987611
 20
99.09181425738187
 30
0.0
 10
155.6527339217395
 20
98.8669232869355
 30
0.0
 10
155.1830293892141
 20
98.55497000579602
 30
0.0
 10
154.8876774436019
 20
98.29497609372001
 30
0.0
 10
154.7318069534
 20
98.15776562625273
 30
0.0
 11
159.3361105031
 21
98.15776562625273
 31
0.0
 11
158.8591901607
 21
98.55780482435273
 31
0.0
 11
158.3945623872
 21
98.86509631605273
 31
0.0
 11
157.9374378311
 21
99.08344228545273
 31
0.0
 11
157.4846563831
 21
99.21420745015273
 31
0.0
 11
157.0338468668
 21
99.25776562355274
 31
0.0
 11
156.5830456002
 21
99.21416584785273
 31
0.0
 11
156.1302973634
 21
99.08337232615274
 31
0.0
 11
155.6732243708
 21
98.86502178275273
 31
0.0
 11
155.2086725855
 21
98.55776374655272
 31
0.0
 11
154.7318069534
 21
98.15776562625273
 31
0.0
  0
SPLINE
  5
568
330
1B
100
AcDbEntity
  8
0
  6
Continuous
100
AcDbSpline
210
0.0
220
0.0
230
1.0
 70
     8
 71
     3
 72
    17
 73
    13
 74
    11
 42
0.0000000001
 43
0.0000000001
 44
0.0000000001
 40
0.0
 40
0.0
 40
0.0
 40
0.0
 40
0.6224824279378748
 40
1.179534515968037
 40
1.686128852789112
 40
2.157414931490941
 40
2.61032390076389
 40
3.063228661613819
 40
3.534490702567895
 40
4.041040483350653
 40
4.598010735674269
 40
5.220424848144157
 40
5.220424848144157
 40
5.220424848144157
 40
5.220424848144157
 10
159.3361105031
 20
90.15776562625273
 30
0.0
 10
159.1802225060603
 20
90.02054048847906
 30
0.0
 10
158.884832202847
 20
89.76051421432587
 30
0.0
 10
158.4150654847543
 20
89.44853551048175
 30
0.0
 10
157.9535126274004
 20
89.22364549755307
 30
0.0
 10
157.493521524763
 20
89.08824934516484
 30
0.0
 10
157.0338475209757
 20
89.04281617448999
 30
0.0
 10
156.5741861052921
 20
89.08829225079913
 30
0.0
 10
156.114229598731
 20
89.22371699501022
 30
0.0
 10
155.6527339218009
 20
89.44860796560769
 30
0.0
 10
155.183029389148
 20
89.76056124658373
 30
0.0
 10
154.8876774435889
 20
90.02055515873346
 30
0.0
 10
154.7318069534
 20
90.15776562625273
 30
0.0
 11
159.3361105031
 21
90.15776562625273
 31
0.0
 11
158.8591901607
 21
89.75772642805273
 31
0.0
 11
158.3945623872
 21
89.45043493635274
 31
0.0
 11
157.9374378311
 21
89.23208896705275
 31
0.0
 11
157.4846563831
 21
89.10132380225274
 31
0.0
 11
157.0338468668
 21
89.05776562895272
 31
0.0
 11
156.5830456002
 21
89.10136540455272
 31
0.0
 11
156.1302973634
 21
89.23215892625272
 31
0.0
 11
155.6732243708
 21
89.45050946975273
 31
0.0
 11
155.2086725855
 21
89.75776750585273
 31
0.0
 11
154.7318069534
 21
90.15776562625273
 31
0.0
  0
SPLINE
  5
569
330
1B
100
AcDbEntity
  8
0
  6
Continuous
100
AcDbSpline
210
0.0
220
0.0
230
1.0
 70
     8
 71
     3
 72
    16
 73
    12
 74
    10
 42
0.0000000001
 43
0.0000000001
 44
0.0000000001
 40
0.0
 40
0.0
 40
0.0
 40
0.0
 40
5.225023940192349
 40
10.46228374412836
 40
15.6959727651763
 40
20.91058197481814
 40
26.13686572679512
 40
31.54492704142297
 40
37.32950796645244
 40
43.6860537604877
 40
50.80809904874062
 40
50.80809904874062
 40
50.80809904874062
 40
50.80809904874062
 10
118.6976158593
 20
130.0049598463
 30
0.0
 10
118.8326905709461
 20
131.7414217190723
 30
0.0
 10
119.1031563096821
 20
135.2184118786878
 30
0.0
 10
119.6085400894417
 20
140.4262403831916
 30
0.0
 10
120.1865686480062
 20
145.6228646850072
 30
0.0
 10
120.8440651237653
 20
150.806410256852
 30
0.0
 10
121.587823587753
 20
156.0369681483214
 30
0.0
 10
122.4415610945458
 20
161.443201839244
 30
0.0
 10
123.4502049493921
 20
167.20551599773
 30
0.0
 10
124.6605628952462
 20
173.5120701795329
 30
0.0
 10
125.6192943083292
 20
177.9016212803435
 30
0.0
 10
126.1258849825
 20
180.2210463259
 30
0.0
 11
118.6976158593
 21
130.0049598463
 31
0.0
 11
119.1194017139
 21
135.2129317998
 31
0.0
 11
119.6208429034
 21
140.4261311042
 31
0.0
 11
120.2006306678
 21
145.62760656
 31
0.0
 11
120.8565485374
 21
150.8007990905
 31
0.0
 11
121.5923133541
 21
155.9750325594
 31
0.0
 11
122.4362977475
 21
161.3168316502
 31
0.0
 11
123.4320965897
 21
167.0150560354
 31
0.0
 11
124.6373375315
 21
173.2562953918
 31
0.0
 11
126.1258849825
 21
180.2210463259
 31
0.0
  0
SPLINE
  5
56A
330
1B
100
AcDbEntity
  8
0
  6
Continuous
100
AcDbSpline
210
0.0
220
0.0
230
1.0
 70
     8
 71
     3
 72
    22
 73
    18
 74
    16
 42
0.0000000001
 43
0.0000000001
 44
0.0000000001
 40
0.0
 40
0.0
 40
0.0
 40
0.0
 40
0.2109426838134445
 40
0.5145954324775879
 40
0.8289378965050014
 40
1.15410933179084
 40
1.494313791812161
 40
1.84802622985356
 40
2.214475657879364
 40
2.592565113987466
 40
2.977107375192747
 40
3.367774949716948
 40
3.757304204528627
 40
4.144967452581655
 40
4.523725006534559
 40
4.891956465758991
 40
5.245567505421896
 40
5.245567505421896
 40
5.245567505421896
 40
5.245567505421896
 10
159.4091857524
 20
127.7210257896
 30
0.0
 10
159.3388129064711
 20
127.7177482725247
 30
0.0
 10
159.167138096846
 20
127.7097527578839
 30
0.0
 10
158.8984715078247
 20
127.6330226003307
 30
0.0
 10
158.6177741401783
 20
127.4875188207457
 30
0.0
 10
158.3620523329566
 20
127.28098892417
 30
0.0
 10
158.1397590896624
 20
127.0218675526802
 30
0.0
 10
157.9575542007073
 20
126.7171187078253
 30
0.0
 10
157.821328725675
 20
126.3757533518466
 30
0.0
 10
157.7358044112013
 20
126.0078134005294
 30
0.0
 10
157.7038760924443
 20
125.6233933125672
 30
0.0
 10
157.7269039511843
 20
125.2345129716685
 30
0.0
 10
157.8044525376759
 20
124.851774240538
 30
0.0
 10
157.9335386502184
 20
124.4871755479301
 30
0.0
 10
158.1111959477477
 20
124.1521937157621
 30
0.0
 10
158.3272363583422
 20
123.8527851635325
 30
0.0
 10
158.5051973790955
 20
123.6900594954326
 30
0.0
 10
158.5923756509
 20
123.6103446092
 30
0.0
 11
159.4091857524
 21
127.7210257896
 31
0.0
 11
159.1988888297
 21
127.704532756
 31
0.0
 11
158.905889621
 21
127.6248053738
 31
0.0
 11
158.6266514101
 21
127.4804543909
 31
0.0
 11
158.3727913222
 21
127.277251246
 31
0.0
 11
158.1504275823
 21
127.0197761175
 31
0.0
 11
157.9680459056
 21
126.716709437
 31
0.0
 11
157.8314824381
 21
126.3766570842
 31
0.0
 11
157.7453022739
 21
126.0085204029
 31
0.0
 11
157.7130978298
 21
125.625329035
 31
0.0
 11
157.7360484466
 21
125.2353361851
 31
0.0
 11
157.8134143587
 21
124.8535672026
 31
0.0
 11
157.9433379559
 21
124.4883239237
 31
0.0
 11
158.1204720064
 21
124.1535391976
 31
0.0
 11
158.3395443063
 21
123.8575632949
 31
0.0
 11
158.5923756509
 21
123.6103446092
 31
0.0
  0
SPLINE
  5
56B
330
1B
100
AcDbEntity
  8
0
  6
Continuous
100
AcDbSpline
210
0.0
220
0.0
230
1.0
 70
     8
 71
     3
 72
    16
 73
    12
 74
    10
 42
0.0000000001
 43
0.0000000001
 44
0.0000000001
 40
0.0
 40
0.0
 40
0.0
 40
0.0
 40
5.221318715611464
 40
10.45335314545741
 40
15.68005042841043
 40
20.88567674614698
 40
26.1006802468908
 40
31.49439431790015
 40
37.26029692120024
 40
43.59193447246692
 40
50.68005467028745
 40
50.68005467028745
 40
50.68005467028745
 40
50.68005467028745
 10
121.1969885102
 20
130.0049598463
 30
0.0
 10
121.3164605144087
 20
131.7413198381095
 30
0.0
 10
121.5556497152623
 20
135.2176033539496
 30
0.0
 10
122.0026677880776
 20
140.4253737236041
 30
0.0
 10
122.5139392738361
 20
145.6218562577879
 30
0.0
 10
123.0955000401843
 20
150.8052808851997
 30
0.0
 10
123.7533560650899
 20
156.035667861531
 30
0.0
 10
124.5084648279261
 20
161.4415917365845
 30
0.0
 10
125.4005820195068
 20
167.2035100122247
 30
0.0
 10
126.4709602948884
 20
173.5089951823593
 30
0.0
 10
127.3194947765356
 20
177.9011658681314
 30
0.0
 10
127.7676783064
 20
180.2210463259
 30
0.0
 11
121.1969885102
 21
130.0049598463
 31
0.0
 11
121.5700800024
 21
135.2129317998
 31
0.0
 11
122.0136307748
 21
140.4261311042
 31
0.0
 11
122.5264831613
 21
145.62760656
 31
0.0
 11
123.1066765793
 21
150.8007990905
 31
0.0
 11
123.7574987686
 21
155.9750325594
 31
0.0
 11
124.5040467934
 21
161.3168316502
 31
0.0
 11
125.3848825821
 21
167.0150560354
 31
0.0
 11
126.4509807843
 21
173.2562953918
 31
0.0
 11
127.7676783064
 21
180.2210463259
 31
0.0
  0
SPLINE
  5
56C
330
1B
100
AcDbEntity
  8
0
  6
Continuous
100
AcDbSpline
210
0.0
220
0.0
230
1.0
 70
     8
 71
     3
 72
    16
 73
    12
 74
    10
 42
0.0000000001
 43
0.0000000001
 44
0.0000000001
 40
0.0
 40
0.0
 40
0.0
 40
0.0
 40
5.217372807891575
 40
10.44384077282298
 40
15.66308731639128
 40
20.85913718375531
 40
26.06210963123824
 40
31.44051364930184
 40
37.1864725106571
 40
43.49149518817736
 40
50.54333380621085
 40
50.54333380621085
 40
50.54333380621085
 40
50.54333380621085
 10
124.3389107346
 20
130.0049598463
 30
0.0
 10
124.439151949408
 20
131.7412110283342
 30
0.0
 10
124.6398091239817
 20
135.216740102922
 30
0.0
 10
125.0148836891002
 20
140.4244469738711
 30
0.0
 10
125.4438690255081
 20
145.6207764162276
 30
0.0
 10
125.9318301704463
 20
150.8040693879444
 30
0.0
 10
126.483803380748
 20
156.0342704788803
 30
0.0
 10
127.1173544478905
 20
161.4398571915374
 30
0.0
 10
127.8658562208498
 20
167.2013446007038
 30
0.0
 10
128.7637850160423
 20
173.5056617101241
 30
0.0
 10
129.4762328309591
 20
177.9006727220454
 30
0.0
 10
129.8523741192
 20
180.2210463259
 30
0.0
 11
124.3389107346
 21
130.0049598463
 31
0.0
 11
124.6519716681
 21
135.2129317998
 31
0.0
 11
125.0241549577
 21
140.4261311042
 31
0.0
 11
125.454489206
 21
145.62760656
 31
0.0
 11
125.9413292891
 21
150.8007990905
 31
0.0
 11
126.4874339481
 21
155.9750325594
 31
0.0
 11
127.1138621204
 21
161.3168316502
 31
0.0
 11
127.8529711058
 21
167.0150560354
 31
0.0
 11
128.7475337141
 21
173.2562953918
 31
0.0
 11
129.8523741192
 21
180.2210463259
 31
0.0
  0
SPLINE
  5
56D
330
1B
100
AcDbEntity
  8
0
  6
Continuous
100
AcDbSpline
210
0.0
220
0.0
230
1.0
 70
     8
 71
     3
 72
    17
 73
    13
 74
    11
 42
0.0000000001
 43
0.0000000001
 44
0.0000000001
 40
0.0
 40
0.0
 40
0.0
 40
0.0
 40
0.6224819220081781
 40
1.179540250271116
 40
1.68613735315925
 40
2.157424415058861
 40
2.61033513557418
 40
3.063236551837362
 40
3.534496187016305
 40
4.041042319496286
 40
4.598006253806769
 40
5.220424853263459
 40
5.220424853263459
 40
5.220424853263459
 40
5.220424853263459
 10
129.9567413693
 20
98.15776562625273
 30
0.0
 10
129.8008535000102
 20
98.29499065095646
 30
0.0
 10
129.5054617627479
 20
98.55501818631092
 30
0.0
 10
129.0356924831907
 20
98.86699825052402
 30
0.0
 10
128.5741361246554
 20
99.09188878886144
 30
0.0
 10
128.1141427713162
 20
99.2272839190906
 30
0.0
 10
127.6544687316422
 20
99.27271502401143
 30
0.0
 10
127.194808894784
 20
99.2272371996074
 30
0.0
 10
126.7348557807825
 20
99.09181221807715
 30
0.0
 10
126.2733640850971
 20
98.86692260683206
 30
0.0
 10
125.803660986781
 20
98.55497053890643
 30
0.0
 10
125.5083094563642
 20
98.29497706478085
 30
0.0
 10
125.3524378196
 20
98.15776562625273
 30
0.0
 11
129.9567413693
 21
98.15776562625273
 31
0.0
 11
129.479821432
 21
98.55780452015274
 31
0.0
 11
129.015188261
 21
98.86509916295275
 31
0.0
 11
128.5580607387
 21
99.08344533995275
 31
0.0
 11
128.105277906
 21
99.21420925365273
 31
0.0
 11
127.654466456
 21
99.25776562295275
 31
0.0
 11
127.2036686947
 21
99.21416434705273
 31
0.0
 11
126.7509230976
 21
99.08337035615273
 31
0.0
 11
126.2938536417
 21
98.86502087295273
 31
0.0
 11
125.8293070451
 21
98.55776644465271
 31
0.0
 11
125.3524378196
 21
98.15776562625273
 31
0.0
  0
SPLINE
  5
56E
330
1B
100
AcDbEntity
  8
0
  6
Continuous
100
AcDbSpline
210
0.0
220
0.0
230
1.0
 70
     8
 71
     3
 72
    17
 73
    13
 74
    11
 42
0.0000000001
 43
0.0000000001
 44
0.0000000001
 40
0.0
 40
0.0
 40
0.0
 40
0.0
 40
0.622481922072426
 40
1.179540250280199
 40
1.68613735316834
 40
2.157424415095701
 40
2.610335135611017
 40
3.063236551883826
 40
3.534496187062764
 40
4.041042319542746
 40
4.598006253798062
 40
5.220424853319019
 40
5.220424853319019
 40
5.220424853319019
 40
5.220424853319019
 10
129.9567413693
 20
90.15776562625273
 30
0.0
 10
129.8008535000213
 20
90.02054060150103
 30
0.0
 10
129.5054617628083
 20
89.76051306608053
 30
0.0
 10
129.0356924831605
 20
89.4485330019877
 30
0.0
 10
128.57413612464
 20
89.22364246366817
 30
0.0
 10
128.1141427713346
 20
89.08824733329585
 30
0.0
 10
127.6544687316331
 20
89.04281622836544
 30
0.0
 10
127.1948088947924
 20
89.08829405293432
 30
0.0
 10
126.7348557807772
 20
89.2237190344119
 30
0.0
 10
126.273364085131
 20
89.44860864569326
 30
0.0
 10
125.8036609867195
 20
89.76056071348094
 30
0.0
 10
125.5083094563527
 20
90.02055418767523
 30
0.0
 10
125.3524378196
 20
90.15776562625273
 30
0.0
 11
129.9567413693
 21
90.15776562625273
 31
0.0
 11
129.479821432
 21
89.75772673225274
 31
0.0
 11
129.015188261
 21
89.45043208955273
 31
0.0
 11
128.5580607387
 21
89.23208591255272
 31
0.0
 11
128.105277906
 21
89.10132199875272
 31
0.0
 11
127.654466456
 21
89.05776562945273
 31
0.0
 11
127.2036686947
 21
89.10136690545274
 31
0.0
 11
126.7509230976
 21
89.23216089635272
 31
0.0
 11
126.2938536417
 21
89.45051037955273
 31
0.0
 11
125.8293070451
 21
89.75776480775274
 31
0.0
 11
125.3524378196
 21
90.15776562625273
 31
0.0
  0
SPLINE
  5
56F
330
1B
100
AcDbEntity
  8
0
  6
Continuous
100
AcDbSpline
210
0.0
220
0.0
230
1.0
 70
     8
 71
     3
 72
    17
 73
    13
 74
    11
 42
0.0000000001
 43
0.0000000001
 44
0.0000000001
 40
0.0
 40
0.0
 40
0.0
 40
0.0
 40
1.218909098132978
 40
2.381958948956723
 40
3.506950548791473
 40
4.607854542576567
 40
5.697074891376164
 40
6.786270379468935
 40
7.887092892870331
 40
9.011954678592854
 40
10.17480431269035
 40
11.39357783503376
 40
11.39357783503376
 40
11.39357783503376
 40
11.39357783503376
 10
141.8174936242
 20
98.15776562625273
 30
0.0
 10
141.4354906722138
 20
98.29659294117019
 30
0.0
 10
140.6889909115628
 20
98.56788549746813
 30
0.0
 10
139.5596480800482
 20
98.87487114746345
 30
0.0
 10
138.4510411342326
 20
99.09641771691129
 30
0.0
 10
137.3527060142246
 20
99.22832030950308
 30
0.0
 10
136.2593293826118
 20
99.27242086995801
 30
0.0
 10
135.1659818075113
 20
99.2282763076945
 30
0.0
 10
134.0677299150065
 20
99.09634364787269
 30
0.0
 10
132.9592636608406
 20
98.87479489631514
 30
0.0
 10
131.8300756369779
 20
98.56783401563482
 30
0.0
 10
131.083681707744
 20
98.29657824606039
 30
0.0
 10
130.7017215493
 20
98.15776562625273
 30
0.0
 11
141.8174936242
 21
98.15776562625273
 31
0.0
 11
140.6661002969
 21
98.55780661835273
 31
0.0
 11
139.5443802771
 21
98.86509988655273
 31
0.0
 11
138.4407809665
 21
99.08344516665272
 31
0.0
 11
137.347670513
 21
99.21420884655272
 31
0.0
 11
136.2593214075
 21
99.25776562325272
 31
0.0
 11
135.1709989302
 21
99.21416520255274
 31
0.0
 11
134.0779740693
 21
99.08337200905272
 31
0.0
 11
132.9745078975
 21
98.86502264525272
 31
0.0
 11
131.8529853471
 21
98.55776633455272
 31
0.0
 11
130.7017215493
 21
98.15776562625273
 31
0.0
  0
SPLINE
  5
570
330
1B
100
AcDbEntity
  8
0
  6
Continuous
100
AcDbSpline
210
0.0
220
0.0
230
1.0
 70
     8
 71
     3
 72
    17
 73
    13
 74
    11
 42
0.0000000001
 43
0.0000000001
 44
0.0000000001
 40
0.0
 40
0.0
 40
0.0
 40
0.0
 40
1.218909098132974
 40
2.381958948956723
 40
3.506950548791472
 40
4.607854542576568
 40
5.697074891376165
 40
6.786270379468936
 40
7.887092892870331
 40
9.011954678573442
 40
10.17480431267093
 40
11.39357783504717
 40
11.39357783504717
 40
11.39357783504717
 40
11.39357783504717
 10
141.8174936242
 20
90.15776562625273
 30
0.0
 10
141.4354906722138
 20
90.01893831133526
 30
0.0
 10
140.6889909115628
 20
89.74764575503735
 30
0.0
 10
139.5596480800481
 20
89.44066010504191
 30
0.0
 10
138.4510411342326
 20
89.21911353559435
 30
0.0
 10
137.3527060142245
 20
89.08721094300174
 30
0.0
 10
136.2593293826123
 20
89.04311038254971
 30
0.0
 10
135.1659818075096
 20
89.08725494480244
 30
0.0
 10
134.0677299150192
 20
89.21918760466457
 30
0.0
 10
132.9592636608291
 20
89.44073635606119
 30
0.0
 10
131.8300756369614
 20
89.74769723676081
 30
0.0
 10
131.0836817077418
 20
90.01895300640666
 30
0.0
 10
130.7017215493
 20
90.15776562625273
 30
0.0
 11
141.8174936242
 21
90.15776562625273
 31
0.0
 11
140.6661002969
 21
89.75772463415274
 31
0.0
 11
139.5443802771
 21
89.45043136595272
 31
0.0
 11
138.4407809665
 21
89.23208608585273
 31
0.0
 11
137.347670513
 21
89.10132240595272
 31
0.0
 11
136.2593214075
 21
89.05776562925273
 31
0.0
 11
135.1709989302
 21
89.10136604995273
 31
0.0
 11
134.0779740693
 21
89.23215924345273
 31
0.0
 11
132.9745078975
 21
89.45050860715273
 31
0.0
 11
131.8529853471
 21
89.75776491785273
 31
0.0
 11
130.7017215493
 21
90.15776562625273
 31
0.0
  0
SPLINE
  5
571
330
1B
100
AcDbEntity
  8
0
  6
Continuous
100
AcDbSpline
210
0.0
220
0.0
230
1.0
 70
     8
 71
     3
 72
     9
 73
     5
 74
     3
 42
0.0000000001
 43
0.0000000001
 44
0.0000000001
 40
0.0
 40
0.0
 40
0.0
 40
0.0
 40
0.0811505089046634
 40
0.1827671803095092
 40
0.1827671803095092
 40
0.1827671803095092
 40
0.1827671803095092
 10
127.5409289389
 20
180.2213009575
 30
0.0
 10
127.56525509746
 20
180.2334203388021
 30
0.0
 10
127.620042473014
 20
180.2607156099909
 30
0.0
 10
127.6803228027875
 20
180.2718444819933
 30
0.0
 10
127.7138380458
 20
180.2780320203
 30
0.0
 11
127.5409289389
 21
180.2213009575
 31
0.0
 11
127.6149903238
 21
180.2544719744
 31
0.0
 11
127.7138380458
 21
180.2780320203
 31
0.0
  0
SPLINE
  5
572
330
1B
100
AcDbEntity
  8
0
  6
Continuous
100
AcDbSpline
210
0.0
220
0.0
230
1.0
 70
     8
 71
     3
 72
     9
 73
     5
 74
     3
 42
0.0000000001
 43
0.0000000001
 44
0.0000000001
 40
0.0
 40
0.0
 40
0.0
 40
0.0
 40
0.0731197339940472
 40
0.1631812271521399
 40
0.1631812271521399
 40
0.1631812271521399
 40
0.1631812271521399
 10
128.9791087888
 20
180.2212842043
 30
0.0
 10
129.0004221310297
 20
180.2333967911838
 30
0.0
 10
129.0479870926315
 20
180.2604284375495
 30
0.0
 10
129.1015991377172
 20
180.2717716036314
 30
0.0
 10
129.1311882082
 20
180.2780320203
 30
0.0
 11
128.9791087888
 21
180.2212842043
 31
0.0
 11
129.0442629723
 21
180.2544719712
 31
0.0
 11
129.1311882082
 21
180.2780320203
 31
0.0
  0
SPLINE
  5
574
330
1B
100
AcDbEntity
  8
0
  6
Continuous
100
AcDbSpline
210
0.0
220
0.0
230
1.0
 70
     8
 71
     3
 72
     9
 73
     5
 74
     3
 42
0.0000000001
 43
0.0000000001
 44
0.0000000001
 40
0.0
 40
0.0
 40
0.0
 40
0.0
 40
0.1746361058038227
 40
0.3492267009414595
 40
0.3492267009414595
 40
0.3492267009414595
 40
0.3492267009414595
 10
137.9362504574
 20
120.7419390136
 30
0.0
 10
137.9212737619135
 20
120.7981914772999
 30
0.0
 10
137.8913242739099
 20
120.9106817451475
 30
0.0
 10
137.8614031687464
 20
121.023179565828
 30
0.0
 10
137.8464445658
 20
121.0794211459
 30
0.0
 11
137.9362504574
 21
120.7419390136
 31
0.0
 11
137.8913274685
 21
120.9106982934
 31
0.0
 11
137.8464445658
 21
121.0794211459
 31
0.0
  0
SPLINE
  5
575
330
1B
100
AcDbEntity
  8
0
  6
Continuous
100
AcDbSpline
210
0.0
220
0.0
230
1.0
 70
     8
 71
     3
 72
     9
 73
     5
 74
     3
 42
0.0000000001
 43
0.0000000001
 44
0.0000000001
 40
0.0
 40
0.0
 40
0.0
 40
0.0
 40
0.1298611607964183
 40
0.25969680835645
 40
0.25969680835645
 40
0.25969680835645
 40
0.25969680835645
 10
137.6468788247
 20
121.8310135691
 30
0.0
 10
137.635787032362
 20
121.87285542806
 30
0.0
 10
137.6136056268403
 20
121.9565309254988
 30
0.0
 10
137.5914399822781
 20
122.0402105993968
 30
0.0
 10
137.5803582488
 20
122.0820463259
 30
0.0
 11
137.6468788247
 21
121.8310135691
 31
0.0
 11
137.6136073887
 21
121.9565401903
 31
0.0
 11
137.5803582488
 21
122.0820463259
 31
0.0
  0
SPLINE
  5
576
330
1B
100
AcDbEntity
  8
0
  6
Continuous
100
AcDbSpline
210
0.0
220
0.0
230
1.0
 70
     8
 71
     3
 72
    16
 73
    12
 74
    10
 42
0.0000000001
 43
0.0000000001
 44
0.0000000001
 40
0.0
 40
0.0
 40
0.0
 40
0.0
 40
5.213662145826656
 40
10.43489393627677
 40
15.64712936853035
 40
20.8341642030751
 40
26.02580574943256
 40
31.38978319891458
 40
37.11693777940161
 40
43.39684785942335
 40
50.41442199479585
 40
50.41442199479585
 40
50.41442199479585
 40
50.41442199479585
 10
128.0279168156
 20
130.0049598463
 30
0.0
 10
128.1058849907852
 20
131.7411084119326
 30
0.0
 10
128.2619345420807
 20
135.2159262335088
 30
0.0
 10
128.5536773840676
 20
140.4235718843254
 30
0.0
 10
128.8873522032537
 20
145.6197553476254
 30
0.0
 10
129.2668991054785
 20
150.802921781929
 30
0.0
 10
129.6962331318071
 20
156.0329443606559
 30
0.0
 10
130.1890033702082
 20
161.4382070489867
 30
0.0
 10
130.771179674155
 20
167.1992803424823
 30
0.0
 10
131.4694755856463
 20
173.5024702234385
 30
0.0
 10
132.0239914611737
 20
177.9002011149688
 30
0.0
 10
132.3166299936
 20
180.2210463259
 30
0.0
 11
128.0279168156
 21
130.0049598463
 31
0.0
 11
128.2714349923
 21
135.2129317998
 31
0.0
 11
128.5609421981
 21
140.4261311042
 31
0.0
 11
128.89568282
 21
145.62760656
 31
0.0
 11
129.2743771785
 21
150.8007990905
 31
0.0
 11
129.6991711935
 21
155.9750325594
 31
0.0
 11
130.1864458102
 21
161.3168316502
 31
0.0
 11
130.7613705398
 21
167.0150560354
 31
0.0
 11
131.457216722
 21
173.2562953918
 31
0.0
 11
132.3166299936
 21
180.2210463259
 31
0.0
  0
SPLINE
  5
577
330
1B
100
AcDbEntity
  8
0
  6
Continuous
100
AcDbSpline
210
0.0
220
0.0
230
1.0
 70
     8
 71
     3
 72
    15
 73
    11
 74
     9
 42
0.0000000001
 43
0.0000000001
 44
0.0000000001
 40
0.0
 40
0.0
 40
0.0
 40
0.0
 40
0.0739560803001771
 40
0.1613516597828107
 40
0.2543162794353013
 40
0.3499628688763408
 40
0.4465190019120705
 40
0.5440676916644993
 40
0.6408953123918572
 40
0.7337968680769229
 40
0.7337968680769229
 40
0.7337968680769229
 40
0.7337968680769229
 10
159.5612905481
 20
125.8695116307
 30
0.0
 10
159.5846331943627
 20
125.861160843709
 30
0.0
 10
159.6355603757779
 20
125.8429417421014
 30
0.0
 10
159.7024089513571
 20
125.7882700986073
 30
0.0
 10
159.7592621551703
 20
125.7152741894388
 30
0.0
 10
159.8005406634856
 20
125.6288669175939
 30
0.0
 10
159.8253796214154
 20
125.5349550168004
 30
0.0
 10
159.8326806292338
 20
125.4378724345123
 30
0.0
 10
159.82384649766
 20
125.3416048932595
 30
0.0
 10
159.8025484618316
 20
125.2818342381154
 30
0.0
 10
159.792119804
 20
125.2525673275
 30
0.0
 11
159.5612905481
 21
125.8695116307
 31
0.0
 11
159.6295296059
 21
125.8409996542
 31
0.0
 11
159.6985366818
 21
125.7873712029
 31
0.0
 11
159.7559039348
 21
125.7142178107
 31
0.0
 11
159.7975995069
 21
125.6281379098
 31
0.0
 11
159.8223824096
 21
125.5348164516
 31
0.0
 11
159.8299647497
 21
125.4375628913
 31
0.0
 11
159.8196982064
 21
125.341281085
 31
0.0
 11
159.792119804
 21
125.2525673275
 31
0.0
  0
SPLINE
  5
578
330
1B
100
AcDbEntity
  8
0
  6
Continuous
100
AcDbSpline
210
0.0
220
0.0
230
1.0
 70
     8
 71
     3
 72
     9
 73
     5
 74
     3
 42
0.0000000001
 43
0.0000000001
 44
0.0000000001
 40
0.0
 40
0.0
 40
0.0
 40
0.0
 40
0.1016166809987993
 40
0.1827671805137971
 40
0.1827671805137971
 40
0.1827671805137971
 40
0.1827671805137971
 10
156.9747102769
 20
180.2780320203
 30
0.0
 10
157.0082255230688
 20
180.2718444812346
 30
0.0
 10
157.0685058528956
 20
180.2607156089058
 30
0.0
 10
157.1232932283335
 20
180.2334203374186
 30
0.0
 10
157.147619384
 20
180.2213009574
 30
0.0
 11
156.9747102769
 21
180.2780320203
 31
0.0
 11
157.073558008
 21
180.2544719712
 31
0.0
 11
157.147619384
 21
180.2213009574
 31
0.0
  0
SPLINE
  5
579
330
1B
100
AcDbEntity
  8
0
  6
Continuous
100
AcDbSpline
210
0.0
220
0.0
230
1.0
 70
     8
 71
     3
 72
     9
 73
     5
 74
     3
 42
0.0000000001
 43
0.0000000001
 44
0.0000000001
 40
0.0
 40
0.0
 40
0.0
 40
0.0
 40
0.0900614931580927
 40
0.1631812271521399
 40
0.1631812271521399
 40
0.1631812271521399
 40
0.1631812271521399
 10
155.5573601145
 20
180.2780320203
 30
0.0
 10
155.5869491849828
 20
180.2717716036314
 30
0.0
 10
155.6405612300685
 20
180.2604284375496
 30
0.0
 10
155.6881261916703
 20
180.2333967911838
 30
0.0
 10
155.7094395339
 20
180.2212842043
 30
0.0
 11
155.5573601145
 21
180.2780320203
 31
0.0
 11
155.6442853504
 21
180.2544719712
 31
0.0
 11
155.7094395339
 21
180.2212842043
 31
0.0
  0
SPLINE
  5
57A
330
1B
100
AcDbEntity
  8
0
  6
Continuous
100
AcDbSpline
210
0.0
220
0.0
230
1.0
 70
     8
 71
     3
 72
     9
 73
     5
 74
     3
 42
0.0000000001
 43
0.0000000001
 44
0.0000000001
 40
0.0
 40
0.0
 40
0.0
 40
0.0
 40
0.068685396156307
 40
0.1274062778261003
 40
0.1274062778261003
 40
0.1274062778261003
 40
0.1274062778261003
 10
152.5463167817
 20
180.2780320203
 30
0.0
 10
152.5685317008723
 20
180.2715541960157
 30
0.0
 10
152.6097387160797
 20
180.2595383159792
 30
0.0
 10
152.6436290391786
 20
180.2333239277933
 30
0.0
 10
152.6592489104
 20
180.2212418545
 30
0.0
 11
152.5463167817
 21
180.2780320203
 31
0.0
 11
152.6108350561
 21
180.2544719712
 31
0.0
 11
152.6592489104
 21
180.2212418545
 31
0.0
  0
SPLINE
  5
57B
330
1B
100
AcDbEntity
  8
0
  6
Continuous
100
AcDbSpline
210
0.0
220
0.0
230
1.0
 70
     8
 71
     3
 72
     9
 73
     5
 74
     3
 42
0.0000000001
 43
0.0000000001
 44
0.0000000001
 40
0.0
 40
0.0
 40
0.0
 40
0.0
 40
0.0416363724514235
 40
0.0838045140910228
 40
0.0838045140910228
 40
0.0838045140910228
 40
0.0838045140910228
 10
148.3047565428
 20
180.2780320203
 30
0.0
 10
148.3169284268416
 20
180.2709513767134
 30
0.0
 10
148.3414276511406
 20
180.2566996573562
 30
0.0
 10
148.3570700509995
 20
180.2330566608349
 30
0.0
 10
148.3649408792
 20
180.221160151
 30
0.0
 11
148.3047565428
 21
180.2780320203
 31
0.0
 11
148.3390859995
 21
180.2544719712
 31
0.0
 11
148.3649408792
 21
180.221160151
 31
0.0
  0
SPLINE
  5
57C
330
1B
100
AcDbEntity
  8
0
  6
Continuous
100
AcDbSpline
210
0.0
220
0.0
230
1.0
 70
     8
 71
     3
 72
    12
 73
     8
 74
     6
 42
0.0000000001
 43
0.0000000001
 44
0.0000000001
 40
0.0
 40
0.0
 40
0.0
 40
0.0
 40
10.15959604654629
 40
20.28194737071806
 40
30.35670909877072
 40
40.37170809065493
 40
50.30881490025388
 40
50.30881490025388
 40
50.30881490025388
 40
50.30881490025388
 10
132.1519181701
 20
130.0049598463
 30
0.0
 10
132.2614639630876
 20
133.3897563132896
 30
0.0
 10
132.4801539580323
 20
140.1469407022704
 30
0.0
 10
132.9568246422901
 20
150.2549835936863
 30
0.0
 10
133.5440226201482
 20
160.3086819013557
 30
0.0
 10
134.2402214302184
 20
170.2937855736773
 30
0.0
 10
134.8045219864224
 20
176.9205829879999
 30
0.0
 10
135.0855707617
 20
180.2210463259
 30
0.0
 11
132.1519181701
 21
130.0049598463
 31
0.0
 11
132.5055931474
 21
140.1583979753
 31
0.0
 11
132.9765124803
 21
150.2697891413
 31
0.0
 11
133.5641306099
 21
160.3273996334
 31
0.0
 11
134.2676497648
 21
170.3176581689
 31
0.0
 11
135.0855707617
 21
180.2210463259
 31
0.0
  0
SPLINE
  5
57D
330
1B
100
AcDbEntity
  8
0
  6
Continuous
100
AcDbSpline
210
0.0
220
0.0
230
1.0
 70
    24
 71
     3
 72
     8
 73
     4
 74
     2
 42
0.0000000001
 43
0.0000000001
 44
0.0000000001
 40
0.0
 40
0.0
 40
0.0
 40
0.0
 40
0.1352052986905842
 40
0.1352052986905842
 40
0.1352052986905842
 40
0.1352052986905842
 10
136.0913140052
 20
125.1730444448
 30
0.0
 10
136.0464154363
 20
125.1691352051666
 30
0.0
 10
136.0015168674
 20
125.1652259655333
 30
0.0
 10
135.9566182985
 20
125.1613167259
 30
0.0
 11
136.0913140052
 21
125.1730444448
 31
0.0
 11
135.9566182985
 21
125.1613167259
 31
0.0
  0
SPLINE
  5
57E
330
1B
100
AcDbEntity
  8
0
  6
Continuous
100
AcDbSpline
210
0.0
220
0.0
230
1.0
 70
     8
 71
     3
 72
     9
 73
     5
 74
     3
 42
0.0000000001
 43
0.0000000001
 44
0.0000000001
 40
0.0
 40
0.0
 40
0.0
 40
0.0
 40
0.0421681415782931
 40
0.083804514112157
 40
0.083804514112157
 40
0.083804514112157
 40
0.083804514112157
 10
136.3236074435
 20
180.221160151
 30
0.0
 10
136.3314782716616
 20
180.2330566608404
 30
0.0
 10
136.3471206714699
 20
180.256699657413
 30
0.0
 10
136.3716198958146
 20
180.270951376724
 30
0.0
 10
136.3837917799
 20
180.2780320203
 30
0.0
 11
136.3236074435
 21
180.221160151
 31
0.0
 11
136.3494623231
 21
180.2544719712
 31
0.0
 11
136.3837917799
 21
180.2780320203
 31
0.0
  0
SPLINE
  5
57F
330
1B
100
AcDbEntity
  8
0
  6
Continuous
100
AcDbSpline
210
0.0
220
0.0
230
1.0
 70
     8
 71
     3
 72
     9
 73
     5
 74
     3
 42
0.0000000001
 43
0.0000000001
 44
0.0000000001
 40
0.0
 40
0.0
 40
0.0
 40
0.0
 40
0.0587208816697933
 40
0.1274062778261003
 40
0.1274062778261003
 40
0.1274062778261003
 40
0.1274062778261003
 10
132.0292994123
 20
180.2212418545
 30
0.0
 10
132.0449192835214
 20
180.2333239277933
 30
0.0
 10
132.0788096066203
 20
180.2595383159792
 30
0.0
 10
132.1200166218277
 20
180.2715541960157
 30
0.0
 10
132.142231541
 20
180.2780320203
 30
0.0
 11
132.0292994123
 21
180.2212418545
 31
0.0
 11
132.0777132666
 21
180.2544719712
 31
0.0
 11
132.142231541
 21
180.2780320203
 31
0.0
  0
SPLINE
  5
580
330
1B
100
AcDbEntity
  8
0
  6
Continuous
100
AcDbSpline
210
0.0
220
0.0
230
1.0
 70
     8
 71
     3
 72
     9
 73
     5
 74
     3
 42
0.0000000001
 43
0.0000000001
 44
0.0000000001
 40
0.0
 40
0.0
 40
0.0
 40
0.0
 40
0.3799905118507241
 40
0.7686981263609464
 40
0.7686981263609464
 40
0.7686981263609464
 40
0.7686981263609464
 10
137.8789316165
 20
121.0880580092
 30
0.0
 10
137.8463924887792
 20
121.2104706273642
 30
0.0
 10
137.7805677754446
 20
121.4581040479131
 30
0.0
 10
137.714881383321
 20
121.7057741951363
 30
0.0
 10
137.6816657426
 20
121.8310135691
 30
0.0
 11
137.8789316165
 21
121.0880580092
 31
0.0
 11
137.7813480338
 21
121.4553048383
 31
0.0
 11
137.6816657426
 21
121.8310135691
 31
0.0
  0
SPLINE
  5
582
330
1B
100
AcDbEntity
  8
0
  6
Continuous
100
AcDbSpline
210
0.0
220
0.0
230
1.0
 70
     8
 71
     3
 72
    21
 73
    17
 74
    15
 42
0.0000000001
 43
0.0000000001
 44
0.0000000001
 40
0.0
 40
0.0
 40
0.0
 40
0.0
 40
0.3303433997561331
 40
0.6625595535040586
 40
0.9964225104372058
 40
1.331235564600113
 40
1.666243185382934
 40
2.000896752929892
 40
2.334865276742828
 40
2.668193318922248
 40
3.000983500511028
 40
3.333024859011247
 40
3.664136601298292
 40
3.994322264625099
 40
4.323696256720323
 40
4.652418860436847
 40
4.652418860436847
 40
4.652418860436847
 40
4.652418860436847
 10
137.6816657426
 20
121.8310135691
 30
0.0
 10
137.783919853737
 20
121.8725524989704
 30
0.0
 10
137.9890077661
 20
121.9558658475896
 30
0.0
 10
138.2656733123877
 20
122.1438094878578
 30
0.0
 10
138.5105014090387
 20
122.3721864046182
 30
0.0
 10
138.714539904323
 20
122.6394050342735
 30
0.0
 10
138.8721671626901
 20
122.9364844577526
 30
0.0
 10
138.9786805025599
 20
123.2552431772677
 30
0.0
 10
139.0311436645191
 20
123.5866291375642
 30
0.0
 10
139.0281204757684
 20
123.9215153770683
 30
0.0
 10
138.9697042604459
 20
124.2506547394514
 30
0.0
 10
138.8575178274976
 20
124.5647140921421
 30
0.0
 10
138.695018192283
 20
124.8551458157716
 30
0.0
 10
138.4863066960398
 20
125.1126144372321
 30
0.0
 10
138.2396391783179
 20
125.3345450455539
 30
0.0
 10
138.0486373206038
 20
125.4434952825405
 30
0.0
 10
137.9532309192
 20
125.4979164812
 30
0.0
 11
137.6816657426
 21
121.8310135691
 31
0.0
 11
137.9831772913
 21
121.9659859654
 31
0.0
 11
138.2597399291
 21
122.1500530189
 31
0.0
 11
138.5033811622
 21
122.3783147624
 31
0.0
 11
138.7067408833
 21
122.6442933425
 31
0.0
 11
138.8637095309
 21
122.9402510247
 31
0.0
 11
138.9697473157
 21
123.257660852
 31
0.0
 11
139.0219200716
 21
123.5875289748
 31
0.0
 11
139.0188613615
 21
123.9208429829
 31
0.0
 11
138.9606450791
 21
124.2485016001
 31
0.0
 11
138.848943175
 21
124.5611901806
 31
0.0
 11
138.6870601709
 21
124.8500307575
 31
0.0
 11
138.4797031428
 21
125.1069852966
 31
0.0
 11
138.2327768292
 21
125.3249637871
 31
0.0
 11
137.9532309192
 21
125.4979164812
 31
0.0
  0
SPLINE
  5
583
330
1B
100
AcDbEntity
  8
0
  6
Continuous
100
AcDbSpline
210
0.0
220
0.0
230
1.0
 70
     8
 71
     3
 72
    10
 73
     6
 74
     4
 42
0.0000000001
 43
0.0000000001
 44
0.0000000001
 40
0.0
 40
0.0
 40
0.0
 40
0.0
 40
0.8318671141975156
 40
1.662122609906308
 40
2.474926347071148
 40
2.474926347071148
 40
2.474926347071148
 40
2.474926347071148
 10
137.9532309192
 20
125.4979164812
 30
0.0
 10
138.0778801513962
 20
125.7456094226833
 30
0.0
 10
138.3269371264885
 20
126.240515437511
 30
0.0
 10
138.698929367525
 20
126.9768625170021
 30
0.0
 10
138.9466393583773
 20
127.4653297279133
 30
0.0
 10
139.0691788276
 20
127.7069692054
 30
0.0
 11
137.9532309192
 21
125.4979164812
 31
0.0
 11
138.3273708164
 21
126.2408984682
 31
0.0
 11
138.7017442054
 21
126.9819576789
 31
0.0
 11
139.0691788276
 21
127.7069692054
 31
0.0
  0
SPLINE
  5
584
330
1B
100
AcDbEntity
  8
0
  6
Continuous
100
AcDbSpline
210
0.0
220
0.0
230
1.0
 70
    24
 71
     3
 72
     8
 73
     4
 74
     2
 42
0.0000000001
 43
0.0000000001
 44
0.0000000001
 40
0.0
 40
0.0
 40
0.0
 40
0.0
 40
0.0157817665476964
 40
0.0157817665476964
 40
0.0157817665476964
 40
0.0157817665476964
 10
139.0691788276
 20
127.7069692054
 30
0.0
 10
139.0715599646333
 20
127.7116600455667
 30
0.0
 10
139.0739411016666
 20
127.7163508857333
 30
0.0
 10
139.0763222387
 20
127.7210417259
 30
0.0
 11
139.0691788276
 21
127.7069692054
 31
0.0
 11
139.0763222387
 21
127.7210417259
 31
0.0
  0
SPLINE
  5
585
330
1B
100
AcDbEntity
  8
0
  6
Continuous
100
AcDbSpline
210
0.0
220
0.0
230
1.0
 70
     8
 71
     3
 72
    10
 73
     6
 74
     4
 42
0.0000000001
 43
0.0000000001
 44
0.0000000001
 40
0.0
 40
0.0
 40
0.0
 40
0.0
 40
2.004533039284674
 40
4.009049825975824
 40
6.013552682816933
 40
6.013552682816933
 40
6.013552682816933
 40
6.013552682816933
 10
169.7827233044
 20
121.7210463259
 30
0.0
 10
169.7433390737645
 20
122.3880638612647
 30
0.0
 10
169.6645709318177
 20
123.7220935238693
 30
0.0
 10
169.5304821399563
 20
125.7221507430672
 30
0.0
 10
169.430473040354
 20
127.0547462750468
 30
0.0
 10
169.3804686643
 20
127.7210417259
 30
0.0
 11
169.7827233044
 21
121.7210463259
 31
0.0
 11
169.6619144125
 21
123.7219356075
 31
0.0
 11
169.5278275817
 21
125.7219626748
 31
0.0
 11
169.3804686643
 21
127.7210417259
 31
0.0
  0
SPLINE
  5
586
330
1B
100
AcDbEntity
  8
0
  6
Continuous
100
AcDbSpline
210
0.0
220
0.0
230
1.0
 70
     8
 71
     3
 72
    15
 73
    11
 74
     9
 42
0.0000000001
 43
0.0000000001
 44
0.0000000001
 40
0.0
 40
0.0
 40
0.0
 40
0.0
 40
0.0150097752890122
 40
0.0669238541770789
 40
0.1536557865947768
 40
0.2713415731952358
 40
0.4174045845263413
 40
0.5888345567534173
 40
0.7796420910244245
 40
0.9124989031062754
 40
0.9124989031062754
 40
0.9124989031062754
 40
0.9124989031062754
 10
154.6394570849
 20
180.5390893118
 30
0.0
 10
154.6444031262088
 20
180.539913152704
 30
0.0
 10
154.6664559645046
 20
180.5435863994691
 30
0.0
 10
154.7178970431838
 20
180.5370803448126
 30
0.0
 10
154.8029159851733
 20
180.5325254562519
 30
0.0
 10
154.9193378953801
 20
180.521062315743
 30
0.0
 10
155.0636713710615
 20
180.5071579523776
 30
0.0
 10
155.2321958172028
 20
180.4894221655145
 30
0.0
 10
155.3962511665161
 20
180.4715496039066
 30
0.0
 10
155.5034525266319
 20
180.4593895698743
 30
0.0
 10
155.5474562333
 20
180.454398154
 30
0.0
 11
154.6394570849
 21
180.5390893118
 31
0.0
 11
154.6543129159
 21
180.5412335225
 31
0.0
 11
154.706180304
 21
180.5390322414
 31
0.0
 11
154.7926678429
 21
180.5325258049
 31
0.0
 11
154.909884674
 21
180.5220301451
 31
0.0
 11
155.0552499873
 21
180.5077707984
 31
0.0
 11
155.2257564309
 21
180.4900003716
 31
0.0
 11
155.4154369173
 21
180.4692922038
 31
0.0
 11
155.5474562333
 21
180.454398154
 31
0.0
  0
SPLINE
  5
587
330
1B
100
AcDbEntity
  8
0
  6
Continuous
100
AcDbSpline
210
0.0
220
0.0
230
1.0
 70
     8
 71
     3
 72
     9
 73
     5
 74
     3
 42
0.0000000001
 43
0.0000000001
 44
0.0000000001
 40
0.0
 40
0.0
 40
0.0
 40
0.0
 40
0.0671015607974921
 40
0.2671807613415085
 40
0.2671807613415085
 40
0.2671807613415085
 40
0.2671807613415085
 10
155.5474562333
 20
180.454398154
 30
0.0
 10
155.5696779520314
 20
180.4518512390394
 30
0.0
 10
155.6581589897062
 20
180.4417100937341
 30
0.0
 10
155.7465986622055
 20
180.4312133108367
 30
0.0
 10
155.8128270047
 20
180.4233527601
 30
0.0
 11
155.5474562333
 21
180.454398154
 31
0.0
 11
155.6141187804
 21
180.4467349774
 31
0.0
 11
155.8128270047
 21
180.4233527601
 31
0.0
  0
SPLINE
  5
588
330
1B
100
AcDbEntity
  8
0
  6
Continuous
100
AcDbSpline
210
0.0
220
0.0
230
1.0
 70
     8
 71
     3
 72
    10
 73
     6
 74
     4
 42
0.0000000001
 43
0.0000000001
 44
0.0000000001
 40
0.0
 40
0.0
 40
0.0
 40
0.0
 40
1.298986600806556
 40
2.589688728826657
 40
3.871883899657661
 40
3.871883899657661
 40
3.871883899657661
 40
3.871883899657661
 10
158.3339553886
 20
121.7210463259
 30
0.0
 10
158.5165662387779
 20
122.1136538644175
 30
0.0
 10
158.8806233123254
 20
122.8963650307374
 30
0.0
 10
159.4097435470541
 20
124.0736010669057
 30
0.0
 10
159.7509452286509
 20
124.8604457745684
 30
0.0
 10
159.9209819995
 20
125.2525673275
 30
0.0
 11
158.3339553886
 21
121.7210463259
 31
0.0
 11
158.8792322032
 21
122.9000456408
 31
0.0
 11
159.4082881376
 21
124.0773356652
 31
0.0
 11
159.9209819995
 21
125.2525673275
 31
0.0
  0
SPLINE
  5
589
330
1B
100
AcDbEntity
  8
0
  6
Continuous
100
AcDbSpline
210
0.0
220
0.0
230
1.0
 70
     8
 71
     3
 72
    16
 73
    12
 74
    10
 42
0.0000000001
 43
0.0000000001
 44
0.0000000001
 40
0.0
 40
0.0
 40
0.0
 40
0.0
 40
0.093044275066046
 40
0.1899523192567465
 40
0.2874471315877533
 40
0.3841471284672853
 40
0.4802200939286507
 40
0.5732713350326445
 40
0.6605292626751557
 40
0.7456036600839271
 40
0.7986280401262018
 40
0.7986280401262018
 40
0.7986280401262018
 40
0.7986280401262018
 10
159.9209819995
 20
125.2525673275
 30
0.0
 10
159.9314250691781
 20
125.2818798745613
 30
0.0
 10
159.9527448688553
 20
125.3417222054695
 30
0.0
 10
159.9615527934519
 20
125.4380540005442
 30
0.0
 10
159.9542133960358
 20
125.5351788349421
 30
0.0
 10
159.9292970305386
 20
125.6292907848407
 30
0.0
 10
159.8878018814093
 20
125.7157068405228
 30
0.0
 10
159.8308285493453
 20
125.789241165267
 30
0.0
 10
159.760602436484
 20
125.8442527338781
 30
0.0
 10
159.689653410413
 20
125.8738419234366
 30
0.0
 10
159.6435513592153
 20
125.8768555670699
 30
0.0
 10
159.6258500245
 20
125.8780126851
 30
0.0
 11
159.9209819995
 21
125.2525673275
 31
0.0
 11
159.9485924137
 21
125.3414205894
 31
0.0
 11
159.9588366179
 21
125.4377856521
 31
0.0
 11
159.9512258588
 21
125.5349829503
 31
0.0
 11
159.9263648859
 21
125.6284325165
 31
0.0
 11
159.8843879814
 21
125.7148498422
 31
0.0
 11
159.8268260087
 21
125.7879603939
 31
0.0
 11
159.757806319
 21
125.841347924
 31
0.0
 11
159.6785671219
 21
125.872312464
 31
0.0
 11
159.6258500245
 21
125.8780126851
 31
0.0
  0
SPLINE
  5
58B
330
1B
100
AcDbEntity
  8
0
  6
Continuous
100
AcDbSpline
210
0.0
220
0.0
230
1.0
 70
     8
 71
     3
 72
    22
 73
    18
 74
    16
 42
0.0000000001
 43
0.0000000001
 44
0.0000000001
 40
0.0
 40
0.0
 40
0.0
 40
0.0
 40
0.3534692520824895
 40
0.7217530929493023
 40
1.100316159180836
 40
1.488091051526511
 40
1.877495742923369
 40
2.268266413863895
 40
2.652767586931938
 40
3.030876186867519
 40
3.397334487344021
 40
3.750978133606034
 40
4.091169302729285
 40
4.416250766513755
 40
4.730551181984615
 40
5.034153645725792
 40
5.24506150120849
 40
5.24506150120849
 40
5.24506150120849
 40
5.24506150120849
 10
158.7213932636
 20
123.6103446092
 30
0.0
 10
158.6342638668164
 20
123.6900427071625
 30
0.0
 10
158.4563533095474
 20
123.8527792064977
 30
0.0
 10
158.2404311701824
 20
124.1521579917595
 30
0.0
 10
158.0628435321255
 20
124.4871630188503
 30
0.0
 10
157.9338366483125
 20
124.8517167558507
 30
0.0
 10
157.8563204875006
 20
125.2344903976427
 30
0.0
 10
157.833303143929
 20
125.6233499769751
 30
0.0
 10
157.8652173362784
 20
126.0077966129698
 30
0.0
 10
157.9506974607217
 20
126.3757413495757
 30
0.0
 10
158.0868633694175
 20
126.7171152682088
 30
0.0
 10
158.2689986623386
 20
127.0218763863901
 30
0.0
 10
158.491208345499
 20
127.2809947802967
 30
0.0
 10
158.7468637396596
 20
127.4875301347364
 30
0.0
 10
159.0274956848553
 20
127.6330308530981
 30
0.0
 10
159.2961204760965
 20
127.7097549014513
 30
0.0
 10
159.4677669208506
 20
127.7177488885446
 30
0.0
 10
159.5381281599
 20
127.7210257804
 30
0.0
 11
158.7213932636
 21
123.6103446092
 31
0.0
 11
158.4687056662
 21
123.8575074913
 31
0.0
 11
158.2496616726
 21
124.1535695056
 31
0.0
 11
158.0726808986
 21
124.4882152896
 31
0.0
 11
157.9427741783
 21
124.8535830648
 31
0.0
 11
157.8654696612
 21
125.2352373918
 31
0.0
 11
157.8425218995
 21
125.6253336844
 31
0.0
 11
157.874707052
 21
126.0084854403
 31
0.0
 11
157.9608499118
 21
126.3766505134
 31
0.0
 11
158.0973644727
 21
126.7167320634
 31
0.0
 11
158.2796561852
 21
127.0197725889
 31
0.0
 11
158.5019667536
 21
127.2772760699
 31
0.0
 11
158.7557289372
 21
127.4804575461
 31
0.0
 11
159.0349174027
 21
127.6248131899
 31
0.0
 11
159.3278659883
 21
127.7045350952
 31
0.0
 11
159.5381281599
 21
127.7210257804
 31
0.0
  0
SPLINE
  5
58C
330
1B
100
AcDbEntity
  8
0
  6
Continuous
100
AcDbSpline
210
0.0
220
0.0
230
1.0
 70
     8
 71
     3
 72
     9
 73
     5
 74
     3
 42
0.0000000001
 43
0.0000000001
 44
0.0000000001
 40
0.0
 40
0.0
 40
0.0
 40
0.0
 40
0.2003688713656395
 40
0.2676525935697685
 40
0.2676525935697685
 40
0.2676525935697685
 40
0.2676525935697685
 10
128.875721318
 20
180.4233527601
 30
0.0
 10
128.9420455553981
 20
180.4312246039839
 30
0.0
 10
129.030641423784
 20
180.4417398073552
 30
0.0
 10
129.1192788086989
 20
180.4518980546493
 30
0.0
 10
129.1415608763
 20
180.4544516809
 30
0.0
 11
128.875721318
 21
180.4233527601
 31
0.0
 11
129.0747172971
 21
180.4467682446
 31
0.0
 11
129.1415608763
 21
180.4544516809
 31
0.0
  0
SPLINE
  5
58D
330
1B
100
AcDbEntity
  8
0
  6
Continuous
100
AcDbSpline
210
0.0
220
0.0
230
1.0
 70
     8
 71
     3
 72
    15
 73
    11
 74
     9
 42
0.0000000001
 43
0.0000000001
 44
0.0000000001
 40
0.0
 40
0.0
 40
0.0
 40
0.0
 40
0.1331420622730606
 40
0.3234489493464281
 40
0.4942741776827788
 40
0.6400768976863734
 40
0.7579228010621383
 40
0.8448456140010258
 40
0.8969009303898698
 40
0.9120352819556719
 40
0.9120352819556719
 40
0.9120352819556719
 40
0.9120352819556719
 10
129.1415608763
 20
180.4544516809
 30
0.0
 10
129.1856591123875
 20
180.4594533092448
 30
0.0
 10
129.2927892550865
 20
180.4716040255964
 30
0.0
 10
129.4565731533666
 20
180.4894455680557
 30
0.0
 10
129.6246444875837
 20
180.507131534107
 30
0.0
 10
129.7687448007223
 20
180.5210220927864
 30
0.0
 10
129.8851940187887
 20
180.5324786107053
 30
0.0
 10
129.9703813042838
 20
180.5370820989242
 30
0.0
 10
130.0219652263006
 20
180.5435550625525
 30
0.0
 10
130.044114346426
 20
180.5399259207482
 30
0.0
 10
130.0491033958
 20
180.5391084631
 30
0.0
 11
129.1415608763
 21
180.4544516809
 31
0.0
 11
129.2738638348
 21
180.4693760207
 31
0.0
 11
129.4630468772
 21
180.4900276002
 31
0.0
 11
129.6329517996
 21
180.5077356769
 31
0.0
 11
129.7780577294
 21
180.5219730325999
 31
0.0
 11
129.8954335468
 21
180.5324884704
 31
0.0
 11
129.9821109161
 21
180.539016032
 31
0.0
 11
130.0341189799
 21
180.5412335225
 31
0.0
 11
130.0491033958
 21
180.5391084631
 31
0.0
  0
SPLINE
  5
58E
330
1B
100
AcDbEntity
  8
0
  6
Continuous
100
AcDbSpline
210
0.0
220
0.0
230
1.0
 70
    24
 71
     3
 72
     8
 73
     4
 74
     2
 42
0.0000000001
 43
0.0000000001
 44
0.0000000001
 40
0.0
 40
0.0
 40
0.0
 40
0.0
 40
0.0137910013644461
 40
0.0137910013644461
 40
0.0137910013644461
 40
0.0137910013644461
 10
118.6519581739
 20
124.7927163259
 30
0.0
 10
118.6536537658
 20
124.7969891916
 30
0.0
 10
118.6553493577
 20
124.8012620573
 30
0.0
 10
118.6570449496
 20
124.805534923
 30
0.0
 11
118.6519581739
 21
124.7927163259
 31
0.0
 11
118.6570449496
 21
124.805534923
 31
0.0
  0
SPLINE
  5
590
330
1B
100
AcDbEntity
  8
0
  6
Continuous
100
AcDbSpline
210
0.0
220
0.0
230
1.0
 70
     8
 71
     3
 72
    18
 73
    14
 74
    12
 42
0.0000000001
 43
0.0000000001
 44
0.0000000001
 40
0.0
 40
0.0
 40
0.0
 40
0.0
 40
0.0106621803895479
 40
0.0556431186403667
 40
0.1357567451324652
 40
0.2483256934706009
 40
0.3887436350034668
 40
0.551159495470662
 40
0.7319647008053175
 40
0.9267697556174208
 40
1.128006022278415
 40
1.324567850558978
 40
1.507702686419333
 40
1.507702686419333
 40
1.507702686419333
 40
1.507702686419333
 10
153.0379753256999
 20
180.5243271332
 30
0.0
 10
153.04013529284
 20
180.5272690097089
 30
0.0
 10
153.0514075939494
 20
180.5426218904172
 30
0.0
 10
153.104239170621
 20
180.5359386940446
 30
0.0
 10
153.1787199908633
 20
180.5440432202804
 30
0.0
 10
153.2918621534935
 20
180.5383725948173
 30
0.0
 10
153.4293824847018
 20
180.5328397221323
 30
0.0
 10
153.590522717561
 20
180.5218897439131
 30
0.0
 10
153.7692192766298
 20
180.507776658759
 30
0.0
 10
153.9607275094386
 20
180.4901724401988
 30
0.0
 10
154.1572042069171
 20
180.4698093865186
 30
0.0
 10
154.3496055145374
 20
180.4478126088891
 30
0.0
 10
154.475092419943
 20
180.4313115370931
 30
0.0
 10
154.5356171124
 20
180.4233527601
 30
0.0
 11
153.0379753256999
 21
180.5243271332
 31
0.0
 11
153.0448364237
 21
180.5324884704
 31
0.0
 11
153.0893412071
 21
180.539016032
 31
0.0
 11
153.1694241384
 21
180.5412335225
 31
0.0
 11
153.2819715617
 21
180.5390322414
 31
0.0
 11
153.4222386804
 21
180.5325258049
 31
0.0
 11
153.5843150601
 21
180.5220301451
 31
0.0
 11
153.764557101
 21
180.5077707984
 31
0.0
 11
153.9585499393
 21
180.4900003716
 31
0.0
 11
154.1587178858
 21
180.4692922038
 31
0.0
 11
154.3539811027
 21
180.4467349774
 31
0.0
 11
154.5356171124
 21
180.4233527601
 31
0.0
  0
SPLINE
  5
591
330
1B
100
AcDbEntity
  8
0
  6
Continuous
100
AcDbSpline
210
0.0
220
0.0
230
1.0
 70
     8
 71
     3
 72
    12
 73
     8
 74
     6
 42
0.0000000001
 43
0.0000000001
 44
0.0000000001
 40
0.0
 40
0.0
 40
0.0
 40
0.0
 40
9.937190992296806
 40
19.95213307075812
 40
30.02677605879978
 40
40.14923934829342
 40
50.30881490024303
 40
50.30881490024303
 40
50.30881490024303
 40
50.30881490024303
 10
149.6029775609
 20
180.2210463259
 30
0.0
 10
149.8840286298166
 20
176.9205550197798
 30
0.0
 10
150.4483297820285
 20
170.2937485319466
 30
0.0
 10
151.1445257944005
 20
160.3086752323767
 30
0.0
 10
151.7317229233182
 20
150.2549981470037
 30
0.0
 10
152.2083936394982
 20
140.1469643491381
 30
0.0
 10
152.4270845939217
 20
133.3897494853528
 30
0.0
 10
152.5366301525
 20
130.0049598463
 30
0.0
 11
149.6029775609
 21
180.2210463259
 31
0.0
 11
150.4209049777
 21
170.3175742298
 31
0.0
 11
151.1244194654
 21
160.32737242
 31
0.0
 11
151.7120310482
 21
150.2698804879
 31
0.0
 11
152.1829560085
 21
140.1583774973
 31
0.0
 11
152.5366301525
 21
130.0049598463
 31
0.0
  0
SPLINE
  5
592
330
1B
100
AcDbEntity
  8
0
  6
Continuous
100
AcDbSpline
210
0.0
220
0.0
230
1.0
 70
     8
 71
     3
 72
    10
 73
     6
 74
     4
 42
0.0000000001
 43
0.0000000001
 44
0.0000000001
 40
0.0
 40
0.0
 40
0.0
 40
0.0
 40
0.4784673424516268
 40
0.9569194649466376
 40
1.435355931348201
 40
1.435355931348201
 40
1.435355931348201
 40
1.435355931348201
 10
119.8457177027
 20
121.7210463259
 30
0.0
 10
119.8536772055298
 20
121.8803367179537
 30
0.0
 10
119.8695959579992
 20
122.1989124350636
 30
0.0
 10
119.8942640033748
 20
122.6767283743831
 30
0.0
 10
119.9112359558869
 20
122.9952394124961
 30
0.0
 10
119.9197217933
 20
123.1544923259
 30
0.0
 11
119.8457177027
 21
121.7210463259
 31
0.0
 11
119.8697279348
 21
122.1989108533
 31
0.0
 11
119.89439599
 21
122.6767266343
 31
0.0
 11
119.9197217933
 21
123.1544923259
 31
0.0
  0
SPLINE
  5
593
330
1B
100
AcDbEntity
  8
0
  6
Continuous
100
AcDbSpline
210
0.0
220
0.0
230
1.0
 70
     8
 71
     3
 72
    10
 73
     6
 74
     4
 42
0.0000000001
 43
0.0000000001
 44
0.0000000001
 40
0.0
 40
0.0
 40
0.0
 40
0.0
 40
0.5469613691650171
 40
1.093897431895595
 40
1.640807573252259
 40
1.640807573252259
 40
1.640807573252259
 40
1.640807573252259
 10
120.2317010168
 20
123.1544923259
 30
0.0
 10
120.2415806932212
 20
123.336544927226
 30
0.0
 10
120.2613395889574
 20
123.7006417067927
 30
0.0
 10
120.2920119724103
 20
124.2467172827289
 30
0.0
 10
120.3131495557725
 20
124.6107195201522
 30
0.0
 10
120.323718097
 20
124.7927163259
 30
0.0
 11
120.2317010168
 21
123.1544923259
 31
0.0
 11
120.2615125142
 21
123.7006406702
 31
0.0
 11
120.2921849163
 21
124.2467159951
 31
0.0
 11
120.323718097
 21
124.7927163259
 31
0.0
  0
SPLINE
  5
594
330
1B
100
AcDbEntity
  8
0
  6
Continuous
100
AcDbSpline
210
0.0
220
0.0
230
1.0
 70
     8
 71
     3
 72
    23
 73
    19
 74
    17
 42
0.0000000001
 43
0.0000000001
 44
0.0000000001
 40
0.0
 40
0.0
 40
0.0
 40
0.0
 40
0.0307360351612023
 40
0.0942945904113495
 40
0.1924223766897169
 40
0.3200357355544916
 40
0.4711810074872119
 40
0.641346996034818
 40
0.8264275289669862
 40
1.019204727038204
 40
1.211951849985354
 40
1.396955234241565
 40
1.567156057283489
 40
1.718736621733253
 40
1.846818020103618
 40
1.945097251033322
 40
2.008409841256975
 40
2.039083543804892
 40
2.039083543804892
 40
2.039083543804892
 40
2.039083543804892
 10
141.3442741613
 20
180.4233527601
 30
0.0
 10
141.3504105605576
 20
180.4318384189355
 30
0.0
 10
141.3692363216412
 20
180.4578714358833
 30
0.0
 10
141.4364834190287
 20
180.4717859704577
 30
0.0
 10
141.5281381960409
 20
180.4937461612163
 30
0.0
 10
141.6539002141738
 20
180.5092749258433
 30
0.0
 10
141.8025259995276
 20
180.5233943051255
 30
0.0
 10
141.9711711800927
 20
180.5334591260616
 30
0.0
 10
142.1537144293211
 20
180.5398184043808
 30
0.0
 10
142.3439288690205
 20
180.5419515535011
 30
0.0
 10
142.5341177609929
 20
180.5398340280708
 30
0.0
 10
142.7166374518888
 20
180.5334932805743
 30
0.0
 10
142.8854148262493
 20
180.5234413906395
 30
0.0
 10
143.0343520487823
 20
180.5093119556065
 30
0.0
 10
143.1604703113747
 20
180.4937471444475
 30
0.0
 10
143.2522377446326
 20
180.471747274322
 30
0.0
 10
143.3194129166994
 20
180.4577903289184
 30
0.0
 10
143.3381568305565
 20
180.4318264307407
 30
0.0
 10
143.3442741613
 20
180.4233527601
 30
0.0
 11
141.3442741613
 21
180.4233527601
 31
0.0
 11
141.3641844336
 21
180.4467682446
 31
0.0
 11
141.423586272
 21
180.4693760207
 31
0.0
 11
141.5195163231
 21
180.4900276002
 31
0.0
 11
141.6458950926
 21
180.5077356769
 31
0.0
 11
141.7963683159
 21
180.5219730325999
 31
0.0
 11
141.966209092
 21
180.5324884704
 31
0.0
 11
142.1511744796
 21
180.539016032
 31
0.0
 11
142.3439389235
 21
180.5412335225
 31
0.0
 11
142.5366734761
 21
180.5390322414
 31
0.0
 11
142.7215624116
 21
180.5325258049
 31
0.0
 11
142.891439312
 21
180.5220301451
 31
0.0
 11
143.04234769
 21
180.5077707984
 31
0.0
 11
143.1691903348
 21
180.4900003716
 31
0.0
 11
143.2652631146
 21
180.4692922038
 31
0.0
 11
143.3244210018
 21
180.4467349774
 31
0.0
 11
143.3442741613
 21
180.4233527601
 31
0.0
  0
SPLINE
  5
597
330
1B
100
AcDbEntity
  8
0
  6
Continuous
100
AcDbSpline
210
0.0
220
0.0
230
1.0
 70
     8
 71
     3
 72
    22
 73
    18
 74
    16
 42
0.0000000001
 43
0.0000000001
 44
0.0000000001
 40
0.0
 40
0.0
 40
0.0
 40
0.0
 40
0.0897284878109133
 40
0.2132155862432109
 40
0.3646920109644054
 40
0.5357540211394533
 40
0.7190265582247636
 40
0.9094368038576277
 40
1.102305863116927
 40
1.289895388121247
 40
1.464630452144333
 40
1.619619211046187
 40
1.749212849007709
 40
1.850643688744867
 40
1.920565896405607
 40
1.957181651040419
 40
1.962491057428611
 40
1.962491057428611
 40
1.962491057428611
 40
1.962491057428611
 10
136.7873096057
 20
180.4233527601
 30
0.0
 10
136.8160735725278
 20
180.4316198289243
 30
0.0
 10
136.8844233931869
 20
180.4512642915571
 30
0.0
 10
137.0044942703978
 20
180.471481704562
 30
0.0
 10
137.1517443334033
 20
180.4917521198116
 30
0.0
 10
137.3195325916022
 20
180.5088067390371
 30
0.0
 10
137.5005782904148
 20
180.5228248094633
 30
0.0
 10
137.689165297272
 20
180.5331930048445
 30
0.0
 10
137.8793432338344
 20
180.5396599551928
 30
0.0
 10
138.0644630897754
 20
180.5419532590912
 30
0.0
 10
138.236729438734
 20
180.5399736665027
 30
0.0
 10
138.3902957894628
 20
180.533921116129
 30
0.0
 10
138.5170415826863
 20
180.5239839620211
 30
0.0
 10
138.6206577420638
 20
180.5111495970064
 30
0.0
 10
138.6796739268496
 20
180.4952314268515
 30
0.0
 10
138.7269460403634
 20
180.4801344302476
 30
0.0
 10
138.7256796760033
 20
180.4658009317199
 30
0.0
 10
138.7255193035
 20
180.4639857361
 30
0.0
 11
136.7873096057
 21
180.4233527601
 31
0.0
 11
136.8739289835
 21
180.4467682446
 31
0.0
 11
136.9953289503
 21
180.4693760207
 31
0.0
 11
137.1453910025
 21
180.4900276002
 31
0.0
 11
137.3155339875
 21
180.5077356769
 31
0.0
 11
137.4982526799
 21
180.5219730325999
 31
0.0
 11
137.6883723454
 21
180.5324884704
 31
0.0
 11
137.8811309119
 21
180.539016032
 31
0.0
 11
138.06870733
 21
180.5412335225
 31
0.0
 11
138.2434285278
 21
180.5390322414
 31
0.0
 11
138.3982806562
 21
180.5325258049
 31
0.0
 11
138.5274485784
 21
180.5220301451
 31
0.0
 11
138.6278721129
 21
180.5077707984
 31
0.0
 11
138.6954984913
 21
180.4900003716
 31
0.0
 11
138.7256959295
 21
180.4692922038
 31
0.0
 11
138.7255193035
 21
180.4639857361
 31
0.0
  0
SPLINE
  5
598
330
1B
100
AcDbEntity
  8
0
  6
Continuous
100
AcDbSpline
210
0.0
220
0.0
230
1.0
 70
     8
 71
     3
 72
    20
 73
    16
 74
    14
 42
0.0000000001
 43
0.0000000001
 44
0.0000000001
 40
0.0
 40
0.0
 40
0.0
 40
0.0
 40
0.1445205675135177
 40
0.3144451005764183
 40
0.5013153205232698
 40
0.6951656952043064
 40
0.8883022834898905
 40
1.075842883451766
 40
1.253133543233514
 40
1.412888462525265
 40
1.548154701643732
 40
1.654647835493001
 40
1.729903439201668
 40
1.7709225187993
 40
1.77975219465247
 40
1.77975219465247
 40
1.77975219465247
 40
1.77975219465247
 10
132.9005969875
 20
180.4233527601
 30
0.0
 10
132.9480919966006
 20
180.4314327020867
 30
0.0
 10
133.0514307335739
 20
180.4490128861005
 30
0.0
 10
133.2171815036239
 20
180.4705252005558
 30
0.0
 10
133.3996108774887
 20
180.4907848858654
 30
0.0
 10
133.590123600305
 20
180.5081568910073
 30
0.0
 10
133.7811042506952
 20
180.5222884231129
 30
0.0
 10
133.9668565940775
 20
180.5328303278655
 30
0.0
 10
134.1414336767231
 20
180.539355970106
 30
0.0
 10
134.299410625438
 20
180.5421428315298
 30
0.0
 10
134.4316835241266
 20
180.5396185160258
 30
0.0
 10
134.5413667385929
 20
180.5362845594008
 30
0.0
 10
134.6060973708528
 20
180.5224447117409
 30
0.0
 10
134.660892341981
 20
180.5194108083973
 30
0.0
 10
134.6630086880693
 20
180.5021753472146
 30
0.0
 10
134.663383555
 20
180.4991224418
 30
0.0
 11
132.9005969875
 21
180.4233527601
 31
0.0
 11
133.0432144185
 21
180.4467293041
 31
0.0
 11
133.2116328939
 21
180.4693028302
 31
0.0
 11
133.3973611858
 21
180.4899300135
 31
0.0
 11
133.590402039
 21
180.5076273794
 31
0.0
 11
133.7830129659
 21
180.5218672029
 31
0.0
 11
133.9702574551
 21
180.5324018077
 31
0.0
 11
134.147426617
 21
180.5389642857
 31
0.0
 11
134.307165426
 21
180.541233016
 31
0.0
 11
134.4424151212
 21
180.5391175034
 31
0.0
 11
134.5487168604
 21
180.5327356698
 31
0.0
 11
134.623226018
 21
180.5221625282
 31
0.0
 11
134.6616403338
 21
180.5077783274
 31
0.0
 11
134.663383555
 21
180.4991224418
 31
0.0
  0
SPLINE
  5
599
330
1B
100
AcDbEntity
  8
0
  6
Continuous
100
AcDbSpline
210
0.0
220
0.0
230
1.0
 70
     8
 71
     3
 72
     9
 73
     5
 74
     3
 42
0.0000000001
 43
0.0000000001
 44
0.0000000001
 40
0.0
 40
0.0
 40
0.0
 40
0.0
 40
0.0947254411047543
 40
0.2992007582786389
 40
0.2992007582786389
 40
0.2992007582786389
 40
0.2992007582786389
 10
137.3020907474
 20
121.7442754314
 30
0.0
 10
137.2708209060182
 20
121.7397713560645
 30
0.0
 10
137.1720516615198
 20
121.7255447371117
 30
0.0
 10
137.0722163843537
 20
121.7228725749721
 30
0.0
 10
137.0039884491
 20
121.7210464058
 30
0.0
 11
137.3020907474
 21
121.7442754314
 31
0.0
 11
137.2081743723
 21
121.7319213357
 31
0.0
 11
137.0039884491
 21
121.7210464058
 31
0.0
  0
SPLINE
  5
59A
330
1B
100
AcDbEntity
  8
0
  6
Continuous
100
AcDbSpline
210
0.0
220
0.0
230
1.0
 70
     8
 71
     3
 72
    18
 73
    14
 74
    12
 42
0.0000000001
 43
0.0000000001
 44
0.0000000001
 40
0.0
 40
0.0
 40
0.0
 40
0.0
 40
0.1834097324010207
 40
0.3804674536262372
 40
0.5812134687295449
 40
0.7753256420372756
 40
0.9557510686074241
 40
1.118295205971552
 40
1.258907404662703
 40
1.371610734453542
 40
1.451828072628394
 40
1.496921755573303
 40
1.507711640397282
 40
1.507711640397282
 40
1.507711640397282
 40
1.507711640397282
 10
130.1529312103
 20
180.4233527601
 30
0.0
 10
130.2135468137535
 20
180.4313230658918
 30
0.0
 10
130.3392885832552
 20
180.4478567683814
 30
0.0
 10
130.5317835788924
 20
180.4698573309291
 30
0.0
 10
130.7280331944617
 20
180.4901910368189
 30
0.0
 10
130.9190218017654
 20
180.5077475820257
 30
0.0
 10
131.0974062367593
 20
180.5218448114556
 30
0.0
 10
131.2585202668008
 20
180.5327998133174
 30
0.0
 10
131.3962103556859
 20
180.5383642446871
 30
0.0
 10
131.5094477060862
 20
180.5440165521856
 30
0.0
 10
131.5841534106324
 20
180.5359992969823
 30
0.0
 10
131.6369387708598
 20
180.5425891565684
 30
0.0
 10
131.6484068068045
 20
180.5272887016103
 30
0.0
 10
131.6506210317
 20
180.5243345211
 30
0.0
 11
130.1529312103
 21
180.4233527601
 31
0.0
 11
130.3348401024
 21
180.4467682446
 31
0.0
 11
130.5305966705
 21
180.4693760207
 31
0.0
 11
130.7302776031
 21
180.4900276002
 31
0.0
 11
130.9235803704
 21
180.5077356769
 31
0.0
 11
131.1034431855
 21
180.5219730325999
 31
0.0
 11
131.2656468296
 21
180.5324884704
 31
0.0
 11
131.4061074339
 21
180.539016032
 31
0.0
 11
131.5187889465
 21
180.5412335225
 31
0.0
 11
131.5989760758
 21
180.5390322414
 31
0.0
 11
131.6435978925
 21
180.5325258049
 31
0.0
 11
131.6506210317
 21
180.5243345211
 31
0.0
  0
SPLINE
  5
59C
330
1B
100
AcDbEntity
  8
0
  6
Continuous
100
AcDbSpline
210
0.0
220
0.0
230
1.0
 70
     8
 71
     3
 72
    16
 73
    12
 74
    10
 42
0.0000000001
 43
0.0000000001
 44
0.0000000001
 40
0.0
 40
0.0
 40
0.0
 40
0.0
 40
7.034174461532173
 40
13.33196705973437
 40
19.0748855075697
 40
24.44908724735619
 40
29.64197228026189
 40
34.81821055738005
 40
40.01143711338929
 40
45.21309940890606
 40
50.41442169308404
 40
50.41442169308404
 40
50.41442169308404
 40
50.41442169308404
 10
152.3719183291
 20
180.2210463259
 30
0.0
 10
152.6652290585396
 20
177.8947084003306
 30
0.0
 10
153.2211448955068
 20
173.4855683138694
 30
0.0
 10
153.9209901637283
 20
167.1656970266039
 30
0.0
 10
154.5042143749139
 20
161.390031070025
 30
0.0
 10
154.9972920743884
 20
155.9756811037631
 30
0.0
 10
155.4260984920621
 20
150.7453907232718
 30
0.0
 10
155.8044549116512
 20
145.5716837385508
 30
0.0
 10
156.1367151700772
 20
140.3919022295321
 30
0.0
 10
156.4273077270004
 20
135.2011925505898
 30
0.0
 10
156.5828586083428
 20
131.7369996731488
 30
0.0
 10
156.660631507
 20
130.0049598463
 30
0.0
 11
152.3719183291
 21
180.2210463259
 31
0.0
 11
153.233261828
 21
173.2398073433
 31
0.0
 11
153.9308092057
 21
166.9807643441
 31
0.0
 11
154.5068962245
 21
161.2668133428
 31
0.0
 11
154.9945896318
 21
155.9147857382
 31
0.0
 11
155.4189449782
 21
150.7392686138
 31
0.0
 11
155.7963572614
 21
145.5768077016
 31
0.0
 11
156.1295144991
 21
140.3942785587
 31
0.0
 11
156.4177433959
 21
135.2006079165
 31
0.0
 11
156.660631507
 21
130.0049598463
 31
0.0
  0
SPLINE
  5
59D
330
1B
100
AcDbEntity
  8
0
  6
Continuous
100
AcDbSpline
210
0.0
220
0.0
230
1.0
 70
     8
 71
     3
 72
    20
 73
    16
 74
    14
 42
0.0000000001
 43
0.0000000001
 44
0.0000000001
 40
0.0
 40
0.0
 40
0.0
 40
0.0
 40
0.0088111072734621
 40
0.0498021941541794
 40
0.1249926210938505
 40
0.2314533726196814
 40
0.3665916301933619
 40
0.526287216243019
 40
0.7033661102008267
 40
0.8907980611815556
 40
1.084345137962392
 40
1.278855017717115
 40
1.466091037684177
 40
1.635507617779344
 40
1.779763052733209
 40
1.779763052733209
 40
1.779763052733209
 40
1.779763052733209
 10
150.0251468934
 20
180.4991208022
 30
0.0
 10
150.0255205170253
 20
180.5021671142584
 30
0.0
 10
150.0276323147537
 20
180.5193854978143
 30
0.0
 10
150.082376704617
 20
180.5224415321068
 30
0.0
 10
150.1470710900028
 20
180.536271718148
 30
0.0
 10
150.2566770643505
 20
180.5396139219159
 30
0.0
 10
150.3888777445504
 20
180.5421426150803
 30
0.0
 10
150.5467215004505
 20
180.539366178511
 30
0.0
 10
150.7211725881347
 20
180.532854164664
 30
0.0
 10
150.9069555056506
 20
180.5223213319687
 30
0.0
 10
151.0982563126022
 20
180.5081738351639
 30
0.0
 10
151.2892456780061
 20
180.4907572848885
 30
0.0
 10
151.4718453218339
 20
180.4704675543187
 30
0.0
 10
151.6374593946032
 20
180.4489582486185
 30
0.0
 10
151.7405436501012
 20
180.4314189524268
 30
0.0
 10
151.7879513352
 20
180.4233527601
 30
0.0
 11
150.0251468934
 21
180.4991208022
 31
0.0
 11
150.0268844215
 21
180.5077588927
 31
0.0
 11
150.0652662001
 21
180.5221501496
 31
0.0
 11
150.1397093872
 21
180.5327242783
 31
0.0
 11
150.2459783294
 21
180.5391120431
 31
0.0
 11
150.3810999399
 21
180.5412331361999
 31
0.0
 11
150.5407795352
 21
180.5389732582
 31
0.0
 11
150.7177374159
 21
180.5324277908
 31
0.0
 11
150.9048740457
 21
180.5219102799
 31
0.0
 11
151.0978949323
 21
180.5076481529
 31
0.0
 11
151.291592398
 21
180.4898890678
 31
0.0
 11
151.4776828894
 21
180.4692092181
 31
0.0
 11
151.6455962181
 21
180.4466905224
 31
0.0
 11
151.7879513352
 21
180.4233527601
 31
0.0
  0
SPLINE
  5
59E
330
1B
100
AcDbEntity
  8
0
  6
Continuous
100
AcDbSpline
210
0.0
220
0.0
230
1.0
 70
     8
 71
     3
 72
    10
 73
     6
 74
     4
 42
0.0000000001
 43
0.0000000001
 44
0.0000000001
 40
0.0
 40
0.0
 40
0.0
 40
0.0
 40
0.1581288722191659
 40
0.3169954007655602
 40
0.4576077240038994
 40
0.4576077240038994
 40
0.4576077240038994
 40
0.4576077240038994
 10
135.6405686531
 20
123.6664373259
 30
0.0
 10
135.6861398445185
 20
123.6397023961587
 30
0.0
 10
135.7774948126805
 20
123.5861078207415
 30
0.0
 10
135.9259517702774
 20
123.5428358608724
 30
0.0
 10
136.0257881290924
 20
123.5373844035685
 30
0.0
 10
136.0726636339
 20
123.5348248169
 30
0.0
 11
135.6405686531
 21
123.6664373259
 31
0.0
 11
135.7801400261
 21
123.5921098608
 31
0.0
 11
135.9326278259
 21
123.5475447982
 31
0.0
 11
136.0726636339
 21
123.5348248169
 31
0.0
  0
SPLINE
  5
59F
330
1B
100
AcDbEntity
  8
0
  6
Continuous
100
AcDbSpline
210
0.0
220
0.0
230
1.0
 70
     8
 71
     3
 72
    22
 73
    18
 74
    16
 42
0.0000000001
 43
0.0000000001
 44
0.0000000001
 40
0.0
 40
0.0
 40
0.0
 40
0.0
 40
0.0053819775943959
 40
0.0419905514323044
 40
0.111650315604544
 40
0.2127364226309404
 40
0.3422406254823889
 40
0.4972407881164622
 40
0.6719570937217477
 40
0.8594712908912197
 40
1.052206553882054
 40
1.242592295849314
 40
1.426337864738682
 40
1.598019846703786
 40
1.749799476129488
 40
1.872907768041666
 40
1.962482617530416
 40
1.962482617530416
 40
1.962482617530416
 40
1.962482617530416
 10
145.9630605048
 20
180.4639966772
 30
0.0
 10
145.9629003603274
 20
180.4658375750917
 30
0.0
 10
145.9616509023734
 20
180.4802003843465
 30
0.0
 10
146.0088389050283
 20
180.4951881879888
 30
0.0
 10
146.0676937902115
 20
180.5111219718804
 30
0.0
 10
146.1710580296236
 20
180.5239313869056
 30
0.0
 10
146.2976644031103
 20
180.5338907433982
 30
0.0
 10
146.451197592258
 20
180.5399580650744
 30
0.0
 10
146.6234363094315
 20
180.541953988061
 30
0.0
 10
146.8084803436799
 20
180.5396761717605
 30
0.0
 10
146.9985809946365
 20
180.5332280745299
 30
0.0
 10
147.1872737220111
 20
180.5228719767763
 30
0.0
 10
147.3686757382283
 20
180.5088412435024
 30
0.0
 10
147.5369276640285
 20
180.4917430820329
 30
0.0
 10
147.6843561826479
 20
180.4714364310225
 30
0.0
 10
147.8043469947451
 20
180.4512082573937
 30
0.0
 10
147.8725246326771
 20
180.4316078006704
 30
0.0
 10
147.901238717
 20
180.4233527601
 30
0.0
 11
145.9630605048
 21
180.4639966772
 31
0.0
 11
145.9628921411
 21
180.4693760207
 31
0.0
 11
145.9931196111
 21
180.4900276002
 31
0.0
 11
146.0604910202
 21
180.5077356769
 31
0.0
 11
146.1605694831
 21
180.5219730325999
 31
0.0
 11
146.2896460655
 21
180.5324884704
 31
0.0
 11
146.4445087187
 21
180.539016032
 31
0.0
 11
146.6192109516
 21
180.5412335225
 31
0.0
 11
146.8067122276
 21
180.5390322414
 31
0.0
 11
146.9993376358
 21
180.5325258049
 31
0.0
 11
147.1894338532
 21
180.5220301451
 31
0.0
 11
147.3726252971
 21
180.5077707984
 31
0.0
 11
147.5433851134
 21
180.4900003716
 31
0.0
 11
147.6937454396
 21
180.4692922038
 31
0.0
 11
147.8147694995
 21
180.4467349774
 31
0.0
 11
147.901238717
 21
180.4233527601
 31
0.0
  0
SPLINE
  5
5A0
330
1B
100
AcDbEntity
  8
0
  6
Continuous
100
AcDbSpline
210
0.0
220
0.0
230
1.0
 70
     8
 71
     3
 72
    10
 73
     6
 74
     4
 42
0.0000000001
 43
0.0000000001
 44
0.0000000001
 40
0.0
 40
0.0
 40
0.0
 40
0.0
 40
0.2545920681388506
 40
0.5090666256785948
 40
0.5821641285220193
 40
0.5821641285220193
 40
0.5821641285220193
 40
0.5821641285220193
 10
115.1205268078
 20
122.2210463259
 30
0.0
 10
115.125681307817
 20
122.3057539736382
 30
0.0
 10
115.135987928718
 20
122.4751301710918
 30
0.0
 10
115.1495275631903
 20
122.6687150831205
 30
0.0
 10
115.157663364063
 20
122.7776021993114
 30
0.0
 10
115.159478863
 20
122.801900292
 30
0.0
 11
115.1205268078
 21
122.2210463259
 31
0.0
 11
115.1363737234
 21
122.475144725
 31
0.0
 11
115.1540581265
 21
122.7290040607
 31
0.0
 11
115.159478863
 21
122.801900292
 31
0.0
  0
SPLINE
  5
5A1
330
1B
100
AcDbEntity
  8
0
  6
Continuous
100
AcDbSpline
210
0.0
220
0.0
230
1.0
 70
     8
 71
     3
 72
    16
 73
    12
 74
    10
 42
0.0000000001
 43
0.0000000001
 44
0.0000000001
 40
0.0
 40
0.0
 40
0.0
 40
0.0
 40
7.068511825589093
 40
13.39146834546055
 40
19.15321540155753
 40
24.54184106556086
 40
29.74603093329323
 40
34.93124200221283
 40
40.13143892963846
 40
45.33831079067937
 40
50.54333331866546
 40
50.54333331866546
 40
50.54333331866546
 40
50.54333331866546
 10
154.8361742035
 20
180.2210463259
 30
0.0
 10
155.2131793762138
 20
177.8951821222666
 30
0.0
 10
155.9274248865906
 20
173.4887755649428
 30
0.0
 10
156.8273466402152
 20
167.1677716127624
 30
0.0
 10
157.5771961839575
 20
161.3916874462286
 30
0.0
 10
158.2111431427183
 20
155.9770085155316
 30
0.0
 10
158.7624385525815
 20
150.7465346930393
 30
0.0
 10
159.2488694546839
 20
145.5726977130876
 30
0.0
 10
159.6760361588841
 20
140.3927700444856
 30
0.0
 10
160.0496316653825
 20
135.2020010873265
 30
0.0
 10
160.2496474558855
 20
131.7371017845687
 30
0.0
 10
160.349637588
 20
130.0049598463
 30
0.0
 11
154.8361742035
 21
180.2210463259
 31
0.0
 11
155.9434960611
 21
173.2398073433
 31
0.0
 11
156.8402456841
 21
166.9807643441
 31
0.0
 11
157.5808488796
 21
161.2668133428
 31
0.0
 11
158.2078154388
 21
155.9147857382
 31
0.0
 11
158.7533561563
 21
150.7392686138
 31
0.0
 11
159.2385480351
 21
145.5768077016
 31
0.0
 11
159.6668467241
 21
140.3942785587
 31
0.0
 11
160.0373866513
 21
135.2006079165
 31
0.0
 11
160.349637588
 21
130.0049598463
 31
0.0
  0
SPLINE
  5
5A3
330
1B
100
AcDbEntity
  8
0
  6
Continuous
100
AcDbSpline
210
0.0
220
0.0
230
1.0
 70
     8
 71
     3
 72
    10
 73
     6
 74
     4
 42
0.0000000001
 43
0.0000000001
 44
0.0000000001
 40
0.0
 40
0.0
 40
0.0
 40
0.0
 40
1.28220297930227
 40
2.572946717133768
 40
3.872002111235572
 40
3.872002111235572
 40
3.872002111235572
 40
3.872002111235572
 10
159.7921198039
 20
125.2525673275
 30
0.0
 10
159.6220870538279
 20
124.8604411556477
 30
0.0
 10
159.2808889649407
 20
124.0735768581409
 30
0.0
 10
158.7516725744837
 20
122.8963401619578
 30
0.0
 10
158.387486704093
 20
122.1136482571793
 30
0.0
 10
158.204809363
 20
121.7210463259
 30
0.0
 11
159.7921198039
 21
125.2525673275
 31
0.0
 11
159.2794223006
 21
124.0773287346
 31
0.0
 11
158.7502704507
 21
122.9000361981
 31
0.0
 11
158.204809363
 21
121.7210463259
 31
0.0
  0
SPLINE
  5
5A4
330
1B
100
AcDbEntity
  8
0
  6
Continuous
100
AcDbSpline
210
0.0
220
0.0
230
1.0
 70
     8
 71
     3
 72
    10
 73
     6
 74
     4
 42
0.0000000001
 43
0.0000000001
 44
0.0000000001
 40
0.0
 40
0.0
 40
0.0
 40
0.0
 40
0.9779454419560707
 40
1.955970725427188
 40
2.93407317014649
 40
2.93407317014649
 40
2.93407317014649
 40
2.93407317014649
 10
120.0209159792
 20
127.7210417259
 30
0.0
 10
119.9994353386709
 20
127.3957682791323
 30
0.0
 10
119.9564723038883
 20
126.7451948295913
 30
0.0
 10
119.8953255516441
 20
125.7690811860963
 30
0.0
 10
119.8567598208349
 20
125.1181798377652
 30
0.0
 10
119.8374761948
 20
124.7927163259
 30
0.0
 11
120.0209159792
 21
127.7210417259
 31
0.0
 11
119.9570240527
 21
126.7451856355
 31
0.0
 11
119.8958772203
 21
125.7690736952
 31
0.0
 11
119.8374761948
 21
124.7927163259
 31
0.0
  0
SPLINE
  5
5A5
330
1B
100
AcDbEntity
  8
0
  6
Continuous
100
AcDbSpline
210
0.0
220
0.0
230
1.0
 70
     8
 71
     3
 72
    16
 73
    12
 74
    10
 42
0.0000000001
 43
0.0000000001
 44
0.0000000001
 40
0.0
 40
0.0
 40
0.0
 40
0.0
 40
7.104870620099414
 40
13.45449649536437
 40
19.23621319239239
 40
24.64014619091955
 40
29.85633950313113
 40
35.05108219519846
 40
40.25868658975812
 40
45.47109663596478
 40
50.68005399420969
 40
50.68005399420969
 40
50.68005399420969
 40
50.68005399420969
 10
156.9208700163
 20
180.2210463259
 30
0.0
 10
157.3700827392798
 20
177.8956774850372
 30
0.0
 10
158.2207570625963
 20
173.4921255285371
 30
0.0
 10
159.2935118688914
 20
167.1699478979415
 30
0.0
 10
160.1872360304832
 20
161.3934285814486
 30
0.0
 10
160.9428173855222
 20
155.9784072947157
 30
0.0
 10
161.5998662448652
 20
150.7477423773668
 30
0.0
 10
162.1796036090369
 20
145.5737700687224
 30
0.0
 10
162.6887075987736
 20
140.393689097826
 30
0.0
 10
163.1339626454733
 20
135.2028586839944
 30
0.0
 10
163.3723870875086
 20
131.7372100592092
 30
0.0
 10
163.4915598125
 20
130.0049598463
 30
0.0
 11
156.9208700163
 21
180.2210463259
 31
0.0
 11
158.2405248182
 21
173.2398073433
 31
0.0
 11
159.3092294032
 21
166.9807643441
 31
0.0
 11
160.1918459221
 21
161.2668133428
 31
0.0
 11
160.9390355715
 21
155.9147857382
 31
0.0
 11
161.5891856814
 21
150.7392686138
 31
0.0
 11
162.167414846
 21
145.5768077016
 31
0.0
 11
162.6778413473
 21
140.3942785587
 31
0.0
 11
163.1194336368
 21
135.2006079165
 31
0.0
 11
163.4915598125
 21
130.0049598463
 31
0.0
  0
SPLINE
  5
5A6
330
1B
100
AcDbEntity
  8
0
  6
Continuous
100
AcDbSpline
210
0.0
220
0.0
230
1.0
 70
     8
 71
     3
 72
     9
 73
     5
 74
     3
 42
0.0000000001
 43
0.0000000001
 44
0.0000000001
 40
0.0
 40
0.0
 40
0.0
 40
0.0
 40
0.4249235630596793
 40
0.8495908205887554
 40
0.8495908205887554
 40
0.8495908205887554
 40
0.8495908205887554
 10
138.189984942
 20
119.9210463259
 30
0.0
 10
138.1534399561973
 20
120.0578918267975
 30
0.0
 10
138.080372027808
 20
120.3315002860793
 30
0.0
 10
138.0074723551171
 20
120.6051536231104
 30
0.0
 10
137.971033515
 20
120.7419390136
 30
0.0
 11
138.189984942
 21
119.9210463259
 31
0.0
 11
138.0803920739
 21
120.3315940548
 31
0.0
 11
137.971033515
 21
120.7419390136
 31
0.0
  0
SPLINE
  5
5A8
330
1B
100
AcDbEntity
  8
0
  6
Continuous
100
AcDbSpline
210
0.0
220
0.0
230
1.0
 70
     8
 71
     3
 72
    16
 73
    12
 74
    10
 42
0.0000000001
 43
0.0000000001
 44
0.0000000001
 40
0.0
 40
0.0
 40
0.0
 40
0.0
 40
7.138867949582316
 40
13.51345313593686
 40
19.31387250048825
 40
24.73215027660941
 40
29.95959801761754
 40
35.16328159413521
 40
40.37783714107273
 40
45.59544602163619
 40
50.80809820386848
 40
50.80809820386848
 40
50.80809820386848
 40
50.80809820386848
 10
158.5626633402
 20
180.2210463259
 30
0.0
 10
159.0704171731814
 20
177.8961349490834
 30
0.0
 10
160.0315650295426
 20
173.4952157616574
 30
0.0
 10
161.2446111477812
 20
167.171963992596
 30
0.0
 10
162.2550725035947
 20
161.3950448360961
 30
0.0
 10
163.1093451098545
 20
155.9797089118015
 30
0.0
 10
163.8521917007141
 20
150.7488682184419
 30
0.0
 10
164.5076270790473
 20
145.5747715203681
 30
0.0
 10
165.0832051093331
 20
140.3945485672062
 30
0.0
 10
165.5865953881461
 20
135.2036619145803
 30
0.0
 10
165.8561961451283
 20
131.7373114394158
 30
0.0
 10
165.9909324634
 20
130.0049598463
 30
0.0
 11
158.5626633402
 21
180.2210463259
 31
0.0
 11
160.0545540431
 21
173.2398073433
 31
0.0
 11
161.2627415419
 21
166.9807643441
 31
0.0
 11
162.2605535279
 21
161.2668133428
 31
0.0
 11
163.105263288
 21
155.9147857382
 31
0.0
 11
163.8402683084
 21
150.7392686138
 31
0.0
 11
164.4939655583
 21
145.5768077016
 31
0.0
 11
165.0710108209
 21
140.3942785587
 31
0.0
 11
165.5702379144
 21
135.2006079165
 31
0.0
 11
165.9909324634
 21
130.0049598463
 31
0.0
  0
SPLINE
  5
5AA
330
1B
100
AcDbEntity
  8
0
  6
Continuous
100
AcDbSpline
210
0.0
220
0.0
230
1.0
 70
     8
 71
     3
 72
    27
 73
    23
 74
    21
 42
0.0000000001
 43
0.0000000001
 44
0.0000000001
 40
0.0
 40
0.0
 40
0.0
 40
0.0
 40
0.3610216675395171
 40
0.9832636734618818
 40
1.606751846088708
 40
2.231324465112311
 40
2.856711120731024
 40
3.482691061539699
 40
4.109268313792301
 40
4.736793922184317
 40
5.365625639055385
 40
5.995445213028591
 40
6.626387441509697
 40
7.259416762167996
 40
7.895109290758028
 40
8.533353507486082
 40
9.17318648624293
 40
9.812905571696899
 40
10.45043717459137
 40
11.0838490327614
 40
11.71183032758462
 40
12.33398341181186
 40
12.33398341181186
 40
12.33398341181186
 40
12.33398341181186
 10
137.12812697
 20
129.1328117709
 30
0.0
 10
137.2484916036321
 20
129.1296275418426
 30
0.0
 10
137.5763117387131
 20
129.1209551073555
 30
0.0
 10
138.1068762321199
 20
129.029733910222
 30
0.0
 10
138.7018923120969
 20
128.8371519893704
 30
0.0
 10
139.2623198711918
 20
128.5560994250022
 30
0.0
 10
139.7754515916327
 20
128.1947750942605
 30
0.0
 10
140.2298011091157
 20
127.7607927116536
 30
0.0
 10
140.6152061620565
 20
127.2636825570526
 30
0.0
 10
140.9229262336069
 20
126.7139653221307
 30
0.0
 10
141.1456484415285
 20
126.1234903874483
 30
0.0
 10
141.2778896896154
 20
125.5052433775297
 30
0.0
 10
141.316353093551
 20
124.8727810192735
 30
0.0
 10
141.2598652132281
 20
124.2397112330794
 30
0.0
 10
141.109268074751
 20
123.6197252886363
 30
0.0
 10
140.8676365344691
 20
123.0268096305516
 30
0.0
 10
140.5405794006322
 20
122.4748146969652
 30
0.0
 10
140.1362553251262
 20
121.9770772444615
 30
0.0
 10
139.6653050822849
 20
121.5446665267882
 30
0.0
 10
139.1393295315313
 20
121.1894028695874
 30
0.0
 10
138.573209300711
 20
120.9101043068651
 30
0.0
 10
138.1711339427789
 20
120.7978196184307
 30
0.0
 10
137.971033515
 20
120.7419390136
 30
0.0
 11
137.12812697
 21
129.1328117709
 31
0.0
 11
137.4887979312
 21
129.1169025855
 31
0.0
 11
138.1027131212
 21
129.0154469133
 31
0.0
 11
138.6956304047
 21
128.8226086486
 31
0.0
 11
139.2540841758
 21
128.5429296505
 31
0.0
 11
139.7654149625
 21
128.1828611909
 31
0.0
 11
140.2180983122
 21
127.750508706
 31
0.0
 11
140.6019988624
 21
127.2553123605
 31
0.0
 11
140.9085001561
 21
126.7077310002
 31
0.0
 11
141.1304211005
 21
126.1193600096
 31
0.0
 11
141.2621823172
 21
125.5034771656
 31
0.0
 11
141.3005487101
 21
124.873702511
 31
0.0
 11
141.2443930787
 21
124.2431688752
 31
0.0
 11
141.094469584
 21
123.6254084551
 31
0.0
 11
140.8537244376
 21
123.0343099399
 31
0.0
 11
140.5276444999
 21
122.4838027965
 31
0.0
 11
140.1243940389
 21
121.9871846595
 31
0.0
 11
139.6545355357
 21
121.5562791807
 31
0.0
 11
139.1303269038
 21
121.2007290544
 31
0.0
 11
138.5648125594
 21
120.9276832104
 31
0.0
 11
137.971033515
 21
120.7419390136
 31
0.0
  0
SPLINE
  5
5AB
330
1B
100
AcDbEntity
  8
0
  6
Continuous
100
AcDbSpline
210
0.0
220
0.0
230
1.0
 70
     8
 71
     3
 72
    10
 73
     6
 74
     4
 42
0.0000000001
 43
0.0000000001
 44
0.0000000001
 40
0.0
 40
0.0
 40
0.0
 40
0.0
 40
0.3687655266640119
 40
0.737149515119091
 40
1.105147315619599
 40
1.105147315619599
 40
1.105147315619599
 40
1.105147315619599
 10
118.8942336283
 20
125.8166063259
 30
0.0
 10
118.847236316272
 20
125.703023411314
 30
0.0
 10
118.7532903173421
 20
125.4759750991512
 30
0.0
 10
118.6146494718291
 20
125.1346732028874
 30
0.0
 10
118.5237537715006
 20
124.9066620921916
 30
0.0
 10
118.478329756
 20
124.7927163259
 30
0.0
 11
118.8942336283
 21
125.8166063259
 31
0.0
 11
118.7536097018
 21
125.4757061573
 31
0.0
 11
118.6149722815
 21
125.1344050752
 31
0.0
 11
118.478329756
 21
124.7927163259
 31
0.0
  0
LINE
  5
A2D
330
1B
100
AcDbEntity
  8
0
  6
CENTER
100
AcDbLine
 10
142.3442741613
 20
81.92754796187154
 30
0.0
 11
142.3442741613
 21
188.5058629708422
 31
0.0
  0
LINE
  5
A48
330
1B
100
AcDbEntity
  8
0
100
AcDbLine
 10
129.2380350235286
 20
88.75776562625273
 30
0.0
 11
129.2380350235286
 21
87.75776562625273
 31
0.0
  0
LINE
  5
A49
330
1B
100
AcDbEntity
  8
0
100
AcDbLine
 10
129.2380350235286
 20
87.75776562625273
 30
0.0
 11
155.4505132990713
 21
87.75776562625273
 31
0.0
  0
LINE
  5
A4A
330
1B
100
AcDbEntity
  8
0
100
AcDbLine
 10
155.4505132990713
 20
87.75776562625273
 30
0.0
 11
155.4505132990713
 21
88.75776562625272
 31
0.0
  0
LINE
  5
A4B
330
1B
100
AcDbEntity
  8
0
100
AcDbLine
 10
129.7380350235286
 20
87.25776562625273
 30
0.0
 11
154.950513299072
 21
87.25776562625273
 31
0.0
  0
LINE
  5
A4C
330
1B
100
AcDbEntity
  8
0
100
AcDbLine
 10
129.2380350235286
 20
87.75776562625273
 30
0.0
 11
129.7380350235286
 21
87.25776562625272
 31
0.0
  0
LINE
  5
A4D
330
1B
100
AcDbEntity
  8
0
100
AcDbLine
 10
155.4505132990713
 20
87.757765626252
 30
0.0
 11
154.9505132990713
 21
87.25776562625201
 31
0.0
  0
ENDSEC
  0
SECTION
  2
OBJECTS
  0
DICTIONARY
  5
5AC
330
0
100
AcDbDictionary
281
     1
  3
ACAD_COLOR
350
6E7
  3
ACAD_GROUP
350
5AD
  3
ACAD_LAYOUT
350
6E8
  3
ACAD_MATERIAL
350
6E6
  3
ACAD_MLINESTYLE
350
5AE
  3
ACAD_PLOTSETTINGS
350
6E9
  3
ACAD_PLOTSTYLENAME
350
6E4
  3
ACDBHEADERROUNDTRIPXREC
350
C2E
  3
AcDbVariableDictionary
350
C26
  0
DICTIONARY
  5
6E7
102
{ACAD_REACTORS
330
5AC
102
}
330
5AC
100
AcDbDictionary
281
     1
  0
DICTIONARY
  5
5AD
102
{ACAD_REACTORS
330
5AC
102
}
330
5AC
100
AcDbDictionary
281
     1
  0
DICTIONARY
  5
6E8
102
{ACAD_REACTORS
330
5AC
102
}
330
5AC
100
AcDbDictionary
281
     1
  3
Layout1
350
6EB
  3
Model
350
6EA
  0
DICTIONARY
  5
6E6
102
{ACAD_REACTORS
330
5AC
102
}
330
5AC
100
AcDbDictionary
281
     1
  0
DICTIONARY
  5
5AE
102
{ACAD_REACTORS
330
5AC
102
}
330
5AC
100
AcDbDictionary
281
     1
  3
STANDARD
350
5AF
  0
DICTIONARY
  5
6E9
102
{ACAD_REACTORS
330
5AC
102
}
330
5AC
100
AcDbDictionary
281
     1
  0
ACDBDICTIONARYWDFLT
  5
6E4
102
{ACAD_REACTORS
330
5AC
102
}
330
5AC
100
AcDbDictionary
281
     1
  3
Normal
350
6E5
100
AcDbDictionaryWithDefault
340
6E5
  0
DICTIONARY
  5
C2E
102
{ACAD_REACTORS
330
5AC
102
}
330
5AC
100
AcDbDictionary
281
     1
  3
COLORDICT
350
C2F
  3
MATERIALDICT
350
C30
  0
DICTIONARY
  5
C26
102
{ACAD_REACTORS
330
5AC
102
}
330
5AC
100
AcDbDictionary
281
     1
  0
LAYOUT
  5
6EB
102
{ACAD_REACTORS
330
6E8
102
}
330
6E8
100
AcDbPlotSettings
  1

  2
\\alderaan\HP LaserJet 4050 Ricerca
  4

  6

 40
0.0
 41
0.0
 42
0.0
 43
0.0
 44
0.0
 45
0.0
 46
0.0
 47
0.0
 48
0.0
 49
0.0
140
0.0
141
0.0
142
1.0
143
1.0
 70
   688
 72
     0
 73
     0
 74
     5
  7

 75
    16
147
1.0
148
0.0
149
0.0
100
AcDbLayout
  1
Layout1
 70
     0
 71
     1
 10
0.0
 20
0.0
 11
12.0
 21
9.0
 12
0.0
 22
0.0
 32
0.0
 14
1.000000000000000E+20
 24
1.000000000000000E+20
 34
1.000000000000000E+20
 15
-1.000000000000000E+20
 25
-1.000000000000000E+20
 35
-1.000000000000000E+20
146
0.0
 13
0.0
 23
0.0
 33
0.0
 16
1.0
 26
0.0
 36
0.0
 17
0.0
 27
1.0
 37
0.0
 76
     0
330
1C
  0
LAYOUT
  5
6EA
102
{ACAD_REACTORS
330
6E8
102
}
330
6E8
100
AcDbPlotSettings
  1

  2
\\alderaan\HP LaserJet 4050 Ricerca
  4

  6

 40
0.0
 41
0.0
 42
0.0
 43
0.0
 44
0.0
 45
0.0
 46
0.0
 47
0.0
 48
0.0
 49
0.0
140
0.0
141
0.0
142
1.0
143
1.0
 70
  1712
 72
     0
 73
     0
 74
     0
  7

 75
     0
147
1.0
148
0.0
149
0.0
100
AcDbLayout
  1
Model
 70
     1
 71
     0
 10
0.0
 20
0.0
 11
12.0
 21
9.0
 12
0.0
 22
0.0
 32
0.0
 14
0.0
 24
0.0
 34
0.0
 15
0.0
 25
0.0
 35
0.0
146
0.0
 13
0.0
 23
0.0
 33
0.0
 16
1.0
 26
0.0
 36
0.0
 17
0.0
 27
1.0
 37
0.0
 76
     0
330
1B
  0
MLINESTYLE
  5
5AF
102
{ACAD_REACTORS
330
5AE
102
}
330
5AE
100
AcDbMlineStyle
  2
STANDARD
 70
     0
  3

 62
   256
 51
90.00000000000019
 52
90.00000000000019
 71
     2
 49
0.5
 62
   256
  6
BYLAYER
 49
-0.5
 62
   256
  6
BYLAYER
  0
ACDBPLACEHOLDER
  5
6E5
102
{ACAD_REACTORS
330
6E4
102
}
330
6E4
  0
XRECORD
  5
C2F
102
{ACAD_REACTORS
330
C2E
102
}
330
C2E
100
AcDbXrecord
280
     1
340
6E7
  0
XRECORD
  5
C30
102
{ACAD_REACTORS
330
C2E
102
}
330
C2E
100
AcDbXrecord
280
     1
340
6E6
  0
ENDSEC
  0
EOF
