  0
SECTION
  2
HEADER
  9
$ACADVER
  1
AC1015
  9
$ACADMAINTVER
 70
     6
  9
$DWGCODEPAGE
  3
ANSI_1252
  9
$INSBASE
 10
0.0
 20
0.0
 30
0.0
  9
$EXTMIN
 10
0.0
 20
0.0
 30
-56.5990896818
  9
$EXTMAX
 10
297.0
 20
420.0
 30
37.9589378989
  9
$LIMMIN
 10
0.0
 20
0.0
  9
$LIMMAX
 10
297.0
 20
420.0
  9
$ORTHOMODE
 70
     0
  9
$REGENMODE
 70
     1
  9
$FILLMODE
 70
     1
  9
$QTEXTMODE
 70
     0
  9
$MIRRTEXT
 70
     1
  9
$LTSCALE
 40
27.3777777778
  9
$ATTMODE
 70
     1
  9
$TEXTSIZE
 40
0.2
  9
$TRACEWID
 40
0.05
  9
$TEXTSTYLE
  7
STANDARD
  9
$CLAYER
  8
0
  9
$CELTYPE
  6
BYLAYER
  9
$CECOLOR
 62
   256
  9
$CELTSCALE
 40
1.0
  9
$DISPSILH
 70
     0
  9
$DIMSCALE
 40
1.0
  9
$DIMASZ
 40
3.0
  9
$DIMEXO
 40
3.1111111111
  9
$DIMDLI
 40
18.9155555556
  9
$DIMRND
 40
0.0
  9
$DIMDLE
 40
0.0
  9
$DIMEXE
 40
8.960000000000001
  9
$DIMTP
 40
0.003
  9
$DIMTM
 40
0.003
  9
$DIMTXT
 40
1.5
  9
$DIMCEN
 40
4.48
  9
$DIMTSZ
 40
0.0
  9
$DIMTOL
 70
     1
  9
$DIMLIM
 70
     0
  9
$DIMTIH
 70
     1
  9
$DIMTOH
 70
     1
  9
$DIMSE1
 70
     0
  9
$DIMSE2
 70
     0
  9
$DIMTAD
 70
     0
  9
$DIMZIN
 70
     0
  9
$DIMBLK
  1

  9
$DIMASO
 70
     1
  9
$DIMSHO
 70
     1
  9
$DIMPOST
  1

  9
$DIMAPOST
  1

  9
$DIMALT
 70
     0
  9
$DIMALTD
 70
     2
  9
$DIMALTF
 40
25.4
  9
$DIMLFAC
 40
1.0
  9
$DIMTOFL
 70
     0
  9
$DIMTVP
 40
0.0
  9
$DIMTIX
 70
     0
  9
$DIMSOXD
 70
     0
  9
$DIMSAH
 70
     0
  9
$DIMBLK1
  1

  9
$DIMBLK2
  1

  9
$DIMSTYLE
  2
STANDARD
  9
$DIMCLRD
 70
     0
  9
$DIMCLRE
 70
     0
  9
$DIMCLRT
 70
     0
  9
$DIMTFAC
 40
1.0
  9
$DIMGAP
 40
0.09
  9
$DIMJUST
 70
     0
  9
$DIMSD1
 70
     0
  9
$DIMSD2
 70
     0
  9
$DIMTOLJ
 70
     1
  9
$DIMTZIN
 70
     0
  9
$DIMALTZ
 70
     0
  9
$DIMALTTZ
 70
     0
  9
$DIMUPT
 70
     0
  9
$DIMDEC
 70
     4
  9
$DIMTDEC
 70
     4
  9
$DIMALTU
 70
     2
  9
$DIMALTTD
 70
     2
  9
$DIMTXSTY
  7
STANDARD
  9
$DIMAUNIT
 70
     0
  9
$DIMADEC
 70
     0
  9
$DIMALTRND
 40
0.0
  9
$DIMAZIN
 70
     0
  9
$DIMDSEP
 70
    46
  9
$DIMATFIT
 70
     3
  9
$DIMFRAC
 70
     0
  9
$DIMLDRBLK
  1

  9
$DIMLUNIT
 70
     2
  9
$DIMLWD
 70
    -2
  9
$DIMLWE
 70
    -2
  9
$DIMTMOVE
 70
     0
  9
$LUNITS
 70
     2
  9
$LUPREC
 70
     4
  9
$SKETCHINC
 40
0.1
  9
$FILLETRAD
 40
0.0
  9
$AUNITS
 70
     0
  9
$AUPREC
 70
     0
  9
$MENU
  1
acad
  9
$ELEVATION
 40
0.0
  9
$PELEVATION
 40
0.0
  9
$THICKNESS
 40
0.0
  9
$LIMCHECK
 70
     0
  9
$CHAMFERA
 40
0.0
  9
$CHAMFERB
 40
0.0
  9
$CHAMFERC
 40
0.0
  9
$CHAMFERD
 40
0.0
  9
$SKPOLY
 70
     0
  9
$TDCREATE
 40
2444972.041666667
  9
$TDUCREATE
 40
2444972.0
  9
$TDUPDATE
 40
2453410.364345544
  9
$TDUUPDATE
 40
2453410.322678878
  9
$TDINDWG
 40
0.0007230324
  9
$TDUSRTIMER
 40
0.0007230324
  9
$USRTIMER
 70
     1
  9
$ANGBASE
 50
0.0
  9
$ANGDIR
 70
     0
  9
$PDMODE
 70
     0
  9
$PDSIZE
 40
0.0
  9
$PLINEWID
 40
0.0
  9
$SPLFRAME
 70
     0
  9
$SPLINETYPE
 70
     6
  9
$SPLINESEGS
 70
     8
  9
$HANDSEED
  5
D94
  9
$SURFTAB1
 70
     6
  9
$SURFTAB2
 70
     6
  9
$SURFTYPE
 70
     6
  9
$SURFU
 70
     6
  9
$SURFV
 70
     6
  9
$UCSBASE
  2

  9
$UCSNAME
  2

  9
$UCSORG
 10
0.0
 20
0.0
 30
0.0
  9
$UCSXDIR
 10
1.0
 20
0.0
 30
0.0
  9
$UCSYDIR
 10
0.0
 20
1.0
 30
0.0
  9
$UCSORTHOREF
  2

  9
$UCSORTHOVIEW
 70
     0
  9
$UCSORGTOP
 10
0.0
 20
0.0
 30
0.0
  9
$UCSORGBOTTOM
 10
0.0
 20
0.0
 30
0.0
  9
$UCSORGLEFT
 10
0.0
 20
0.0
 30
0.0
  9
$UCSORGRIGHT
 10
0.0
 20
0.0
 30
0.0
  9
$UCSORGFRONT
 10
0.0
 20
0.0
 30
0.0
  9
$UCSORGBACK
 10
0.0
 20
0.0
 30
0.0
  9
$PUCSBASE
  2

  9
$PUCSNAME
  2

  9
$PUCSORG
 10
0.0
 20
0.0
 30
0.0
  9
$PUCSXDIR
 10
1.0
 20
0.0
 30
0.0
  9
$PUCSYDIR
 10
0.0
 20
1.0
 30
0.0
  9
$PUCSORTHOREF
  2

  9
$PUCSORTHOVIEW
 70
     0
  9
$PUCSORGTOP
 10
0.0
 20
0.0
 30
0.0
  9
$PUCSORGBOTTOM
 10
0.0
 20
0.0
 30
0.0
  9
$PUCSORGLEFT
 10
0.0
 20
0.0
 30
0.0
  9
$PUCSORGRIGHT
 10
0.0
 20
0.0
 30
0.0
  9
$PUCSORGFRONT
 10
0.0
 20
0.0
 30
0.0
  9
$PUCSORGBACK
 10
0.0
 20
0.0
 30
0.0
  9
$USERI1
 70
     0
  9
$USERI2
 70
     0
  9
$USERI3
 70
     0
  9
$USERI4
 70
     0
  9
$USERI5
 70
     0
  9
$USERR1
 40
0.0
  9
$USERR2
 40
0.0
  9
$USERR3
 40
0.0
  9
$USERR4
 40
0.0
  9
$USERR5
 40
0.0
  9
$WORLDVIEW
 70
     1
  9
$SHADEDGE
 70
     3
  9
$SHADEDIF
 70
    70
  9
$TILEMODE
 70
     1
  9
$MAXACTVP
 70
    16
  9
$PINSBASE
 10
0.0
 20
0.0
 30
0.0
  9
$PLIMCHECK
 70
     0
  9
$PEXTMIN
 10
1.000000000000000E+20
 20
1.000000000000000E+20
 30
1.000000000000000E+20
  9
$PEXTMAX
 10
-1.000000000000000E+20
 20
-1.000000000000000E+20
 30
-1.000000000000000E+20
  9
$PLIMMIN
 10
0.0
 20
0.0
  9
$PLIMMAX
 10
12.0
 20
9.0
  9
$UNITMODE
 70
     0
  9
$VISRETAIN
 70
     0
  9
$PLINEGEN
 70
     1
  9
$PSLTSCALE
 70
     0
  9
$TREEDEPTH
 70
  3020
  9
$CMLSTYLE
  2
STANDARD
  9
$CMLJUST
 70
     0
  9
$CMLSCALE
 40
1.0
  9
$PROXYGRAPHICS
 70
     1
  9
$MEASUREMENT
 70
     0
  9
$CELWEIGHT
370
    -1
  9
$ENDCAPS
280
     0
  9
$JOINSTYLE
280
     0
  9
$LWDISPLAY
290
     0
  9
$INSUNITS
 70
     0
  9
$HYPERLINKBASE
  1

  9
$STYLESHEET
  1

  9
$XEDIT
290
     1
  9
$CEPSNTYPE
380
     0
  9
$PSTYLEMODE
290
     1
  9
$FINGERPRINTGUID
  2
{0184DB91-E7CF-46D8-989B-A444CD2A3EC0}
  9
$VERSIONGUID
  2
{08C37A47-26A3-4B82-8F07-05631272869C}
  9
$EXTNAMES
290
     1
  9
$PSVPSCALE
 40
0.0
  9
$OLESTARTUP
290
     0
  0
ENDSEC
  0
SECTION
  2
CLASSES
  0
CLASS
  1
IMAGE
  2
AcDbRasterImage
  3
ISM
 90
      127
280
     0
281
     1
  0
CLASS
  1
DICTIONARYVAR
  2
AcDbDictionaryVar
  3
ObjectDBX Classes
 90
        0
280
     0
281
     0
  0
CLASS
  1
RASTERVARIABLES
  2
AcDbRasterVariables
  3
ISM
 90
        0
280
     0
281
     0
  0
CLASS
  1
IMAGEDEF
  2
AcDbRasterImageDef
  3
ISM
 90
        0
280
     0
281
     0
  0
CLASS
  1
IMAGEDEF_REACTOR
  2
AcDbRasterImageDefReactor
  3
ISM
 90
        1
280
     0
281
     0
  0
CLASS
  1
IDBUFFER
  2
AcDbIdBuffer
  3
ObjectDBX Classes
 90
        0
280
     0
281
     0
  0
CLASS
  1
SPATIAL_FILTER
  2
AcDbSpatialFilter
  3
ObjectDBX Classes
 90
        0
280
     0
281
     0
  0
CLASS
  1
SORTENTSTABLE
  2
AcDbSortentsTable
  3
ObjectDBX Classes
 90
        0
280
     0
281
     0
  0
CLASS
  1
LAYER_INDEX
  2
AcDbLayerIndex
  3
ObjectDBX Classes
 90
        0
280
     0
281
     0
  0
CLASS
  1
SPATIAL_INDEX
  2
AcDbSpatialIndex
  3
AutoCAD 2000
 90
        0
280
     0
281
     0
  0
CLASS
  1
OBJECT_PTR
  2
CAseDLPNTableRecord
  3
ASE-LPNTableRecord
 90
        1
280
     0
281
     0
  0
CLASS
  1
PLOTSETTINGS
  2
AcDbPlotSettings
  3
ObjectDBX Classes
 90
        0
280
     0
281
     0
  0
CLASS
  1
ACDBDICTIONARYWDFLT
  2
AcDbDictionaryWithDefault
  3
ObjectDBX Classes
 90
        0
280
     0
281
     0
  0
CLASS
  1
WIPEOUT
  2
AcDbWipeout
  3
WipeOut|AutoCAD Express Tool|expresstools@autodesk.com
 90
      127
280
     0
281
     1
  0
CLASS
  1
WIPEOUTVARIABLES
  2
AcDbWipeoutVariables
  3
WipeOut|AutoCAD Express Tool|expresstools@autodesk.com
 90
        0
280
     0
281
     0
  0
CLASS
  1
RTEXT
  2
RText
  3
RText|AutoCAD Express Tool|expresstools@autodesk.com
 90
        0
280
     0
281
     1
  0
CLASS
  1
ARCALIGNEDTEXT
  2
AcDbArcAlignedText
  3
ATEXT|AutoCAD Express Tool|expresstools@autodesk.com
 90
        0
280
     0
281
     1
  0
CLASS
  1
ACDBPLACEHOLDER
  2
AcDbPlaceHolder
  3
ObjectDBX Classes
 90
        0
280
     0
281
     0
  0
CLASS
  1
LAYOUT
  2
AcDbLayout
  3
ObjectDBX Classes
 90
        0
280
     0
281
     0
  0
ENDSEC
  0
SECTION
  2
TABLES
  0
TABLE
  2
VPORT
  5
8
330
0
100
AcDbSymbolTable
 70
     1
  0
VPORT
  5
D88
330
8
100
AcDbSymbolTableRecord
100
AcDbViewportTableRecord
  2
*Active
 70
     0
 10
0.0
 20
0.0
 11
1.0
 21
1.0
 12
189.1708372376714
 22
300.1731460506767
 13
0.0
 23
0.0
 14
1.0
 24
1.0
 15
0.0
 25
0.0
 16
0.0
 26
0.0
 36
1.0
 17
0.0
 27
0.0
 37
0.0
 40
287.2592347588017
 41
1.888667992047713
 42
50.0
 43
0.0
 44
0.0
 50
0.0
 51
0.0
 71
     0
 72
   100
 73
     1
 74
     1
 75
     0
 76
     0
 77
     0
 78
     0
281
     0
 65
     1
110
0.0
120
0.0
130
0.0
111
1.0
121
0.0
131
0.0
112
0.0
122
1.0
132
0.0
 79
     0
146
0.0
  0
ENDTAB
  0
TABLE
  2
LTYPE
  5
5
330
0
100
AcDbSymbolTable
 70
     1
  0
LTYPE
  5
14
330
5
100
AcDbSymbolTableRecord
100
AcDbLinetypeTableRecord
  2
BYBLOCK
 70
     0
  3

 72
    65
 73
     0
 40
0.0
  0
LTYPE
  5
15
330
5
100
AcDbSymbolTableRecord
100
AcDbLinetypeTableRecord
  2
BYLAYER
 70
     0
  3

 72
    65
 73
     0
 40
0.0
  0
LTYPE
  5
16
330
5
100
AcDbSymbolTableRecord
100
AcDbLinetypeTableRecord
  2
CONTINUOUS
 70
     0
  3
Solid line
 72
    65
 73
     0
 40
0.0
  0
ENDTAB
  0
TABLE
  2
LAYER
  5
2
330
0
100
AcDbSymbolTable
 70
     1
  0
LAYER
  5
10
330
2
100
AcDbSymbolTableRecord
100
AcDbLayerTableRecord
  2
0
 70
     0
 62
     7
  6
CONTINUOUS
370
    -3
390
D7F
  0
ENDTAB
  0
TABLE
  2
STYLE
  5
3
330
0
100
AcDbSymbolTable
 70
     1
  0
STYLE
  5
11
330
3
100
AcDbSymbolTableRecord
100
AcDbTextStyleTableRecord
  2
STANDARD
 70
     0
 40
0.0
 41
1.0
 50
0.0
 71
     0
 42
0.2
  3
txt
  4

  0
ENDTAB
  0
TABLE
  2
VIEW
  5
6
330
0
100
AcDbSymbolTable
 70
     0
  0
ENDTAB
  0
TABLE
  2
UCS
  5
7
330
0
100
AcDbSymbolTable
 70
     0
  0
ENDTAB
  0
TABLE
  2
APPID
  5
9
330
0
100
AcDbSymbolTable
 70
     1
  0
APPID
  5
212
330
9
100
AcDbSymbolTableRecord
100
AcDbRegAppTableRecord
  2
ACAD
 70
     0
  0
ENDTAB
  0
TABLE
  2
DIMSTYLE
  5
A
330
0
100
AcDbSymbolTable
 70
     1
100
AcDbDimStyleTable
  0
DIMSTYLE
105
213
330
A
100
AcDbSymbolTableRecord
100
AcDbDimStyleTableRecord
  2
STANDARD
 70
     0
 41
3.0
 47
0.003
 48
0.003
 71
     1
 73
     0
 74
     0
 77
     1
 78
     8
140
1.5
271
     3
272
     3
284
     8
340
11
  0
ENDTAB
  0
TABLE
  2
BLOCK_RECORD
  5
1
330
0
100
AcDbSymbolTable
 70
     0
  0
BLOCK_RECORD
  5
1B
330
1
100
AcDbSymbolTableRecord
100
AcDbBlockTableRecord
  2
*MODEL_SPACE
340
D84
  0
BLOCK_RECORD
  5
1C
330
1
100
AcDbSymbolTableRecord
100
AcDbBlockTableRecord
  2
*PAPER_SPACE
340
D85
  0
ENDTAB
  0
ENDSEC
  0
SECTION
  2
BLOCKS
  0
BLOCK
  5
1E
330
1B
100
AcDbEntity
  8
0
100
AcDbBlockBegin
  2
*MODEL_SPACE
 70
     0
 71
     0
 10
0.0
 20
0.0
 30
0.0
  3
*MODEL_SPACE
  1

  0
ENDBLK
  5
1F
330
1B
100
AcDbEntity
  8
0
100
AcDbBlockEnd
  0
BLOCK
  5
20
330
1C
100
AcDbEntity
 67
     1
  8
0
100
AcDbBlockBegin
  2
*PAPER_SPACE
 70
     0
 71
     0
 10
0.0
 20
0.0
 30
0.0
  3
*PAPER_SPACE
  1

  0
ENDBLK
  5
21
330
1C
100
AcDbEntity
 67
     1
  8
0
100
AcDbBlockEnd
  0
ENDSEC
  0
SECTION
  2
ENTITIES
  0
LINE
  5
218
330
1B
100
AcDbEntity
  8
0
  6
Continuous
100
AcDbLine
 10
98.4857000615
 20
198.5841806596
 30
0.0
 11
101.9857000615
 21
196.5634547175
 31
0.0
  0
LINE
  5
219
330
1B
100
AcDbEntity
  8
0
  6
Continuous
100
AcDbLine
 10
105.4857000615
 20
202.625632544
 30
0.0
 11
101.9857000615
 21
204.6463584861
 31
0.0
  0
LWPOLYLINE
  5
21A
330
1B
100
AcDbEntity
  8
0
  6
Continuous
100
AcDbPolyline
 90
        7
 70
     0
 43
0.0
 10
98.22395224730001
 20
206.3549066018
 10
98.2688957028
 20
206.3208324281
 10
98.31077633610001
 20
206.2209320056
 10
98.3467400512
 20
206.062013383
 10
98.37433598040001
 20
205.8549066018
 10
98.39168350680001
 20
205.6137256469
 10
98.39760042490001
 20
205.3549066018
  0
LINE
  5
223
330
1B
100
AcDbEntity
  8
0
  6
Continuous
100
AcDbLine
 10
92.74220532180001
 20
192.1549066018
 30
0.0
 11
86.73570006149998
 21
192.1549066018
 31
0.0
  0
LINE
  5
224
330
1B
100
AcDbEntity
  8
0
  6
Continuous
100
AcDbLine
 10
82.2357000615
 20
192.1549066018
 30
0.0
 11
76.2291948012
 21
192.1549066018
 31
0.0
  0
LINE
  5
225
330
1B
100
AcDbEntity
  8
0
  6
Continuous
100
AcDbLine
 10
70.9210400953
 20
192.1549066018
 30
0.0
 11
74.9216179676
 21
192.1549066018
 31
0.0
  0
LINE
  5
226
330
1B
100
AcDbEntity
  8
0
  6
Continuous
100
AcDbLine
 10
94.04978653129999
 20
192.1549066018
 30
0.0
 11
98.0503600278
 21
192.1549066018
 31
0.0
  0
LINE
  5
227
330
1B
100
AcDbEntity
  8
0
  6
Continuous
100
AcDbLine
 10
98.0503600278
 20
194.4049066018
 30
0.0
 11
94.86893562900001
 21
194.4049066018
 31
0.0
  0
LINE
  5
228
330
1B
100
AcDbEntity
  8
0
  6
Continuous
100
AcDbLine
 10
93.49962923530001
 20
194.4049066018
 30
0.0
 11
86.73570006149998
 21
194.4049066018
 31
0.0
  0
LINE
  5
229
330
1B
100
AcDbEntity
  8
0
  6
Continuous
100
AcDbLine
 10
82.2357000615
 20
194.4049066018
 30
0.0
 11
75.47177088780001
 21
194.4049066018
 31
0.0
  0
LINE
  5
22A
330
1B
100
AcDbEntity
  8
0
  6
Continuous
100
AcDbLine
 10
74.102464494
 20
194.4049066018
 30
0.0
 11
70.9210400953
 21
194.4049066018
 31
0.0
  0
LINE
  5
22B
330
1B
100
AcDbEntity
  8
0
  6
Continuous
100
AcDbLine
 10
101.7357000615
 20
194.8549066018
 30
0.0
 11
69.48579067670001
 21
194.8549066018
 31
0.0
  0
LINE
  5
22C
330
1B
100
AcDbEntity
  8
0
  6
Continuous
100
AcDbLine
 10
101.9093482392
 20
195.8549066018
 30
0.0
 11
68.4857000615
 21
195.8549066018
 31
0.0
  0
LINE
  5
22D
330
1B
100
AcDbEntity
  8
0
  6
Continuous
100
AcDbLine
 10
98.5465868037
 20
199.9549066018
 30
0.0
 11
105.4248133193
 21
199.9549066018
 31
0.0
  0
LWPOLYLINE
  5
22E
330
1B
100
AcDbEntity
  8
0
  6
Continuous
100
AcDbPolyline
 90
        7
 70
     0
 43
0.0
 10
95.88005129539999
 20
206.3549066018
 10
96.07665808390001
 20
206.3208317997
 10
96.2598654801
 20
206.2209301228
 10
96.41718831870001
 20
206.0620105456
 10
96.53790572
 20
205.854903752
 10
96.6137915321
 20
205.6137238689
 10
96.63967471040002
 20
205.3549066018
  0
LWPOLYLINE
  5
237
330
1B
100
AcDbEntity
  8
0
  6
Continuous
100
AcDbPolyline
 90
        7
 70
     0
 43
0.0
 10
95.8800512955
 20
194.8549066018
 10
96.0766560383
 20
194.8889806824
 10
96.2598626459
 20
194.988880927
 10
96.41718585980001
 20
195.1477994215
 10
96.53790429709999
 20
195.3549062078
 10
96.6137911209
 20
195.5960873134
 10
96.63967471120002
 20
195.8549066018
  0
LINE
  5
240
330
1B
100
AcDbEntity
  8
0
  6
Continuous
100
AcDbLine
 10
105.4248133193
 20
201.2549066018
 30
0.0
 11
98.5465868037
 21
201.2549066018
 31
0.0
  0
LINE
  5
241
330
1B
100
AcDbEntity
  8
0
  6
Continuous
100
AcDbLine
 10
106.6268673716
 20
203.6049066018
 30
0.0
 11
109.4857000615
 21
203.6049066018
 31
0.0
  0
LINE
  5
242
330
1B
100
AcDbEntity
  8
0
  6
Continuous
100
AcDbLine
 10
105.8362193924
 20
204.6049066018
 30
0.0
 11
109.4857000615
 21
204.6049066018
 31
0.0
  0
LINE
  5
243
330
1B
100
AcDbEntity
  8
0
  6
Continuous
100
AcDbLine
 10
109.4857000615
 20
204.6049066018
 30
0.0
 11
110.4857000615
 21
204.6049066018
 31
0.0
  0
LINE
  5
244
330
1B
100
AcDbEntity
  8
0
  6
Continuous
100
AcDbLine
 10
68.4857000615
 20
205.3549066018
 30
0.0
 11
101.9093482392
 21
205.3549066018
 31
0.0
  0
LINE
  5
245
330
1B
100
AcDbEntity
  8
0
  6
Continuous
100
AcDbLine
 10
60.6801372511
 20
206.3549066018
 30
0.0
 11
108.2912628719
 21
206.3549066018
 31
0.0
  0
LINE
  5
246
330
1B
100
AcDbEntity
  8
0
  6
Continuous
100
AcDbLine
 10
109.4857000615
 20
208.6049066018
 30
0.0
 11
110.4857000615
 21
208.6049066018
 31
0.0
  0
LINE
  5
247
330
1B
100
AcDbEntity
  8
0
  6
Continuous
100
AcDbLine
 10
110.4857000615
 20
208.6049066018
 30
0.0
 11
173.9857000615
 21
208.6049066018
 31
0.0
  0
LINE
  5
248
330
1B
100
AcDbEntity
  8
0
  6
Continuous
100
AcDbLine
 10
110.4857000615
 20
209.6049066018
 30
0.0
 11
173.9857000615
 21
209.6049066018
 31
0.0
  0
LINE
  5
249
330
1B
100
AcDbEntity
  8
0
  6
Continuous
100
AcDbLine
 10
173.9857000615
 20
209.6049066018
 30
0.0
 11
174.9857000615
 21
209.6049066018
 31
0.0
  0
LWPOLYLINE
  5
24A
330
1B
100
AcDbEntity
  8
0
  6
Continuous
100
AcDbPolyline
 90
        3
 70
     0
 43
0.0
 10
63.402966929
 20
255.4653764508
 10
63.4146980778
 20
255.3702041648
 10
63.42184949269999
 20
255.3549066018
  0
LWPOLYLINE
  5
24F
330
1B
100
AcDbEntity
  8
0
  6
Continuous
100
AcDbPolyline
 90
        3
 70
     0
 43
0.0
 10
66.2929778737
 20
255.4653764508
 10
66.3031009222
 20
255.3702041648
 10
66.30927202460001
 20
255.3549066018
  0
LWPOLYLINE
  5
254
330
1B
100
AcDbEntity
  8
0
  6
Continuous
100
AcDbPolyline
 90
        6
 70
     0
 43
0.0
 10
68.5937036067
 20
255.4653764508
 10
68.60254645329999
 20
255.3702041648
 10
68.6330321263
 20
255.2836925315
 10
68.6820435273
 20
255.2146871905
 10
68.7445693399
 20
255.1702437983
 10
68.8142164261
 20
255.1549066018
  0
LWPOLYLINE
  5
25C
330
1B
100
AcDbEntity
  8
0
  6
Continuous
100
AcDbPolyline
 90
        3
 70
     0
 43
0.0
 10
71.37729961019998
 20
255.4653764508
 10
71.38459356929999
 20
255.3702041654
 10
71.38904003330001
 20
255.3549066018
  0
LINE
  5
261
330
1B
100
AcDbEntity
  8
0
  6
Continuous
100
AcDbLine
 10
65.1291039903
 20
262.3549066018
 30
0.0
 11
63.4103436955
 21
206.3549066018
 31
0.0
  0
LINE
  5
262
330
1B
100
AcDbEntity
  8
0
  6
Continuous
100
AcDbLine
 10
65.1957134778
 20
262.3549066018
 30
0.0
 11
65.26412069129999
 21
264.5653764508
 31
0.0
  0
LINE
  5
263
330
1B
100
AcDbEntity
  8
0
  6
Continuous
100
AcDbLine
 10
64.3611135643
 20
262.3549066018
 30
0.0
 11
64.432480482
 21
264.5653764508
 31
0.0
  0
LINE
  5
264
330
1B
100
AcDbEntity
  8
0
  6
Continuous
100
AcDbLine
 10
64.8118720457
 20
264.8549066018
 30
0.0
 11
64.7311573984
 21
262.3549066018
 31
0.0
  0
LINE
  5
265
330
1B
100
AcDbEntity
  8
0
  6
Continuous
100
AcDbLine
 10
64.7670589487
 20
262.3549066018
 30
0.0
 11
64.5450287984
 21
255.4653764508
 31
0.0
  0
LINE
  5
266
330
1B
100
AcDbEntity
  8
0
  6
Continuous
100
AcDbLine
 10
64.27865946389998
 20
262.3549066018
 30
0.0
 11
62.4589807726
 21
206.3549066018
 31
0.0
  0
LINE
  5
267
330
1B
100
AcDbEntity
  8
0
  6
Continuous
100
AcDbLine
 10
63.5558044935
 20
228.6549066018
 30
0.0
 11
62.8311837813
 21
206.3549066018
 31
0.0
  0
LINE
  5
268
330
1B
100
AcDbEntity
  8
0
  6
Continuous
100
AcDbLine
 10
63.7376060294
 20
262.3549066018
 30
0.0
 11
63.8111840639
 21
264.5653764508
 31
0.0
  0
LINE
  5
269
330
1B
100
AcDbEntity
  8
0
  6
Continuous
100
AcDbLine
 10
63.6377134099
 20
262.3549066018
 30
0.0
 11
63.402966929
 21
255.4653764508
 31
0.0
  0
LINE
  5
26A
330
1B
100
AcDbEntity
  8
0
  6
Continuous
100
AcDbLine
 10
63.1421956408
 20
262.3549066018
 30
0.0
 11
61.2256925938
 21
206.3549066018
 31
0.0
  0
LINE
  5
26B
330
1B
100
AcDbEntity
  8
0
  6
Continuous
100
AcDbLine
 10
63.226481991
 20
262.3549066018
 30
0.0
 11
63.30187260169999
 21
264.5653764508
 31
0.0
  0
LINE
  5
26C
330
1B
100
AcDbEntity
  8
0
  6
Continuous
100
AcDbLine
 10
63.2946447726
 20
255.3549066018
 30
0.0
 11
61.6177003716
 21
206.3549066018
 31
0.0
  0
LINE
  5
26D
330
1B
100
AcDbEntity
  8
0
  6
Continuous
100
AcDbLine
 10
63.70265440109999
 20
264.8549066018
 30
0.0
 11
63.6173890323
 21
262.3549066018
 31
0.0
  0
LINE
  5
26E
330
1B
100
AcDbEntity
  8
0
  6
Continuous
100
AcDbLine
 10
62.829628921
 20
262.3549066018
 30
0.0
 11
60.8953456983
 21
206.3549066018
 31
0.0
  0
LINE
  5
26F
330
1B
100
AcDbEntity
  8
0
  6
Continuous
100
AcDbLine
 10
62.9099189192
 20
262.3549066018
 30
0.0
 11
62.9864321433
 21
264.5653764508
 31
0.0
  0
LINE
  5
270
330
1B
100
AcDbEntity
  8
0
  6
Continuous
100
AcDbLine
 10
62.63570006150001
 20
262.3549066018
 30
0.0
 11
60.68013697
 21
206.3549066018
 31
0.0
  0
LINE
  5
271
330
1B
100
AcDbEntity
  8
0
  6
Continuous
100
AcDbLine
 10
62.6542433992
 20
262.3549066018
 30
0.0
 11
60.6991479717
 21
206.3549066018
 31
0.0
  0
LINE
  5
272
330
1B
100
AcDbEntity
  8
0
  6
Continuous
100
AcDbLine
 10
62.7958989586
 20
264.5653764508
 30
0.0
 11
62.7187076505
 21
262.3549066018
 31
0.0
  0
LINE
  5
273
330
1B
100
AcDbEntity
  8
0
  6
Continuous
100
AcDbLine
 10
62.7378010011
 20
262.3549066018
 30
0.0
 11
62.81492459929999
 21
264.5653764508
 31
0.0
  0
LINE
  5
274
330
1B
100
AcDbEntity
  8
0
  6
Continuous
100
AcDbLine
 10
63.22105798409999
 20
265.2788546531
 30
0.0
 11
63.206253392
 21
264.8549066018
 31
0.0
  0
LWPOLYLINE
  5
275
330
1B
100
AcDbEntity
  8
0
  6
Continuous
100
AcDbPolyline
 90
        6
 70
     0
 43
0.0
 10
64.5450287984
 20
255.4653764508
 10
64.55612446519999
 20
255.3702041648
 10
64.5943767254
 20
255.2836925315
 10
64.65587436289999
 20
255.2146871905
 10
64.7343293686
 20
255.1702437983
 10
64.82171987709999
 20
255.1549066018
  0
LWPOLYLINE
  5
27D
330
1B
100
AcDbEntity
  8
0
  6
Continuous
100
AcDbPolyline
 90
        6
 70
     0
 43
0.0
 10
74.5591877283
 20
255.4653764508
 10
74.5647111768
 20
255.3702041654
 10
74.5837532405
 20
255.2836925319
 10
74.6143669069
 20
255.2146871907
 10
74.65342199049999
 20
255.1702437984
 10
74.69692518799999
 20
255.1549066018
  0
LWPOLYLINE
  5
285
330
1B
100
AcDbEntity
  8
0
  6
Continuous
100
AcDbPolyline
 90
        3
 70
     0
 43
0.0
 10
78.0426879006
 20
255.4653764508
 10
78.0462730113
 20
255.3702041654
 10
78.0484585275
 20
255.3549066018
  0
LINE
  5
28A
330
1B
100
AcDbEntity
  8
0
  6
Continuous
100
AcDbLine
 10
67.1857000615
 20
267.4549066018
 30
0.0
 11
67.1857000615
 21
266.1549066018
 31
0.0
  0
LINE
  5
28B
330
1B
100
AcDbEntity
  8
0
  6
Continuous
100
AcDbLine
 10
67.447169059
 20
267.1549066018
 30
0.0
 11
67.447169059
 21
266.1549066018
 31
0.0
  0
LINE
  5
28C
330
1B
100
AcDbEntity
  8
0
  6
Continuous
100
AcDbLine
 10
68.4857000615
 20
195.8549066018
 30
0.0
 11
68.4857000615
 21
205.3549066018
 31
0.0
  0
LINE
  5
28D
330
1B
100
AcDbEntity
  8
0
  6
Continuous
100
AcDbLine
 10
69.72834889320001
 20
266.5339011316
 30
0.0
 11
69.72834889320001
 21
265.7041766326
 31
0.0
  0
LINE
  5
28E
330
1B
100
AcDbEntity
  8
0
  6
Continuous
100
AcDbLine
 10
69.7997913713
 20
266.5252557468
 30
0.0
 11
69.7997913713
 21
265.6671535991
 31
0.0
  0
LINE
  5
28F
330
1B
100
AcDbEntity
  8
0
  6
Continuous
100
AcDbLine
 10
70.9210400953
 20
194.4049066018
 30
0.0
 11
70.9210400953
 21
192.1549066018
 31
0.0
  0
LINE
  5
290
330
1B
100
AcDbEntity
  8
0
  6
Continuous
100
AcDbLine
 10
72.17452914490001
 20
266.5252557468
 30
0.0
 11
72.17452914490001
 21
265.6671535991
 31
0.0
  0
LINE
  5
291
330
1B
100
AcDbEntity
  8
0
  6
Continuous
100
AcDbLine
 10
72.50051472680001
 20
266.5657378343
 30
0.0
 11
72.50051472680001
 21
265.7657378343
 31
0.0
  0
LINE
  5
292
330
1B
100
AcDbEntity
  8
0
  6
Continuous
100
AcDbLine
 10
72.98439362509998
 20
266.9410770437
 30
0.0
 11
72.98439362509998
 21
266.1410770437
 31
0.0
  0
LINE
  5
293
330
1B
100
AcDbEntity
  8
0
  6
Continuous
100
AcDbLine
 10
72.9869655652
 20
266.9445046381
 30
0.0
 11
72.9869655652
 21
266.1445052752
 31
0.0
  0
LINE
  5
294
330
1B
100
AcDbEntity
  8
0
  6
Continuous
100
AcDbLine
 10
75.70348063469999
 20
255.1548644494
 30
0.0
 11
75.63788911579999
 21
228.6549066018
 31
0.0
  0
LINE
  5
295
330
1B
100
AcDbEntity
  8
0
  6
Continuous
100
AcDbLine
 10
76.1909440714
 20
262.3549066018
 30
0.0
 11
76.22035939229998
 21
264.5653764508
 31
0.0
  0
LINE
  5
296
330
1B
100
AcDbEntity
  8
0
  6
Continuous
100
AcDbLine
 10
74.6697148513
 20
262.3549066018
 30
0.0
 11
74.5591877283
 21
255.4653764508
 31
0.0
  0
LINE
  5
297
330
1B
100
AcDbEntity
  8
0
  6
Continuous
100
AcDbLine
 10
74.401138781
 20
262.3549066018
 30
0.0
 11
74.436901208
 21
264.5653764508
 31
0.0
  0
LINE
  5
298
330
1B
100
AcDbEntity
  8
0
  6
Continuous
100
AcDbLine
 10
74.62701679
 20
264.8549066018
 30
0.0
 11
74.5865701548
 21
262.3549066018
 31
0.0
  0
LINE
  5
299
330
1B
100
AcDbEntity
  8
0
  6
Continuous
100
AcDbLine
 10
74.34939459369998
 20
262.3549066018
 30
0.0
 11
73.4161838954
 21
206.3549066018
 31
0.0
  0
LINE
  5
29A
330
1B
100
AcDbEntity
  8
0
  6
Continuous
100
AcDbLine
 10
73.97868299779999
 20
228.6549066018
 30
0.0
 11
73.6070658523
 21
206.3549066018
 31
0.0
  0
LINE
  5
29B
330
1B
100
AcDbEntity
  8
0
  6
Continuous
100
AcDbLine
 10
72.82236228159999
 20
262.3549066018
 30
0.0
 11
72.8637234528
 21
264.5653764508
 31
0.0
  0
LINE
  5
29C
330
1B
100
AcDbEntity
  8
0
  6
Continuous
100
AcDbLine
 10
71.2046749093
 20
262.3549066018
 30
0.0
 11
71.2517728126
 21
264.5653764508
 31
0.0
  0
LINE
  5
29D
330
1B
100
AcDbEntity
  8
0
  6
Continuous
100
AcDbLine
 10
71.5021485856
 20
264.8549066018
 30
0.0
 11
71.448881739
 21
262.3549066018
 31
0.0
  0
LINE
  5
29E
330
1B
100
AcDbEntity
  8
0
  6
Continuous
100
AcDbLine
 10
71.5232555855
 20
262.3549066018
 30
0.0
 11
71.37729961019998
 21
255.4653764508
 31
0.0
  0
LINE
  5
29F
330
1B
100
AcDbEntity
  8
0
  6
Continuous
100
AcDbLine
 10
71.1421502163
 20
262.3549066018
 30
0.0
 11
69.9246574924
 21
206.3549066018
 31
0.0
  0
LINE
  5
2A0
330
1B
100
AcDbEntity
  8
0
  6
Continuous
100
AcDbLine
 10
71.23899624489999
 20
255.3549066018
 30
0.0
 11
70.1736874212
 21
206.3549066018
 31
0.0
  0
LINE
  5
2A1
330
1B
100
AcDbEntity
  8
0
  6
Continuous
100
AcDbLine
 10
69.7632702187
 20
262.3549066018
 30
0.0
 11
68.4673407096
 21
206.3549066018
 31
0.0
  0
LINE
  5
2A2
330
1B
100
AcDbEntity
  8
0
  6
Continuous
100
AcDbLine
 10
69.8081651083
 20
262.3549066018
 30
0.0
 11
69.86021539159999
 21
264.5653764508
 31
0.0
  0
LINE
  5
2A3
330
1B
100
AcDbEntity
  8
0
  6
Continuous
100
AcDbLine
 10
68.7706536358
 20
262.3549066018
 30
0.0
 11
68.5937036067
 21
255.4653764508
 31
0.0
  0
LINE
  5
2A4
330
1B
100
AcDbEntity
  8
0
  6
Continuous
100
AcDbLine
 10
68.41174826619999
 20
262.3549066018
 30
0.0
 11
68.46875059990001
 21
264.5653764508
 31
0.0
  0
LINE
  5
2A5
330
1B
100
AcDbEntity
  8
0
  6
Continuous
100
AcDbLine
 10
68.7717790228
 20
264.8549066018
 30
0.0
 11
68.707310451
 21
262.3549066018
 31
0.0
  0
LINE
  5
2A6
330
1B
100
AcDbEntity
  8
0
  6
Continuous
100
AcDbLine
 10
68.34034284880001
 20
262.3549066018
 30
0.0
 11
66.8755609996
 21
206.3549066018
 31
0.0
  0
LINE
  5
2A7
330
1B
100
AcDbEntity
  8
0
  6
Continuous
100
AcDbLine
 10
67.75846823249999
 20
228.6549066018
 30
0.0
 11
67.17517225180001
 21
206.3549066018
 31
0.0
  0
LINE
  5
2A8
330
1B
100
AcDbEntity
  8
0
  6
Continuous
100
AcDbLine
 10
67.1833251514
 20
262.3549066018
 30
0.0
 11
65.6527270247
 21
206.3549066018
 31
0.0
  0
LINE
  5
2A9
330
1B
100
AcDbEntity
  8
0
  6
Continuous
100
AcDbLine
 10
67.23993740730001
 20
262.3549066018
 30
0.0
 11
67.30109528120001
 21
264.5653764508
 31
0.0
  0
LINE
  5
2AA
330
1B
100
AcDbEntity
  8
0
  6
Continuous
100
AcDbLine
 10
66.1072205147
 20
262.3549066018
 30
0.0
 11
66.17239529169999
 21
264.5653764508
 31
0.0
  0
LINE
  5
2AB
330
1B
100
AcDbEntity
  8
0
  6
Continuous
100
AcDbLine
 10
66.5188689992
 20
264.8549066018
 30
0.0
 11
66.44515754699999
 21
262.3549066018
 31
0.0
  0
LINE
  5
2AC
330
1B
100
AcDbEntity
  8
0
  6
Continuous
100
AcDbLine
 10
66.49554541960001
 20
262.3549066018
 30
0.0
 11
66.2929778737
 21
255.4653764508
 31
0.0
  0
LINE
  5
2AD
330
1B
100
AcDbEntity
  8
0
  6
Continuous
100
AcDbLine
 10
66.0291039903
 20
262.3549066018
 30
0.0
 11
64.361539671
 21
206.3549066018
 31
0.0
  0
LINE
  5
2AE
330
1B
100
AcDbEntity
  8
0
  6
Continuous
100
AcDbLine
 10
98.31289060170001
 20
228.6549066018
 30
0.0
 11
96.7958068877
 21
228.6549066018
 31
0.0
  0
LINE
  5
2AF
330
1B
100
AcDbEntity
  8
0
  6
Continuous
100
AcDbLine
 10
91.35329325209999
 20
228.6549066018
 30
0.0
 11
89.3976661558
 21
228.6549066018
 31
0.0
  0
LINE
  5
2B0
330
1B
100
AcDbEntity
  8
0
  6
Continuous
100
AcDbLine
 10
83.5653628088
 20
228.6549066018
 30
0.0
 11
81.466199088
 21
228.6549066018
 31
0.0
  0
LINE
  5
2B1
330
1B
100
AcDbEntity
  8
0
  6
Continuous
100
AcDbLine
 10
75.7418244839
 20
228.6549066018
 30
0.0
 11
73.97868299779999
 21
228.6549066018
 31
0.0
  0
LINE
  5
2B2
330
1B
100
AcDbEntity
  8
0
  6
Continuous
100
AcDbLine
 10
63.5558044935
 20
228.6549066018
 30
0.0
 11
64.0947785986
 21
228.6549066018
 31
0.0
  0
LINE
  5
2B3
330
1B
100
AcDbEntity
  8
0
  6
Continuous
100
AcDbLine
 10
67.75846823249999
 20
228.6549066018
 30
0.0
 11
68.98339835340001
 21
228.6549066018
 31
0.0
  0
LINE
  5
2B4
330
1B
100
AcDbEntity
  8
0
  6
Continuous
100
AcDbLine
 10
102.7091670586
 20
228.6549066018
 30
0.0
 11
103.6047247046
 21
228.6549066018
 31
0.0
  0
LINE
  5
2B5
330
1B
100
AcDbEntity
  8
0
  6
Continuous
100
AcDbLine
 10
106.4245081599
 20
228.6549066018
 30
0.0
 11
106.5905222687
 21
228.6549066018
 31
0.0
  0
LINE
  5
2B6
330
1B
100
AcDbEntity
  8
0
  6
Continuous
100
AcDbLine
 10
75.6416018492
 20
230.1549066018
 30
0.0
 11
75.76102422939999
 21
230.1549066018
 31
0.0
  0
LINE
  5
2B7
330
1B
100
AcDbEntity
  8
0
  6
Continuous
100
AcDbLine
 10
81.98132125829999
 20
230.1549066018
 30
0.0
 11
83.55626237560001
 21
230.1549066018
 31
0.0
  0
LINE
  5
2B8
330
1B
100
AcDbEntity
  8
0
  6
Continuous
100
AcDbLine
 10
89.38722195169999
 20
230.1549066018
 30
0.0
 11
90.24747284439999
 21
230.1549066018
 31
0.0
  0
LINE
  5
2B9
330
1B
100
AcDbEntity
  8
0
  6
Continuous
100
AcDbLine
 10
75.6440770048
 20
231.1549066018
 30
0.0
 11
75.7738240597
 21
231.1549066018
 31
0.0
  0
LINE
  5
2BA
330
1B
100
AcDbEntity
  8
0
  6
Continuous
100
AcDbLine
 10
81.98208798699999
 20
231.1549066018
 30
0.0
 11
83.55717658939999
 21
231.1549066018
 31
0.0
  0
LINE
  5
2BB
330
1B
100
AcDbEntity
  8
0
  6
Continuous
100
AcDbLine
 10
89.380259149
 20
231.1549066018
 30
0.0
 11
90.2458268967
 21
231.1549066018
 31
0.0
  0
LINE
  5
2BC
330
1B
100
AcDbEntity
  8
0
  6
Continuous
100
AcDbLine
 10
75.647913496
 20
232.7049066018
 30
0.0
 11
75.66595938919998
 21
232.7049066018
 31
0.0
  0
LINE
  5
2BD
330
1B
100
AcDbEntity
  8
0
  6
Continuous
100
AcDbLine
 10
75.8064636271
 20
233.7049066018
 30
0.0
 11
75.6503886516
 21
233.7049066018
 31
0.0
  0
LINE
  5
2BE
330
1B
100
AcDbEntity
  8
0
  6
Continuous
100
AcDbLine
 10
89.48570006149998
 20
246.1549066018
 30
0.0
 11
90.2256832197
 21
243.3932518588
 31
0.0
  0
LWPOLYLINE
  5
2BF
330
1B
100
AcDbEntity
  8
0
  6
Continuous
100
AcDbPolyline
 90
        5
 70
     0
 43
0.0
 10
94.534498915
 20
264.5653764508
 10
94.5225673692
 20
264.6769275947
 10
94.49214451340001
 20
264.7707085419
 10
94.44766089759999
 20
264.8330617582
 10
94.39559477269999
 20
264.8549066018
  0
LWPOLYLINE
  5
2C6
330
1B
100
AcDbEntity
  8
0
  6
Continuous
100
AcDbPolyline
 90
        5
 70
     0
 43
0.0
 10
92.75104073079999
 20
264.5653764508
 10
92.74122679260002
 20
264.6769275947
 10
92.71620337719999
 20
264.7707085419
 10
92.67961470180001
 20
264.8330617582
 10
92.6367892592
 20
264.8549066018
  0
LWPOLYLINE
  5
2CD
330
1B
100
AcDbEntity
  8
0
  6
Continuous
100
AcDbPolyline
 90
        5
 70
     0
 43
0.0
 10
91.04404285139999
 20
264.5653764508
 10
91.0362557349
 20
264.6769275947
 10
91.0164002755
 20
264.7707085419
 10
90.9873680693
 20
264.8330617582
 10
90.9533871428
 20
264.8549066018
  0
LWPOLYLINE
  5
2D4
330
1B
100
AcDbEntity
  8
0
  6
Continuous
100
AcDbPolyline
 90
        5
 70
     0
 43
0.0
 10
89.14326659750002
 20
264.5653764508
 10
89.13773638749998
 20
264.6769275947
 10
89.1236355504
 20
264.7707085419
 10
89.10301762349999
 20
264.8330617582
 10
89.0788852427
 20
264.8549066018
  0
LWPOLYLINE
  5
2DB
330
1B
100
AcDbEntity
  8
0
  6
Continuous
100
AcDbPolyline
 90
        5
 70
     0
 43
0.0
 10
87.35431486080002
 20
264.5653764508
 10
87.35090878120001
 20
264.6769275947
 10
87.3422240164
 20
264.7707085419
 10
87.32952534849999
 20
264.8330617582
 10
87.3146621138
 20
264.8549066018
  0
LWPOLYLINE
  5
2E2
330
1B
100
AcDbEntity
  8
0
  6
Continuous
100
AcDbPolyline
 90
        6
 70
     0
 43
0.0
 10
81.72195573699999
 20
255.4653764508
 10
81.72349357820001
 20
255.3702041654
 10
81.72879527870001
 20
255.2836925319
 10
81.73731875039999
 20
255.2146871907
 10
81.74819248549999
 20
255.1702437984
 10
81.76030466660001
 20
255.1549066018
  0
LWPOLYLINE
  5
2EA
330
1B
100
AcDbEntity
  8
0
  6
Continuous
100
AcDbPolyline
 90
        5
 70
     0
 43
0.0
 10
85.3939746619
 20
264.5653764508
 10
85.3928962127
 20
264.6769275947
 10
85.3901464007
 20
264.7707085419
 10
85.3861256875
 20
264.8330617582
 10
85.38141961869999
 20
264.8549066018
  0
LINE
  5
2F1
330
1B
100
AcDbEntity
  8
0
  6
Continuous
100
AcDbLine
 10
89.15984229830001
 20
262.3549066018
 30
0.0
 11
89.14326659750002
 21
264.5653764508
 31
0.0
  0
LWPOLYLINE
  5
2F2
330
1B
100
AcDbEntity
  8
0
  6
Continuous
100
AcDbPolyline
 90
        6
 70
     0
 43
0.0
 10
83.4862015768
 20
255.4653764508
 10
83.4867577317
 20
255.3702041654
 10
83.4886750731
 20
255.2836925319
 10
83.4917575569
 20
255.2146871907
 10
83.4956900052
 20
255.1702437984
 10
83.5000703332
 20
255.1549066018
  0
LINE
  5
2FA
330
1B
100
AcDbEntity
  8
0
  6
Continuous
100
AcDbLine
 10
87.3673707002
 20
255.3549066018
 30
0.0
 11
87.620316833
 21
206.3549066018
 31
0.0
  0
LINE
  5
2FB
330
1B
100
AcDbEntity
  8
0
  6
Continuous
100
AcDbLine
 10
87.3000428647
 20
264.8549066018
 30
0.0
 11
87.31158910199999
 21
262.3549066018
 31
0.0
  0
LINE
  5
2FC
330
1B
100
AcDbEntity
  8
0
  6
Continuous
100
AcDbLine
 10
87.3645239045
 20
262.3549066018
 30
0.0
 11
87.35431486080002
 21
264.5653764508
 31
0.0
  0
LINE
  5
2FD
330
1B
100
AcDbEntity
  8
0
  6
Continuous
100
AcDbLine
 10
87.21867137140001
 20
262.3549066018
 30
0.0
 11
87.24944438599999
 21
255.4653764508
 31
0.0
  0
LINE
  5
2FE
330
1B
100
AcDbEntity
  8
0
  6
Continuous
100
AcDbLine
 10
85.474069593
 20
262.3549066018
 30
0.0
 11
85.48519854629998
 21
255.4653764508
 31
0.0
  0
LINE
  5
2FF
330
1B
100
AcDbEntity
  8
0
  6
Continuous
100
AcDbLine
 10
85.3972070984
 20
262.3549066018
 30
0.0
 11
85.3939746619
 21
264.5653764508
 31
0.0
  0
LINE
  5
300
330
1B
100
AcDbEntity
  8
0
  6
Continuous
100
AcDbLine
 10
82.2357000615
 20
192.1549066018
 30
0.0
 11
82.2357000615
 21
194.8549066018
 31
0.0
  0
LINE
  5
301
330
1B
100
AcDbEntity
  8
0
  6
Continuous
100
AcDbLine
 10
84.49352402940001
 20
267.1549066018
 30
0.0
 11
84.49352402940001
 21
266.1549066018
 31
0.0
  0
LINE
  5
302
330
1B
100
AcDbEntity
  8
0
  6
Continuous
100
AcDbLine
 10
86.73570006149998
 20
194.8549066018
 30
0.0
 11
86.73570006149998
 21
192.1549066018
 31
0.0
  0
LINE
  5
303
330
1B
100
AcDbEntity
  8
0
  6
Continuous
100
AcDbLine
 10
87.21944360640001
 20
266.1549066018
 30
0.0
 11
87.21944360640001
 21
267.1549066018
 31
0.0
  0
LINE
  5
304
330
1B
100
AcDbEntity
  8
0
  6
Continuous
100
AcDbLine
 10
87.4821081237
 20
267.1549066018
 30
0.0
 11
87.4821081237
 21
266.1549066018
 31
0.0
  0
LINE
  5
305
330
1B
100
AcDbEntity
  8
0
  6
Continuous
100
AcDbLine
 10
89.48570006149998
 20
255.1549066018
 30
0.0
 11
89.48570006149998
 21
246.0785547724
 31
0.0
  0
LINE
  5
306
330
1B
100
AcDbEntity
  8
0
  6
Continuous
100
AcDbLine
 10
82.0004894745
 20
255.1549066018
 30
0.0
 11
81.98017116539999
 21
228.6549066018
 31
0.0
  0
LINE
  5
307
330
1B
100
AcDbEntity
  8
0
  6
Continuous
100
AcDbLine
 10
83.49733052999999
 20
262.3549066018
 30
0.0
 11
83.4862015768
 21
255.4653764508
 31
0.0
  0
LINE
  5
308
330
1B
100
AcDbEntity
  8
0
  6
Continuous
100
AcDbLine
 10
83.57419302460001
 20
262.3549066018
 30
0.0
 11
83.57742546110001
 21
264.5653764508
 31
0.0
  0
LINE
  5
309
330
1B
100
AcDbEntity
  8
0
  6
Continuous
100
AcDbLine
 10
81.7527287516
 20
262.3549066018
 30
0.0
 11
81.72195573699999
 21
255.4653764508
 31
0.0
  0
LINE
  5
30A
330
1B
100
AcDbEntity
  8
0
  6
Continuous
100
AcDbLine
 10
81.60687621850001
 20
262.3549066018
 30
0.0
 11
81.61708526220001
 21
264.5653764508
 31
0.0
  0
LINE
  5
30B
330
1B
100
AcDbEntity
  8
0
  6
Continuous
100
AcDbLine
 10
81.67135725830001
 20
264.8549066018
 30
0.0
 11
81.659811021
 21
262.3549066018
 31
0.0
  0
LINE
  5
30C
330
1B
100
AcDbEntity
  8
0
  6
Continuous
100
AcDbLine
 10
81.466199088
 20
228.6549066018
 30
0.0
 11
81.35108329009999
 21
206.3549066018
 31
0.0
  0
LWPOLYLINE
  5
30D
330
1B
100
AcDbEntity
  8
0
  6
Continuous
100
AcDbPolyline
 90
        3
 70
     0
 43
0.0
 10
85.48519854629998
 20
255.4653764508
 10
85.48464239140002
 20
255.3702041654
 10
85.4843033543
 20
255.3549066018
  0
LINE
  5
312
330
1B
100
AcDbEntity
  8
0
  6
Continuous
100
AcDbLine
 10
79.8115578247
 20
262.3549066018
 30
0.0
 11
79.82813352549999
 21
264.5653764508
 31
0.0
  0
LWPOLYLINE
  5
313
330
1B
100
AcDbEntity
  8
0
  6
Continuous
100
AcDbPolyline
 90
        5
 70
     0
 43
0.0
 10
83.57742546110001
 20
264.5653764508
 10
83.57850391040002
 20
264.6769275947
 10
83.58125372230001
 20
264.7707085419
 10
83.5852744355
 20
264.8330617582
 10
83.58998050430002
 20
264.8549066018
  0
LINE
  5
31A
330
1B
100
AcDbEntity
  8
0
  6
Continuous
100
AcDbLine
 10
78.1144278605
 20
262.3549066018
 30
0.0
 11
78.0426879006
 21
255.4653764508
 31
0.0
  0
LINE
  5
31B
330
1B
100
AcDbEntity
  8
0
  6
Continuous
100
AcDbLine
 10
77.9040169442
 20
262.3549066018
 30
0.0
 11
77.9273572716
 21
264.5653764508
 31
0.0
  0
LINE
  5
31C
330
1B
100
AcDbEntity
  8
0
  6
Continuous
100
AcDbLine
 10
78.0514360968
 20
264.8549066018
 30
0.0
 11
78.0250386237
 21
262.3549066018
 31
0.0
  0
LINE
  5
31D
330
1B
100
AcDbEntity
  8
0
  6
Continuous
100
AcDbLine
 10
77.86462548350001
 20
262.3549066018
 30
0.0
 11
77.24405194560001
 21
206.3549066018
 31
0.0
  0
LINE
  5
31E
330
1B
100
AcDbEntity
  8
0
  6
Continuous
100
AcDbLine
 10
77.9139892961
 20
255.3549066018
 30
0.0
 11
77.37098607910001
 21
206.3549066018
 31
0.0
  0
LWPOLYLINE
  5
31F
330
1B
100
AcDbEntity
  8
0
  6
Continuous
100
AcDbPolyline
 90
        3
 70
     0
 43
0.0
 10
87.24944438599999
 20
255.4653764508
 10
87.24790654480002
 20
255.3702041654
 10
87.24696906280001
 20
255.3549066018
  0
LWPOLYLINE
  5
324
330
1B
100
AcDbEntity
  8
0
  6
Continuous
100
AcDbPolyline
 90
        5
 70
     0
 43
0.0
 10
81.61708526220001
 20
264.5653764508
 10
81.62049134180001
 20
264.6769275947
 10
81.6291761066
 20
264.7707085419
 10
81.6418747745
 20
264.8330617582
 10
81.6567380092
 20
264.8549066018
  0
LWPOLYLINE
  5
32B
330
1B
100
AcDbEntity
  8
0
  6
Continuous
100
AcDbPolyline
 90
        5
 70
     0
 43
0.0
 10
79.82813352549999
 20
264.5653764508
 10
79.8336637355
 20
264.6769275947
 10
79.8477645726
 20
264.7707085419
 10
79.8683824995
 20
264.8330617582
 10
79.89251488029998
 20
264.8549066018
  0
LWPOLYLINE
  5
332
330
1B
100
AcDbEntity
  8
0
  6
Continuous
100
AcDbPolyline
 90
        5
 70
     0
 43
0.0
 10
77.9273572716
 20
264.5653764508
 10
77.93514438809999
 20
264.6769275947
 10
77.95499984750001
 20
264.7707085419
 10
77.98403205379999
 20
264.8330617582
 10
78.01801298019998
 20
264.8549066018
  0
LWPOLYLINE
  5
339
330
1B
100
AcDbEntity
  8
0
  6
Continuous
100
AcDbPolyline
 90
        5
 70
     0
 43
0.0
 10
76.22035939229998
 20
264.5653764508
 10
76.23017333040001
 20
264.6769275947
 10
76.25519674580001
 20
264.7707085419
 10
76.2917854212
 20
264.8330617582
 10
76.3346108638
 20
264.8549066018
  0
LWPOLYLINE
  5
340
330
1B
100
AcDbEntity
  8
0
  6
Continuous
100
AcDbPolyline
 90
        5
 70
     0
 43
0.0
 10
74.436901208
 20
264.5653764508
 10
74.44883275380001
 20
264.6769275947
 10
74.4792556097
 20
264.7707085419
 10
74.5237392255
 20
264.8330617582
 10
74.5758053503
 20
264.8549066018
  0
LWPOLYLINE
  5
347
330
1B
100
AcDbEntity
  8
0
  6
Continuous
100
AcDbPolyline
 90
        5
 70
     0
 43
0.0
 10
72.8637234528
 20
264.5653764508
 10
72.8775229275
 20
264.6769275947
 10
72.91270859749999
 20
264.7707085419
 10
72.9641562928
 20
264.8330617582
 10
73.0243735679
 20
264.8549066018
  0
LWPOLYLINE
  5
34E
330
1B
100
AcDbEntity
  8
0
  6
Continuous
100
AcDbPolyline
 90
        5
 70
     0
 43
0.0
 10
71.2517728126
 20
264.5653764508
 10
71.2674862537
 20
264.6769275947
 10
71.30755212299999
 20
264.7707085419
 10
71.36613553620001
 20
264.8330617582
 10
71.43470485660001
 20
264.8549066018
  0
LWPOLYLINE
  5
355
330
1B
100
AcDbEntity
  8
0
  6
Continuous
100
AcDbPolyline
 90
        5
 70
     0
 43
0.0
 10
69.86021539159999
 20
264.5653764508
 10
69.8775811129
 20
264.6769275947
 10
69.92185993850001
 20
264.7707085419
 10
69.9866034417
 20
264.8330617582
 10
70.06238287780001
 20
264.8549066018
  0
LWPOLYLINE
  5
35C
330
1B
100
AcDbEntity
  8
0
  6
Continuous
100
AcDbPolyline
 90
        5
 70
     0
 43
0.0
 10
68.46875059990001
 20
264.5653764508
 10
68.4877684914
 20
264.6769275947
 10
68.5362599929
 20
264.7707085419
 10
68.6071631762
 20
264.8330617582
 10
68.690152248
 20
264.8549066018
  0
LWPOLYLINE
  5
363
330
1B
100
AcDbEntity
  8
0
  6
Continuous
100
AcDbPolyline
 90
        5
 70
     0
 43
0.0
 10
67.30109528120001
 20
264.5653764508
 10
67.3214996004
 20
264.6769275947
 10
67.373526192
 20
264.7707085419
 10
67.4495983045
 20
264.8330617582
 10
67.5386373818
 20
264.8549066018
  0
LWPOLYLINE
  5
36A
330
1B
100
AcDbEntity
  8
0
  6
Continuous
100
AcDbPolyline
 90
        5
 70
     0
 43
0.0
 10
66.17239529169999
 20
264.5653764508
 10
66.1941397845
 20
264.6769275947
 10
66.2495835286
 20
264.7707085419
 10
66.33065212450001
 20
264.8330617582
 10
66.4255393668
 20
264.8549066018
  0
LWPOLYLINE
  5
371
330
1B
100
AcDbEntity
  8
0
  6
Continuous
100
AcDbPolyline
 90
        5
 70
     0
 43
0.0
 10
65.26412069129999
 20
264.5653764508
 10
65.2869436334
 20
264.6769275947
 10
65.34513718940001
 20
264.7707085419
 10
65.43022649850001
 20
264.8330617582
 10
65.5298198097
 20
264.8549066018
  0
LWPOLYLINE
  5
378
330
1B
100
AcDbEntity
  8
0
  6
Continuous
100
AcDbPolyline
 90
        5
 70
     0
 43
0.0
 10
64.432480482
 20
264.5653764508
 10
64.4562908807
 20
264.6769275947
 10
64.5170022372
 20
264.7707085419
 10
64.60577301749999
 20
264.8330617582
 10
64.7096753295
 20
264.8549066018
  0
LWPOLYLINE
  5
37F
330
1B
100
AcDbEntity
  8
0
  6
Continuous
100
AcDbPolyline
 90
        5
 70
     0
 43
0.0
 10
63.8111840639
 20
264.5653764508
 10
63.8357321654
 20
264.6769275947
 10
63.898324504
 20
264.7707085419
 10
63.9898456142
 20
264.8330617582
 10
64.09696706690001
 20
264.8549066018
  0
LWPOLYLINE
  5
386
330
1B
100
AcDbEntity
  8
0
  6
Continuous
100
AcDbPolyline
 90
        5
 70
     0
 43
0.0
 10
63.30187260169999
 20
264.5653764508
 10
63.3270254394
 20
264.6769275947
 10
63.3911597245
 20
264.7707085419
 10
63.484935434
 20
264.8330617582
 10
63.59469579649999
 20
264.8549066018
  0
LWPOLYLINE
  5
38D
330
1B
100
AcDbEntity
  8
0
  6
Continuous
100
AcDbPolyline
 90
        5
 70
     0
 43
0.0
 10
62.9864321433
 20
264.5653764508
 10
63.0119595226
 20
264.6769275947
 10
63.0770488073
 20
264.7707085419
 10
63.1722208958
 20
264.8330617582
 10
63.28361565889999
 20
264.8549066018
  0
LWPOLYLINE
  5
394
330
1B
100
AcDbEntity
  8
0
  6
Continuous
100
AcDbPolyline
 90
        4
 70
     0
 43
0.0
 10
62.81492459929999
 20
264.5653764508
 10
62.8406556198
 20
264.6769275947
 10
62.9062641456
 20
264.7707085419
 10
63.0021954568
 20
264.8330617582
  0
LWPOLYLINE
  5
39A
330
1B
100
AcDbEntity
  8
0
  6
Continuous
100
AcDbPolyline
 90
        5
 70
     0
 43
0.0
 10
96.10767667019999
 20
264.5653764508
 10
96.09387719549999
 20
264.6769275947
 10
96.0586915256
 20
264.7707085419
 10
96.00724383020001
 20
264.8330617582
 10
95.9470265551
 20
264.8549066018
  0
LINE
  5
3A1
330
1B
100
AcDbEntity
  8
0
  6
Continuous
100
AcDbLine
 10
103.6047247046
 20
228.6549066018
 30
0.0
 11
104.2687714126
 21
206.3549066018
 31
0.0
  0
LINE
  5
3A2
330
1B
100
AcDbEntity
  8
0
  6
Continuous
100
AcDbLine
 10
102.9422961327
 20
262.3549066018
 30
0.0
 11
104.609860452
 21
206.3549066018
 31
0.0
  0
LINE
  5
3A3
330
1B
100
AcDbEntity
  8
0
  6
Continuous
100
AcDbLine
 10
102.4525311238
 20
264.8549066018
 30
0.0
 11
102.526242576
 21
262.3549066018
 31
0.0
  0
LINE
  5
3A4
330
1B
100
AcDbEntity
  8
0
  6
Continuous
100
AcDbLine
 10
102.8641796083
 20
262.3549066018
 30
0.0
 11
102.7990048313
 21
264.5653764508
 31
0.0
  0
LINE
  5
3A5
330
1B
100
AcDbEntity
  8
0
  6
Continuous
100
AcDbLine
 10
102.4758547034
 20
262.3549066018
 30
0.0
 11
102.6784222493
 21
255.4653764508
 31
0.0
  0
LINE
  5
3A6
330
1B
100
AcDbEntity
  8
0
  6
Continuous
100
AcDbLine
 10
101.7314627157
 20
262.3549066018
 30
0.0
 11
101.6703048418
 21
264.5653764508
 31
0.0
  0
LINE
  5
3A7
330
1B
100
AcDbEntity
  8
0
  6
Continuous
100
AcDbLine
 10
101.7880749716
 20
262.3549066018
 30
0.0
 11
103.3186730983
 21
206.3549066018
 31
0.0
  0
LINE
  5
3A8
330
1B
100
AcDbEntity
  8
0
  6
Continuous
100
AcDbLine
 10
100.5145405164
 20
255.3549066018
 30
0.0
 11
101.7962278712
 21
206.3549066018
 31
0.0
  0
LINE
  5
3A9
330
1B
100
AcDbEntity
  8
0
  6
Continuous
100
AcDbLine
 10
100.6310572742
 20
262.3549066018
 30
0.0
 11
102.0958391234
 21
206.3549066018
 31
0.0
  0
LINE
  5
3AA
330
1B
100
AcDbEntity
  8
0
  6
Continuous
100
AcDbLine
 10
100.2007464872
 20
262.3549066018
 30
0.0
 11
100.3776965163
 21
255.4653764508
 31
0.0
  0
LINE
  5
3AB
330
1B
100
AcDbEntity
  8
0
  6
Continuous
100
AcDbLine
 10
100.1996211002
 20
264.8549066018
 30
0.0
 11
100.264089672
 21
262.3549066018
 31
0.0
  0
LINE
  5
3AC
330
1B
100
AcDbEntity
  8
0
  6
Continuous
100
AcDbLine
 10
100.5596518568
 20
262.3549066018
 30
0.0
 11
100.5026495231
 21
264.5653764508
 31
0.0
  0
LINE
  5
3AD
330
1B
100
AcDbEntity
  8
0
  6
Continuous
100
AcDbLine
 10
99.16323501479999
 20
262.3549066018
 30
0.0
 11
99.1111847314
 21
264.5653764508
 31
0.0
  0
LINE
  5
3AE
330
1B
100
AcDbEntity
  8
0
  6
Continuous
100
AcDbLine
 10
99.20812990429999
 20
262.3549066018
 30
0.0
 11
100.5040594134
 21
206.3549066018
 31
0.0
  0
LINE
  5
3AF
330
1B
100
AcDbEntity
  8
0
  6
Continuous
100
AcDbLine
 10
98.31289060170001
 20
228.6549066018
 30
0.0
 11
98.7977127019
 21
206.3549066018
 31
0.0
  0
LINE
  5
3B0
330
1B
100
AcDbEntity
  8
0
  6
Continuous
100
AcDbLine
 10
97.8292499067
 20
262.3549066018
 30
0.0
 11
99.04674263059999
 21
206.3549066018
 31
0.0
  0
LINE
  5
3B1
330
1B
100
AcDbEntity
  8
0
  6
Continuous
100
AcDbLine
 10
97.46925153740001
 20
264.8549066018
 30
0.0
 11
97.52251838399999
 21
262.3549066018
 31
0.0
  0
LINE
  5
3B2
330
1B
100
AcDbEntity
  8
0
  6
Continuous
100
AcDbLine
 10
97.7667252137
 20
262.3549066018
 30
0.0
 11
97.7196273104
 21
264.5653764508
 31
0.0
  0
LINE
  5
3B3
330
1B
100
AcDbEntity
  8
0
  6
Continuous
100
AcDbLine
 10
97.4481445375
 20
262.3549066018
 30
0.0
 11
97.59410051279998
 21
255.4653764508
 31
0.0
  0
LINE
  5
3B4
330
1B
100
AcDbEntity
  8
0
  6
Continuous
100
AcDbLine
 10
96.1490378414
 20
262.3549066018
 30
0.0
 11
96.10767667019999
 21
264.5653764508
 31
0.0
  0
LINE
  5
3B5
330
1B
100
AcDbEntity
  8
0
  6
Continuous
100
AcDbLine
 10
94.54777284749999
 20
255.3549066018
 30
0.0
 11
95.36433427069999
 21
206.3549066018
 31
0.0
  0
LINE
  5
3B6
330
1B
100
AcDbEntity
  8
0
  6
Continuous
100
AcDbLine
 10
94.62200552929998
 20
262.3549066018
 30
0.0
 11
95.5552162276
 21
206.3549066018
 31
0.0
  0
LINE
  5
3B7
330
1B
100
AcDbEntity
  8
0
  6
Continuous
100
AcDbLine
 10
94.3016852717
 20
262.3549066018
 30
0.0
 11
94.41221239470001
 21
255.4653764508
 31
0.0
  0
LINE
  5
3B8
330
1B
100
AcDbEntity
  8
0
  6
Continuous
100
AcDbLine
 10
94.344383333
 20
264.8549066018
 30
0.0
 11
94.3848299682
 21
262.3549066018
 31
0.0
  0
LINE
  5
3B9
330
1B
100
AcDbEntity
  8
0
  6
Continuous
100
AcDbLine
 10
94.570261342
 20
262.3549066018
 30
0.0
 11
94.534498915
 21
264.5653764508
 31
0.0
  0
LINE
  5
3BA
330
1B
100
AcDbEntity
  8
0
  6
Continuous
100
AcDbLine
 10
92.7804560516
 20
262.3549066018
 30
0.0
 11
92.75104073079999
 21
264.5653764508
 31
0.0
  0
LINE
  5
3BB
330
1B
100
AcDbEntity
  8
0
  6
Continuous
100
AcDbLine
 10
91.35329325209999
 20
228.6549066018
 30
0.0
 11
91.6004140439
 21
206.3549066018
 31
0.0
  0
LINE
  5
3BC
330
1B
100
AcDbEntity
  8
0
  6
Continuous
100
AcDbLine
 10
91.1067746395
 20
262.3549066018
 30
0.0
 11
91.7273481774
 21
206.3549066018
 31
0.0
  0
LINE
  5
3BD
330
1B
100
AcDbEntity
  8
0
  6
Continuous
100
AcDbLine
 10
90.91996402620001
 20
264.8549066018
 30
0.0
 11
90.9463614993
 21
262.3549066018
 31
0.0
  0
LINE
  5
3BE
330
1B
100
AcDbEntity
  8
0
  6
Continuous
100
AcDbLine
 10
91.06738317879999
 20
262.3549066018
 30
0.0
 11
91.04404285139999
 21
264.5653764508
 31
0.0
  0
LINE
  5
3BF
330
1B
100
AcDbEntity
  8
0
  6
Continuous
100
AcDbLine
 10
90.85697226249999
 20
262.3549066018
 30
0.0
 11
90.92871222239999
 21
255.4653764508
 31
0.0
  0
LINE
  5
3C0
330
1B
100
AcDbEntity
  8
0
  6
Continuous
100
AcDbLine
 10
90.20632412519998
 20
255.1549218853
 30
0.0
 11
90.24994176609999
 21
228.6549066018
 31
0.0
  0
LINE
  5
3C1
330
1B
100
AcDbEntity
  8
0
  6
Continuous
100
AcDbLine
 10
96.6396747111
 20
195.8549066018
 30
0.0
 11
96.6396747111
 21
205.3549066018
 31
0.0
  0
LINE
  5
3C2
330
1B
100
AcDbEntity
  8
0
  6
Continuous
100
AcDbLine
 10
98.0503600278
 20
194.4049066018
 30
0.0
 11
98.0503600278
 21
192.1549066018
 31
0.0
  0
LINE
  5
3C3
330
1B
100
AcDbEntity
  8
0
  6
Continuous
100
AcDbLine
 10
98.39760042490001
 20
195.8549066018
 30
0.0
 11
98.39760042490001
 21
205.3549066018
 31
0.0
  0
LINE
  5
3C4
330
1B
100
AcDbEntity
  8
0
  6
Continuous
100
AcDbLine
 10
98.4857000615
 20
202.625632544
 30
0.0
 11
98.4857000615
 21
198.5841806596
 31
0.0
  0
LWPOLYLINE
  5
3C5
330
1B
100
AcDbEntity
  8
0
  6
Continuous
100
AcDbPolyline
 90
        6
 70
     0
 43
0.0
 10
90.92871222239999
 20
255.4653764508
 10
90.92512711169999
 20
255.3702041654
 10
90.9127674587
 20
255.2836925319
 10
90.892897013
 20
255.2146871907
 10
90.8675474874
 20
255.1702437984
 10
90.83931081960002
 20
255.1549066018
  0
LWPOLYLINE
  5
3CD
330
1B
100
AcDbEntity
  8
0
  6
Continuous
100
AcDbPolyline
 90
        3
 70
     0
 43
0.0
 10
94.41221239470001
 20
255.4653764508
 10
94.40668894620001
 20
255.3702041654
 10
94.4033218016
 20
255.3549066018
  0
LINE
  5
3D2
330
1B
100
AcDbEntity
  8
0
  6
Continuous
100
AcDbLine
 10
75.99846108209999
 20
248.7049066018
 30
0.0
 11
75.6875159854
 21
248.7049066018
 31
0.0
  0
LINE
  5
3D3
330
1B
100
AcDbEntity
  8
0
  6
Continuous
100
AcDbLine
 10
90.21529456570001
 20
249.7049066018
 30
0.0
 11
89.48570006149998
 21
249.7049066018
 31
0.0
  0
LINE
  5
3D4
330
1B
100
AcDbEntity
  8
0
  6
Continuous
100
AcDbLine
 10
76.0112609124
 20
249.7049066018
 30
0.0
 11
75.68999114099999
 21
249.7049066018
 31
0.0
  0
LINE
  5
3D5
330
1B
100
AcDbEntity
  8
0
  6
Continuous
100
AcDbLine
 10
102.4259852145
 20
255.1549066018
 30
0.0
 11
101.9848661593
 21
255.1549066018
 31
0.0
  0
LINE
  5
3D6
330
1B
100
AcDbEntity
  8
0
  6
Continuous
100
AcDbLine
 10
97.4122120792
 20
255.1549066018
 30
0.0
 11
96.31223643550001
 21
255.1549066018
 31
0.0
  0
LINE
  5
3D7
330
1B
100
AcDbEntity
  8
0
  6
Continuous
100
AcDbLine
 10
90.83931081960002
 20
255.1549066018
 30
0.0
 11
89.21315188399998
 21
255.1549066018
 31
0.0
  0
LINE
  5
3D8
330
1B
100
AcDbEntity
  8
0
  6
Continuous
100
AcDbLine
 10
76.0810199877
 20
255.1549066018
 30
0.0
 11
74.69692518799999
 21
255.1549066018
 31
0.0
  0
LINE
  5
3D9
330
1B
100
AcDbEntity
  8
0
  6
Continuous
100
AcDbLine
 10
69.59665071039999
 20
255.1549066018
 30
0.0
 11
68.8142164261
 21
255.1549066018
 31
0.0
  0
LINE
  5
3DA
330
1B
100
AcDbEntity
  8
0
  6
Continuous
100
AcDbLine
 10
64.90812052379999
 20
255.1549066018
 30
0.0
 11
64.82171987709999
 21
255.1549066018
 31
0.0
  0
LINE
  5
3DB
330
1B
100
AcDbEntity
  8
0
  6
Continuous
100
AcDbLine
 10
81.76030466660001
 20
255.1549066018
 30
0.0
 11
83.5791177218
 21
255.1549066018
 31
0.0
  0
LINE
  5
3DC
330
1B
100
AcDbEntity
  8
0
  6
Continuous
100
AcDbLine
 10
100.5145405164
 20
255.3549066018
 30
0.0
 11
99.37012109290002
 21
255.3549066018
 31
0.0
  0
LINE
  5
3DD
330
1B
100
AcDbEntity
  8
0
  6
Continuous
100
AcDbLine
 10
94.54777284749999
 20
255.3549066018
 30
0.0
 11
92.8878201692
 21
255.3549066018
 31
0.0
  0
LINE
  5
3DE
330
1B
100
AcDbEntity
  8
0
  6
Continuous
100
AcDbLine
 10
87.3673707002
 20
255.3549066018
 30
0.0
 11
85.38162765369999
 21
255.3549066018
 31
0.0
  0
LINE
  5
3DF
330
1B
100
AcDbEntity
  8
0
  6
Continuous
100
AcDbLine
 10
79.75964079960001
 20
255.3549066018
 30
0.0
 11
77.9139892961
 21
255.3549066018
 31
0.0
  0
LINE
  5
3E0
330
1B
100
AcDbEntity
  8
0
  6
Continuous
100
AcDbLine
 10
72.66281327580001
 20
255.3549066018
 30
0.0
 11
71.23899624489999
 21
255.3549066018
 31
0.0
  0
LINE
  5
3E1
330
1B
100
AcDbEntity
  8
0
  6
Continuous
100
AcDbLine
 10
63.2946447726
 20
255.3549066018
 30
0.0
 11
63.4311858558
 21
255.3549066018
 31
0.0
  0
LINE
  5
3E2
330
1B
100
AcDbEntity
  8
0
  6
Continuous
100
AcDbLine
 10
66.1617511745
 20
255.3549066018
 30
0.0
 11
66.99200038559999
 21
255.3549066018
 31
0.0
  0
LINE
  5
3E3
330
1B
100
AcDbEntity
  8
0
  6
Continuous
100
AcDbLine
 10
104.0571411696
 20
255.3549066018
 30
0.0
 11
104.547993466
 21
255.3549066018
 31
0.0
  0
LINE
  5
3E4
330
1B
100
AcDbEntity
  8
0
  6
Continuous
100
AcDbLine
 10
63.402966929
 20
255.4653764508
 30
0.0
 11
63.4348445754
 21
255.4653764508
 31
0.0
  0
LINE
  5
3E5
330
1B
100
AcDbEntity
  8
0
  6
Continuous
100
AcDbLine
 10
64.5450287984
 20
255.4653764508
 30
0.0
 11
64.9176495104
 21
255.4653764508
 31
0.0
  0
LINE
  5
3E6
330
1B
100
AcDbEntity
  8
0
  6
Continuous
100
AcDbLine
 10
66.2929778737
 20
255.4653764508
 30
0.0
 11
66.9950197596
 21
255.4653764508
 31
0.0
  0
LINE
  5
3E7
330
1B
100
AcDbEntity
  8
0
  6
Continuous
100
AcDbLine
 10
68.5937036067
 20
255.4653764508
 30
0.0
 11
69.603835479
 21
255.4653764508
 31
0.0
  0
LINE
  5
3E8
330
1B
100
AcDbEntity
  8
0
  6
Continuous
100
AcDbLine
 10
71.37729961019998
 20
255.4653764508
 30
0.0
 11
72.66482912310001
 21
255.4653764508
 31
0.0
  0
LINE
  5
3E9
330
1B
100
AcDbEntity
  8
0
  6
Continuous
100
AcDbLine
 10
74.5591877283
 20
255.4653764508
 30
0.0
 11
76.0849939491
 21
255.4653764508
 31
0.0
  0
LINE
  5
3EA
330
1B
100
AcDbEntity
  8
0
  6
Continuous
100
AcDbLine
 10
78.0426879006
 20
255.4653764508
 30
0.0
 11
79.7533280232
 21
255.4653764508
 31
0.0
  0
LINE
  5
3EB
330
1B
100
AcDbEntity
  8
0
  6
Continuous
100
AcDbLine
 10
81.72195573699999
 20
255.4653764508
 30
0.0
 11
83.4862015768
 21
255.4653764508
 31
0.0
  0
LINE
  5
3EC
330
1B
100
AcDbEntity
  8
0
  6
Continuous
100
AcDbLine
 10
85.48519854629998
 20
255.4653764508
 30
0.0
 11
87.24944438599999
 21
255.4653764508
 31
0.0
  0
LINE
  5
3ED
330
1B
100
AcDbEntity
  8
0
  6
Continuous
100
AcDbLine
 10
89.2180720998
 20
255.4653764508
 30
0.0
 11
90.92871222239999
 21
255.4653764508
 31
0.0
  0
LINE
  5
3EE
330
1B
100
AcDbEntity
  8
0
  6
Continuous
100
AcDbLine
 10
92.88640617389999
 20
255.4653764508
 30
0.0
 11
94.41221239470001
 21
255.4653764508
 31
0.0
  0
LINE
  5
3EF
330
1B
100
AcDbEntity
  8
0
  6
Continuous
100
AcDbLine
 10
96.3065709999
 20
255.4653764508
 30
0.0
 11
97.59410051279998
 21
255.4653764508
 31
0.0
  0
LINE
  5
3F0
330
1B
100
AcDbEntity
  8
0
  6
Continuous
100
AcDbLine
 10
99.367564644
 20
255.4653764508
 30
0.0
 11
100.3776965163
 21
255.4653764508
 31
0.0
  0
LINE
  5
3F1
330
1B
100
AcDbEntity
  8
0
  6
Continuous
100
AcDbLine
 10
101.9763803634
 20
255.4653764508
 30
0.0
 11
102.6784222493
 21
255.4653764508
 31
0.0
  0
LINE
  5
3F2
330
1B
100
AcDbEntity
  8
0
  6
Continuous
100
AcDbLine
 10
104.0537506126
 20
255.4653764508
 30
0.0
 11
104.4263713246
 21
255.4653764508
 31
0.0
  0
LINE
  5
3F3
330
1B
100
AcDbEntity
  8
0
  6
Continuous
100
AcDbLine
 10
105.5365555477
 20
255.4653764508
 30
0.0
 11
105.568433194
 21
255.4653764508
 31
0.0
  0
LINE
  5
3F4
330
1B
100
AcDbEntity
  8
0
  6
Continuous
100
AcDbLine
 10
102.4857000615
 20
266.1549066018
 30
0.0
 11
105.3202332759
 21
265.7565389379
 31
0.0
  0
LINE
  5
3F5
330
1B
100
AcDbEntity
  8
0
  6
Continuous
100
AcDbLine
 10
105.9692046662
 20
264.8330617582
 30
0.0
 11
105.8569212663
 21
264.8549066018
 31
0.0
  0
LWPOLYLINE
  5
3F6
330
1B
100
AcDbEntity
  8
0
  6
Continuous
100
AcDbPolyline
 90
        4
 70
     0
 43
0.0
 10
106.1564755237
 20
264.5653764508
 10
106.1307445032
 20
264.6769275947
 10
106.0651359774
 20
264.7707085419
 10
105.9692046662
 20
264.8330617582
  0
LWPOLYLINE
  5
3FC
330
1B
100
AcDbEntity
  8
0
  6
Continuous
100
AcDbPolyline
 90
        5
 70
     0
 43
0.0
 10
105.9849679797
 20
264.5653764508
 10
105.9594406004
 20
264.6769275947
 10
105.8943513157
 20
264.7707085419
 10
105.7991792272
 20
264.8330617582
 10
105.6877844641
 20
264.8549066018
  0
LWPOLYLINE
  5
403
330
1B
100
AcDbEntity
  8
0
  6
Continuous
100
AcDbPolyline
 90
        5
 70
     0
 43
0.0
 10
105.6695275213
 20
264.5653764508
 10
105.6443746836
 20
264.6769275947
 10
105.5802403985
 20
264.7707085419
 10
105.486464689
 20
264.8330617582
 10
105.3767043265
 20
264.8549066018
  0
LWPOLYLINE
  5
40A
330
1B
100
AcDbEntity
  8
0
  6
Continuous
100
AcDbPolyline
 90
        5
 70
     0
 43
0.0
 10
105.1602160591
 20
264.5653764508
 10
105.1356679576
 20
264.6769275947
 10
105.073075619
 20
264.7707085419
 10
104.9815545088
 20
264.8330617582
 10
104.8744330562
 20
264.8549066018
  0
LWPOLYLINE
  5
411
330
1B
100
AcDbEntity
  8
0
  6
Continuous
100
AcDbPolyline
 90
        5
 70
     0
 43
0.0
 10
104.5389196411
 20
264.5653764508
 10
104.5151092423
 20
264.6769275947
 10
104.4543978858
 20
264.7707085419
 10
104.3656271055
 20
264.8330617582
 10
104.2617247935
 20
264.8549066018
  0
LWPOLYLINE
  5
418
330
1B
100
AcDbEntity
  8
0
  6
Continuous
100
AcDbPolyline
 90
        5
 70
     0
 43
0.0
 10
103.7072794317
 20
264.5653764508
 10
103.6844564896
 20
264.6769275947
 10
103.6262629336
 20
264.7707085419
 10
103.5411736245
 20
264.8330617582
 10
103.4415803133
 20
264.8549066018
  0
LWPOLYLINE
  5
41F
330
1B
100
AcDbEntity
  8
0
  6
Continuous
100
AcDbPolyline
 90
        5
 70
     0
 43
0.0
 10
102.7990048313
 20
264.5653764508
 10
102.7772603385
 20
264.6769275947
 10
102.7218165944
 20
264.7707085419
 10
102.6407479985
 20
264.8330617582
 10
102.5458607562
 20
264.8549066018
  0
LWPOLYLINE
  5
426
330
1B
100
AcDbEntity
  8
0
  6
Continuous
100
AcDbPolyline
 90
        5
 70
     0
 43
0.0
 10
101.6703048418
 20
264.5653764508
 10
101.6499005227
 20
264.6769275947
 10
101.597873931
 20
264.7707085419
 10
101.5218018185
 20
264.8330617582
 10
101.4327627412
 20
264.8549066018
  0
LWPOLYLINE
  5
42D
330
1B
100
AcDbEntity
  8
0
  6
Continuous
100
AcDbPolyline
 90
        5
 70
     0
 43
0.0
 10
100.5026495231
 20
264.5653764508
 10
100.4836316316
 20
264.6769275947
 10
100.4351401301
 20
264.7707085419
 10
100.3642369469
 20
264.8330617582
 10
100.281247875
 20
264.8549066018
  0
LWPOLYLINE
  5
434
330
1B
100
AcDbEntity
  8
0
  6
Continuous
100
AcDbPolyline
 90
        5
 70
     0
 43
0.0
 10
99.1111847314
 20
264.5653764508
 10
99.09381901019999
 20
264.6769275947
 10
99.0495401845
 20
264.7707085419
 10
98.98479668130001
 20
264.8330617582
 10
98.90901724520001
 20
264.8549066018
  0
LWPOLYLINE
  5
43B
330
1B
100
AcDbEntity
  8
0
  6
Continuous
100
AcDbPolyline
 90
        5
 70
     0
 43
0.0
 10
97.7196273104
 20
264.5653764508
 10
97.7039138693
 20
264.6769275947
 10
97.663848
 20
264.7707085419
 10
97.6052645868
 20
264.8330617582
 10
97.53669526640002
 20
264.8549066018
  0
LINE
  5
442
330
1B
100
AcDbEntity
  8
0
  6
Continuous
100
AcDbLine
 10
105.7503421389
 20
265.2788546531
 30
0.0
 11
105.765146731
 21
264.8549066018
 31
0.0
  0
LINE
  5
443
330
1B
100
AcDbEntity
  8
0
  6
Continuous
100
AcDbLine
 10
106.2335991219
 20
262.3549066018
 30
0.0
 11
106.1564755237
 21
264.5653764508
 31
0.0
  0
LINE
  5
444
330
1B
100
AcDbEntity
  8
0
  6
Continuous
100
AcDbLine
 10
106.1755011644
 20
264.5653764508
 30
0.0
 11
106.2526924725
 21
262.3549066018
 31
0.0
  0
LINE
  5
445
330
1B
100
AcDbEntity
  8
0
  6
Continuous
100
AcDbLine
 10
106.3171567239
 20
262.3549066018
 30
0.0
 11
108.2722521513
 21
206.3549066018
 31
0.0
  0
LINE
  5
446
330
1B
100
AcDbEntity
  8
0
  6
Continuous
100
AcDbLine
 10
106.3357000615
 20
262.3549066018
 30
0.0
 11
108.291263153
 21
206.3549066018
 31
0.0
  0
LINE
  5
447
330
1B
100
AcDbEntity
  8
0
  6
Continuous
100
AcDbLine
 10
106.0614812038
 20
262.3549066018
 30
0.0
 11
105.9849679797
 21
264.5653764508
 31
0.0
  0
LINE
  5
448
330
1B
100
AcDbEntity
  8
0
  6
Continuous
100
AcDbLine
 10
106.141771202
 20
262.3549066018
 30
0.0
 11
108.0760544247
 21
206.3549066018
 31
0.0
  0
LINE
  5
449
330
1B
100
AcDbEntity
  8
0
  6
Continuous
100
AcDbLine
 10
106.5905222687
 20
228.6549066018
 30
0.0
 11
107.3536997514
 21
206.3549066018
 31
0.0
  0
LINE
  5
44A
330
1B
100
AcDbEntity
  8
0
  6
Continuous
100
AcDbLine
 10
105.8292044822
 20
262.3549066018
 30
0.0
 11
107.7457075292
 21
206.3549066018
 31
0.0
  0
LINE
  5
44B
330
1B
100
AcDbEntity
  8
0
  6
Continuous
100
AcDbLine
 10
105.3336867131
 20
262.3549066018
 30
0.0
 11
105.568433194
 21
255.4653764508
 31
0.0
  0
LINE
  5
44C
330
1B
100
AcDbEntity
  8
0
  6
Continuous
100
AcDbLine
 10
105.2687457219
 20
264.8549066018
 30
0.0
 11
105.3540110907
 21
262.3549066018
 31
0.0
  0
LINE
  5
44D
330
1B
100
AcDbEntity
  8
0
  6
Continuous
100
AcDbLine
 10
105.744918132
 20
262.3549066018
 30
0.0
 11
105.6695275213
 21
264.5653764508
 31
0.0
  0
LINE
  5
44E
330
1B
100
AcDbEntity
  8
0
  6
Continuous
100
AcDbLine
 10
105.2337940936
 20
262.3549066018
 30
0.0
 11
105.1602160591
 21
264.5653764508
 31
0.0
  0
LINE
  5
44F
330
1B
100
AcDbEntity
  8
0
  6
Continuous
100
AcDbLine
 10
104.547993466
 20
255.3549066018
 30
0.0
 11
106.1402163417
 21
206.3549066018
 31
0.0
  0
LINE
  5
450
330
1B
100
AcDbEntity
  8
0
  6
Continuous
100
AcDbLine
 10
104.6927406591
 20
262.3549066018
 30
0.0
 11
106.5124193504
 21
206.3549066018
 31
0.0
  0
LINE
  5
451
330
1B
100
AcDbEntity
  8
0
  6
Continuous
100
AcDbLine
 10
104.1595280773
 20
264.8549066018
 30
0.0
 11
104.2402427246
 21
262.3549066018
 31
0.0
  0
LINE
  5
452
330
1B
100
AcDbEntity
  8
0
  6
Continuous
100
AcDbLine
 10
104.6102865588
 20
262.3549066018
 30
0.0
 11
104.5389196411
 21
264.5653764508
 31
0.0
  0
LINE
  5
453
330
1B
100
AcDbEntity
  8
0
  6
Continuous
100
AcDbLine
 10
104.2043411743
 20
262.3549066018
 30
0.0
 11
104.4263713246
 21
255.4653764508
 31
0.0
  0
LINE
  5
454
330
1B
100
AcDbEntity
  8
0
  6
Continuous
100
AcDbLine
 10
103.7756866452
 20
262.3549066018
 30
0.0
 11
103.7072794317
 21
264.5653764508
 31
0.0
  0
LINE
  5
455
330
1B
100
AcDbEntity
  8
0
  6
Continuous
100
AcDbLine
 10
103.8422961327
 20
262.3549066018
 30
0.0
 11
105.5610564275
 21
206.3549066018
 31
0.0
  0
LINE
  5
456
330
1B
100
AcDbEntity
  8
0
  6
Continuous
100
AcDbLine
 10
101.7857000615
 20
267.4549066018
 30
0.0
 11
101.7857000615
 21
266.1549066018
 31
0.0
  0
LINE
  5
457
330
1B
100
AcDbEntity
  8
0
  6
Continuous
100
AcDbLine
 10
102.9857000615
 20
206.3549066018
 30
0.0
 11
102.9857000615
 21
206.2002066159
 31
0.0
  0
LINE
  5
458
330
1B
100
AcDbEntity
  8
0
  6
Continuous
100
AcDbLine
 10
105.4857000615
 20
198.5841806596
 30
0.0
 11
105.4857000615
 21
202.625632544
 31
0.0
  0
LINE
  5
459
330
1B
100
AcDbEntity
  8
0
  6
Continuous
100
AcDbLine
 10
109.4857000615
 20
204.6049066018
 30
0.0
 11
109.4857000615
 21
203.6049066018
 31
0.0
  0
LINE
  5
45A
330
1B
100
AcDbEntity
  8
0
  6
Continuous
100
AcDbLine
 10
109.4857000615
 20
204.6049066018
 30
0.0
 11
109.4857000615
 21
208.6049066018
 31
0.0
  0
LINE
  5
45B
330
1B
100
AcDbEntity
  8
0
  6
Continuous
100
AcDbLine
 10
110.4857000615
 20
209.6049066018
 30
0.0
 11
110.4857000615
 21
208.6049066018
 31
0.0
  0
LINE
  5
45C
330
1B
100
AcDbEntity
  8
0
  6
Continuous
100
AcDbLine
 10
110.4857000615
 20
204.6049066018
 30
0.0
 11
110.4857000615
 21
208.6049066018
 31
0.0
  0
LWPOLYLINE
  5
45D
330
1B
100
AcDbEntity
  8
0
  6
Continuous
100
AcDbPolyline
 90
        6
 70
     0
 43
0.0
 10
97.59410051279998
 20
255.4653764508
 10
97.5868065537
 20
255.3702041654
 10
97.56166066279999
 20
255.2836925319
 10
97.52123395659999
 20
255.2146871907
 10
97.46965998390002
 20
255.1702437984
 10
97.4122120792
 20
255.1549066018
  0
LWPOLYLINE
  5
465
330
1B
100
AcDbEntity
  8
0
  6
Continuous
100
AcDbPolyline
 90
        3
 70
     0
 43
0.0
 10
100.3776965163
 20
255.4653764508
 10
100.3688536699
 20
255.3702041654
 10
100.36346299
 20
255.3549066018
  0
LWPOLYLINE
  5
46A
330
1B
100
AcDbEntity
  8
0
  6
Continuous
100
AcDbPolyline
 90
        6
 70
     0
 43
0.0
 10
102.6784222493
 20
255.4653764508
 10
102.668299201
 20
255.3702041654
 10
102.6334000377
 20
255.2836925319
 10
102.5772931284
 20
255.2146871907
 10
102.505715291
 20
255.1702437984
 10
102.4259852145
 20
255.1549066018
  0
LINE
  5
472
330
1B
100
AcDbEntity
  8
0
  6
Continuous
100
AcDbLine
 10
173.6732000615
 20
389.6176682805
 30
0.0
 11
173.8279618187
 21
389.6942640261
 31
0.0
  0
LINE
  5
473
330
1B
100
AcDbEntity
  8
0
  6
Continuous
100
AcDbLine
 10
175.4529618187
 20
389.6176682805
 30
0.0
 11
175.6077240186
 21
389.6942640261
 31
0.0
  0
LINE
  5
474
330
1B
100
AcDbEntity
  8
0
  6
Continuous
100
AcDbLine
 10
85.474069593
 20
262.3549066018
 30
0.0
 11
85.3972070984
 21
262.3549066018
 31
0.0
  0
LINE
  5
475
330
1B
100
AcDbEntity
  8
0
  6
Continuous
100
AcDbLine
 10
62.6357003529
 20
262.3549066018
 30
0.0
 11
63.6377134099
 21
262.3549066018
 31
0.0
  0
LINE
  5
476
330
1B
100
AcDbEntity
  8
0
  6
Continuous
100
AcDbLine
 10
63.6630232059
 20
262.3549066018
 30
0.0
 11
64.7670589487
 21
262.3549066018
 31
0.0
  0
LINE
  5
477
330
1B
100
AcDbEntity
  8
0
  6
Continuous
100
AcDbLine
 10
65.1291039903
 20
262.3549066018
 30
0.0
 11
66.49554541960001
 21
262.3549066018
 31
0.0
  0
LINE
  5
478
330
1B
100
AcDbEntity
  8
0
  6
Continuous
100
AcDbLine
 10
67.1833251514
 20
262.3549066018
 30
0.0
 11
68.7706536358
 21
262.3549066018
 31
0.0
  0
LINE
  5
479
330
1B
100
AcDbEntity
  8
0
  6
Continuous
100
AcDbLine
 10
69.7632702187
 20
262.3549066018
 30
0.0
 11
71.5232555855
 21
262.3549066018
 31
0.0
  0
LINE
  5
47A
330
1B
100
AcDbEntity
  8
0
  6
Continuous
100
AcDbLine
 10
72.7905488669
 20
262.3549066018
 30
0.0
 11
74.6697148513
 21
262.3549066018
 31
0.0
  0
LINE
  5
47B
330
1B
100
AcDbEntity
  8
0
  6
Continuous
100
AcDbLine
 10
76.17317876609999
 20
262.3549066018
 30
0.0
 11
78.1144278605
 21
262.3549066018
 31
0.0
  0
LINE
  5
47C
330
1B
100
AcDbEntity
  8
0
  6
Continuous
100
AcDbLine
 10
79.8083804186
 20
262.3549066018
 30
0.0
 11
81.7527287516
 21
262.3549066018
 31
0.0
  0
LINE
  5
47D
330
1B
100
AcDbEntity
  8
0
  6
Continuous
100
AcDbLine
 10
83.49733052999999
 20
262.3549066018
 30
0.0
 11
85.3857000615
 21
262.3549066018
 31
0.0
  0
LINE
  5
47E
330
1B
100
AcDbEntity
  8
0
  6
Continuous
100
AcDbLine
 10
87.21867137140001
 20
262.3549066018
 30
0.0
 11
89.16301970440001
 21
262.3549066018
 31
0.0
  0
LINE
  5
47F
330
1B
100
AcDbEntity
  8
0
  6
Continuous
100
AcDbLine
 10
90.85697226249999
 20
262.3549066018
 30
0.0
 11
92.7982213569
 21
262.3549066018
 31
0.0
  0
LINE
  5
480
330
1B
100
AcDbEntity
  8
0
  6
Continuous
100
AcDbLine
 10
94.3016852717
 20
262.3549066018
 30
0.0
 11
96.18085125610001
 21
262.3549066018
 31
0.0
  0
LINE
  5
481
330
1B
100
AcDbEntity
  8
0
  6
Continuous
100
AcDbLine
 10
97.4481445375
 20
262.3549066018
 30
0.0
 11
99.20812990429999
 21
262.3549066018
 31
0.0
  0
LINE
  5
482
330
1B
100
AcDbEntity
  8
0
  6
Continuous
100
AcDbLine
 10
100.2007464872
 20
262.3549066018
 30
0.0
 11
101.7880749716
 21
262.3549066018
 31
0.0
  0
LINE
  5
483
330
1B
100
AcDbEntity
  8
0
  6
Continuous
100
AcDbLine
 10
102.4758547034
 20
262.3549066018
 30
0.0
 11
103.8422961327
 21
262.3549066018
 31
0.0
  0
LINE
  5
484
330
1B
100
AcDbEntity
  8
0
  6
Continuous
100
AcDbLine
 10
104.2043411743
 20
262.3549066018
 30
0.0
 11
105.3083769171
 21
262.3549066018
 31
0.0
  0
LINE
  5
485
330
1B
100
AcDbEntity
  8
0
  6
Continuous
100
AcDbLine
 10
105.3336867131
 20
262.3549066018
 30
0.0
 11
106.3356997701
 21
262.3549066018
 31
0.0
  0
LINE
  5
486
330
1B
100
AcDbEntity
  8
0
  6
Continuous
100
AcDbLine
 10
106.1755011644
 20
264.5653764508
 30
0.0
 11
106.1564755237
 21
264.5653764508
 31
0.0
  0
LINE
  5
487
330
1B
100
AcDbEntity
  8
0
  6
Continuous
100
AcDbLine
 10
105.9849679797
 20
264.5653764508
 30
0.0
 11
105.6695275213
 21
264.5653764508
 31
0.0
  0
LINE
  5
488
330
1B
100
AcDbEntity
  8
0
  6
Continuous
100
AcDbLine
 10
105.1602160591
 20
264.5653764508
 30
0.0
 11
104.5389196411
 21
264.5653764508
 31
0.0
  0
LINE
  5
489
330
1B
100
AcDbEntity
  8
0
  6
Continuous
100
AcDbLine
 10
103.7072794317
 20
264.5653764508
 30
0.0
 11
102.7990048313
 21
264.5653764508
 31
0.0
  0
LINE
  5
48A
330
1B
100
AcDbEntity
  8
0
  6
Continuous
100
AcDbLine
 10
101.6703048418
 20
264.5653764508
 30
0.0
 11
100.5026495231
 21
264.5653764508
 31
0.0
  0
LINE
  5
48B
330
1B
100
AcDbEntity
  8
0
  6
Continuous
100
AcDbLine
 10
99.1111847314
 20
264.5653764508
 30
0.0
 11
97.7196273104
 21
264.5653764508
 31
0.0
  0
LINE
  5
48C
330
1B
100
AcDbEntity
  8
0
  6
Continuous
100
AcDbLine
 10
96.10767667019999
 20
264.5653764508
 30
0.0
 11
94.534498915
 21
264.5653764508
 31
0.0
  0
LINE
  5
48D
330
1B
100
AcDbEntity
  8
0
  6
Continuous
100
AcDbLine
 10
92.75104073079999
 20
264.5653764508
 30
0.0
 11
91.04404285139999
 21
264.5653764508
 31
0.0
  0
LINE
  5
48E
330
1B
100
AcDbEntity
  8
0
  6
Continuous
100
AcDbLine
 10
89.14326659750002
 20
264.5653764508
 30
0.0
 11
87.35431486080002
 21
264.5653764508
 31
0.0
  0
LINE
  5
48F
330
1B
100
AcDbEntity
  8
0
  6
Continuous
100
AcDbLine
 10
85.3939746619
 20
264.5653764508
 30
0.0
 11
83.57742546110001
 21
264.5653764508
 31
0.0
  0
LINE
  5
490
330
1B
100
AcDbEntity
  8
0
  6
Continuous
100
AcDbLine
 10
81.61708526220001
 20
264.5653764508
 30
0.0
 11
79.82813352549999
 21
264.5653764508
 31
0.0
  0
LINE
  5
491
330
1B
100
AcDbEntity
  8
0
  6
Continuous
100
AcDbLine
 10
77.9273572716
 20
264.5653764508
 30
0.0
 11
76.22035939229998
 21
264.5653764508
 31
0.0
  0
LINE
  5
492
330
1B
100
AcDbEntity
  8
0
  6
Continuous
100
AcDbLine
 10
74.436901208
 20
264.5653764508
 30
0.0
 11
72.8637234528
 21
264.5653764508
 31
0.0
  0
LINE
  5
493
330
1B
100
AcDbEntity
  8
0
  6
Continuous
100
AcDbLine
 10
71.2517728126
 20
264.5653764508
 30
0.0
 11
69.86021539159999
 21
264.5653764508
 31
0.0
  0
LINE
  5
494
330
1B
100
AcDbEntity
  8
0
  6
Continuous
100
AcDbLine
 10
68.46875059990001
 20
264.5653764508
 30
0.0
 11
67.30109528120001
 21
264.5653764508
 31
0.0
  0
LINE
  5
495
330
1B
100
AcDbEntity
  8
0
  6
Continuous
100
AcDbLine
 10
66.17239529169999
 20
264.5653764508
 30
0.0
 11
65.26412069129999
 21
264.5653764508
 31
0.0
  0
LINE
  5
496
330
1B
100
AcDbEntity
  8
0
  6
Continuous
100
AcDbLine
 10
64.432480482
 20
264.5653764508
 30
0.0
 11
63.8111840639
 21
264.5653764508
 31
0.0
  0
LINE
  5
497
330
1B
100
AcDbEntity
  8
0
  6
Continuous
100
AcDbLine
 10
63.30187260169999
 20
264.5653764508
 30
0.0
 11
62.9864321433
 21
264.5653764508
 31
0.0
  0
LINE
  5
498
330
1B
100
AcDbEntity
  8
0
  6
Continuous
100
AcDbLine
 10
62.81492459929999
 20
264.5653764508
 30
0.0
 11
62.7958989586
 21
264.5653764508
 31
0.0
  0
LINE
  5
499
330
1B
100
AcDbEntity
  8
0
  6
Continuous
100
AcDbLine
 10
105.8569212663
 20
264.8549066018
 30
0.0
 11
105.7464810409
 21
264.8549066018
 31
0.0
  0
LINE
  5
49A
330
1B
100
AcDbEntity
  8
0
  6
Continuous
100
AcDbLine
 10
105.6877844641
 20
264.8549066018
 30
0.0
 11
105.2687457219
 21
264.8549066018
 31
0.0
  0
LINE
  5
49B
330
1B
100
AcDbEntity
  8
0
  6
Continuous
100
AcDbLine
 10
104.8744330562
 20
264.8549066018
 30
0.0
 11
104.1595280773
 21
264.8549066018
 31
0.0
  0
LINE
  5
49C
330
1B
100
AcDbEntity
  8
0
  6
Continuous
100
AcDbLine
 10
103.4415803133
 20
264.8549066018
 30
0.0
 11
102.4525311238
 21
264.8549066018
 31
0.0
  0
LINE
  5
49D
330
1B
100
AcDbEntity
  8
0
  6
Continuous
100
AcDbLine
 10
101.4327627412
 20
264.8549066018
 30
0.0
 11
100.1996211002
 21
264.8549066018
 31
0.0
  0
LINE
  5
49E
330
1B
100
AcDbEntity
  8
0
  6
Continuous
100
AcDbLine
 10
98.90901724520001
 20
264.8549066018
 30
0.0
 11
97.46925153740001
 21
264.8549066018
 31
0.0
  0
LINE
  5
49F
330
1B
100
AcDbEntity
  8
0
  6
Continuous
100
AcDbLine
 10
95.9470265551
 20
264.8549066018
 30
0.0
 11
94.344383333
 21
264.8549066018
 31
0.0
  0
LINE
  5
4A0
330
1B
100
AcDbEntity
  8
0
  6
Continuous
100
AcDbLine
 10
92.6367892592
 20
264.8549066018
 30
0.0
 11
90.91996402620001
 21
264.8549066018
 31
0.0
  0
LINE
  5
4A1
330
1B
100
AcDbEntity
  8
0
  6
Continuous
100
AcDbLine
 10
89.0788852427
 20
264.8549066018
 30
0.0
 11
87.3000428647
 21
264.8549066018
 31
0.0
  0
LINE
  5
4A2
330
1B
100
AcDbEntity
  8
0
  6
Continuous
100
AcDbLine
 10
85.38141961869999
 20
264.8549066018
 30
0.0
 11
83.58998050430002
 21
264.8549066018
 31
0.0
  0
LINE
  5
4A3
330
1B
100
AcDbEntity
  8
0
  6
Continuous
100
AcDbLine
 10
63.1144788567
 20
264.8549066018
 30
0.0
 11
63.2249190821
 21
264.8549066018
 31
0.0
  0
LINE
  5
4A4
330
1B
100
AcDbEntity
  8
0
  6
Continuous
100
AcDbLine
 10
63.28361565889999
 20
264.8549066018
 30
0.0
 11
63.70265440109999
 21
264.8549066018
 31
0.0
  0
LINE
  5
4A5
330
1B
100
AcDbEntity
  8
0
  6
Continuous
100
AcDbLine
 10
64.09696706690001
 20
264.8549066018
 30
0.0
 11
64.8118720457
 21
264.8549066018
 31
0.0
  0
LINE
  5
4A6
330
1B
100
AcDbEntity
  8
0
  6
Continuous
100
AcDbLine
 10
65.5298198097
 20
264.8549066018
 30
0.0
 11
66.5188689992
 21
264.8549066018
 31
0.0
  0
LINE
  5
4A7
330
1B
100
AcDbEntity
  8
0
  6
Continuous
100
AcDbLine
 10
67.5386373818
 20
264.8549066018
 30
0.0
 11
68.7717790228
 21
264.8549066018
 31
0.0
  0
LINE
  5
4A8
330
1B
100
AcDbEntity
  8
0
  6
Continuous
100
AcDbLine
 10
70.06238287780001
 20
264.8549066018
 30
0.0
 11
71.5021485856
 21
264.8549066018
 31
0.0
  0
LINE
  5
4A9
330
1B
100
AcDbEntity
  8
0
  6
Continuous
100
AcDbLine
 10
73.0243735679
 20
264.8549066018
 30
0.0
 11
74.62701679
 21
264.8549066018
 31
0.0
  0
LINE
  5
4AA
330
1B
100
AcDbEntity
  8
0
  6
Continuous
100
AcDbLine
 10
76.3346108638
 20
264.8549066018
 30
0.0
 11
78.0514360968
 21
264.8549066018
 31
0.0
  0
LINE
  5
4AB
330
1B
100
AcDbEntity
  8
0
  6
Continuous
100
AcDbLine
 10
79.89251488029998
 20
264.8549066018
 30
0.0
 11
81.67135725830001
 21
264.8549066018
 31
0.0
  0
LINE
  5
4AC
330
1B
100
AcDbEntity
  8
0
  6
Continuous
100
AcDbLine
 10
63.22105798409999
 20
265.2788546531
 30
0.0
 11
105.7503421389
 21
265.2788546531
 31
0.0
  0
LINE
  5
4AD
330
1B
100
AcDbEntity
  8
0
  6
Continuous
100
AcDbLine
 10
63.6511668471
 20
265.7565389379
 30
0.0
 11
69.72834889320001
 21
265.7565389379
 31
0.0
  0
LINE
  5
4AE
330
1B
100
AcDbEntity
  8
0
  6
Continuous
100
AcDbLine
 10
72.47831178849999
 20
265.7565389379
 30
0.0
 11
105.3202332759
 21
265.7565389379
 31
0.0
  0
LINE
  5
4AF
330
1B
100
AcDbEntity
  8
0
  6
Continuous
100
AcDbLine
 10
102.4855679239
 20
266.1549066018
 30
0.0
 11
72.9869655652
 21
266.1549066018
 31
0.0
  0
LINE
  5
4B0
330
1B
100
AcDbEntity
  8
0
  6
Continuous
100
AcDbLine
 10
66.48572737870001
 20
266.1549066018
 30
0.0
 11
69.72834889320001
 21
266.1549066018
 31
0.0
  0
LINE
  5
4B1
330
1B
100
AcDbEntity
  8
0
  6
Continuous
100
AcDbLine
 10
87.4821081237
 20
267.1549066018
 30
0.0
 11
84.49352402940001
 21
267.1549066018
 31
0.0
  0
LINE
  5
4B2
330
1B
100
AcDbEntity
  8
0
  6
Continuous
100
AcDbLine
 10
67.447169059
 20
267.1549066018
 30
0.0
 11
67.18570183069998
 21
267.1549066018
 31
0.0
  0
LINE
  5
4B3
330
1B
100
AcDbEntity
  8
0
  6
Continuous
100
AcDbLine
 10
67.1857000615
 20
267.4549066018
 30
0.0
 11
101.7857000615
 21
267.4549066018
 31
0.0
  0
LWPOLYLINE
  5
4B4
330
1B
100
AcDbEntity
  8
0
  6
Continuous
100
AcDbPolyline
 90
        3
 70
     0
 43
0.0
 10
104.4263713246
 20
255.4653764508
 10
104.415275658
 20
255.3702041654
 10
104.4085116385
 20
255.3549066018
  0
LWPOLYLINE
  5
4B9
330
1B
100
AcDbEntity
  8
0
  6
Continuous
100
AcDbPolyline
 90
        3
 70
     0
 43
0.0
 10
105.568433194
 20
255.4653764508
 10
105.5567020454
 20
255.3702041654
 10
105.5408319512
 20
255.3362565104
  0
LINE
  5
4BE
330
1B
100
AcDbEntity
  8
0
  6
Continuous
100
AcDbLine
 10
72.98439362509998
 20
266.9410770437
 30
0.0
 11
72.9869655592
 21
266.9448279658
 31
0.0
  0
LINE
  5
4BF
330
1B
100
AcDbEntity
  8
0
  6
Continuous
100
AcDbLine
 10
72.9869655623
 20
266.1448270768
 30
0.0
 11
72.98439362509998
 21
266.1410770437
 31
0.0
  0
LINE
  5
4C0
330
1B
100
AcDbEntity
  8
0
  6
Continuous
100
AcDbLine
 10
173.8666525901
 20
389.464476796
 30
0.0
 11
173.7505811615
 21
389.3878810336
 31
0.0
  0
LINE
  5
4C1
330
1B
100
AcDbEntity
  8
0
  6
Continuous
100
AcDbLine
 10
175.6464143472
 20
389.464476796
 30
0.0
 11
175.5303429186
 21
389.3878810336
 31
0.0
  0
LINE
  5
4C2
330
1B
100
AcDbEntity
  8
0
  6
Continuous
100
AcDbLine
 10
174.4857000615
 20
388.2006469716
 30
0.0
 11
174.6017714901
 21
388.2772427072
 31
0.0
  0
LINE
  5
4C3
330
1B
100
AcDbEntity
  8
0
  6
Continuous
100
AcDbLine
 10
176.3041525901
 20
388.2006469716
 30
0.0
 11
176.4202240186
 21
388.2772427072
 31
0.0
  0
LINE
  5
4C4
330
1B
100
AcDbEntity
  8
0
  6
Continuous
100
AcDbLine
 10
179.8636762151
 20
389.464476796
 30
0.0
 11
179.7476047865
 21
389.3878810336
 31
0.0
  0
LINE
  5
4C5
330
1B
100
AcDbEntity
  8
0
  6
Continuous
100
AcDbLine
 10
180.5214143472
 20
388.2006469716
 30
0.0
 11
180.6374857758
 21
388.2772427072
 31
0.0
  0
LINE
  5
4C6
330
1B
100
AcDbEntity
  8
0
  6
Continuous
100
AcDbLine
 10
174.6791525901
 20
388.0474555005
 30
0.0
 11
174.5243903901
 21
387.970859765
 31
0.0
  0
LINE
  5
4C7
330
1B
100
AcDbEntity
  8
0
  6
Continuous
100
AcDbLine
 10
179.6702239079
 20
389.6176682805
 30
0.0
 11
179.8249857758
 21
389.6942640261
 31
0.0
  0
LINE
  5
4C8
330
1B
100
AcDbEntity
  8
0
  6
Continuous
100
AcDbLine
 10
176.4976046758
 20
388.0474555005
 30
0.0
 11
176.3428429186
 21
387.970859765
 31
0.0
  0
LINE
  5
4C9
330
1B
100
AcDbEntity
  8
0
  6
Continuous
100
AcDbLine
 10
180.7148667374
 20
388.0474555005
 30
0.0
 11
180.5601048142
 21
387.970859765
 31
0.0
  0
LINE
  5
4CA
330
1B
100
AcDbEntity
  8
0
  6
Continuous
100
AcDbLine
 10
72.9857000615
 20
269.997972531
 30
0.0
 11
75.6742011525
 21
269.9979726266
 31
0.0
  0
LINE
  5
4CB
330
1B
100
AcDbEntity
  8
0
  6
Continuous
100
AcDbLine
 10
75.6742011525
 20
269.9979726266
 30
0.0
 11
78.7383789295
 21
269.9979726266
 31
0.0
  0
LINE
  5
4CC
330
1B
100
AcDbEntity
  8
0
  6
Continuous
100
AcDbLine
 10
78.7383789025
 20
269.997972531
 30
0.0
 11
95.9857000615
 21
269.997972531
 31
0.0
  0
LINE
  5
4CD
330
1B
100
AcDbEntity
  8
0
  6
Continuous
100
AcDbLine
 10
173.5184378616
 20
389.464476796
 30
0.0
 11
173.6732000615
 21
389.6176682805
 31
0.0
  0
LINE
  5
4CE
330
1B
100
AcDbEntity
  8
0
  6
Continuous
100
AcDbLine
 10
175.2982000615
 20
389.464476796
 30
0.0
 11
175.4529618187
 21
389.6176682805
 31
0.0
  0
LINE
  5
4CF
330
1B
100
AcDbEntity
  8
0
  6
Continuous
100
AcDbLine
 10
174.8339143472
 20
388.2006469716
 30
0.0
 11
174.6791525901
 21
388.0474555005
 31
0.0
  0
LINE
  5
4D0
330
1B
100
AcDbEntity
  8
0
  6
Continuous
100
AcDbLine
 10
176.6523668758
 20
388.2006469716
 30
0.0
 11
176.4976046758
 21
388.0474555005
 31
0.0
  0
LINE
  5
4D1
330
1B
100
AcDbEntity
  8
0
  6
Continuous
100
AcDbLine
 10
179.5154619294
 20
389.464476796
 30
0.0
 11
179.6702239079
 21
389.6176682805
 31
0.0
  0
LINE
  5
4D2
330
1B
100
AcDbEntity
  8
0
  6
Continuous
100
AcDbLine
 10
180.8696286329
 20
388.2006469716
 30
0.0
 11
180.7148667374
 21
388.0474555005
 31
0.0
  0
LINE
  5
4D3
330
1B
100
AcDbEntity
  8
0
  6
Continuous
100
AcDbLine
 10
63.0021954568
 20
264.8330617582
 30
0.0
 11
63.1144788567
 21
264.8549066018
 31
0.0
  0
LINE
  5
4D4
330
1B
100
AcDbEntity
  8
0
  6
Continuous
100
AcDbLine
 10
66.48570006149998
 20
266.1549066018
 30
0.0
 11
63.6511668471
 21
265.7565389379
 31
0.0
  0
LINE
  5
4D5
330
1B
100
AcDbEntity
  8
0
  6
Continuous
100
AcDbLine
 10
176.4857000615
 20
397.7325618972
 30
0.0
 11
176.2186900115
 21
397.1983790428
 31
0.0
  0
LINE
  5
4D6
330
1B
100
AcDbEntity
  8
0
  6
Continuous
100
AcDbLine
 10
173.4410572044
 20
389.3112852981
 30
0.0
 11
173.5184378616
 21
389.464476796
 31
0.0
  0
LINE
  5
4D7
330
1B
100
AcDbEntity
  8
0
  6
Continuous
100
AcDbLine
 10
174.9112954472
 20
388.3538384427
 30
0.0
 11
174.8339143472
 21
388.2006469716
 31
0.0
  0
LINE
  5
4D8
330
1B
100
AcDbEntity
  8
0
  6
Continuous
100
AcDbLine
 10
173.7505811615
 20
389.3878810336
 30
0.0
 11
173.6732000615
 21
389.2729874303
 31
0.0
  0
LINE
  5
4D9
330
1B
100
AcDbEntity
  8
0
  6
Continuous
100
AcDbLine
 10
174.6017714901
 20
388.2772427072
 30
0.0
 11
174.6791525901
 21
388.3921364178
 31
0.0
  0
LINE
  5
4DA
330
1B
100
AcDbEntity
  8
0
  6
Continuous
100
AcDbLine
 10
176.4202240186
 20
388.2772427072
 30
0.0
 11
176.4976046758
 21
388.3921364178
 31
0.0
  0
LINE
  5
4DB
330
1B
100
AcDbEntity
  8
0
  6
Continuous
100
AcDbLine
 10
180.6374857758
 20
388.2772427072
 30
0.0
 11
180.7148667374
 21
388.3921364178
 31
0.0
  0
LINE
  5
4DC
330
1B
100
AcDbEntity
  8
0
  6
Continuous
100
AcDbLine
 10
173.6732000615
 20
389.2729874303
 30
0.0
 11
173.6345097329
 21
389.1197959592
 31
0.0
  0
LINE
  5
4DD
330
1B
100
AcDbEntity
  8
0
  6
Continuous
100
AcDbLine
 10
175.5303429186
 20
389.3878810336
 30
0.0
 11
175.4916525901
 21
389.2729874303
 31
0.0
  0
LINE
  5
4DE
330
1B
100
AcDbEntity
  8
0
  6
Continuous
100
AcDbLine
 10
178.2386763258
 20
389.2729874303
 30
0.0
 11
178.3934380829
 21
389.7325618972
 31
0.0
  0
LINE
  5
4DF
330
1B
100
AcDbEntity
  8
0
  6
Continuous
100
AcDbLine
 10
177.8517714901
 20
388.0857533683
 30
0.0
 11
178.1999857758
 21
389.1197959592
 31
0.0
  0
LINE
  5
4E0
330
1B
100
AcDbEntity
  8
0
  6
Continuous
100
AcDbLine
 10
178.6255809401
 20
389.7325618972
 30
0.0
 11
178.0065334686
 21
387.9325618972
 31
0.0
  0
LINE
  5
4E1
330
1B
100
AcDbEntity
  8
0
  6
Continuous
100
AcDbLine
 10
172.1642714901
 20
389.5410725315
 30
0.0
 11
171.5839143472
 21
387.9325618972
 31
0.0
  0
LINE
  5
4E2
330
1B
100
AcDbEntity
  8
0
  6
Continuous
100
AcDbLine
 10
171.4678429186
 20
388.315540575
 30
0.0
 11
172.0095092901
 21
389.7325618972
 31
0.0
  0
LINE
  5
4E3
330
1B
100
AcDbEntity
  8
0
  6
Continuous
100
AcDbLine
 10
176.729747533
 20
388.3538384427
 30
0.0
 11
176.6523668758
 21
388.2006469716
 31
0.0
  0
LINE
  5
4E4
330
1B
100
AcDbEntity
  8
0
  6
Continuous
100
AcDbLine
 10
180.9470095842
 20
388.3538384427
 30
0.0
 11
180.8696286329
 21
388.2006469716
 31
0.0
  0
LINE
  5
4E5
330
1B
100
AcDbEntity
  8
0
  6
Continuous
100
AcDbLine
 10
158.2538525245
 20
316.2243803217
 30
0.0
 11
158.2538525245
 21
396.2407434727
 31
0.0
  0
LINE
  5
4E6
330
1B
100
AcDbEntity
  8
0
  6
Continuous
100
AcDbLine
 10
162.3399919397
 20
395.4315018465
 30
0.0
 11
162.3399919397
 21
317.033621948
 31
0.0
  0
LINE
  5
4E7
330
1B
100
AcDbEntity
  8
0
  6
Continuous
100
AcDbLine
 10
163.3247996927
 20
395.4315018465
 30
0.0
 11
163.3247996927
 21
317.033621948
 31
0.0
  0
LINE
  5
4E8
330
1B
100
AcDbEntity
  8
0
  6
Continuous
100
AcDbLine
 10
163.8294361372
 20
316.5363491398
 30
0.0
 11
163.8294361372
 21
315.5369583128
 31
0.0
  0
LINE
  5
4E9
330
1B
100
AcDbEntity
  8
0
  6
Continuous
100
AcDbLine
 10
163.8294361372
 20
395.9287746546
 30
0.0
 11
163.829436138
 21
396.9281654816
 31
0.0
  0
LINE
  5
4EA
330
1B
100
AcDbEntity
  8
0
  6
Continuous
100
AcDbLine
 10
168.2952235758
 20
387.9325618972
 30
0.0
 11
168.2952235758
 21
389.7325618972
 31
0.0
  0
LINE
  5
4EB
330
1B
100
AcDbEntity
  8
0
  6
Continuous
100
AcDbLine
 10
168.527366433
 20
389.7325618972
 30
0.0
 11
168.527366433
 21
387.9325618972
 31
0.0
  0
LINE
  5
4EC
330
1B
100
AcDbEntity
  8
0
  6
Continuous
100
AcDbLine
 10
168.8368908329
 20
387.9325618972
 30
0.0
 11
168.8368908329
 21
389.7325618972
 31
0.0
  0
LINE
  5
4ED
330
1B
100
AcDbEntity
  8
0
  6
Continuous
100
AcDbLine
 10
169.06903369
 20
389.464476796
 30
0.0
 11
169.06903369
 21
387.9325618972
 31
0.0
  0
LINE
  5
4EE
330
1B
100
AcDbEntity
  8
0
  6
Continuous
100
AcDbLine
 10
173.402366433
 20
389.1197959592
 30
0.0
 11
173.4410572044
 21
389.3112852981
 31
0.0
  0
LINE
  5
4EF
330
1B
100
AcDbEntity
  8
0
  6
Continuous
100
AcDbLine
 10
174.9499857758
 20
388.5453278889
 30
0.0
 11
174.9112954472
 21
388.3538384427
 31
0.0
  0
LINE
  5
4F0
330
1B
100
AcDbEntity
  8
0
  6
Continuous
100
AcDbLine
 10
175.2595097329
 20
389.2729874303
 30
0.0
 11
175.2982000615
 21
389.464476796
 31
0.0
  0
LINE
  5
4F1
330
1B
100
AcDbEntity
  8
0
  6
Continuous
100
AcDbLine
 10
176.7684383043
 20
388.5453278889
 30
0.0
 11
176.729747533
 21
388.3538384427
 31
0.0
  0
LINE
  5
4F2
330
1B
100
AcDbEntity
  8
0
  6
Continuous
100
AcDbLine
 10
180.9857000615
 20
388.5453278889
 30
0.0
 11
180.9470095842
 21
388.3538384427
 31
0.0
  0
LINE
  5
4F3
330
1B
100
AcDbEntity
  8
0
  6
Continuous
100
AcDbLine
 10
174.6791525901
 20
388.3921364178
 30
0.0
 11
174.7178429186
 21
388.5453278889
 31
0.0
  0
LINE
  5
4F4
330
1B
100
AcDbEntity
  8
0
  6
Continuous
100
AcDbLine
 10
176.4976046758
 20
388.3921364178
 30
0.0
 11
176.5362954472
 21
388.5453278889
 31
0.0
  0
LINE
  5
4F5
330
1B
100
AcDbEntity
  8
0
  6
Continuous
100
AcDbLine
 10
179.4767714901
 20
389.3112852981
 30
0.0
 11
179.5154619294
 21
389.464476796
 31
0.0
  0
LINE
  5
4F6
330
1B
100
AcDbEntity
  8
0
  6
Continuous
100
AcDbLine
 10
180.7148667374
 20
388.3921364178
 30
0.0
 11
180.7535572044
 21
388.5453278889
 31
0.0
  0
LINE
  5
4F7
330
1B
100
AcDbEntity
  8
0
  6
Continuous
100
AcDbLine
 10
179.7476047865
 20
389.3878810336
 30
0.0
 11
179.7089143472
 21
389.2729874303
 31
0.0
  0
LINE
  5
4F8
330
1B
100
AcDbEntity
  8
0
  6
Continuous
100
AcDbLine
 10
163.8294361372
 20
315.5369583128
 30
0.0
 11
159.767761858
 21
314.7325618972
 31
0.0
  0
LINE
  5
4F9
330
1B
100
AcDbEntity
  8
0
  6
Continuous
100
AcDbLine
 10
162.3399919397
 20
317.033621948
 30
0.0
 11
158.2538525245
 21
316.2243803217
 31
0.0
  0
LINE
  5
4FA
330
1B
100
AcDbEntity
  8
0
  6
Continuous
100
AcDbLine
 10
183.8468232497
 20
314.67146917
 30
0.0
 11
174.9857000615
 21
314.67146917
 31
0.0
  0
LINE
  5
4FB
330
1B
100
AcDbEntity
  8
0
  6
Continuous
100
AcDbLine
 10
173.9857000615
 20
314.67146917
 30
0.0
 11
165.1245768733
 21
314.67146917
 31
0.0
  0
LINE
  5
4FC
330
1B
100
AcDbEntity
  8
0
  6
Continuous
100
AcDbLine
 10
189.203638265
 20
314.7325618972
 30
0.0
 11
176.4857000615
 21
314.7325618972
 31
0.0
  0
LINE
  5
4FD
330
1B
100
AcDbEntity
  8
0
  6
Continuous
100
AcDbLine
 10
172.4857000615
 20
314.7325618972
 30
0.0
 11
159.767761858
 21
314.7325618972
 31
0.0
  0
LINE
  5
4FE
330
1B
100
AcDbEntity
  8
0
  6
Continuous
100
AcDbLine
 10
172.7867344922
 20
315.0847342753
 30
0.0
 11
173.9857000615
 21
315.0847342753
 31
0.0
  0
LINE
  5
4FF
330
1B
100
AcDbEntity
  8
0
  6
Continuous
100
AcDbLine
 10
174.9857000615
 20
315.0847342753
 30
0.0
 11
176.1846656309
 21
315.0847342753
 31
0.0
  0
LINE
  5
500
330
1B
100
AcDbEntity
  8
0
  6
Continuous
100
AcDbLine
 10
172.8499504764
 20
315.2847038144
 30
0.0
 11
173.9857000615
 21
315.2847038144
 31
0.0
  0
LINE
  5
501
330
1B
100
AcDbEntity
  8
0
  6
Continuous
100
AcDbLine
 10
174.9857000615
 20
315.2847038144
 30
0.0
 11
176.1214496591
 21
315.2847038144
 31
0.0
  0
LINE
  5
502
330
1B
100
AcDbEntity
  8
0
  6
Continuous
100
AcDbLine
 10
163.8294361372
 20
315.5369583128
 30
0.0
 11
185.1419639858
 21
315.5369583128
 31
0.0
  0
LINE
  5
503
330
1B
100
AcDbEntity
  8
0
  6
Continuous
100
AcDbLine
 10
163.8294361372
 20
316.5363491398
 30
0.0
 11
185.1419639858
 21
316.5363491398
 31
0.0
  0
LINE
  5
504
330
1B
100
AcDbEntity
  8
0
  6
Continuous
100
AcDbLine
 10
163.3247996927
 20
317.033621948
 30
0.0
 11
162.3399919397
 21
317.0336219496
 31
0.0
  0
LINE
  5
505
330
1B
100
AcDbEntity
  8
0
  6
Continuous
100
AcDbLine
 10
185.6466004303
 20
317.033621948
 30
0.0
 11
186.6314081833
 21
317.033621948
 31
0.0
  0
LINE
  5
506
330
1B
100
AcDbEntity
  8
0
  6
Continuous
100
AcDbLine
 10
189.203638265
 20
314.7325618972
 30
0.0
 11
185.1419639858
 21
315.5369583128
 31
0.0
  0
LINE
  5
507
330
1B
100
AcDbEntity
  8
0
  6
Continuous
100
AcDbLine
 10
190.7175475985
 20
316.2243803217
 30
0.0
 11
186.6314081833
 21
317.033621948
 31
0.0
  0
LINE
  5
508
330
1B
100
AcDbEntity
  8
0
  6
Continuous
100
AcDbLine
 10
170.152366433
 20
388.1623491039
 30
0.0
 11
170.152366433
 21
389.7325618972
 31
0.0
  0
LINE
  5
509
330
1B
100
AcDbEntity
  8
0
  6
Continuous
100
AcDbLine
 10
170.3845092901
 20
389.7325618972
 30
0.0
 11
170.3845092901
 21
387.9325618972
 31
0.0
  0
LINE
  5
50A
330
1B
100
AcDbEntity
  8
0
  6
Continuous
100
AcDbLine
 10
170.69403369
 20
387.9325618972
 30
0.0
 11
170.69403369
 21
389.7325618972
 31
0.0
  0
LINE
  5
50B
330
1B
100
AcDbEntity
  8
0
  6
Continuous
100
AcDbLine
 10
170.9261765472
 20
389.7325618972
 30
0.0
 11
170.9261765472
 21
387.9325618972
 31
0.0
  0
LINE
  5
50C
330
1B
100
AcDbEntity
  8
0
  6
Continuous
100
AcDbLine
 10
171.2357000615
 20
387.9325618972
 30
0.0
 11
171.2357000615
 21
389.7325618972
 31
0.0
  0
LINE
  5
50D
330
1B
100
AcDbEntity
  8
0
  6
Continuous
100
AcDbLine
 10
171.4678429186
 20
389.7325618972
 30
0.0
 11
171.4678429186
 21
388.315540575
 31
0.0
  0
LINE
  5
50E
330
1B
100
AcDbEntity
  8
0
  6
Continuous
100
AcDbLine
 10
172.7867344922
 20
397.3803895191
 30
0.0
 11
172.7867344921
 21
397.1886113497
 31
0.0
  0
LINE
  5
50F
330
1B
100
AcDbEntity
  8
0
  6
Continuous
100
AcDbLine
 10
172.7867344922
 20
315.0847342753
 30
0.0
 11
172.7867344922
 21
315.2765124448
 31
0.0
  0
LINE
  5
510
330
1B
100
AcDbEntity
  8
0
  6
Continuous
100
AcDbLine
 10
172.8607000615
 20
388.315540575
 30
0.0
 11
172.8607000615
 21
389.7325618972
 31
0.0
  0
LINE
  5
511
330
1B
100
AcDbEntity
  8
0
  6
Continuous
100
AcDbLine
 10
173.0928429186
 20
389.7325618972
 30
0.0
 11
173.0928429186
 21
387.9325618972
 31
0.0
  0
LINE
  5
512
330
1B
100
AcDbEntity
  8
0
  6
Continuous
100
AcDbLine
 10
173.402366433
 20
388.5453278889
 30
0.0
 11
173.402366433
 21
389.1197959592
 31
0.0
  0
LINE
  5
513
330
1B
100
AcDbEntity
  8
0
  6
Continuous
100
AcDbLine
 10
173.6345097329
 20
389.1197959592
 30
0.0
 11
173.6345097329
 21
388.5453278889
 31
0.0
  0
LINE
  5
514
330
1B
100
AcDbEntity
  8
0
  6
Continuous
100
AcDbLine
 10
173.9857000615
 20
209.6049066018
 30
0.0
 11
173.9857000615
 21
208.6049066018
 31
0.0
  0
LINE
  5
515
330
1B
100
AcDbEntity
  8
0
  6
Continuous
100
AcDbLine
 10
173.9857000615
 20
209.6049066018
 30
0.0
 11
173.9857000615
 21
315.3235371539
 31
0.0
  0
LINE
  5
516
330
1B
100
AcDbEntity
  8
0
  6
Continuous
100
AcDbLine
 10
174.7178429186
 20
388.5453278889
 30
0.0
 11
174.7178429186
 21
389.1197959592
 31
0.0
  0
LINE
  5
517
330
1B
100
AcDbEntity
  8
0
  6
Continuous
100
AcDbLine
 10
174.9499857758
 20
389.1197959592
 30
0.0
 11
174.9499857758
 21
388.5453278889
 31
0.0
  0
LINE
  5
518
330
1B
100
AcDbEntity
  8
0
  6
Continuous
100
AcDbLine
 10
174.9857000615
 20
209.6049066018
 30
0.0
 11
174.9857000615
 21
315.3235371484
 31
0.0
  0
LINE
  5
519
330
1B
100
AcDbEntity
  8
0
  6
Continuous
100
AcDbLine
 10
176.1846656309
 20
397.3803895191
 30
0.0
 11
176.1846656309
 21
397.1886113477
 31
0.0
  0
LINE
  5
51A
330
1B
100
AcDbEntity
  8
0
  6
Continuous
100
AcDbLine
 10
176.1846656309
 20
315.0847342753
 30
0.0
 11
176.1846656309
 21
315.2765124467
 31
0.0
  0
LINE
  5
51B
330
1B
100
AcDbEntity
  8
0
  6
Continuous
100
AcDbLine
 10
176.5362954472
 20
388.5453278889
 30
0.0
 11
176.5362954472
 21
389.1197959592
 31
0.0
  0
LINE
  5
51C
330
1B
100
AcDbEntity
  8
0
  6
Continuous
100
AcDbLine
 10
176.7684383043
 20
389.1197959592
 30
0.0
 11
176.7684383043
 21
388.5453278889
 31
0.0
  0
LINE
  5
51D
330
1B
100
AcDbEntity
  8
0
  6
Continuous
100
AcDbLine
 10
178.9351048972
 20
387.9325618972
 30
0.0
 11
178.9351048972
 21
389.7325618972
 31
0.0
  0
LINE
  5
51E
330
1B
100
AcDbEntity
  8
0
  6
Continuous
100
AcDbLine
 10
179.1672476437
 20
389.7325618972
 30
0.0
 11
179.1672476437
 21
387.9325618972
 31
0.0
  0
LINE
  5
51F
330
1B
100
AcDbEntity
  8
0
  6
Continuous
100
AcDbLine
 10
179.4767714901
 20
388.7368172278
 30
0.0
 11
179.4767714901
 21
389.3112852981
 31
0.0
  0
LINE
  5
520
330
1B
100
AcDbEntity
  8
0
  6
Continuous
100
AcDbLine
 10
179.7089143472
 20
389.2729874303
 30
0.0
 11
179.7089143472
 21
388.9666044344
 31
0.0
  0
LINE
  5
521
330
1B
100
AcDbEntity
  8
0
  6
Continuous
100
AcDbLine
 10
180.0571286329
 20
388.9666044344
 30
0.0
 11
180.0571286329
 21
388.7368172278
 31
0.0
  0
LINE
  5
522
330
1B
100
AcDbEntity
  8
0
  6
Continuous
100
AcDbLine
 10
172.4857000615
 20
314.7325618972
 30
0.0
 11
172.7527101115
 21
315.2667447517
 31
0.0
  0
LINE
  5
523
330
1B
100
AcDbEntity
  8
0
  6
Continuous
100
AcDbLine
 10
176.4857000615
 20
314.7325618972
 30
0.0
 11
176.2186900115
 21
315.2667447517
 31
0.0
  0
LINE
  5
524
330
1B
100
AcDbEntity
  8
0
  6
Continuous
100
AcDbLine
 10
180.7535572044
 20
388.5453278889
 30
0.0
 11
180.7535572044
 21
389.1197959592
 31
0.0
  0
LINE
  5
525
330
1B
100
AcDbEntity
  8
0
  6
Continuous
100
AcDbLine
 10
180.9857000615
 20
389.1197959592
 30
0.0
 11
180.9857000615
 21
388.5453278889
 31
0.0
  0
LINE
  5
526
330
1B
100
AcDbEntity
  8
0
  6
Continuous
100
AcDbLine
 10
185.1419639858
 20
316.5363491398
 30
0.0
 11
185.141963985
 21
315.5369583128
 31
0.0
  0
LINE
  5
527
330
1B
100
AcDbEntity
  8
0
  6
Continuous
100
AcDbLine
 10
185.1419639858
 20
395.9287746546
 30
0.0
 11
185.1419639858
 21
396.9281654816
 31
0.0
  0
LINE
  5
528
330
1B
100
AcDbEntity
  8
0
  6
Continuous
100
AcDbLine
 10
185.6466004303
 20
317.033621948
 30
0.0
 11
185.6466004303
 21
395.4315018465
 31
0.0
  0
LINE
  5
529
330
1B
100
AcDbEntity
  8
0
  6
Continuous
100
AcDbLine
 10
186.6314081833
 20
317.033621948
 30
0.0
 11
186.6314081833
 21
395.4315018465
 31
0.0
  0
LINE
  5
52A
330
1B
100
AcDbEntity
  8
0
  6
Continuous
100
AcDbLine
 10
190.7175475985
 20
316.2243803217
 30
0.0
 11
190.7175475985
 21
396.2407434727
 31
0.0
  0
LINE
  5
52B
330
1B
100
AcDbEntity
  8
0
  6
Continuous
100
AcDbLine
 10
173.6345097329
 20
388.5453278889
 30
0.0
 11
173.6732000615
 21
388.3921364178
 31
0.0
  0
LINE
  5
52C
330
1B
100
AcDbEntity
  8
0
  6
Continuous
100
AcDbLine
 10
174.7178429186
 20
389.1197959592
 30
0.0
 11
174.6791525901
 21
389.2729874303
 31
0.0
  0
LINE
  5
52D
330
1B
100
AcDbEntity
  8
0
  6
Continuous
100
AcDbLine
 10
173.4410572044
 20
388.3538384427
 30
0.0
 11
173.402366433
 21
388.5453278889
 31
0.0
  0
LINE
  5
52E
330
1B
100
AcDbEntity
  8
0
  6
Continuous
100
AcDbLine
 10
174.9112954472
 20
389.3112852981
 30
0.0
 11
174.9499857758
 21
389.1197959592
 31
0.0
  0
LINE
  5
52F
330
1B
100
AcDbEntity
  8
0
  6
Continuous
100
AcDbLine
 10
175.2982000615
 20
388.2006469716
 30
0.0
 11
175.2595097329
 21
388.3921364178
 31
0.0
  0
LINE
  5
530
330
1B
100
AcDbEntity
  8
0
  6
Continuous
100
AcDbLine
 10
176.729747533
 20
389.3112852981
 30
0.0
 11
176.7684383043
 21
389.1197959592
 31
0.0
  0
LINE
  5
531
330
1B
100
AcDbEntity
  8
0
  6
Continuous
100
AcDbLine
 10
173.5184378616
 20
388.2006469716
 30
0.0
 11
173.4410572044
 21
388.3538384427
 31
0.0
  0
LINE
  5
532
330
1B
100
AcDbEntity
  8
0
  6
Continuous
100
AcDbLine
 10
172.31903369
 20
389.7325618972
 30
0.0
 11
172.8607000615
 21
388.315540575
 31
0.0
  0
LINE
  5
533
330
1B
100
AcDbEntity
  8
0
  6
Continuous
100
AcDbLine
 10
172.7446286329
 20
387.9325618972
 30
0.0
 11
172.1642714901
 21
389.5410725315
 31
0.0
  0
LINE
  5
534
330
1B
100
AcDbEntity
  8
0
  6
Continuous
100
AcDbLine
 10
177.6970095115
 20
387.9325618972
 30
0.0
 11
177.0779618187
 21
389.7325618972
 31
0.0
  0
LINE
  5
535
330
1B
100
AcDbEntity
  8
0
  6
Continuous
100
AcDbLine
 10
175.4916525901
 20
388.3921364178
 30
0.0
 11
175.5303429186
 21
388.2772427072
 31
0.0
  0
LINE
  5
536
330
1B
100
AcDbEntity
  8
0
  6
Continuous
100
AcDbLine
 10
177.5035572044
 20
389.1197959592
 30
0.0
 11
177.8517714901
 21
388.0857533683
 31
0.0
  0
LINE
  5
537
330
1B
100
AcDbEntity
  8
0
  6
Continuous
100
AcDbLine
 10
177.3101048972
 20
389.7325618972
 30
0.0
 11
177.4648666544
 21
389.2729874303
 31
0.0
  0
LINE
  5
538
330
1B
100
AcDbEntity
  8
0
  6
Continuous
100
AcDbLine
 10
179.7089143472
 20
388.3921364178
 30
0.0
 11
179.7476047865
 21
388.2772427072
 31
0.0
  0
LINE
  5
539
330
1B
100
AcDbEntity
  8
0
  6
Continuous
100
AcDbLine
 10
176.5362954472
 20
389.1197959592
 30
0.0
 11
176.4976046758
 21
389.2729874303
 31
0.0
  0
LINE
  5
53A
330
1B
100
AcDbEntity
  8
0
  6
Continuous
100
AcDbLine
 10
180.7535572044
 20
389.1197959592
 30
0.0
 11
180.7148667374
 21
389.2729874303
 31
0.0
  0
LINE
  5
53B
330
1B
100
AcDbEntity
  8
0
  6
Continuous
100
AcDbLine
 10
179.5154619294
 20
388.2006469716
 30
0.0
 11
179.4767714901
 21
388.3921364178
 31
0.0
  0
LINE
  5
53C
330
1B
100
AcDbEntity
  8
0
  6
Continuous
100
AcDbLine
 10
180.9470095842
 20
389.3112852981
 30
0.0
 11
180.9857000615
 21
389.1197959592
 31
0.0
  0
LINE
  5
53D
330
1B
100
AcDbEntity
  8
0
  6
Continuous
100
AcDbLine
 10
173.6732000615
 20
388.3921364178
 30
0.0
 11
173.7505811615
 21
388.2772427072
 31
0.0
  0
LINE
  5
53E
330
1B
100
AcDbEntity
  8
0
  6
Continuous
100
AcDbLine
 10
174.6791525901
 20
389.2729874303
 30
0.0
 11
174.6017714901
 21
389.3878810336
 31
0.0
  0
LINE
  5
53F
330
1B
100
AcDbEntity
  8
0
  6
Continuous
100
AcDbLine
 10
176.4976046758
 20
389.2729874303
 30
0.0
 11
176.4202240186
 21
389.3878810336
 31
0.0
  0
LINE
  5
540
330
1B
100
AcDbEntity
  8
0
  6
Continuous
100
AcDbLine
 10
170.0362950044
 20
387.9325618972
 30
0.0
 11
169.06903369
 21
389.464476796
 31
0.0
  0
LINE
  5
541
330
1B
100
AcDbEntity
  8
0
  6
Continuous
100
AcDbLine
 10
169.1851051186
 20
389.7325618972
 30
0.0
 11
170.152366433
 21
388.1623491039
 31
0.0
  0
LINE
  5
542
330
1B
100
AcDbEntity
  8
0
  6
Continuous
100
AcDbLine
 10
174.8339143472
 20
389.464476796
 30
0.0
 11
174.9112954472
 21
389.3112852981
 31
0.0
  0
LINE
  5
543
330
1B
100
AcDbEntity
  8
0
  6
Continuous
100
AcDbLine
 10
176.6523668758
 20
389.464476796
 30
0.0
 11
176.729747533
 21
389.3112852981
 31
0.0
  0
LINE
  5
544
330
1B
100
AcDbEntity
  8
0
  6
Continuous
100
AcDbLine
 10
180.8696286329
 20
389.464476796
 30
0.0
 11
180.9470095842
 21
389.3112852981
 31
0.0
  0
LINE
  5
545
330
1B
100
AcDbEntity
  8
0
  6
Continuous
100
AcDbLine
 10
172.4857000615
 20
397.7325618972
 30
0.0
 11
172.7527101115
 21
397.1983790428
 31
0.0
  0
LINE
  5
546
330
1B
100
AcDbEntity
  8
0
  6
Continuous
100
AcDbLine
 10
173.7505811615
 20
388.2772427072
 30
0.0
 11
173.8666525901
 21
388.2006469716
 31
0.0
  0
LINE
  5
547
330
1B
100
AcDbEntity
  8
0
  6
Continuous
100
AcDbLine
 10
175.5303429186
 20
388.2772427072
 30
0.0
 11
175.6464143472
 21
388.2006469716
 31
0.0
  0
LINE
  5
548
330
1B
100
AcDbEntity
  8
0
  6
Continuous
100
AcDbLine
 10
173.6732000615
 20
388.0474555005
 30
0.0
 11
173.5184378616
 21
388.2006469716
 31
0.0
  0
LINE
  5
549
330
1B
100
AcDbEntity
  8
0
  6
Continuous
100
AcDbLine
 10
175.4529618187
 20
388.0474555005
 30
0.0
 11
175.2982000615
 21
388.2006469716
 31
0.0
  0
LINE
  5
54A
330
1B
100
AcDbEntity
  8
0
  6
Continuous
100
AcDbLine
 10
174.6791525901
 20
389.6176682805
 30
0.0
 11
174.8339143472
 21
389.464476796
 31
0.0
  0
LINE
  5
54B
330
1B
100
AcDbEntity
  8
0
  6
Continuous
100
AcDbLine
 10
176.4976046758
 20
389.6176682805
 30
0.0
 11
176.6523668758
 21
389.464476796
 31
0.0
  0
LINE
  5
54C
330
1B
100
AcDbEntity
  8
0
  6
Continuous
100
AcDbLine
 10
179.6702239079
 20
388.0474555005
 30
0.0
 11
179.5154619294
 21
388.2006469716
 31
0.0
  0
LINE
  5
54D
330
1B
100
AcDbEntity
  8
0
  6
Continuous
100
AcDbLine
 10
180.7148667374
 20
389.6176682805
 30
0.0
 11
180.8696286329
 21
389.464476796
 31
0.0
  0
LINE
  5
54E
330
1B
100
AcDbEntity
  8
0
  6
Continuous
100
AcDbLine
 10
180.7148667374
 20
389.2729874303
 30
0.0
 11
180.6374857758
 21
389.3878810336
 31
0.0
  0
LWPOLYLINE
  5
54F
330
1B
100
AcDbEntity
  8
0
  6
Continuous
100
AcDbPolyline
 90
        7
 70
     0
 43
0.0
 10
98.22395224730001
 20
194.8549066018
 10
98.26889593650002
 20
194.8889811358
 10
98.31077665350001
 20
194.9888822521
 10
98.3467403229
 20
195.1478013825
 10
98.3743361369
 20
195.3549081567
 10
98.39168355259999
 20
195.5960885275
 10
98.39760042570001
 20
195.8549066018
  0
LINE
  5
558
330
1B
100
AcDbEntity
  8
0
  6
Continuous
100
AcDbLine
 10
180.366652424
 20
388.1623491039
 30
0.0
 11
180.5214143472
 21
388.2006469716
 31
0.0
  0
LINE
  5
559
330
1B
100
AcDbEntity
  8
0
  6
Continuous
100
AcDbLine
 10
176.1493903901
 20
388.1623491039
 30
0.0
 11
176.3041525901
 21
388.2006469716
 31
0.0
  0
LINE
  5
55A
330
1B
100
AcDbEntity
  8
0
  6
Continuous
100
AcDbLine
 10
180.0184381936
 20
389.5027746637
 30
0.0
 11
179.8636762151
 21
389.464476796
 31
0.0
  0
LINE
  5
55B
330
1B
100
AcDbEntity
  8
0
  6
Continuous
100
AcDbLine
 10
174.3309383043
 20
388.1623491039
 30
0.0
 11
174.4857000615
 21
388.2006469716
 31
0.0
  0
LINE
  5
55C
330
1B
100
AcDbEntity
  8
0
  6
Continuous
100
AcDbLine
 10
175.8011761044
 20
389.5027746637
 30
0.0
 11
175.6464143472
 21
389.464476796
 31
0.0
  0
LINE
  5
55D
330
1B
100
AcDbEntity
  8
0
  6
Continuous
100
AcDbLine
 10
174.0214143472
 20
389.5027746637
 30
0.0
 11
173.8666525901
 21
389.464476796
 31
0.0
  0
LINE
  5
55E
330
1B
100
AcDbEntity
  8
0
  6
Continuous
100
AcDbLine
 10
180.5601048142
 20
387.970859765
 30
0.0
 11
180.366652424
 21
387.9325618972
 31
0.0
  0
LINE
  5
55F
330
1B
100
AcDbEntity
  8
0
  6
Continuous
100
AcDbLine
 10
176.3428429186
 20
387.970859765
 30
0.0
 11
176.1493903901
 21
387.9325618972
 31
0.0
  0
LINE
  5
560
330
1B
100
AcDbEntity
  8
0
  6
Continuous
100
AcDbLine
 10
174.5243903901
 20
387.970859765
 30
0.0
 11
174.3309383043
 21
387.9325618972
 31
0.0
  0
LINE
  5
561
330
1B
100
AcDbEntity
  8
0
  6
Continuous
100
AcDbLine
 10
179.8249857758
 20
389.6942640261
 30
0.0
 11
180.0184381936
 21
389.7325618972
 31
0.0
  0
LINE
  5
562
330
1B
100
AcDbEntity
  8
0
  6
Continuous
100
AcDbLine
 10
175.6077240186
 20
389.6942640261
 30
0.0
 11
175.8011761044
 21
389.7325618972
 31
0.0
  0
LINE
  5
563
330
1B
100
AcDbEntity
  8
0
  6
Continuous
100
AcDbLine
 10
173.8279618187
 20
389.6942640261
 30
0.0
 11
174.0214143472
 21
389.7325618972
 31
0.0
  0
LINE
  5
564
330
1B
100
AcDbEntity
  8
0
  6
Continuous
100
AcDbLine
 10
186.6314081833
 20
395.4315018465
 30
0.0
 11
190.7175475985
 21
396.2407434727
 31
0.0
  0
LINE
  5
565
330
1B
100
AcDbEntity
  8
0
  6
Continuous
100
AcDbLine
 10
185.1419639858
 20
396.9281654816
 30
0.0
 11
189.203638265
 21
397.7325618972
 31
0.0
  0
LINE
  5
566
330
1B
100
AcDbEntity
  8
0
  6
Continuous
100
AcDbLine
 10
180.366652424
 20
387.9325618972
 30
0.0
 11
180.0184381936
 21
387.9325618972
 31
0.0
  0
LINE
  5
567
330
1B
100
AcDbEntity
  8
0
  6
Continuous
100
AcDbLine
 10
179.1672476437
 20
387.9325618972
 30
0.0
 11
178.9351048972
 21
387.9325618972
 31
0.0
  0
LINE
  5
568
330
1B
100
AcDbEntity
  8
0
  6
Continuous
100
AcDbLine
 10
178.0065334686
 20
387.9325618972
 30
0.0
 11
177.6970095115
 21
387.9325618972
 31
0.0
  0
LINE
  5
569
330
1B
100
AcDbEntity
  8
0
  6
Continuous
100
AcDbLine
 10
176.1493903901
 20
387.9325618972
 30
0.0
 11
175.8011761044
 21
387.9325618972
 31
0.0
  0
LINE
  5
56A
330
1B
100
AcDbEntity
  8
0
  6
Continuous
100
AcDbLine
 10
174.3309383043
 20
387.9325618972
 30
0.0
 11
174.0214143472
 21
387.9325618972
 31
0.0
  0
LINE
  5
56B
330
1B
100
AcDbEntity
  8
0
  6
Continuous
100
AcDbLine
 10
173.0928429186
 20
387.9325618972
 30
0.0
 11
172.7446286329
 21
387.9325618972
 31
0.0
  0
LINE
  5
56C
330
1B
100
AcDbEntity
  8
0
  6
Continuous
100
AcDbLine
 10
171.5839143472
 20
387.9325618972
 30
0.0
 11
171.2357000615
 21
387.9325618972
 31
0.0
  0
LINE
  5
56D
330
1B
100
AcDbEntity
  8
0
  6
Continuous
100
AcDbLine
 10
170.9261765472
 20
387.9325618972
 30
0.0
 11
170.69403369
 21
387.9325618972
 31
0.0
  0
LINE
  5
56E
330
1B
100
AcDbEntity
  8
0
  6
Continuous
100
AcDbLine
 10
170.3845092901
 20
387.9325618972
 30
0.0
 11
170.0362950044
 21
387.9325618972
 31
0.0
  0
LINE
  5
56F
330
1B
100
AcDbEntity
  8
0
  6
Continuous
100
AcDbLine
 10
169.06903369
 20
387.9325618972
 30
0.0
 11
168.8368908329
 21
387.9325618972
 31
0.0
  0
LINE
  5
570
330
1B
100
AcDbEntity
  8
0
  6
Continuous
100
AcDbLine
 10
168.527366433
 20
387.9325618972
 30
0.0
 11
168.2952235758
 21
387.9325618972
 31
0.0
  0
LINE
  5
571
330
1B
100
AcDbEntity
  8
0
  6
Continuous
100
AcDbLine
 10
174.0214143472
 20
388.1623491039
 30
0.0
 11
174.3309383043
 21
388.1623491039
 31
0.0
  0
LINE
  5
572
330
1B
100
AcDbEntity
  8
0
  6
Continuous
100
AcDbLine
 10
175.8011761044
 20
388.1623491039
 30
0.0
 11
176.1493903901
 21
388.1623491039
 31
0.0
  0
LINE
  5
573
330
1B
100
AcDbEntity
  8
0
  6
Continuous
100
AcDbLine
 10
180.0184381936
 20
388.1623491039
 30
0.0
 11
180.366652424
 21
388.1623491039
 31
0.0
  0
LINE
  5
574
330
1B
100
AcDbEntity
  8
0
  6
Continuous
100
AcDbLine
 10
175.2595097329
 20
388.3921364178
 30
0.0
 11
175.4916525901
 21
388.3921364178
 31
0.0
  0
LINE
  5
575
330
1B
100
AcDbEntity
  8
0
  6
Continuous
100
AcDbLine
 10
179.4767714901
 20
388.3921364178
 30
0.0
 11
179.7089143472
 21
388.3921364178
 31
0.0
  0
LINE
  5
576
330
1B
100
AcDbEntity
  8
0
  6
Continuous
100
AcDbLine
 10
180.0571286329
 20
388.7368172278
 30
0.0
 11
179.4767714901
 21
388.7368172278
 31
0.0
  0
LINE
  5
577
330
1B
100
AcDbEntity
  8
0
  6
Continuous
100
AcDbLine
 10
179.7089143472
 20
388.9666044344
 30
0.0
 11
180.0571286329
 21
388.9666044344
 31
0.0
  0
LINE
  5
578
330
1B
100
AcDbEntity
  8
0
  6
Continuous
100
AcDbLine
 10
178.1999857758
 20
389.1197959592
 30
0.0
 11
177.5035572044
 21
389.1197959592
 31
0.0
  0
LINE
  5
579
330
1B
100
AcDbEntity
  8
0
  6
Continuous
100
AcDbLine
 10
175.4916525901
 20
389.2729874303
 30
0.0
 11
175.2595097329
 21
389.2729874303
 31
0.0
  0
LINE
  5
57A
330
1B
100
AcDbEntity
  8
0
  6
Continuous
100
AcDbLine
 10
177.4648666544
 20
389.2729874303
 30
0.0
 11
178.2386763258
 21
389.2729874303
 31
0.0
  0
LINE
  5
57B
330
1B
100
AcDbEntity
  8
0
  6
Continuous
100
AcDbLine
 10
180.366652424
 20
389.5027746637
 30
0.0
 11
180.0184381936
 21
389.5027746637
 31
0.0
  0
LINE
  5
57C
330
1B
100
AcDbEntity
  8
0
  6
Continuous
100
AcDbLine
 10
176.1493903901
 20
389.5027746637
 30
0.0
 11
175.8011761044
 21
389.5027746637
 31
0.0
  0
LINE
  5
57D
330
1B
100
AcDbEntity
  8
0
  6
Continuous
100
AcDbLine
 10
174.3309383043
 20
389.5027746637
 30
0.0
 11
174.0214143472
 21
389.5027746637
 31
0.0
  0
LINE
  5
57E
330
1B
100
AcDbEntity
  8
0
  6
Continuous
100
AcDbLine
 10
168.2952235758
 20
389.7325618972
 30
0.0
 11
168.527366433
 21
389.7325618972
 31
0.0
  0
LINE
  5
57F
330
1B
100
AcDbEntity
  8
0
  6
Continuous
100
AcDbLine
 10
168.8368908329
 20
389.7325618972
 30
0.0
 11
169.1851051186
 21
389.7325618972
 31
0.0
  0
LINE
  5
580
330
1B
100
AcDbEntity
  8
0
  6
Continuous
100
AcDbLine
 10
170.152366433
 20
389.7325618972
 30
0.0
 11
170.3845092901
 21
389.7325618972
 31
0.0
  0
LINE
  5
581
330
1B
100
AcDbEntity
  8
0
  6
Continuous
100
AcDbLine
 10
170.69403369
 20
389.7325618972
 30
0.0
 11
170.9261765472
 21
389.7325618972
 31
0.0
  0
LINE
  5
582
330
1B
100
AcDbEntity
  8
0
  6
Continuous
100
AcDbLine
 10
171.2357000615
 20
389.7325618972
 30
0.0
 11
171.4678429186
 21
389.7325618972
 31
0.0
  0
LINE
  5
583
330
1B
100
AcDbEntity
  8
0
  6
Continuous
100
AcDbLine
 10
172.0095092901
 20
389.7325618972
 30
0.0
 11
172.31903369
 21
389.7325618972
 31
0.0
  0
LINE
  5
584
330
1B
100
AcDbEntity
  8
0
  6
Continuous
100
AcDbLine
 10
172.8607000615
 20
389.7325618972
 30
0.0
 11
173.0928429186
 21
389.7325618972
 31
0.0
  0
LINE
  5
585
330
1B
100
AcDbEntity
  8
0
  6
Continuous
100
AcDbLine
 10
174.0214143472
 20
389.7325618972
 30
0.0
 11
174.3309383043
 21
389.7325618972
 31
0.0
  0
LINE
  5
586
330
1B
100
AcDbEntity
  8
0
  6
Continuous
100
AcDbLine
 10
175.8011761044
 20
389.7325618972
 30
0.0
 11
176.1493903901
 21
389.7325618972
 31
0.0
  0
LINE
  5
587
330
1B
100
AcDbEntity
  8
0
  6
Continuous
100
AcDbLine
 10
177.0779618187
 20
389.7325618972
 30
0.0
 11
177.3101048972
 21
389.7325618972
 31
0.0
  0
LINE
  5
588
330
1B
100
AcDbEntity
  8
0
  6
Continuous
100
AcDbLine
 10
178.3934380829
 20
389.7325618972
 30
0.0
 11
178.6255809401
 21
389.7325618972
 31
0.0
  0
LINE
  5
589
330
1B
100
AcDbEntity
  8
0
  6
Continuous
100
AcDbLine
 10
178.9351048972
 20
389.7325618972
 30
0.0
 11
179.1672476437
 21
389.7325618972
 31
0.0
  0
LINE
  5
58A
330
1B
100
AcDbEntity
  8
0
  6
Continuous
100
AcDbLine
 10
180.0184381936
 20
389.7325618972
 30
0.0
 11
180.366652424
 21
389.7325618972
 31
0.0
  0
LINE
  5
58B
330
1B
100
AcDbEntity
  8
0
  6
Continuous
100
AcDbLine
 10
174.0214143472
 20
387.9325618972
 30
0.0
 11
173.8279618187
 21
387.970859765
 31
0.0
  0
LINE
  5
58C
330
1B
100
AcDbEntity
  8
0
  6
Continuous
100
AcDbLine
 10
175.8011761044
 20
387.9325618972
 30
0.0
 11
175.6077240186
 21
387.970859765
 31
0.0
  0
LINE
  5
58D
330
1B
100
AcDbEntity
  8
0
  6
Continuous
100
AcDbLine
 10
180.0184381936
 20
387.9325618972
 30
0.0
 11
179.8249857758
 21
387.970859765
 31
0.0
  0
LINE
  5
58E
330
1B
100
AcDbEntity
  8
0
  6
Continuous
100
AcDbLine
 10
174.3309383043
 20
389.7325618972
 30
0.0
 11
174.5243903901
 21
389.6942640261
 31
0.0
  0
LINE
  5
58F
330
1B
100
AcDbEntity
  8
0
  6
Continuous
100
AcDbLine
 10
176.1493903901
 20
389.7325618972
 30
0.0
 11
176.3428429186
 21
389.6942640261
 31
0.0
  0
LINE
  5
590
330
1B
100
AcDbEntity
  8
0
  6
Continuous
100
AcDbLine
 10
180.366652424
 20
389.7325618972
 30
0.0
 11
180.5601048142
 21
389.6942640261
 31
0.0
  0
LINE
  5
591
330
1B
100
AcDbEntity
  8
0
  6
Continuous
100
AcDbLine
 10
158.2538525245
 20
396.2407434727
 30
0.0
 11
162.3399919397
 21
395.4315018465
 31
0.0
  0
LINE
  5
592
330
1B
100
AcDbEntity
  8
0
  6
Continuous
100
AcDbLine
 10
173.8666525901
 20
388.2006469716
 30
0.0
 11
174.0214143472
 21
388.1623491039
 31
0.0
  0
LINE
  5
593
330
1B
100
AcDbEntity
  8
0
  6
Continuous
100
AcDbLine
 10
175.6464143472
 20
388.2006469716
 30
0.0
 11
175.8011761044
 21
388.1623491039
 31
0.0
  0
LINE
  5
594
330
1B
100
AcDbEntity
  8
0
  6
Continuous
100
AcDbLine
 10
174.4857000615
 20
389.464476796
 30
0.0
 11
174.3309383043
 21
389.5027746637
 31
0.0
  0
LINE
  5
595
330
1B
100
AcDbEntity
  8
0
  6
Continuous
100
AcDbLine
 10
179.8636762151
 20
388.2006469716
 30
0.0
 11
180.0184381936
 21
388.1623491039
 31
0.0
  0
LINE
  5
596
330
1B
100
AcDbEntity
  8
0
  6
Continuous
100
AcDbLine
 10
176.3041525901
 20
389.464476796
 30
0.0
 11
176.1493903901
 21
389.5027746637
 31
0.0
  0
LINE
  5
597
330
1B
100
AcDbEntity
  8
0
  6
Continuous
100
AcDbLine
 10
180.5214143472
 20
389.464476796
 30
0.0
 11
180.366652424
 21
389.5027746637
 31
0.0
  0
LINE
  5
598
330
1B
100
AcDbEntity
  8
0
  6
Continuous
100
AcDbLine
 10
173.8279618187
 20
387.970859765
 30
0.0
 11
173.6732000615
 21
388.0474555005
 31
0.0
  0
LINE
  5
599
330
1B
100
AcDbEntity
  8
0
  6
Continuous
100
AcDbLine
 10
175.6077240186
 20
387.970859765
 30
0.0
 11
175.4529618187
 21
388.0474555005
 31
0.0
  0
LINE
  5
59A
330
1B
100
AcDbEntity
  8
0
  6
Continuous
100
AcDbLine
 10
174.5243903901
 20
389.6942640261
 30
0.0
 11
174.6791525901
 21
389.6176682805
 31
0.0
  0
LINE
  5
59B
330
1B
100
AcDbEntity
  8
0
  6
Continuous
100
AcDbLine
 10
176.3428429186
 20
389.6942640261
 30
0.0
 11
176.4976046758
 21
389.6176682805
 31
0.0
  0
LINE
  5
59C
330
1B
100
AcDbEntity
  8
0
  6
Continuous
100
AcDbLine
 10
179.8249857758
 20
387.970859765
 30
0.0
 11
179.6702239079
 21
388.0474555005
 31
0.0
  0
LINE
  5
59D
330
1B
100
AcDbEntity
  8
0
  6
Continuous
100
AcDbLine
 10
180.5601048142
 20
389.6942640261
 30
0.0
 11
180.7148667374
 21
389.6176682805
 31
0.0
  0
LINE
  5
59E
330
1B
100
AcDbEntity
  8
0
  6
Continuous
100
AcDbLine
 10
174.6017714901
 20
389.3878810336
 30
0.0
 11
174.4857000615
 21
389.464476796
 31
0.0
  0
LINE
  5
59F
330
1B
100
AcDbEntity
  8
0
  6
Continuous
100
AcDbLine
 10
176.4202240186
 20
389.3878810336
 30
0.0
 11
176.3041525901
 21
389.464476796
 31
0.0
  0
LINE
  5
5A0
330
1B
100
AcDbEntity
  8
0
  6
Continuous
100
AcDbLine
 10
179.7476047865
 20
388.2772427072
 30
0.0
 11
179.8636762151
 21
388.2006469716
 31
0.0
  0
LINE
  5
5A1
330
1B
100
AcDbEntity
  8
0
  6
Continuous
100
AcDbLine
 10
180.6374857758
 20
389.3878810336
 30
0.0
 11
180.5214143472
 21
389.464476796
 31
0.0
  0
LINE
  5
5A2
330
1B
100
AcDbEntity
  8
0
  6
Continuous
100
AcDbLine
 10
101.9857000615
 20
204.6463584861
 30
0.0
 11
98.4857000615
 21
202.625632544
 31
0.0
  0
LINE
  5
5A3
330
1B
100
AcDbEntity
  8
0
  6
Continuous
100
AcDbLine
 10
101.9857000615
 20
196.5634547175
 30
0.0
 11
105.4857000615
 21
198.5841806596
 31
0.0
  0
LINE
  5
5A4
330
1B
100
AcDbEntity
  8
0
  6
Continuous
100
AcDbLine
 10
163.3247996927
 20
395.4315018465
 30
0.0
 11
162.3399919397
 21
395.4315018465
 31
0.0
  0
LINE
  5
5A5
330
1B
100
AcDbEntity
  8
0
  6
Continuous
100
AcDbLine
 10
185.6466004303
 20
395.4315018465
 30
0.0
 11
186.6314081833
 21
395.4315018448
 31
0.0
  0
LINE
  5
5A6
330
1B
100
AcDbEntity
  8
0
  6
Continuous
100
AcDbLine
 10
185.1419639858
 20
395.9287746546
 30
0.0
 11
163.8294361372
 21
395.9287746546
 31
0.0
  0
LINE
  5
5A7
330
1B
100
AcDbEntity
  8
0
  6
Continuous
100
AcDbLine
 10
185.1419639858
 20
396.9281654816
 30
0.0
 11
163.8294361372
 21
396.9281654816
 31
0.0
  0
LINE
  5
5A8
330
1B
100
AcDbEntity
  8
0
  6
Continuous
100
AcDbLine
 10
176.1214496591
 20
397.1804199801
 30
0.0
 11
172.8499504764
 21
397.1804199801
 31
0.0
  0
LINE
  5
5A9
330
1B
100
AcDbEntity
  8
0
  6
Continuous
100
AcDbLine
 10
176.1846656309
 20
397.3803895191
 30
0.0
 11
172.7867344922
 21
397.3803895191
 31
0.0
  0
LINE
  5
5AA
330
1B
100
AcDbEntity
  8
0
  6
Continuous
100
AcDbLine
 10
189.203638265
 20
397.7325618972
 30
0.0
 11
176.4857000615
 21
397.7325618972
 31
0.0
  0
LINE
  5
5AB
330
1B
100
AcDbEntity
  8
0
  6
Continuous
100
AcDbLine
 10
172.4857000615
 20
397.7325618972
 30
0.0
 11
159.767761858
 21
397.7325618972
 31
0.0
  0
LINE
  5
5AC
330
1B
100
AcDbEntity
  8
0
  6
Continuous
100
AcDbLine
 10
165.1245768733
 20
397.7936546245
 30
0.0
 11
183.8468232497
 21
397.7936546245
 31
0.0
  0
LINE
  5
5AD
330
1B
100
AcDbEntity
  8
0
  6
Continuous
100
AcDbLine
 10
159.767761858
 20
397.7325618972
 30
0.0
 11
163.8294361372
 21
396.9281654816
 31
0.0
  0
CIRCLE
  5
847
330
1B
100
AcDbEntity
  8
0
  6
Continuous
100
AcDbCircle
 10
101.9857000615
 20
200.6049066018
 30
0.0
 40
3.5
  0
ARC
  5
848
330
1B
100
AcDbEntity
  8
0
  6
Continuous
100
AcDbCircle
 10
101.9857000615
 20
200.6049066018
 30
0.0
 40
3.0
100
AcDbArc
 50
192.5133253629004
 51
347.4866746371008
  0
ARC
  5
849
330
1B
100
AcDbEntity
  8
0
  6
Continuous
100
AcDbCircle
 10
101.9857000615
 20
200.6049066018
 30
0.0
 40
3.0
100
AcDbArc
 50
12.51332536290003
 51
167.4866746371004
  0
ARC
  5
84A
330
1B
100
AcDbEntity
  8
0
  6
Continuous
100
AcDbCircle
 10
84.48570006149998
 20
235.8841923242
 30
0.0
 40
36.0
100
AcDbArc
 50
108.6293305747002
 51
118.7216925088002
  0
ARC
  5
84B
330
1B
100
AcDbEntity
  8
0
  6
Continuous
100
AcDbCircle
 10
84.48570006149998
 20
235.8841923242
 30
0.0
 40
36.0
100
AcDbArc
 50
61.27830749120015
 51
71.37066942530015
  0
ARC
  5
84C
330
1B
100
AcDbEntity
  8
0
  6
Continuous
100
AcDbCircle
 10
69.48570006149998
 20
195.8549066018
 30
0.0
 40
1.0
100
AcDbArc
 50
180.0000000000004
 51
270.0000000000006
  0
ARC
  5
84D
330
1B
100
AcDbEntity
  8
0
  6
Continuous
100
AcDbCircle
 10
69.48570006149998
 20
205.3549066018
 30
0.0
 40
1.0
100
AcDbArc
 50
90.00000000000019
 51
180.0000000000004
  0
ARC
  5
84E
330
1B
100
AcDbEntity
  8
0
  6
Continuous
100
AcDbCircle
 10
101.7357000615
 20
200.6049066018
 30
0.0
 40
5.75
100
AcDbArc
 50
270.0000000000006
 51
86.42146143350018
  0
ARC
  5
84F
330
1B
100
AcDbEntity
  8
0
  6
Continuous
100
AcDbCircle
 10
63.7207533976
 20
265.2614049035
 30
0.0
 40
0.5
100
AcDbArc
 50
98.00000000000023
 51
177.9999998560004
  0
ARC
  5
850
330
1B
100
AcDbEntity
  8
0
  6
Continuous
100
AcDbCircle
 10
105.2506467254
 20
265.2614049035
 30
0.0
 40
0.5
100
AcDbArc
 50
2.000000144000004
 51
82.0000000000002
  0
ARC
  5
851
330
1B
100
AcDbEntity
  8
0
  6
Continuous
100
AcDbCircle
 10
105.8756839163
 20
264.5549066018
 30
0.0
 40
0.3
100
AcDbArc
 50
2.000000000000004
 51
90.00000000000019
  0
ARC
  5
852
330
1B
100
AcDbEntity
  8
0
  6
Continuous
100
AcDbCircle
 10
63.09571620669999
 20
264.5549066018
 30
0.0
 40
0.3
100
AcDbArc
 50
90.00000000000019
 51
178.0000000000004
  0
ARC
  5
853
330
1B
100
AcDbEntity
  8
0
  6
Continuous
100
AcDbCircle
 10
72.78081771710001
 20
234.6549066018
 30
0.0
 40
3.5
100
AcDbArc
 50
325.4215466554007
 51
329.9248590065007
  0
ARC
  5
854
330
1B
100
AcDbEntity
  8
0
  6
Continuous
100
AcDbCircle
 10
173.9857000615
 20
209.6049066018
 30
0.0
 40
1.0
100
AcDbArc
 50
270.0000000000006
 51
360.0000000000008
  0
ARC
  5
855
330
1B
100
AcDbEntity
  8
0
  6
Continuous
100
AcDbCircle
 10
110.4857000615
 20
208.6049066018
 30
0.0
 40
1.0
100
AcDbArc
 50
90.00000000000019
 51
180.0000000000004
  0
ARC
  5
856
330
1B
100
AcDbEntity
  8
0
  6
Continuous
100
AcDbCircle
 10
109.4857000615
 20
204.6049066018
 30
0.0
 40
1.0
100
AcDbArc
 50
270.0000000000006
 51
360.0000000000008
  0
SPLINE
  5
A00
330
1B
100
AcDbEntity
  8
0
  6
Continuous
100
AcDbSpline
210
0.9961946592299584
220
-1.327642451000000E-7
230
0.08715618693867711
 70
     8
 71
     3
 72
     9
 73
     5
 74
     3
 42
0.0000000001
 43
0.0000000001
 44
0.0000000001
 40
0.0
 40
0.0
 40
0.0
 40
0.0
 40
0.2552950373864878
 40
0.4296861383725676
 40
0.4296861383725676
 40
0.4296861383725676
 40
0.4296861383725676
 10
98.4355363538
 20
269.0688123961
 30
22.0261276371
 10
98.44295080912863
 20
269.0666245588974
 30
21.94138045678657
 10
98.45543005161959
 20
269.0629422181493
 30
21.79874278932688
 10
98.4679055531375
 20
269.0578700023713
 30
21.6561478790478
 10
98.472968822
 20
269.0558114084
 30
21.5982747452
 11
98.4355363538
 21
269.0688123961
 31
22.0261276371
 11
98.4577783992
 21
269.0617582503
 31
21.7719011897
 11
98.472968822
 21
269.0558114084
 31
21.5982747452
  0
SPLINE
  5
A01
330
1B
100
AcDbEntity
  8
0
  6
Continuous
100
AcDbSpline
210
-0.08715576075247961
220
3.026260000000000E-9
230
0.9961946965165278
 70
     8
 71
     3
 72
     9
 73
     5
 74
     3
 42
0.0000000001
 43
0.0000000001
 44
0.0000000001
 40
0.0
 40
0.0
 40
0.0
 40
0.0
 40
0.5200582922661425
 40
2.048840020837743
 40
2.048840020837743
 40
2.048840020837743
 40
2.048840020837743
 10
99.40152904990001
 20
268.6487783682
 30
21.5982747452
 10
99.55855450914569
 20
268.5766053860235
 30
21.61201269584794
 10
100.1771775557875
 20
268.2922701557131
 30
21.66613521155505
 10
100.7832336185913
 20
267.9816345425906
 30
21.71915825849264
 10
101.2354541072
 20
267.7498477536
 30
21.7587224336
 11
99.40152904990001
 21
268.6487783682
 31
21.5982747452
 11
99.8717957372
 21
268.4305648887
 31
21.6394177584
 11
101.2354541072
 21
267.7498477536
 31
21.7587224336
  0
SPLINE
  5
A02
330
1B
100
AcDbEntity
  8
0
  6
Continuous
100
AcDbSpline
210
-0.9961946968572233
220
8.215761000000000E-10
230
-0.0871557568583119
 70
     8
 71
     3
 72
     9
 73
     5
 74
     3
 42
0.0000000001
 43
0.0000000001
 44
0.0000000001
 40
0.0
 40
0.0
 40
0.0
 40
0.0
 40
1.239725370840481
 40
2.479639242529956
 40
2.479639242529956
 40
2.479639242529956
 40
2.479639242529956
 10
101.2354541072
 20
267.7498477536
 30
21.7587224336
 10
101.1994465679573
 20
267.7626800312444
 30
22.17029042341505
 10
101.1274260145079
 20
267.7883465376872
 30
22.9934889821593
 10
101.0553974907593
 20
267.7658146834489
 30
23.81677864137324
 10
101.0193804911
 20
267.7545478999
 30
24.228454764
 11
101.2354541072
 21
267.7498477536
 31
21.7587224336
 11
101.1274294972
 21
267.7762968283
 31
22.9934491747
 11
101.0193804911
 21
267.7545478999
 31
24.228454764
  0
SPLINE
  5
A03
330
1B
100
AcDbEntity
  8
0
  6
Continuous
100
AcDbSpline
210
0.0871537149075626
220
-1.997851320000000E-8
230
-0.9961948755026854
 70
     8
 71
     3
 72
     9
 73
     5
 74
     3
 42
0.0000000001
 43
0.0000000001
 44
0.0000000001
 40
0.0
 40
0.0
 40
0.0
 40
0.0
 40
0.2990101911429062
 40
0.5979384793375562
 40
0.5979384793375562
 40
0.5979384793375562
 40
0.5979384793375562
 10
101.0193804911
 20
267.7545478999
 30
24.228454764
 10
100.931335865508
 20
267.8006255286715
 30
24.22075203704642
 10
100.7552707309415
 20
267.8927681649269
 30
24.20534869302068
 10
100.578075234764
 20
267.9827008985707
 30
24.18984645753118
 10
100.4894896224
 20
268.0276611061
 30
24.1820964015
 11
101.0193804911
 21
267.7545478999
 31
24.228454764
 11
100.7549639465
 21
267.8922281592
 31
24.2053218535
 11
100.4894896224
 21
268.0276611061
 31
24.1820964015
  0
SPLINE
  5
A04
330
1B
100
AcDbEntity
  8
0
  6
Continuous
100
AcDbSpline
210
0.99619470281879
220
-2.279623600000000E-9
230
0.0871556887172758
 70
     8
 71
     3
 72
     9
 73
     5
 74
     3
 42
0.0000000001
 43
0.0000000001
 44
0.0000000001
 40
0.0
 40
0.0
 40
0.0
 40
0.0
 40
1.057561783113348
 40
2.114884442232278
 40
2.114884442232278
 40
2.114884442232278
 40
2.114884442232278
 10
100.4894896224
 20
268.0276611061
 30
24.1820964015
 10
100.5202065552711
 20
268.0376889479762
 30
23.8310000331449
 10
100.5816334756452
 20
268.0577423643458
 30
23.12888668240286
 10
100.6430718769704
 20
268.0430321279003
 30
22.42664210279901
 10
100.6737876043
 20
268.0356778413
 30
22.0755595134
 11
100.4894896224
 21
268.0276611061
 31
24.1820964015
 11
100.5816432919
 21
268.0490517531
 31
23.1287744818
 11
100.6737876043
 21
268.0356778413
 31
22.0755595134
  0
SPLINE
  5
A05
330
1B
100
AcDbEntity
  8
0
  6
Continuous
100
AcDbSpline
210
-0.0871557993910194
220
3.353649800000000E-9
230
0.996194693136092
 70
     8
 71
     3
 72
     9
 73
     5
 74
     3
 42
0.0000000001
 43
0.0000000001
 44
0.0000000001
 40
0.0
 40
0.0
 40
0.0
 40
0.0
 40
0.9404141320978732
 40
1.881307256114224
 40
1.881307256114224
 40
1.881307256114224
 40
1.881307256114224
 10
100.6737876043
 20
268.0356778413
 30
22.0755595134
 10
100.3938577913884
 20
268.1746914478869
 30
22.05106881168075
 10
99.83385558570214
 20
268.4527894664557
 30
22.00207493411219
 10
99.26342497776592
 20
268.7086404345636
 30
21.95216868904546
 10
98.97813705629999
 20
268.8365984892
 30
21.9272092133
 11
100.6737876043
 21
268.0356778413
 31
22.0755595134
 11
99.83139239240001
 21
268.4471597302
 31
22.0018594325
 11
98.97813705629999
 21
268.8365984892
 31
21.9272092133
  0
SPLINE
  5
A06
330
1B
100
AcDbEntity
  8
0
  6
Continuous
100
AcDbSpline
210
-0.8069784897158892
220
3.829374740000000E-8
230
0.5905808303152595
 70
     8
 71
     3
 72
     9
 73
     5
 74
     3
 42
0.0000000001
 43
0.0000000001
 44
0.0000000001
 40
0.0
 40
0.0
 40
0.0
 40
0.0
 40
0.2501386379780173
 40
0.5026193266217822
 40
0.5026193266217822
 40
0.5026193266217822
 40
0.5026193266217822
 10
98.97813705629999
 20
268.8365984892
 30
21.9272092133
 10
99.02568036061217
 20
268.8148822766813
 30
21.9921730976188
 10
99.12121211768863
 20
268.7712465225203
 30
22.1227091237801
 10
99.2164532868288
 20
268.7258259850606
 30
22.25284808634999
 10
99.26429576859999
 20
268.7030098935
 30
22.3182207713
 11
98.97813705629999
 21
268.8365984892
 31
21.9272092133
 11
99.1206949977
 21
268.7710078044
 31
22.1220025233
 11
99.26429576859999
 21
268.7030098935
 31
22.3182207713
  0
SPLINE
  5
A07
330
1B
100
AcDbEntity
  8
0
  6
Continuous
100
AcDbSpline
210
-0.980727631160188
220
-1.082737128000000E-7
230
0.195379920869353
 70
     8
 71
     3
 72
     9
 73
     5
 74
     3
 42
0.0000000001
 43
0.0000000001
 44
0.0000000001
 40
0.0
 40
0.0
 40
0.0
 40
0.0
 40
0.1910512975011611
 40
0.3823069012196418
 40
0.3823069012196418
 40
0.3823069012196418
 40
0.3823069012196418
 10
99.26429576859999
 20
268.7030098935
 30
22.3182207713
 10
99.27666246667647
 20
268.6959866236168
 30
22.38029655521581
 10
99.30140908751483
 20
268.6819325733142
 30
22.50451450557803
 10
99.32613092815734
 20
268.6667790544035
 30
22.62860806884012
 10
99.33849845420001
 20
268.6591982459
 30
22.6906880085
 11
99.26429576859999
 21
268.7030098935
 31
22.3182207713
 11
99.30138967440001
 21
268.6816655104
 31
22.5044170595
 11
99.33849845420001
 21
268.6591982459
 31
22.6906880085
  0
SPLINE
  5
A08
330
1B
100
AcDbEntity
  8
0
  6
Continuous
100
AcDbSpline
210
-0.9961947618325265
220
-4.557502940000000E-8
230
-0.0871550141841163
 70
     8
 71
     3
 72
     9
 73
     5
 74
     3
 42
0.0000000001
 43
0.0000000001
 44
0.0000000001
 40
0.0
 40
0.0
 40
0.0
 40
0.0
 40
0.218754002959072
 40
0.4375031128075001
 40
0.4375031128075001
 40
0.4375031128075001
 40
0.4375031128075001
 10
99.33849845420001
 20
268.6591982459
 30
22.6906880085
 10
99.33214330847963
 20
268.6595354128688
 30
22.76332826817072
 10
99.31943315919139
 20
268.6602097392647
 30
22.90860716268784
 10
99.3067230585465
 20
268.6594240722926
 30
23.05388550196866
 10
99.30036807930001
 20
268.6590312432
 30
23.1265238592
 11
99.33849845420001
 21
268.6591982459
 31
22.6906880085
 11
99.3194330292
 21
268.6598447403
 31
22.9086086487
 11
99.30036807930001
 21
268.6590312432
 31
23.1265238592
  0
SPLINE
  5
A09
330
1B
100
AcDbEntity
  8
0
  6
Continuous
100
AcDbSpline
210
0.9319005839009054
220
-2.636628840000000E-8
230
0.3627138013987765
 70
     8
 71
     3
 72
     9
 73
     5
 74
     3
 42
0.0000000001
 43
0.0000000001
 44
0.0000000001
 40
0.0
 40
0.0
 40
0.0
 40
0.0
 40
0.1912501018266934
 40
0.3822754999133347
 40
0.3822754999133347
 40
0.3822754999133347
 40
0.3822754999133347
 10
99.30036807930001
 20
268.6590312432
 30
23.1265238592
 10
99.27740702416998
 20
268.6665661988936
 30
23.18551643350743
 10
99.2315118913332
 20
268.6816272573038
 30
23.30343227051432
 10
99.18557104581322
 20
268.6955888351332
 30
23.42146555451944
 10
99.16261412519999
 20
268.7025655207
 30
23.4804475062
 11
99.30036807930001
 21
268.6590312432
 31
23.1265238592
 11
99.2314734723
 21
268.6813609169
 31
23.3035309784
 11
99.16261412519999
 21
268.7025655207
 31
23.4804475062
  0
SPLINE
  5
A0A
330
1B
100
AcDbEntity
  8
0
  6
Continuous
100
AcDbSpline
210
0.6921656985703791
220
-9.295601060000000E-8
230
0.7217386270129726
 70
     8
 71
     3
 72
     9
 73
     5
 74
     3
 42
0.0000000001
 43
0.0000000001
 44
0.0000000001
 40
0.0
 40
0.0
 40
0.0
 40
0.0
 40
0.2526257792207958
 40
0.5025466951274777
 40
0.5025466951274777
 40
0.5025466951274777
 40
0.5025466951274777
 10
99.16261412519999
 20
268.7025655207
 30
23.4804475062
 10
99.1041043558584
 20
268.7253518799032
 30
23.53655986595447
 10
98.98771128106617
 20
268.7706806248431
 30
23.6481837906283
 10
98.87096381117004
 20
268.8142245511529
 30
23.76014758898993
 10
98.8129042619
 20
268.8358793308
 30
23.8158281761
 11
99.16261412519999
 21
268.7025655207
 31
23.4804475062
 11
98.9869952621
 21
268.7704735775
 31
23.648870471
 11
98.8129042619
 21
268.8358793308
 31
23.8158281761
  0
SPLINE
  5
A0B
330
1B
100
AcDbEntity
  8
0
  6
Continuous
100
AcDbSpline
210
0.3779376996786139
220
-4.147818010000000E-8
230
0.9258310294873661
 70
     8
 71
     3
 72
     9
 73
     5
 74
     3
 42
0.0000000001
 43
0.0000000001
 44
0.0000000001
 40
0.0
 40
0.0
 40
0.0
 40
0.0
 40
0.2569029571696668
 40
0.5099808715266099
 40
0.5099808715266099
 40
0.5099808715266099
 40
0.5099808715266099
 10
98.8129042619
 20
268.8358793308
 30
23.8158281761
 10
98.73866948436111
 20
268.8659499196087
 30
23.84613189396309
 10
98.59130521512907
 20
268.9256433745106
 30
23.90628813590198
 10
98.44334943631515
 20
268.9836046211439
 30
23.96668584058268
 10
98.36992640810001
 20
269.0123678792
 30
23.9966581905
 11
98.8129042619
 21
268.8358793308
 31
23.8158281761
 11
98.59004982530001
 21
268.9256515247
 31
23.9068006043
 11
98.36992640810001
 21
269.0123678792
 31
23.9966581905
  0
SPLINE
  5
A0C
330
1B
100
AcDbEntity
  8
0
  6
Continuous
100
AcDbSpline
210
0.1793488687411838
220
1.379709550000000E-8
230
0.9837855372393201
 70
     8
 71
     3
 72
     9
 73
     5
 74
     3
 42
0.0000000001
 43
0.0000000001
 44
0.0000000001
 40
0.0
 40
0.0
 40
0.0
 40
0.0
 40
0.2982751057446361
 40
0.5919573413417902
 40
0.5919573413417902
 40
0.5919573413417902
 40
0.5919573413417902
 10
98.36992640810001
 20
269.0123678792
 30
23.9966581905
 10
98.27901169598464
 20
269.0490470773044
 30
24.01323238238079
 10
98.09858218565621
 20
269.1218406835232
 30
24.04612555506495
 10
97.91727542117566
 20
269.1923460891518
 30
24.07917865546241
 10
97.82732539910001
 20
269.2273252738
 30
24.0955769797
 11
98.36992640810001
 21
269.0123678792
 31
23.9966581905
 11
98.0969595418
 21
269.1218245121
 31
24.0464213709
 11
97.82732539910001
 21
269.2273252738
 31
24.0955769797
  0
SPLINE
  5
A0D
330
1B
100
AcDbEntity
  8
0
  6
Continuous
100
AcDbSpline
210
-0.08715564459021601
220
4.913058800000000E-8
230
0.9961947066794028
 70
     8
 71
     3
 72
     9
 73
     5
 74
     3
 42
0.0000000001
 43
0.0000000001
 44
0.0000000001
 40
0.0
 40
0.0
 40
0.0
 40
0.0
 40
0.228981028652689
 40
0.457959161001864
 40
0.457959161001864
 40
0.457959161001864
 40
0.457959161001864
 10
97.82732539910001
 20
269.2273252738
 30
24.0955769797
 10
97.7568069382975
 20
269.2558729418839
 30
24.0894074194041
 10
97.61577090865671
 20
269.3129679169621
 30
24.07706837684899
 10
97.47419828863299
 20
269.3687086593624
 30
24.06468238883847
 10
97.40341242629999
 20
269.3965788543
 30
24.058489434
 11
97.82732539910001
 21
269.2273252738
 31
24.0955769797
 11
97.61563586740002
 21
269.3126297156
 31
24.0770565623
 11
97.40341242629999
 21
269.3965788543
 31
24.058489434
  0
SPLINE
  5
A0E
330
1B
100
AcDbEntity
  8
0
  6
Continuous
100
AcDbSpline
210
-0.3474568270123208
220
-3.115632450000000E-8
230
0.937695981308723
 70
     8
 71
     3
 72
     9
 73
     5
 74
     3
 42
0.0000000001
 43
0.0000000001
 44
0.0000000001
 40
0.0
 40
0.0
 40
0.0
 40
0.0
 40
0.296151747828408
 40
0.5895492303812693
 40
0.5895492303812693
 40
0.5895492303812693
 40
0.5895492303812693
 10
97.40341242629999
 20
269.3965788543
 30
24.058489434
 10
97.31701386213663
 20
269.4320142601423
 30
24.02647503865548
 10
97.14502025621654
 20
269.5025555160888
 30
23.96274398768286
 10
96.97222579305088
 20
269.5708345094511
 30
23.8987161844649
 10
96.88623219340001
 20
269.6048145127
 30
23.8668518459
 11
97.40341242629999
 21
269.3965788543
 31
24.058489434
 11
97.14401464440002
 21
269.5023142094
 31
23.9623713651
 11
96.88623219340001
 21
269.6048145127
 31
23.8668518459
  0
SPLINE
  5
A0F
330
1B
100
AcDbEntity
  8
0
  6
Continuous
100
AcDbSpline
210
-0.5329648941775536
220
-1.688757990000000E-8
230
0.8461373538464716
 70
     8
 71
     3
 72
     9
 73
     5
 74
     3
 42
0.0000000001
 43
0.0000000001
 44
0.0000000001
 40
0.0
 40
0.0
 40
0.0
 40
0.0
 40
0.2545501824374272
 40
0.5052306987365329
 40
0.5052306987365329
 40
0.5052306987365329
 40
0.5052306987365329
 10
96.88623219340001
 20
269.6048145127
 30
23.8668518459
 10
96.81836282307242
 20
269.6324888885354
 30
23.82410229567302
 10
96.68365583105583
 20
269.6874169349683
 30
23.73925307291842
 10
96.54846305924318
 20
269.7406518090165
 30
23.65409786721082
 10
96.481384408
 20
269.7670653776
 30
23.611846375
 11
96.88623219340001
 21
269.6048145127
 31
23.8668518459
 11
96.68250077
 21
269.6874078381
 31
23.7385255232
 11
96.481384408
 21
269.7670653776
 31
23.611846375
  0
SPLINE
  5
A10
330
1B
100
AcDbEntity
  8
0
  6
Continuous
100
AcDbSpline
210
-0.8069785028696546
220
-4.696337250000000E-8
230
0.5905808123417562
 70
     8
 71
     3
 72
     9
 73
     5
 74
     3
 42
0.0000000001
 43
0.0000000001
 44
0.0000000001
 40
0.0
 40
0.0
 40
0.0
 40
0.0
 40
0.252032063538616
 40
0.4993883760376641
 40
0.4993883760376641
 40
0.4993883760376641
 40
0.4993883760376641
 10
96.481384408
 20
269.7670653776
 30
23.611846375
 10
96.43330881226214
 20
269.7878333967
 30
23.54615515969632
 10
96.33804952919513
 20
269.8289841423085
 30
23.41599144612016
 10
96.24253554246914
 20
269.8684057119008
 30
23.28547970149661
 10
96.1952256957
 20
269.8879319455
 30
23.220834817
 11
96.481384408
 21
269.7670653776
 31
23.611846375
 11
96.3370927469
 21
269.8289290079
 31
23.4146840844
 11
96.1952256957
 21
269.8879319455
 31
23.220834817
  0
SPLINE
  5
A11
330
1B
100
AcDbEntity
  8
0
  6
Continuous
100
AcDbSpline
210
-0.9807278171222558
220
1.394052739000000E-7
230
0.1953789874131701
 70
     8
 71
     3
 72
     9
 73
     5
 74
     3
 42
0.0000000001
 43
0.0000000001
 44
0.0000000001
 40
0.0
 40
0.0
 40
0.0
 40
0.0
 40
0.1909093271840275
 40
0.3820143975476138
 40
0.3820143975476138
 40
0.3820143975476138
 40
0.3820143975476138
 10
96.1952256957
 20
269.8879319455
 30
23.220834817
 10
96.18287058044983
 20
269.8950565489056
 30
23.15881685711987
 10
96.1581476820009
 20
269.9093130607161
 30
23.03471734909581
 10
96.1334023315513
 20
269.9225097650531
 30
22.91050514136888
 10
96.1210233166
 20
269.9291114982
 30
22.8483672145
 11
96.1952256957
 21
269.8879319455
 31
23.220834817
 11
96.15815474270001
 21
269.9090410753
 31
23.0347527913
 11
96.1210233166
 21
269.9291114982
 31
22.8483672145
  0
SPLINE
  5
A12
330
1B
100
AcDbEntity
  8
0
  6
Continuous
100
AcDbSpline
210
-0.9961947618334729
220
-1.796344470000000E-8
230
-0.0871550141733103
 70
     8
 71
     3
 72
     9
 73
     5
 74
     3
 42
0.0000000001
 43
0.0000000001
 44
0.0000000001
 40
0.0
 40
0.0
 40
0.0
 40
0.0
 40
0.2187587251035281
 40
0.4375029320973194
 40
0.4375029320973194
 40
0.4375029320973194
 40
0.4375029320973194
 10
96.1210233166
 20
269.9291114982
 30
22.8483672145
 10
96.1273785787148
 20
269.9294896793376
 30
22.77572562416028
 10
96.14008868117202
 20
269.9302460165146
 30
22.63044726440207
 10
96.15279882864863
 20
269.9295968253239
 30
22.4851683903546
 10
96.1591536915
 20
269.9292722405
 30
22.4125313638
 11
96.1210233166
 21
269.9291114982
 31
22.8483672145
 11
96.1400891142
 21
269.9298946362
 31
22.6304423149
 11
96.1591536915
 21
269.9292722405
 31
22.4125313638
  0
SPLINE
  5
A13
330
1B
100
AcDbEntity
  8
0
  6
Continuous
100
AcDbSpline
210
0.9319005831460016
220
-4.737710410000000E-8
230
0.3627138033383072
 70
     8
 71
     3
 72
     9
 73
     5
 74
     3
 42
0.0000000001
 43
0.0000000001
 44
0.0000000001
 40
0.0
 40
0.0
 40
0.0
 40
0.0
 40
0.1912829439569113
 40
0.381985585706251
 40
0.381985585706251
 40
0.381985585706251
 40
0.381985585706251
 10
96.1591536915
 20
269.9292722405
 30
22.4125313638
 10
96.18215792563464
 20
269.9227085144074
 30
22.35342785210958
 10
96.22809660510012
 20
269.9096009748432
 30
22.23540013325845
 10
96.27399387406477
 20
269.8954336372686
 30
22.11747880798633
 10
96.29690764560002
 20
269.8883607298
 30
22.0586077168
 11
96.1591536915
 21
269.9292722405
 31
22.4125313638
 11
96.2281560098
 21
269.9093153071
 31
22.235247508
 11
96.29690764560002
 21
269.8883607298
 31
22.0586077168
  0
SPLINE
  5
A14
330
1B
100
AcDbEntity
  8
0
  6
Continuous
100
AcDbSpline
210
0.6921657268057376
220
5.442497290000000E-8
230
0.7217385999345487
 70
     8
 71
     3
 72
     9
 73
     5
 74
     3
 42
0.0000000001
 43
0.0000000001
 44
0.0000000001
 40
0.0
 40
0.0
 40
0.0
 40
0.0
 40
0.2477808262040171
 40
0.4993233130068507
 40
0.4993233130068507
 40
0.4993233130068507
 40
0.4993233130068507
 10
96.29690764560002
 20
269.8883607298
 30
22.0586077168
 10
96.3548307844045
 20
269.8688429098982
 30
22.0030579507062
 10
96.47155641653151
 20
269.8295109622033
 30
21.89111509512838
 10
96.58797147317966
 20
269.7884498675506
 30
21.77947008948702
 10
96.64661750889999
 20
269.767764653
 30
21.7232270469
 11
96.29690764560002
 21
269.8883607298
 31
22.0586077168
 11
96.4706005836
 21
269.8293814721
 31
21.8920317633
 11
96.64661750889999
 21
269.767764653
 31
21.7232270469
  0
SPLINE
  5
A15
330
1B
100
AcDbEntity
  8
0
  6
Continuous
100
AcDbSpline
210
0.3779373169624884
220
1.065731830000000E-7
230
0.9258311857175606
 70
     8
 71
     3
 72
     9
 73
     5
 74
     3
 42
0.0000000001
 43
0.0000000001
 44
0.0000000001
 40
0.0
 40
0.0
 40
0.0
 40
0.0
 40
0.2505054017400424
 40
0.3488147958889076
 40
0.3488147958889076
 40
0.3488147958889076
 40
0.3488147958889076
 10
96.64661750889999
 20
269.767764653
 30
21.7232270469
 10
96.71997018188237
 20
269.741394239118
 30
21.69328345671177
 10
96.82210968656582
 20
269.7046749090283
 30
21.65158867796793
 10
96.92399686298586
 20
269.6671480638465
 30
21.60999690326455
 10
96.95271257890001
 20
269.6565715589
 30
21.5982747452
 11
96.64661750889999
 21
269.767764653
 31
21.7232270469
 11
96.86654538800001
 21
269.6882369305
 31
21.6334494013
 11
96.95271257890001
 21
269.6565715589
 31
21.5982747452
  0
SPLINE
  5
A16
330
1B
100
AcDbEntity
  8
0
  6
Continuous
100
AcDbSpline
210
0.9961948714141981
220
2.268691738000000E-7
230
0.0871537616399773
 70
     8
 71
     3
 72
     9
 73
     5
 74
     3
 42
0.0000000001
 43
0.0000000001
 44
0.0000000001
 40
0.0
 40
0.0
 40
0.0
 40
0.0
 40
0.0541020103791143
 40
0.272926015864476
 40
0.272926015864476
 40
0.272926015864476
 40
0.272926015864476
 10
97.5118642634
 20
269.4448694062
 30
21.5982747452
 10
97.51029340783938
 20
269.4454718463566
 30
21.61623011611123
 10
97.50236898235764
 20
269.4485109495354
 30
21.70680878059765
 10
97.49444306003994
 20
269.4509957560474
 30
21.79740455583273
 10
97.48808828999999
 20
269.4529880004
 30
21.8700415683
 11
97.5118642634
 21
269.4448694062
 31
21.5982747452
 11
97.5071516379
 21
269.4466549456
 31
21.6521415303
 11
97.48808828999999
 21
269.4529880004
 31
21.8700415683
  0
SPLINE
  5
A17
330
1B
100
AcDbEntity
  8
0
  6
Continuous
100
AcDbSpline
210
0.2405164429242689
220
-7.887745100000001E-9
230
0.9706450642140293
 70
     8
 71
     3
 72
     9
 73
     5
 74
     3
 42
0.0000000001
 43
0.0000000001
 44
0.0000000001
 40
0.0
 40
0.0
 40
0.0
 40
0.0
 40
0.2409445216161743
 40
0.4790770559839563
 40
0.4790770559839563
 40
0.4790770559839563
 40
0.4790770559839563
 10
97.48808828999999
 20
269.4529880004
 30
21.8700415683
 10
97.41502483280722
 20
269.4809973844794
 30
21.88814598535271
 10
97.26975061890465
 20
269.5366892639822
 30
21.9241435285371
 10
97.12394178968248
 20
269.5908778979998
 30
21.96027354420589
 10
97.05146529430002
 20
269.6178131824
 30
21.9782325178
 11
97.48808828999999
 21
269.4529880004
 31
21.8700415683
 11
97.26876269100001
 21
269.5366359166
 31
21.9243883275
 11
97.05146529430002
 21
269.6178131824
 31
21.9782325178
  0
SPLINE
  5
A18
330
1B
100
AcDbEntity
  8
0
  6
Continuous
100
AcDbSpline
210
0.653346053724712
220
2.831492740000000E-8
230
0.7570593993091594
 70
     8
 71
     3
 72
     9
 73
     5
 74
     3
 42
0.0000000001
 43
0.0000000001
 44
0.0000000001
 40
0.0
 40
0.0
 40
0.0
 40
0.0
 40
0.1588906658539131
 40
0.3160690647703016
 40
0.3160690647703016
 40
0.3160690647703016
 40
0.3160690647703016
 10
97.05146529430002
 20
269.6178131824
 30
21.9782325178
 10
97.01278831766643
 20
269.6317820220465
 30
22.01161094184581
 10
96.93585116237787
 20
269.6595691677501
 30
22.07800809119988
 10
96.85877322931745
 20
269.6866670356861
 30
22.14452673250192
 10
96.8204430431
 20
269.7001425699
 30
22.1776058747
 11
97.05146529430002
 21
269.6178131824
 31
21.9782325178
 11
96.93539878759999
 21
269.6595455098
 31
22.0783984929
 11
96.8204430431
 21
269.7001425699
 31
22.1776058747
  0
SPLINE
  5
A19
330
1B
100
AcDbEntity
  8
0
  6
Continuous
100
AcDbSpline
210
0.906020213276885
220
-2.353132050000000E-8
230
0.4232344186543759
 70
     8
 71
     3
 72
     9
 73
     5
 74
     3
 42
0.0000000001
 43
0.0000000001
 44
0.0000000001
 40
0.0
 40
0.0
 40
0.0
 40
0.0
 40
0.1565420708001376
 40
0.313245749400227
 40
0.313245749400227
 40
0.313245749400227
 40
0.313245749400227
 10
96.8204430431
 20
269.7001425699
 30
22.1776058747
 10
96.79856472142188
 20
269.7072601678121
 30
22.22444091685813
 10
96.75478549175757
 20
269.7215027115609
 30
22.31815935180681
 10
96.7109658181104
 20
269.7350331133467
 30
22.41196436536909
 10
96.6890446777
 20
269.7418018045
 30
22.4588910698
 11
96.8204430431
 21
269.7001425699
 31
22.1776058747
 11
96.7547979775
 21
269.7213175118
 31
22.3181326235
 11
96.6890446777
 21
269.7418018045
 31
22.4588910698
  0
SPLINE
  5
A1A
330
1B
100
AcDbEntity
  8
0
  6
Continuous
100
AcDbSpline
210
-0.9961946607058058
220
7.041342930000000E-8
230
-0.0871561700698212
 70
     8
 71
     3
 72
     9
 73
     5
 74
     3
 42
0.0000000001
 43
0.0000000001
 44
0.0000000001
 40
0.0
 40
0.0
 40
0.0
 40
0.0
 40
0.2187437341575789
 40
0.437502019790451
 40
0.437502019790451
 40
0.437502019790451
 40
0.437502019790451
 10
96.6890446777
 20
269.7418018045
 30
22.4588910698
 10
96.68268974458826
 20
269.7421282152016
 30
22.53152792904924
 10
96.66997945561593
 20
269.7427810583185
 30
22.6768064795648
 10
96.65726921198774
 20
269.7420205970039
 30
22.822084510655
 10
96.6509138788
 20
269.7416403537
 30
22.8947259422
 11
96.6890446777
 21
269.7418018045
 31
22.4588910698
 11
96.66997988970002
 21
269.742427734
 31
22.6768015177
 11
96.6509138788
 21
269.7416403537
 31
22.8947259422
  0
SPLINE
  5
A1B
330
1B
100
AcDbEntity
  8
0
  6
Continuous
100
AcDbSpline
210
-0.9657492668780227
220
-1.606227574000000E-7
230
0.259477077069509
 70
     8
 71
     3
 72
     9
 73
     5
 74
     3
 42
0.0000000001
 43
0.0000000001
 44
0.0000000001
 40
0.0
 40
0.0
 40
0.0
 40
0.0
 40
0.1565923550029304
 40
0.3132748930723595
 40
0.3132748930723595
 40
0.3132748930723595
 40
0.3132748930723595
 10
96.6509138788
 20
269.7416403537
 30
22.8947259422
 10
96.66434257145309
 20
269.7348411577576
 30
22.94470626855173
 10
96.69120769047444
 20
269.7212388501494
 30
23.04469570541322
 10
96.71804788571137
 20
269.7069243930936
 30
23.14459237785315
 10
96.73147184660002
 20
269.6997651042
 30
23.1945550928
 11
96.6509138788
 21
269.7416403537
 31
22.8947259422
 11
96.6911937294
 21
269.721064831
 31
23.0446437435
 11
96.73147184660002
 21
269.6997651042
 31
23.1945550928
  0
SPLINE
  5
A1C
330
1B
100
AcDbEntity
  8
0
  6
Continuous
100
AcDbSpline
210
-0.7748836357697573
220
-3.737074550000000E-8
230
0.6321039084013334
 70
     8
 71
     3
 72
     9
 73
     5
 74
     3
 42
0.0000000001
 43
0.0000000001
 44
0.0000000001
 40
0.0
 40
0.0
 40
0.0
 40
0.0
 40
0.1573441663526865
 40
0.3161108025192123
 40
0.3161108025192123
 40
0.3161108025192123
 40
0.3161108025192123
 10
96.73147184660002
 20
269.6997651042
 30
23.1945550928
 10
96.76350499066498
 20
269.6862500973427
 30
23.23382388753963
 10
96.82786087440894
 20
269.6590979012191
 30
23.31271648652727
 10
96.89209898179257
 20
269.6312564215137
 30
23.39146470577153
 10
96.92436256829998
 20
269.6172730396
 30
23.4310159953
 11
96.73147184660002
 21
269.6997651042
 31
23.1945550928
 11
96.82754209910002
 21
269.6590493101
 31
23.3123257062
 11
96.92436256829998
 21
269.6172730396
 31
23.4310159953
  0
SPLINE
  5
A1D
330
1B
100
AcDbEntity
  8
0
  6
Continuous
100
AcDbSpline
210
-0.4933019623801249
220
-2.050034820000000E-8
230
0.869858134359803
 70
     8
 71
     3
 72
     9
 73
     5
 74
     3
 42
0.0000000001
 43
0.0000000001
 44
0.0000000001
 40
0.0
 40
0.0
 40
0.0
 40
0.0
 40
0.1850219027689297
 40
0.3721583134798138
 40
0.3721583134798138
 40
0.3721583134798138
 40
0.3721583134798138
 10
96.92436256829998
 20
269.6172730396
 30
23.4310159953
 10
96.9750142399339
 20
269.5969506409605
 30
23.45974087308321
 10
97.07689645175907
 20
269.5560735907823
 30
23.51751890860618
 10
97.17849765460751
 20
269.5142823773075
 30
23.57513758216778
 10
97.229586892
 20
269.4932680471
 30
23.6041106062
 11
96.92436256829998
 21
269.6172730396
 31
23.4310159953
 11
97.076248127
 21
269.5560798925
 31
23.5171512396
 11
97.229586892
 21
269.4932680471
 31
23.6041106062
  0
SPLINE
  5
A1E
330
1B
100
AcDbEntity
  8
0
  6
Continuous
100
AcDbSpline
210
-0.3068511613860339
220
2.780974590000000E-8
230
0.9517575136325646
 70
     8
 71
     3
 72
     9
 73
     5
 74
     3
 42
0.0000000001
 43
0.0000000001
 44
0.0000000001
 40
0.0
 40
0.0
 40
0.0
 40
0.0
 40
0.1748158459621681
 40
0.3507740797658048
 40
0.3507740797658048
 40
0.3507740797658048
 40
0.3507740797658048
 10
97.229586892
 20
269.4932680471
 30
23.6041106062
 10
97.28142070007252
 20
269.4725405687406
 30
23.62082207372688
 10
97.38542704015757
 20
269.4309501619479
 30
23.65435421499826
 10
97.48914088087284
 20
269.3885610567976
 30
23.68779205310123
 10
97.5411666869
 20
269.3672974786
 30
23.7045654217
 11
97.229586892
 21
269.4932680471
 31
23.6041106062
 11
97.3850156669
 21
269.4308872359
 31
23.6542215863
 11
97.5411666869
 21
269.3672974786
 31
23.7045654217
  0
SPLINE
  5
A1F
330
1B
100
AcDbEntity
  8
0
  6
Continuous
100
AcDbSpline
210
-0.0871566181380052
220
-1.012338258000000E-7
230
0.9961946215046214
 70
     8
 71
     3
 72
     9
 73
     5
 74
     3
 42
0.0000000001
 43
0.0000000001
 44
0.0000000001
 40
0.0
 40
0.0
 40
0.0
 40
0.0
 40
0.1144840054425577
 40
0.2289663645435073
 40
0.2289663645435073
 40
0.2289663645435073
 40
0.2289663645435073
 10
97.5411666869
 20
269.3672974786
 30
23.7045654217
 10
97.57652650754113
 20
269.3532830308186
 30
23.70765903503597
 10
97.64724564033017
 20
269.3252543367911
 30
23.71384621722009
 10
97.71783072935321
 20
269.2968872146075
 30
23.7200216719412
 10
97.75312302010001
 20
269.2827037555
 30
23.7231093771
 11
97.5411666869
 21
269.3672974786
 31
23.7045654217
 11
97.6472126374
 21
269.325169527
 31
23.7138433298
 11
97.75312302010001
 21
269.2827037555
 31
23.7231093771
  0
SPLINE
  5
A20
330
1B
100
AcDbEntity
  8
0
  6
Continuous
100
AcDbSpline
210
0.1369183075210253
220
-9.909700870000000E-8
230
0.9905823423954053
 70
     8
 71
     3
 72
     9
 73
     5
 74
     3
 42
0.0000000001
 43
0.0000000001
 44
0.0000000001
 40
0.0
 40
0.0
 40
0.0
 40
0.0
 40
0.1749471659290977
 40
0.3514420662665787
 40
0.3514420662665787
 40
0.3514420662665787
 40
0.3514420662665787
 10
97.75312302010001
 20
269.2827037555
 30
23.7231093771
 10
97.80701073179807
 20
269.2616945826822
 30
23.71566101460851
 10
97.91526289264314
 20
269.219490371677
 30
23.70069839494898
 10
98.02320419553271
 20
269.1764823965954
 30
23.68577874200072
 10
98.0774125312
 20
269.1548837065
 30
23.6782860628
 11
97.75312302010001
 21
269.2827037555
 31
23.7231093771
 11
97.91470912370002
 21
269.219477062
 31
23.7007749369
 11
98.0774125312
 21
269.1548837065
 31
23.6782860628
  0
SPLINE
  5
A21
330
1B
100
AcDbEntity
  8
0
  6
Continuous
100
AcDbSpline
210
0.3347571734231545
220
9.829200200000000E-8
230
0.9423044279009467
 70
     8
 71
     3
 72
     9
 73
     5
 74
     3
 42
0.0000000001
 43
0.0000000001
 44
0.0000000001
 40
0.0
 40
0.0
 40
0.0
 40
0.0
 40
0.1859102050896062
 40
0.3741409517708698
 40
0.3741409517708698
 40
0.3741409517708698
 40
0.3741409517708698
 10
98.0774125312
 20
269.1548837065
 30
23.6782860628
 10
98.13225864537731
 20
269.133609566772
 30
23.65880177776374
 10
98.24263546600068
 20
269.0907957423123
 30
23.6195900037542
 10
98.3526890974847
 20
269.0470549458972
 30
23.58049304399221
 10
98.40805720710002
 20
269.0250489005
 30
23.5608233182
 11
98.0774125312
 21
269.1548837065
 31
23.6782860628
 11
98.2418710756
 21
269.0908324101
 31
23.6198615563
 11
98.40805720710002
 21
269.0250489005
 31
23.5608233182
  0
SPLINE
  5
A22
330
1B
100
AcDbEntity
  8
0
  6
Continuous
100
AcDbSpline
210
0.6533483783083565
220
-2.398746850000000E-8
230
0.7570573931756037
 70
     8
 71
     3
 72
     9
 73
     5
 74
     3
 42
0.0000000001
 43
0.0000000001
 44
0.0000000001
 40
0.0
 40
0.0
 40
0.0
 40
0.0
 40
0.1578979094303623
 40
0.3172527601485083
 40
0.3172527601485083
 40
0.3172527601485083
 40
0.3172527601485083
 10
98.40805720710002
 20
269.0250489005
 30
23.5608233182
 10
98.44642170413266
 20
269.0108300779912
 30
23.52771435910662
 10
98.52350469161004
 20
268.9822612343423
 30
23.46119094093147
 10
98.60043628295492
 20
268.9529890084544
 30
23.39479817916587
 10
98.6390787277
 20
268.9382856811
 30
23.3614493483
 11
98.40805720710002
 21
269.0250489005
 31
23.5608233182
 11
98.523113196
 21
268.9822181988
 31
23.4615288057
 11
98.6390787277
 21
268.9382856811
 31
23.3614493483
  0
SPLINE
  5
A23
330
1B
100
AcDbEntity
  8
0
  6
Continuous
100
AcDbSpline
210
0.9060202126672337
220
-3.339585230000000E-8
230
0.423234419959459
 70
     8
 71
     3
 72
     9
 73
     5
 74
     3
 42
0.0000000001
 43
0.0000000001
 44
0.0000000001
 40
0.0
 40
0.0
 40
0.0
 40
0.0
 40
0.1565789886090631
 40
0.3133919776026424
 40
0.3133919776026424
 40
0.3133919776026424
 40
0.3133919776026424
 10
98.6390787277
 20
268.9382856811
 30
23.3614493483
 10
98.66097272481554
 20
268.9313491842976
 30
23.31458074967257
 10
98.70479343865853
 20
268.9174658244048
 30
23.2207735093666
 10
98.74857164566171
 20
268.9028529879903
 30
23.12705726362493
 10
98.7704770931
 20
268.8955411143
 30
23.0801641532
 11
98.6390787277
 21
268.9382856811
 31
23.3614493483
 11
98.70475010820002
 21
268.9172940938
 31
23.2208662671
 11
98.7704770931
 21
268.8955411143
 31
23.0801641532
  0
SPLINE
  5
A24
330
1B
100
AcDbEntity
  8
0
  6
Continuous
100
AcDbSpline
210
-0.9961946062182651
220
-2.824200300000000E-8
230
-0.0871567928599665
 70
     8
 71
     3
 72
     9
 73
     5
 74
     3
 42
0.0000000001
 43
0.0000000001
 44
0.0000000001
 40
0.0
 40
0.0
 40
0.0
 40
0.0
 40
0.2187607045950984
 40
0.4375025304325568
 40
0.4375025304325568
 40
0.4375025304325568
 40
0.4375025304325568
 10
98.7704770931
 20
268.8955411143
 30
23.0801641532
 10
98.77683253961608
 20
268.8959310852886
 30
23.00752194892992
 10
98.78954288418171
 20
268.8967109936119
 30
22.86224380931532
 10
98.80225327655009
 20
268.8960413719723
 30
22.71696512378874
 10
98.8086081985
 20
268.8957065756
 30
22.6443289155
 11
98.7704770931
 21
268.8955411143
 31
23.0801641532
 11
98.7895434446
 21
268.8963486135
 31
22.8622374039
 11
98.8086081985
 21
268.8957065756
 31
22.6443289155
  0
SPLINE
  5
A25
330
1B
100
AcDbEntity
  8
0
  6
Continuous
100
AcDbSpline
210
-0.965748934633061
220
2.915632000000000E-10
230
0.2594783136508866
 70
     8
 71
     3
 72
     9
 73
     5
 74
     3
 42
0.0000000001
 43
0.0000000001
 44
0.0000000001
 40
0.0
 40
0.0
 40
0.0
 40
0.0
 40
0.1568366222564721
 40
0.3134222310552415
 40
0.3134222310552415
 40
0.3134222310552415
 40
0.3134222310552415
 10
98.8086081985
 20
268.8957065756
 30
22.6443289155
 10
98.79517761868053
 20
268.9030556580705
 30
22.59434181649423
 10
98.76833795438
 20
268.9177420609716
 30
22.49444762170121
 10
98.74147209548761
 20
268.9316989931311
 30
22.39445593360076
 10
98.72804992419999
 20
268.9386718703
 30
22.3445001302
 11
98.8086081985
 21
268.8957065756
 31
22.6443289155
 11
98.7683098999
 21
268.9175711631
 31
22.4943432061
 11
98.72804992419999
 21
268.9386718703
 31
22.3445001302
  0
SPLINE
  5
A26
330
1B
100
AcDbEntity
  8
0
  6
Continuous
100
AcDbSpline
210
-0.7363792985378979
220
1.501206950000000E-8
230
0.6765689386048059
 70
     8
 71
     3
 72
     9
 73
     5
 74
     3
 42
0.0000000001
 43
0.0000000001
 44
0.0000000001
 40
0.0
 40
0.0
 40
0.0
 40
0.0
 40
0.2275535494987777
 40
0.4515129685603311
 40
0.4515129685603311
 40
0.4515129685603311
 40
0.4515129685603311
 10
98.72804992419999
 20
268.9386718703
 30
22.3445001302
 10
98.67898179575343
 20
268.9608892258927
 30
22.29109425789661
 10
98.58162055315626
 20
269.0049730215502
 30
22.18512604076544
 10
98.48397198643495
 20
269.0476458325226
 30
22.07884509938147
 10
98.4355363538
 20
269.0688123961
 30
22.0261276371
 11
98.72804992419999
 21
268.9386718703
 31
22.3445001302
 11
98.58077255969999
 21
269.0049655527
 31
22.1842030826
 11
98.4355363538
 21
269.0688123961
 31
22.0261276371
  0
SPLINE
  5
A27
330
1B
100
AcDbEntity
  8
0
  6
Continuous
100
AcDbSpline
210
-0.2588184500396755
220
-6.540805000000000E-10
230
-0.9659259857354808
 70
     8
 71
     3
 72
     9
 73
     5
 74
     3
 42
0.0000000001
 43
0.0000000001
 44
0.0000000001
 40
0.0
 40
0.0
 40
0.0
 40
0.0
 40
0.6197306061764305
 40
1.239653768953263
 40
1.239653768953263
 40
1.239653768953263
 40
1.239653768953263
 10
88.82724087699999
 20
269.1132816717
 30
34.750409343
 10
88.6277284534054
 20
269.1172263930371
 30
34.80386840404443
 10
88.22864161567767
 20
269.1251170613762
 30
34.91080313640708
 10
87.82949771695985
 20
269.1214494252245
 30
35.01775315818612
 10
87.6298947679
 20
269.1196153223
 30
35.0712364754
 11
88.82724087699999
 21
269.1132816717
 31
34.750409343
 11
88.2286893454
 21
269.1222271572
 31
34.9107903473
 11
87.6298947679
 21
269.1196153223
 31
35.0712364754
  0
SPLINE
  5
A28
330
1B
100
AcDbEntity
  8
0
  6
Continuous
100
AcDbSpline
210
0.9659258542657045
220
-2.977488000000000E-10
230
-0.25881894069227
 70
     8
 71
     3
 72
     9
 73
     5
 74
     3
 42
0.0000000001
 43
0.0000000001
 44
0.0000000001
 40
0.0
 40
0.0
 40
0.0
 40
0.0
 40
1.109796472104943
 40
2.219005256372972
 40
2.219005256372972
 40
2.219005256372972
 40
2.219005256372972
 10
87.6298947679
 20
269.1196153223
 30
35.0712364754
 10
87.71802135448726
 20
268.9748620384654
 30
35.40012951641254
 10
87.89422786061576
 20
268.6854321242604
 30
36.05774143457543
 10
88.0667842233824
 20
268.3648487426069
 30
36.70173082640265
 10
88.15303955460001
 20
268.2045995039
 30
37.0236402443
 11
87.6298947679
 21
269.1196153223
 31
35.0712364754
 11
87.89336150840001
 21
268.677562978
 31
36.0545081627
 11
88.15303955460001
 21
268.2045995039
 31
37.0236402443
  0
SPLINE
  5
A29
330
1B
100
AcDbEntity
  8
0
  6
Continuous
100
AcDbSpline
210
0.9587232461553558
220
-5.385105000000000E-10
230
0.2843408821842847
 70
     8
 71
     3
 72
     9
 73
     5
 74
     3
 42
0.0000000001
 43
0.0000000001
 44
0.0000000001
 40
0.0
 40
0.0
 40
0.0
 40
0.0
 40
1.317313382698551
 40
2.539672084772824
 40
2.539672084772824
 40
2.539672084772824
 40
2.539672084772824
 10
88.15303955460001
 20
268.2045995039
 30
37.0236402443
 10
88.26841333706777
 20
268.3726915501882
 30
36.6346299609089
 10
88.49084452048727
 20
268.696759219459
 30
35.88465006212878
 10
88.71793900335051
 20
268.9779452342933
 30
35.11894673459216
 10
88.82724087699999
 20
269.1132816717
 30
34.750409343
 11
88.15303955460001
 21
268.2045995039
 31
37.0236402443
 11
88.50041553360001
 21
268.6973386014
 31
35.8523791038
 11
88.82724087699999
 21
269.1132816717
 31
34.750409343
  0
SPLINE
  5
A2A
330
1B
100
AcDbEntity
  8
0
  6
Continuous
100
AcDbSpline
210
-0.2588183386381327
220
2.892715900000000E-9
230
-0.9659260155853537
 70
     8
 71
     3
 72
     9
 73
     5
 74
     3
 42
0.0000000001
 43
0.0000000001
 44
0.0000000001
 40
0.0
 40
0.0
 40
0.0
 40
0.0
 40
0.2188790144218596
 40
0.4375994373515447
 40
0.4375994373515447
 40
0.4375994373515447
 40
0.4375994373515447
 10
88.37331180300001
 20
267.7731793655
 30
37.8457047089
 10
88.30284646501811
 20
267.7720247505674
 30
37.86458578406564
 10
88.16196684558491
 20
267.7697163572927
 30
37.9023342538808
 10
88.02111763229129
 20
267.7659071944015
 30
37.94007457641474
 10
87.95071854840001
 20
267.7640033032
 30
37.9589378989
 11
88.37331180300001
 21
267.7731793655
 31
37.8457047089
 11
88.16192339609999
 21
267.7693400563
 31
37.9023458961
 11
87.95071854840001
 21
267.7640033032
 31
37.9589378989
  0
SPLINE
  5
A2B
330
1B
100
AcDbEntity
  8
0
  6
Continuous
100
AcDbSpline
210
0.9659258311714284
220
1.708885800000000E-9
230
-0.2588190268813042
 70
     8
 71
     3
 72
     9
 73
     5
 74
     3
 42
0.0000000001
 43
0.0000000001
 44
0.0000000001
 40
0.0
 40
0.0
 40
0.0
 40
0.0
 40
1.586255854739687
 40
3.17318784488374
 40
3.17318784488374
 40
3.17318784488374
 40
3.17318784488374
 10
87.95071854840001
 20
267.7640033032
 30
37.9589378989
 10
87.82876335498727
 20
268.004253497961
 30
37.50379488807985
 10
87.58480098523376
 20
268.4848562931966
 30
36.59331486349689
 10
87.33315303112937
 20
268.9021296319916
 30
35.65415184504816
 10
87.2073022438
 20
269.1108107572
 30
35.1844702785
 11
87.95071854840001
 21
267.7640033032
 31
37.9589378989
 11
87.5829323908
 21
268.4689282697
 31
36.5863411735
 11
87.2073022438
 21
269.1108107572
 31
35.1844702785
  0
SPLINE
  5
A2C
330
1B
100
AcDbEntity
  8
0
  6
Continuous
100
AcDbSpline
210
-0.2588184059068677
220
-3.794103880000000E-8
230
-0.9659259975607998
 70
     8
 71
     3
 72
     9
 73
     5
 74
     3
 42
0.0000000001
 43
0.0000000001
 44
0.0000000001
 40
0.0
 40
0.0
 40
0.0
 40
0.0
 40
0.3647635761991219
 40
0.7296950947135296
 40
0.7296950947135296
 40
0.7296950947135296
 40
0.7296950947135296
 10
87.2073022438
 20
269.1108107572
 30
35.1844702785
 10
87.08990607861695
 20
269.1072307427756
 30
35.21592640303211
 10
86.85505969739418
 20
269.1000690656378
 30
35.27885313494149
 10
86.62035903863742
 20
269.0889054216653
 30
35.34174082089432
 10
86.5029817006
 20
269.083322315
 30
35.3731919008
 11
87.2073022438
 21
269.1108107572
 31
35.1844702785
 11
86.8551501621
 21
269.0990706827
 31
35.2788288951
 11
86.5029817006
 21
269.083322315
 31
35.3731919008
  0
SPLINE
  5
A2D
330
1B
100
AcDbEntity
  8
0
  6
Continuous
100
AcDbSpline
210
0.9659256721556255
220
-4.748268300000000E-9
230
-0.2588196203356752
 70
     8
 71
     3
 72
     9
 73
     5
 74
     3
 42
0.0000000001
 43
0.0000000001
 44
0.0000000001
 40
0.0
 40
0.0
 40
0.0
 40
0.0
 40
0.3444364679245848
 40
0.6887416845104953
 40
0.6887416845104953
 40
0.6887416845104953
 40
0.6887416845104953
 10
86.5029817006
 20
269.083322315
 30
35.3731919008
 10
86.47552265049768
 20
269.127213111898
 30
35.27071357399911
 10
86.42061501386885
 20
269.2149779806186
 30
35.06579597090108
 10
86.36538678866651
 20
269.2996868018375
 30
34.85968191786455
 10
86.3377779384
 20
269.3420331411
 30
34.7566445306
 11
86.5029817006
 21
269.083322315
 31
35.3731919008
 11
86.4205243726
 21
269.2142304026
 31
35.0654576939
 11
86.3377779384
 21
269.3420331411
 31
34.7566445306
  0
SPLINE
  5
A2E
330
1B
100
AcDbEntity
  8
0
  6
Continuous
100
AcDbSpline
210
-0.2588191325850324
220
1.718133640000000E-8
230
-0.9659258028481955
 70
     8
 71
     3
 72
     9
 73
     5
 74
     3
 42
0.0000000001
 43
0.0000000001
 44
0.0000000001
 40
0.0
 40
0.0
 40
0.0
 40
0.0
 40
0.3647885591286778
 40
0.7296877458034511
 40
0.7296877458034511
 40
0.7296877458034511
 40
0.7296877458034511
 10
86.3377779384
 20
269.3420331411
 30
34.7566445306
 10
86.45511113221946
 20
269.3475711686358
 30
34.72520518477954
 10
86.68981310289135
 20
269.3586489031966
 30
34.66231695869028
 10
86.92465856243472
 20
269.3657555805191
 30
34.59939028478922
 10
87.04209909460001
 20
269.3693094579
 30
34.5679221777
 11
86.3377779384
 21
269.3420331411
 31
34.7566445306
 11
86.6898133812
 21
269.3576547604
 31
34.6623168841
 11
87.04209909460001
 21
269.3693094579
 31
34.5679221777
  0
SPLINE
  5
A2F
330
1B
100
AcDbEntity
  8
0
  6
Continuous
100
AcDbSpline
210
0.9659257451281352
220
1.864927800000000E-9
230
-0.258819347999057
 70
     8
 71
     3
 72
     9
 73
     5
 74
     3
 42
0.0000000001
 43
0.0000000001
 44
0.0000000001
 40
0.0
 40
0.0
 40
0.0
 40
0.0
 40
0.7934523038498724
 40
1.587427997851714
 40
1.587427997851714
 40
1.587427997851714
 40
1.587427997851714
 10
87.04209909460001
 20
269.3693094579
 30
34.5679221777
 10
86.97826597836297
 20
269.4648874774877
 30
34.32969404420245
 10
86.8505576392314
 20
269.6561065634194
 30
33.85308063321975
 10
86.7212822693846
 20
269.8309012391158
 30
33.3706189912083
 10
86.65662327280001
 20
269.9183273927
 30
33.1293086341
 11
87.04209909460001
 21
269.3693094579
 31
34.5679221777
 11
86.8502082465
 21
269.6519401213
 31
33.8517766834
 11
86.65662327280001
 21
269.9183273927
 31
33.1293086341
  0
SPLINE
  5
A30
330
1B
100
AcDbEntity
  8
0
  6
Continuous
100
AcDbSpline
210
-0.258818339646754
220
5.924583860000000E-8
230
-0.9659260153150935
 70
     8
 71
     3
 72
     9
 73
     5
 74
     3
 42
0.0000000001
 43
0.0000000001
 44
0.0000000001
 40
0.0
 40
0.0
 40
0.0
 40
0.0
 40
0.2187933697961801
 40
0.4375873314230137
 40
0.4375873314230137
 40
0.4375873314230137
 40
0.4375873314230137
 10
86.65662327280001
 20
269.9183273927
 30
33.1293086341
 10
86.72704871712695
 20
269.9201114113353
 30
33.11043824840286
 10
86.86789979627991
 20
269.9236794534314
 30
33.07269742596466
 10
87.0087775535816
 20
269.9258416961023
 30
33.03494945507276
 10
87.0792165275
 20
269.9269228189
 30
33.0160754441
 11
86.65662327280001
 21
269.9183273927
 31
33.1293086341
 11
86.86790627529999
 21
269.9233279997
 31
33.0726956899
 11
87.0792165275
 21
269.9269228189
 31
33.0160754441
  0
SPLINE
  5
A31
330
1B
100
AcDbEntity
  8
0
  6
Continuous
100
AcDbSpline
210
0.9659258398783048
220
-1.615627000000000E-9
230
-0.2588189943867942
 70
     8
 71
     3
 72
     9
 73
     5
 74
     3
 42
0.0000000001
 43
0.0000000001
 44
0.0000000001
 40
0.0
 40
0.0
 40
0.0
 40
0.0
 40
0.7939566360797057
 40
1.587378389496332
 40
1.587378389496332
 40
1.587378389496332
 40
1.587378389496332
 10
87.0792165275
 20
269.9269228189
 30
33.0160754441
 10
87.14387566804705
 20
269.8395185004081
 30
33.25738669302097
 10
87.27315038876051
 20
269.6647687470618
 30
33.73984662127462
 10
87.40085888619564
 20
269.4735988149616
 30
34.2164613235523
 10
87.4646916186
 20
269.3780460572
 30
34.4546883747
 11
87.0792165275
 21
269.9269228189
 31
33.0160754441
 11
87.27280212940001
 21
269.6606020518
 31
33.7385468994
 11
87.4646916186
 21
269.3780460572
 31
34.4546883747
  0
SPLINE
  5
A32
330
1B
100
AcDbEntity
  8
0
  6
Continuous
100
AcDbSpline
210
-0.2588191792826429
220
-4.290009900000000E-9
230
-0.9659257903356028
 70
     8
 71
     3
 72
     9
 73
     5
 74
     3
 42
0.0000000001
 43
0.0000000001
 44
0.0000000001
 40
0.0
 40
0.0
 40
0.0
 40
0.0
 40
0.874977648215172
 40
1.750290079855766
 40
1.750290079855766
 40
1.750290079855766
 40
1.750290079855766
 10
87.4646916186
 20
269.3780460572
 30
34.4546883747
 10
87.74643610293498
 20
269.3800594833542
 30
34.37919512569346
 10
88.31003287251139
 20
269.3840871060386
 30
34.22817974249854
 10
88.87334939246972
 20
269.3652523830049
 30
34.07723945210572
 10
89.15506152609999
 20
269.3558332202
 30
34.0017548715
 11
87.4646916186
 21
269.3780460572
 31
34.4546883747
 11
88.309855036
 21
269.3783729355
 31
34.2282273937
 11
89.15506152609999
 21
269.3558332202
 31
34.0017548715
  0
SPLINE
  5
A33
330
1B
100
AcDbEntity
  8
0
  6
Continuous
100
AcDbSpline
210
0.9659257719709755
220
4.177819230000000E-8
230
-0.258819247820314
 70
     8
 71
     3
 72
     9
 73
     5
 74
     3
 42
0.0000000001
 43
0.0000000001
 44
0.0000000001
 40
0.0
 40
0.0
 40
0.0
 40
0.0
 40
0.3442906970625692
 40
0.6887027482357234
 40
0.6887027482357234
 40
0.6887027482357234
 40
0.6887027482357234
 10
89.15506152609999
 20
269.3558332202
 30
34.0017548715
 10
89.18267072574847
 20
269.3135037738396
 30
34.10479371401301
 10
89.23789885661785
 20
269.2288299610166
 30
34.310907717729
 10
89.29280666442946
 20
269.1411013576644
 30
34.51582626002914
 10
89.32026540589999
 20
269.0972293268
 30
34.6183035852
 11
89.15506152609999
 21
269.3558332202
 31
34.0017548715
 11
89.2378090725
 21
269.2280814526
 31
34.310572639
 11
89.32026540589999
 21
269.0972293268
 31
34.6183035852
  0
SPLINE
  5
A34
330
1B
100
AcDbEntity
  8
0
  6
Continuous
100
AcDbSpline
210
0.9595489619379058
220
6.009729000000000E-10
230
0.2815418079857544
 70
     8
 71
     3
 72
     9
 73
     5
 74
     3
 42
0.0000000001
 43
0.0000000001
 44
0.0000000001
 40
0.0
 40
0.0
 40
0.0
 40
0.0
 40
1.707635737926956
 40
3.615885498602586
 40
3.615885498602586
 40
3.615885498602586
 40
3.615885498602586
 10
89.32026540589999
 20
269.0972293268
 30
34.6183035852
 10
89.16889025514077
 20
268.9096911327686
 30
35.13421939154545
 10
88.84835631436978
 20
268.5125826504552
 30
36.22666108811538
 10
88.53741053204708
 20
268.0285978292657
 30
37.28642448550276
 10
88.37331180300001
 20
267.7731793655
 30
37.8457047089
 11
89.32026540589999
 21
269.0972293268
 31
34.6183035852
 11
88.86827839
 21
268.5152388109
 31
36.1587627993
 11
88.37331180300001
 21
267.7731793655
 31
37.8457047089
  0
SPLINE
  5
A35
330
1B
100
AcDbEntity
  8
0
  6
Continuous
100
AcDbSpline
210
0.6427876074976493
220
-1.880574796700000E-6
230
-0.7660444449533667
 70
     8
 71
     3
 72
     9
 73
     5
 74
     3
 42
0.0000000001
 43
0.0000000001
 44
0.0000000001
 40
0.0
 40
0.0
 40
0.0
 40
0.0
 40
0.0302100624388196
 40
0.0604166988304259
 40
0.0604166988304259
 40
0.0604166988304259
 40
0.0604166988304259
 10
73.7511464893
 20
267.7763539712
 30
34.3912175297
 10
73.75886057366661
 20
267.7763515864492
 30
34.39769041501521
 10
73.77428786756494
 20
267.7763468172182
 30
34.41063545157198
 10
73.78971514066625
 20
267.7763134346417
 30
34.42358047074822
 10
73.79742833980001
 20
267.7762967443
 30
34.4300526133
 11
73.7511464893
 21
267.7763539712
 31
34.3912175297
 11
73.7742887372
 21
267.7763396628
 31
34.4106361813
 11
73.79742833980001
 21
267.7762967443
 31
34.4300526133
  0
SPLINE
  5
A36
330
1B
100
AcDbEntity
  8
0
  6
Continuous
100
AcDbSpline
210
-0.472959922777118
220
-2.564913130000000E-8
230
0.8810839412034827
 70
     8
 71
     3
 72
     9
 73
     5
 74
     3
 42
0.0000000001
 43
0.0000000001
 44
0.0000000001
 40
0.0
 40
0.0
 40
0.0
 40
0.0
 40
0.2619224018976535
 40
0.5238238149290729
 40
0.5238238149290729
 40
0.5238238149290729
 40
0.5238238149290729
 10
73.79742833980001
 20
267.7762967443
 30
34.4300526133
 10
73.8739500918572
 20
267.7852358032537
 30
34.47112897445076
 10
74.02698746398437
 20
267.8031132048393
 30
34.55327840514287
 10
74.18020632208115
 20
267.8188613688152
 30
34.6355252562186
 10
74.25681268149999
 20
267.8267351353
 30
34.676647034
 11
73.79742833980001
 21
267.7762967443
 31
34.4300526133
 11
74.0270389711
 21
267.8025815691
 31
34.5533060538
 11
74.25681268149999
 21
267.8267351353
 31
34.676647034
  0
SPLINE
  5
A37
330
1B
100
AcDbEntity
  8
0
  6
Continuous
100
AcDbSpline
210
-0.0678417248645366
220
1.759986670000000E-8
230
0.9976960961973361
 70
     8
 71
     3
 72
     9
 73
     5
 74
     3
 42
0.0000000001
 43
0.0000000001
 44
0.0000000001
 40
0.0
 40
0.0
 40
0.0
 40
0.0
 40
0.18820556418195
 40
0.3754608442421146
 40
0.3754608442421146
 40
0.3754608442421146
 40
0.3754608442421146
 10
74.25681268149999
 20
267.8267351353
 30
34.676647034
 10
74.31692398156693
 20
267.8442184780685
 30
34.68073450511293
 10
74.43684306881454
 20
267.8790968870283
 30
34.68888880895376
 10
74.55705234845739
 20
267.912956846243
 30
34.69706284542724
 10
74.61700486460001
 20
267.9298439764
 30
34.70113951950001
 11
74.25681268149999
 21
267.8267351353
 31
34.676647034
 11
74.4372194975
 21
267.8789292607
 31
34.6889144055
 11
74.61700486460001
 21
267.9298439764
 31
34.70113951950001
  0
SPLINE
  5
A38
330
1B
100
AcDbEntity
  8
0
  6
Continuous
100
AcDbSpline
210
0.2684598081585448
220
-5.069964710000000E-8
230
0.9632908861831273
 70
     8
 71
     3
 72
     9
 73
     5
 74
     3
 42
0.0000000001
 43
0.0000000001
 44
0.0000000001
 40
0.0
 40
0.0
 40
0.0
 40
0.0
 40
0.2798083085372655
 40
0.5550864361402647
 40
0.5550864361402647
 40
0.5550864361402647
 40
0.5550864361402647
 10
74.61700486460001
 20
267.9298439764
 30
34.70113951950001
 10
74.70030793928136
 20
267.9647866565477
 30
34.67792376401309
 10
74.86556538673221
 20
268.0341062843094
 30
34.63186812312487
 10
75.03161446670967
 20
268.1013562209482
 30
34.58559186183609
 10
75.11396142540001
 20
268.1347067686
 30
34.5626425665
 11
74.61700486460001
 21
267.9298439764
 31
34.70113951950001
 11
74.8671152403
 21
268.034146114
 31
34.631436194
 11
75.11396142540001
 21
268.1347067686
 31
34.5626425665
  0
SPLINE
  5
A39
330
1B
100
AcDbEntity
  8
0
  6
Continuous
100
AcDbSpline
210
0.6464779772814717
220
-8.002921419999999E-8
230
0.7629326476760912
 70
     8
 71
     3
 72
     9
 73
     5
 74
     3
 42
0.0000000001
 43
0.0000000001
 44
0.0000000001
 40
0.0
 40
0.0
 40
0.0
 40
0.0
 40
0.2400705912593439
 40
0.4776684155879303
 40
0.4776684155879303
 40
0.4776684155879303
 40
0.4776684155879303
 10
75.11396142540001
 20
268.1347067686
 30
34.5626425665
 10
75.16901250764367
 20
268.1693072621713
 30
34.51599453061454
 10
75.27854763684795
 20
268.2381518584881
 30
34.42317894135469
 10
75.38860293403577
 20
268.305556126568
 30
34.32992258283138
 10
75.4433457186
 20
268.3390837933
 30
34.2835357857
 11
75.11396142540001
 21
268.1347067686
 31
34.5626425665
 11
75.27924606400001
 21
268.2381444295
 31
34.4225871227
 11
75.4433457186
 21
268.3390837933
 31
34.2835357857
  0
SPLINE
  5
A3A
330
1B
100
AcDbEntity
  8
0
  6
Continuous
100
AcDbSpline
210
-0.642787609327284
220
1.682754220000000E-8
230
0.7660444434204291
 70
     8
 71
     3
 72
     9
 73
     5
 74
     3
 42
0.0000000001
 43
0.0000000001
 44
0.0000000001
 40
0.0
 40
0.0
 40
0.0
 40
0.0
 40
0.1823136525991662
 40
0.3647735489608301
 40
0.3647735489608301
 40
0.3647735489608301
 40
0.3647735489608301
 10
75.4433457186
 20
268.3390837933
 30
34.2835357857
 10
75.39682285215602
 20
268.3412946295987
 30
34.24449846561416
 10
75.30373980072977
 20
268.3457180756292
 30
34.16639251147075
 10
75.21063150799593
 20
268.3491178246046
 30
34.08826537737797
 10
75.16405869730001
 20
268.3508183806
 30
34.04918614910001
 11
75.4433457186
 21
268.3390837933
 31
34.2835357857
 11
75.303770814
 21
268.3454605831
 31
34.1664185347
 11
75.16405869730001
 21
268.3508183806
 31
34.04918614910001
  0
SPLINE
  5
A3B
330
1B
100
AcDbEntity
  8
0
  6
Continuous
100
AcDbSpline
210
0.4296008437643617
220
3.172363860000000E-8
230
0.903018889634623
 70
     8
 71
     3
 72
     9
 73
     5
 74
     3
 42
0.0000000001
 43
0.0000000001
 44
0.0000000001
 40
0.0
 40
0.0
 40
0.0
 40
0.0
 40
0.190005655361539
 40
0.3820146955221068
 40
0.3820146955221068
 40
0.3820146955221068
 40
0.3820146955221068
 10
75.16405869730001
 20
268.3508183806
 30
34.04918614910001
 10
75.11143365399538
 20
268.3260151146508
 30
34.07422190865404
 10
75.00562869857656
 20
268.2761470616632
 30
34.12455740022138
 10
74.90019308894679
 20
268.2253287223008
 30
34.17471717981385
 10
74.8471988182
 20
268.1997863003
 30
34.1999285951
 11
75.16405869730001
 21
268.3508183806
 31
34.04918614910001
 11
75.0062749379
 21
268.2761734964
 31
34.1242499593
 11
74.8471988182
 21
268.1997863003
 31
34.1999285951
  0
SPLINE
  5
A3C
330
1B
100
AcDbEntity
  8
0
  6
Continuous
100
AcDbSpline
210
0.073335603472839
220
1.633300135000000E-7
230
0.9973073193671286
 70
     8
 71
     3
 72
     9
 73
     5
 74
     3
 42
0.0000000001
 43
0.0000000001
 44
0.0000000001
 40
0.0
 40
0.0
 40
0.0
 40
0.0
 40
0.1601074863103059
 40
0.321469242633831
 40
0.321469242633831
 40
0.321469242633831
 40
0.321469242633831
 10
74.8471988182
 20
268.1997863003
 30
34.1999285951
 10
74.79661461913608
 20
268.1831823746011
 30
34.20364823638251
 10
74.69504994819496
 20
268.1498444492973
 30
34.21111665833774
 10
74.59372366662976
 20
268.1157849925958
 30
34.21856755078068
 10
74.5428628545
 20
268.0986888197
 30
34.2223075325
 11
74.8471988182
 21
268.1997863003
 31
34.1999285951
 11
74.69550535419999
 21
268.1497955452
 31
34.2110831707
 11
74.5428628545
 21
268.0986888197
 31
34.2223075325
  0
SPLINE
  5
A3D
330
1B
100
AcDbEntity
  8
0
  6
Continuous
100
AcDbSpline
210
-0.4024782260076114
220
-1.655632000000000E-9
230
0.9154295590539811
 70
     8
 71
     3
 72
     9
 73
     5
 74
     3
 42
0.0000000001
 43
0.0000000001
 44
0.0000000001
 40
0.0
 40
0.0
 40
0.0
 40
0.0
 40
0.1914668315759682
 40
0.3830246193918803
 40
0.3830246193918803
 40
0.3830246193918803
 40
0.3830246193918803
 10
74.5428628545
 20
268.0986888197
 30
34.2223075325
 10
74.4848983655471
 20
268.0906903446855
 30
34.19682283576095
 10
74.36894185163453
 20
268.0746895949841
 30
34.14584133578811
 10
74.25311948686168
 20
268.0575686330904
 30
34.09491881589231
 10
74.1951945524
 20
268.0490061193
 30
34.0694515097
 11
74.5428628545
 21
268.0986888197
 31
34.2223075325
 11
74.369002909
 21
268.0744134746
 31
34.1458681803
 11
74.1951945524
 21
268.0490061193
 31
34.0694515097
  0
SPLINE
  5
A3E
330
1B
100
AcDbEntity
  8
0
  6
Continuous
100
AcDbSpline
210
0.6427876096608626
220
-5.289920060000000E-8
230
-0.7660444431405218
 70
     8
 71
     3
 72
     9
 73
     5
 74
     3
 42
0.0000000001
 43
0.0000000001
 44
0.0000000001
 40
0.0
 40
0.0
 40
0.0
 40
0.0
 40
0.0666573924852556
 40
0.1333336982727106
 40
0.1333336982727106
 40
0.1333336982727106
 40
0.1333336982727106
 10
74.1951945524
 20
268.0490061193
 30
34.0694515097
 10
74.17817381124556
 20
268.0490867125088
 30
34.05516941207035
 10
74.14412749948852
 20
268.0492479217939
 30
34.02660116442288
 10
74.11008096832259
 20
268.0492709545756
 30
33.99803273267905
 10
74.093055288
 20
268.0492824726
 30
33.9837464906
 11
74.1951945524
 21
268.0490061193
 31
34.0694515097
 11
74.1441322741
 21
268.0492133646
 31
34.02660517080001
 11
74.093055288
 21
268.0492824726
 31
33.9837464906
  0
SPLINE
  5
A3F
330
1B
100
AcDbEntity
  8
0
  6
Continuous
100
AcDbSpline
210
0.6427876093115252
220
-2.796762550000000E-7
230
-0.7660444434336015
 70
     8
 71
     3
 72
     9
 73
     5
 74
     3
 42
0.0000000001
 43
0.0000000001
 44
0.0000000001
 40
0.0
 40
0.0
 40
0.0
 40
0.0
 40
0.0666871260298841
 40
0.1333336810958393
 40
0.1333336810958393
 40
0.1333336810958393
 40
0.1333336810958393
 10
75.18716172720001
 20
268.8498725009
 30
32.6798412109
 10
75.20419017002043
 20
268.8498612589349
 30
32.69412977098003
 10
75.23823669593548
 20
268.8498387818441
 30
32.72269819829803
 10
75.27228301293258
 20
268.8496814839938
 30
32.75126645036226
 10
75.2893009916
 20
268.849602859
 30
32.76554623
 11
75.18716172720001
 21
268.8498725009
 31
32.6798412109
 11
75.23824700340001
 21
268.8498050493
 31
32.7227068473
 11
75.2893009916
 21
268.849602859
 31
32.76554623
  0
SPLINE
  5
A40
330
1B
100
AcDbEntity
  8
0
  6
Continuous
100
AcDbSpline
210
0.7660444424574339
220
2.068433200000000E-9
230
0.6427876104749372
 70
     8
 71
     3
 72
     9
 73
     5
 74
     3
 42
0.0000000001
 43
0.0000000001
 44
0.0000000001
 40
0.0
 40
0.0
 40
0.0
 40
0.0
 40
0.2317112169187919
 40
0.4634041927794363
 40
0.4634041927794363
 40
0.4634041927794363
 40
0.4634041927794363
 10
75.2893009916
 20
268.849602859
 30
32.76554623
 10
75.33479571976943
 20
268.8805257617347
 30
32.71132772427382
 10
75.42578159461579
 20
268.9423691328527
 30
32.602894981078
 10
75.51714700234929
 20
269.0028430881664
 30
32.49400992820571
 10
75.562827908
 20
269.0330788756
 30
32.4395695448
 11
75.2893009916
 21
268.849602859
 31
32.76554623
 11
75.42588006680001
 21
268.9420291863
 31
32.6027776265
 11
75.562827908
 21
269.0330788756
 31
32.4395695448
  0
SPLINE
  5
A41
330
1B
100
AcDbEntity
  8
0
  6
Continuous
100
AcDbSpline
210
0.6427876111326878
220
9.010549252000000E-7
230
-0.7660444419049856
 70
     8
 71
     3
 72
     9
 73
     5
 74
     3
 42
0.0000000001
 43
0.0000000001
 44
0.0000000001
 40
0.0
 40
0.0
 40
0.0
 40
0.0
 40
0.0666452242735019
 40
0.1333336773334632
 40
0.1333336773334632
 40
0.1333336773334632
 40
0.1333336773334632
 10
75.562827908
 20
269.0330788756
 30
32.4395695448
 10
75.54581026806486
 20
269.033157064069
 30
32.42529004944413
 10
75.51176394986538
 20
269.0333134917233
 30
32.39672179647447
 10
75.47771742515383
 20
269.0333358448254
 30
32.36815337006286
 10
75.46068864359999
 20
269.033347025
 30
32.3538645257
 11
75.562827908
 21
269.0330788756
 31
32.4395695448
 11
75.51177493660001
 21
269.0332799441
 31
32.3967310154
 11
75.46068864359999
 21
269.033347025
 31
32.3538645257
  0
SPLINE
  5
A42
330
1B
100
AcDbEntity
  8
0
  6
Continuous
100
AcDbSpline
210
0.6427876098025874
220
1.747550620000000E-8
230
-0.7660444430216018
 70
     8
 71
     3
 72
     9
 73
     5
 74
     3
 42
0.0000000001
 43
0.0000000001
 44
0.0000000001
 40
0.0
 40
0.0
 40
0.0
 40
0.0
 40
0.1032234501377567
 40
0.2062511928833011
 40
0.2062511928833011
 40
0.2062511928833011
 40
0.2062511928833011
 10
76.6231769651
 20
269.7424301278
 30
30.9684648921
 10
76.64953491248348
 20
269.7424039029529
 30
30.99058183603427
 10
76.70220083367235
 20
269.74235150298
 30
31.03477379109186
 10
76.75486602165157
 20
269.7419850039389
 30
31.07896513090634
 10
76.7811736292
 20
269.7418019283
 30
31.1010398347
 11
76.6231769651
 21
269.7424301278
 31
30.9684648921
 11
76.70225062359999
 21
269.7422727794
 31
31.0348155698
 11
76.7811736292
 21
269.7418019283
 31
31.1010398347
  0
SPLINE
  5
A43
330
1B
100
AcDbEntity
  8
0
  6
Continuous
100
AcDbSpline
210
-0.8316338523664819
220
4.208278270000000E-8
230
0.5553243517063545
 70
     8
 71
     3
 72
     9
 73
     5
 74
     3
 42
0.0000000001
 43
0.0000000001
 44
0.0000000001
 40
0.0
 40
0.0
 40
0.0
 40
0.0
 40
0.1912664899633507
 40
0.3821942030311673
 40
0.3821942030311673
 40
0.3821942030311673
 40
0.3821942030311673
 10
76.7811736292
 20
269.7418019283
 30
31.1010398347
 10
76.81637233359788
 20
269.7349268990132
 30
31.15375215379083
 10
76.88670739740161
 20
269.721189017696
 30
31.25908342634521
 10
76.95697574755289
 20
269.7063854343338
 30
31.36431479100472
 10
76.9920787797
 20
269.6989902036
 30
31.4168838348
 11
76.7811736292
 21
269.7418019283
 31
31.1010398347
 11
76.8867530344
 21
269.7209099424
 31
31.2591517707
 11
76.9920787797
 21
269.6989902036
 31
31.4168838348
  0
SPLINE
  5
A44
330
1B
100
AcDbEntity
  8
0
  6
Continuous
100
AcDbSpline
210
-0.9707593134476809
220
-9.712899350000000E-8
230
0.2400549007093538
 70
     8
 71
     3
 72
     9
 73
     5
 74
     3
 42
0.0000000001
 43
0.0000000001
 44
0.0000000001
 40
0.0
 40
0.0
 40
0.0
 40
0.0
 40
0.0924677221879709
 40
0.1852860957377351
 40
0.1852860957377351
 40
0.1852860957377351
 40
0.1852860957377351
 10
76.9920787797
 20
269.6989902036
 30
31.4168838348
 10
76.99929060927823
 20
269.6920991593354
 30
31.44604778871253
 10
77.0137416167656
 20
269.6782909389409
 30
31.50448629059045
 10
77.02817922906164
 20
269.6642416637996
 30
31.56287062348388
 10
77.0354116967
 20
269.6572037322
 30
31.5921180357
 11
76.9920787797
 21
269.6989902036
 31
31.4168838348
 11
77.0137109323
 21
269.678257035
 31
31.5043622055
 11
77.0354116967
 21
269.6572037322
 31
31.5921180357
  0
SPLINE
  5
A45
330
1B
100
AcDbEntity
  8
0
  6
Continuous
100
AcDbSpline
210
0.9952740041431912
220
-5.964154940000000E-8
230
0.0971064193386585
 70
     8
 71
     3
 72
     9
 73
     5
 74
     3
 42
0.0000000001
 43
0.0000000001
 44
0.0000000001
 40
0.0
 40
0.0
 40
0.0
 40
0.0
 40
0.1347598058047713
 40
0.2708439131235855
 40
0.2708439131235855
 40
0.2708439131235855
 40
0.2708439131235855
 10
77.0354116967
 20
269.6572037322
 30
31.5921180357
 10
77.03125357139514
 20
269.6436304869253
 30
31.63473595159627
 10
77.02289645836655
 20
269.6163506103921
 30
31.72039059499373
 10
77.01455467534294
 20
269.5885776033853
 30
31.80588811608143
 10
77.0103633901
 20
269.5746232013
 30
31.8488458983
 11
77.0354116967
 21
269.6572037322
 31
31.5921180357
 11
77.0229411159
 21
269.6163619164
 31
31.719932886
 11
77.0103633901
 21
269.5746232013
 31
31.8488458983
  0
SPLINE
  5
A46
330
1B
100
AcDbEntity
  8
0
  6
Continuous
100
AcDbSpline
210
0.9330605085773761
220
-2.438586853000000E-7
230
0.3597194564285739
 70
     8
 71
     3
 72
     9
 73
     5
 74
     3
 42
0.0000000001
 43
0.0000000001
 44
0.0000000001
 40
0.0
 40
0.0
 40
0.0
 40
0.0
 40
0.119444537808222
 40
0.239620580326305
 40
0.239620580326305
 40
0.239620580326305
 40
0.239620580326305
 10
77.0103633901
 20
269.5746232013
 30
31.8488458983
 10
76.99690786331681
 20
269.5609832515331
 30
31.88374758936202
 10
76.96991440513492
 20
269.5336198179365
 30
31.95376471714462
 10
76.942970629627
 20
269.5058805495777
 30
32.02365297496515
 10
76.9294576154
 20
269.4919685747
 30
32.05870378
 11
77.0103633901
 21
269.5746232013
 31
31.8488458983
 11
76.97000915469999
 21
269.5336099661
 31
31.9535189504
 11
76.9294576154
 21
269.4919685747
 31
32.05870378
  0
SPLINE
  5
A47
330
1B
100
AcDbEntity
  8
0
  6
Continuous
100
AcDbSpline
210
-0.6427876084300706
220
5.149284950000000E-8
230
0.766044444173279
 70
     8
 71
     3
 72
     9
 73
     5
 74
     3
 42
0.0000000001
 43
0.0000000001
 44
0.0000000001
 40
0.0
 40
0.0
 40
0.0
 40
0.0
 40
0.1826334995652455
 40
0.364786297358303
 40
0.364786297358303
 40
0.364786297358303
 40
0.364786297358303
 10
76.9294576154
 20
269.4919685747
 30
32.05870378
 10
76.97607309734931
 20
269.4901921472748
 30
32.09781881369996
 10
77.06918136664466
 20
269.4866439680827
 30
32.17594592810353
 10
77.16226443381252
 20
269.4821068512798
 30
32.25405189547772
 10
77.2087446367
 20
269.4798412823
 30
32.2930534166
 11
76.9294576154
 21
269.4919685747
 31
32.05870378
 11
77.06929774409998
 21
269.486391406
 31
32.1760435804
 11
77.2087446367
 21
269.4798412823
 31
32.2930534166
  0
SPLINE
  5
A48
330
1B
100
AcDbEntity
  8
0
  6
Continuous
100
AcDbSpline
210
0.8899708937068501
220
-4.247062000000000E-10
230
0.4560173333927458
 70
     8
 71
     3
 72
     9
 73
     5
 74
     3
 42
0.0000000001
 43
0.0000000001
 44
0.0000000001
 40
0.0
 40
0.0
 40
0.0
 40
0.0
 40
0.1748963716937789
 40
0.3498107947131255
 40
0.3498107947131255
 40
0.3498107947131255
 40
0.3498107947131255
 10
77.2087446367
 20
269.4798412823
 30
32.2930534166
 10
77.23359045910945
 20
269.5005831786364
 30
32.24456390283238
 10
77.28328466830422
 20
269.5420691121124
 30
32.1475798706193
 10
77.3331155614917
 20
269.5827589897961
 30
32.05032908368752
 10
77.35803229379999
 20
269.6031049785
 30
32.001701181
 11
77.2087446367
 21
269.4798412823
 31
32.2930534166
 11
77.2833162714
 21
269.5418679779
 31
32.1475181935
 11
77.35803229379999
 21
269.6031049785
 31
32.001701181
  0
SPLINE
  5
A49
330
1B
100
AcDbEntity
  8
0
  6
Continuous
100
AcDbSpline
210
0.9638994051297318
220
-1.596650830000000E-8
230
0.266266664812832
 70
     8
 71
     3
 72
     9
 73
     5
 74
     3
 42
0.0000000001
 43
0.0000000001
 44
0.0000000001
 40
0.0
 40
0.0
 40
0.0
 40
0.0
 40
0.1867140014168086
 40
0.3715132411448027
 40
0.3715132411448027
 40
0.3715132411448027
 40
0.3715132411448027
 10
77.35803229379999
 20
269.6031049785
 30
32.001701181
 10
77.37366307710997
 20
269.623781090325
 30
31.94511692020022
 10
77.40476434924304
 20
269.6649212793847
 30
31.83252867310576
 10
77.43595001469637
 20
269.7051502530713
 30
31.71963491767505
 10
77.4514624827
 20
269.7251610708
 30
31.6634789645
 11
77.35803229379999
 21
269.6031049785
 31
32.001701181
 11
77.40494596009999
 21
269.6649031559
 31
31.8318712322
 11
77.4514624827
 21
269.7251610708
 31
31.6634789645
  0
SPLINE
  5
A4A
330
1B
100
AcDbEntity
  8
0
  6
Continuous
100
AcDbSpline
210
0.9948903588064302
220
-5.552751730000000E-8
230
-0.1009612497644993
 70
     8
 71
     3
 72
     9
 73
     5
 74
     3
 42
0.0000000001
 43
0.0000000001
 44
0.0000000001
 40
0.0
 40
0.0
 40
0.0
 40
0.0
 40
0.1590512738996835
 40
0.3160917242748842
 40
0.3160917242748842
 40
0.3160917242748842
 40
0.3160917242748842
 10
77.4514624827
 20
269.7251610708
 30
31.6634789645
 10
77.44629968333946
 20
269.7391572546885
 30
31.61260380103483
 10
77.43603935588692
 20
269.7669726741449
 30
31.51149666905037
 10
77.42576029387939
 20
269.7941010018394
 30
31.41020492376114
 10
77.42065345810001
 20
269.807578877
 30
31.3598812358
 11
77.4514624827
 21
269.7251610708
 31
31.6634789645
 11
77.43596934120001
 21
269.7669756571
 31
31.5108067317
 11
77.42065345810001
 21
269.807578877
 31
31.3598812358
  0
SPLINE
  5
A4B
330
1B
100
AcDbEntity
  8
0
  6
Continuous
100
AcDbSpline
210
-0.9707587768157209
220
-8.409266990000000E-8
230
0.24005707078784
 70
     8
 71
     3
 72
     9
 73
     5
 74
     3
 42
0.0000000001
 43
0.0000000001
 44
0.0000000001
 40
0.0
 40
0.0
 40
0.0
 40
0.0
 40
0.1858907331244714
 40
0.369953193090832
 40
0.369953193090832
 40
0.369953193090832
 40
0.369953193090832
 10
77.42065345810001
 20
269.807578877
 30
31.3598812358
 10
77.40615058454291
 20
269.8213496854422
 30
31.30123355427007
 10
77.37728747613909
 20
269.8487558636256
 30
31.18451500308311
 10
77.34837283779089
 20
269.8752026507694
 30
31.06758807133784
 10
77.3339869653
 20
269.8883606956
 30
31.0094135263
 11
77.42065345810001
 21
269.807578877
 31
31.3598812358
 11
77.37713182730001
 21
269.8486490781
 31
31.1838855799
 11
77.3339869653
 21
269.8883606956
 31
31.0094135263
  0
SPLINE
  5
A4C
330
1B
100
AcDbEntity
  8
0
  6
Continuous
100
AcDbSpline
210
-0.8663662329228309
220
-4.383658150000000E-8
230
0.4994092014081254
 70
     8
 71
     3
 72
     9
 73
     5
 74
     3
 42
0.0000000001
 43
0.0000000001
 44
0.0000000001
 40
0.0
 40
0.0
 40
0.0
 40
0.0
 40
0.1565807898587895
 40
0.3130796219783304
 40
0.3130796219783304
 40
0.3130796219783304
 40
0.3130796219783304
 10
77.3339869653
 20
269.8883606956
 30
31.0094135263
 10
77.3081504165562
 20
269.8952714926401
 30
30.9645927399772
 10
77.25649084247158
 20
269.9090894694612
 30
30.87497462749118
 10
77.20478525300757
 20
269.9221992306415
 30
30.78527668827821
 10
77.178939226
 20
269.9287523953
 30
30.7404394592
 11
77.3339869653
 21
269.8883606956
 31
31.0094135263
 11
77.2564658092
 21
269.9089159401
 31
30.8749312002
 11
77.178939226
 21
269.9287523953
 31
30.7404394592
  0
SPLINE
  5
A4D
330
1B
100
AcDbEntity
  8
0
  6
Continuous
100
AcDbSpline
210
0.6427876101321634
220
1.593436022000000E-7
230
-0.7660444427450388
 70
     8
 71
     3
 72
     9
 73
     5
 74
     3
 42
0.0000000001
 43
0.0000000001
 44
0.0000000001
 40
0.0
 40
0.0
 40
0.0
 40
0.0
 40
0.1394741144008148
 40
0.2791696015147935
 40
0.2791696015147935
 40
0.2791696015147935
 40
0.2791696015147935
 10
77.178939226
 20
269.9287523953
 30
30.7404394592
 10
77.14332559266627
 20
269.9290860004853
 30
30.71055607263889
 10
77.07204180019355
 20
269.9297537403525
 30
30.65074186873435
 10
77.00075620967489
 20
269.9298491979527
 30
30.59092615597106
 10
76.96508515079999
 20
269.9298969646
 30
30.5609945836
 11
77.178939226
 21
269.9287523953
 31
30.7404394592
 11
77.07209787719999
 21
269.9296103671
 31
30.6507889229
 11
76.96508515079999
 21
269.9298969646
 31
30.5609945836
  0
SPLINE
  5
A4E
330
1B
100
AcDbEntity
  8
0
  6
Continuous
100
AcDbSpline
210
-0.6427876096538182
220
8.546246000000000E-10
230
0.7660444431464346
 70
     8
 71
     3
 72
     9
 73
     5
 74
     3
 42
0.0000000001
 43
0.0000000001
 44
0.0000000001
 40
0.0
 40
0.0
 40
0.0
 40
0.0
 40
0.9997260707621054
 40
2.001240369199635
 40
2.001240369199635
 40
2.001240369199635
 40
2.001240369199635
 10
75.13876828819998
 20
267.5946445677
 30
35.8489619194
 10
74.88383830944663
 20
267.6130058938403
 30
35.6350502682501
 10
74.37352235418553
 20
267.6497613893494
 30
35.20684433840275
 10
73.86244594515024
 20
267.6550206676235
 30
34.77800031210918
 10
73.60667940199998
 20
267.6576526565
 30
34.5633867001
 11
75.13876828819998
 21
267.5946445677
 31
35.8489619194
 11
74.37378857810001
 21
267.6418685574
 31
35.2070677268
 11
73.60667940199998
 21
267.6576526565
 31
34.5633867001
  0
SPLINE
  5
A4F
330
1B
100
AcDbEntity
  8
0
  6
Continuous
100
AcDbSpline
210
0.7660444431825942
220
-2.598769000000000E-10
230
0.6427876096107249
 70
     8
 71
     3
 72
    10
 73
     6
 74
     4
 42
0.0000000001
 43
0.0000000001
 44
0.0000000001
 40
0.0
 40
0.0
 40
0.0
 40
0.0
 40
1.91150422405275
 40
3.970237669074088
 40
6.100433472950666
 40
6.100433472950666
 40
6.100433472950666
 40
6.100433472950666
 10
78.7383789025
 20
269.997972531
 30
31.559113038
 10
78.35174441061496
 20
269.7875050367009
 30
32.01988608271864
 10
77.54869579344231
 20
269.3503592729265
 30
32.97692215724917
 10
76.34456886187934
 20
268.5536055234061
 30
34.41194475390373
 10
75.54524723914841
 20
267.9179131510666
 30
35.36453916933989
 10
75.13876828819998
 20
267.5946445677
 30
35.8489619194
 11
78.7383789025
 21
269.997972531
 31
31.559113038
 11
77.5829695831
 21
269.3477033337
 31
32.9360762453
 11
76.36531808019998
 21
268.5415400064
 31
34.3872167984
 11
75.13876828819998
 21
267.5946445677
 31
35.8489619194
  0
SPLINE
  5
A50
330
1B
100
AcDbEntity
  8
0
  6
Continuous
100
AcDbSpline
210
-0.3425159461663493
220
0.9395120151556183
230
0.0
 70
    24
 71
     3
 72
     8
 73
     4
 74
     2
 42
0.0000000001
 43
0.0000000001
 44
0.0000000001
 40
0.0
 40
0.0
 40
0.0
 40
0.0
 40
0.3508629859173463
 40
0.3508629859173463
 40
0.3508629859173463
 40
0.3508629859173463
 10
72.18702896649999
 20
269.7174638418
 30
21.8272457253
 10
72.10377201173333
 20
269.6871110265333
 30
21.7509220653
 10
72.02051505696667
 20
269.6567582112667
 30
21.6745984053
 10
71.93725810220001
 20
269.626405396
 30
21.5982747453
 11
72.18702896649999
 21
269.7174638418
 31
21.8272457253
 11
71.93725810220001
 21
269.626405396
 31
21.5982747453
  0
SPLINE
  5
A51
330
1B
100
AcDbEntity
  8
0
  6
Continuous
100
AcDbSpline
210
0.7660444430978697
220
1.103946000000000E-10
230
0.6427876097116954
 70
     8
 71
     3
 72
    10
 73
     6
 74
     4
 42
0.0000000001
 43
0.0000000001
 44
0.0000000001
 40
0.0
 40
0.0
 40
0.0
 40
0.0
 40
2.066862147217868
 40
4.128274403703896
 40
6.100437233022324
 40
6.100437233022324
 40
6.100437233022324
 40
6.100437233022324
 10
72.0745905158
 20
267.5946445677
 30
33.27781148070001
 10
72.46888259863135
 20
267.9085828410192
 30
32.80791247445507
 10
73.2564270971006
 20
268.5356315969467
 30
31.86935348907807
 10
74.45961151116721
 20
269.3358366315897
 30
30.43545414091682
 10
75.27535447152258
 20
269.7805404972968
 30
29.46328953731671
 10
75.67420113
 20
269.997972531
 30
28.9879625992
 11
72.0745905158
 21
267.5946445677
 31
33.27781148070001
 11
73.26415233100001
 21
268.5150189476
 31
31.8601469138
 11
74.4824911363
 21
269.3255028934
 31
30.4081872655
 11
75.67420113
 21
269.997972531
 31
28.9879625992
  0
SPLINE
  5
A52
330
1B
100
AcDbEntity
  8
0
  6
Continuous
100
AcDbSpline
210
0.6427876097341015
220
-1.256307100000000E-9
230
-0.7660444430790687
 70
     8
 71
     3
 72
     9
 73
     5
 74
     3
 42
0.0000000001
 43
0.0000000001
 44
0.0000000001
 40
0.0
 40
0.0
 40
0.0
 40
0.0
 40
1.001558352175256
 40
2.001240369244602
 40
2.001240369244602
 40
2.001240369244602
 40
2.001240369244602
 10
73.60667940199998
 20
267.6576526565
 30
34.5633867001
 10
73.35090160703811
 20
267.6550204360258
 30
34.34876364666141
 10
72.83982519524211
 20
267.6497609263205
 30
33.91991961797453
 10
72.32950925390696
 20
267.6130052000211
 30
33.4917136998226
 10
72.0745905158
 20
267.5946445677
 30
33.27781148070001
 11
73.60667940199998
 21
267.6576526565
 31
34.5633867001
 11
72.8395364914
 21
267.6418671688
 31
33.9196773667
 11
72.0745905158
 21
267.5946445677
 31
33.27781148070001
  0
SPLINE
  5
A53
330
1B
100
AcDbEntity
  8
0
  6
Continuous
100
AcDbSpline
210
0.07333319721190131
220
8.268202760000000E-8
230
0.9973074963052638
 70
     8
 71
     3
 72
     9
 73
     5
 74
     3
 42
0.0000000001
 43
0.0000000001
 44
0.0000000001
 40
0.0
 40
0.0
 40
0.0
 40
0.0
 40
0.1571889565952821
 40
0.3161343935977418
 40
0.3161343935977418
 40
0.3161343935977418
 40
0.3161343935977418
 10
76.0800756827
 20
269.8069340361
 30
30.2350029189
 10
76.02958874727786
 20
269.7934181487687
 30
30.23871528396612
 10
75.92805071903472
 20
269.7662353431953
 30
30.24618149727022
 10
75.82669812431428
 20
269.7383654311172
 30
30.25363407548551
 10
75.7757402634
 20
269.7243530508
 30
30.2573810683
 11
76.0800756827
 21
269.8069340361
 31
30.2350029189
 11
75.9286607211
 21
269.766216501
 31
30.2461366431
 11
75.7757402634
 21
269.7243530508
 31
30.2573810683
  0
SPLINE
  5
A54
330
1B
100
AcDbEntity
  8
0
  6
Continuous
100
AcDbSpline
210
-0.06783948773970221
220
-2.582713630000000E-8
230
0.9976962483156956
 70
     8
 71
     3
 72
     9
 73
     5
 74
     3
 42
0.0000000001
 43
0.0000000001
 44
0.0000000001
 40
0.0
 40
0.0
 40
0.0
 40
0.0
 40
0.1843337704559644
 40
0.370000364766246
 40
0.370000364766246
 40
0.370000364766246
 40
0.370000364766246
 10
76.4402684331
 20
269.8879318233
 30
30.2594946355
 10
76.38039900074054
 20
269.8747200950348
 30
30.2554237452159
 10
76.26022725056932
 20
269.8482011112087
 30
30.24725253010802
 10
76.14027024262406
 20
269.8207227222319
 30
30.23909591661647
 10
76.0800756827
 20
269.8069340361
 30
30.2350029189
 11
76.4402684331
 21
269.8879318233
 31
30.2594946355
 11
76.26071343549999
 21
269.8480585121
 31
30.2472855888
 11
76.0800756827
 21
269.8069340361
 31
30.2350029189
  0
SPLINE
  5
A55
330
1B
100
AcDbEntity
  8
0
  6
Continuous
100
AcDbSpline
210
-0.3413791601636329
220
-9.807779500000000E-8
230
0.9399256720645324
 70
     8
 71
     3
 72
     9
 73
     5
 74
     3
 42
0.0000000001
 43
0.0000000001
 44
0.0000000001
 40
0.0
 40
0.0
 40
0.0
 40
0.0
 40
0.15666134215942
 40
0.3131074204683643
 40
0.3131074204683643
 40
0.3131074204683643
 40
0.3131074204683643
 10
76.73207995990001
 20
269.9285382145
 30
30.3654800138
 10
76.68338949156274
 20
269.9219429664754
 30
30.34779573053184
 10
76.58607545906217
 20
269.908761532767
 30
30.3124514634612
 10
76.48884849364916
 20
269.8948718767059
 30
30.27713881891209
 10
76.4402684331
 20
269.8879318233
 30
30.2594946355
 11
76.73207995990001
 21
269.9285382145
 31
30.3654800138
 11
76.5860303516
 21
269.9085751713
 31
30.3124350805
 11
76.4402684331
 21
269.8879318233
 31
30.2594946355
  0
SPLINE
  5
A56
330
1B
100
AcDbEntity
  8
0
  6
Continuous
100
AcDbSpline
210
0.6427876098602289
220
-2.063657480000000E-8
230
-0.7660444429732352
 70
     8
 71
     3
 72
     9
 73
     5
 74
     3
 42
0.0000000001
 43
0.0000000001
 44
0.0000000001
 40
0.0
 40
0.0
 40
0.0
 40
0.0
 40
0.1522165757120733
 40
0.304170468236052
 40
0.304170468236052
 40
0.304170468236052
 40
0.304170468236052
 10
76.96508515079999
 20
269.9298969646
 30
30.5609945836
 10
76.92621683311384
 20
269.9298402513296
 30
30.52838019255159
 10
76.84854727357451
 20
269.9297269226599
 30
30.46320769376147
 10
76.77088003985006
 20
269.9289342223599
 30
30.39803714658005
 10
76.73207995990001
 20
269.9285382145
 30
30.3654800138
 11
76.96508515079999
 21
269.9298969646
 31
30.5609945836
 11
76.84848078020001
 21
269.9295566884
 31
30.4631518992
 11
76.73207995990001
 21
269.9285382145
 31
30.3654800138
  0
SPLINE
  5
A57
330
1B
100
AcDbEntity
  8
0
  6
Continuous
100
AcDbSpline
210
0.6427876093590221
220
1.153383377000000E-7
230
-0.7660444433937892
 70
     8
 71
     3
 72
     9
 73
     5
 74
     3
 42
0.0000000001
 43
0.0000000001
 44
0.0000000001
 40
0.0
 40
0.0
 40
0.0
 40
0.0
 40
0.1155103433164458
 40
0.2312516884677028
 40
0.2312516884677028
 40
0.2312516884677028
 40
0.2312516884677028
 10
76.44602918539999
 20
269.7416404059
 30
30.8198202555
 10
76.47552406441207
 20
269.7418705439076
 30
30.84456939761381
 10
76.53457280738053
 20
269.742331280161
 30
30.89411717608646
 10
76.59362258386793
 20
269.7423971566519
 30
30.94366582172506
 10
76.6231769651
 20
269.7424301278
 30
30.9684648921
 11
76.44602918539999
 21
269.7416404059
 31
30.8198202555
 11
76.5345140803
 21
269.7422323021
 31
30.8940678982
 11
76.6231769651
 21
269.7424301278
 31
30.9684648921
  0
SPLINE
  5
A58
330
1B
100
AcDbEntity
  8
0
  6
Continuous
100
AcDbSpline
210
-0.4024760381472814
220
-1.472928570000000E-8
230
0.9154305209666478
 70
     8
 71
     3
 72
     9
 73
     5
 74
     3
 42
0.0000000001
 43
0.0000000001
 44
0.0000000001
 40
0.0
 40
0.0
 40
0.0
 40
0.0
 40
0.1910939966247094
 40
0.3822245420801623
 40
0.3822245420801623
 40
0.3822245420801623
 40
0.3822245420801623
 10
76.0983602475
 20
269.6985589295
 30
30.6669649441
 10
76.15627186485325
 20
269.7060048999266
 30
30.69242623022808
 10
76.27210617579416
 20
269.7208982649036
 30
30.74335367223553
 10
76.38805115325923
 20
269.7347259181615
 30
30.79432976961058
 10
76.44602918539999
 20
269.7416404059
 30
30.8198202555
 11
76.0983602475
 21
269.6985589295
 31
30.6669649441
 11
76.2721227609
 21
269.7206304638
 31
30.743360964
 11
76.44602918539999
 21
269.7416404059
 31
30.8198202555
  0
SPLINE
  5
A59
330
1B
100
AcDbEntity
  8
0
  6
Continuous
100
AcDbSpline
210
-0.0678373467657077
220
-7.525719140000000E-8
230
0.9976963938913399
 70
     8
 71
     3
 72
     9
 73
     5
 74
     3
 42
0.0000000001
 43
0.0000000001
 44
0.0000000001
 40
0.0
 40
0.0
 40
0.0
 40
0.0
 40
0.0928842351363212
 40
0.1853105923089047
 40
0.1853105923089047
 40
0.1853105923089047
 40
0.1853105923089047
 10
75.9182635657
 20
269.6566639717
 30
30.6547194511
 10
75.94833986791701
 20
269.6637240811742
 30
30.6567644590671
 10
76.0083442095592
 20
269.677809496923
 30
30.66084439402163
 10
76.06840436842266
 20
269.6916538544998
 30
30.66492812419292
 10
76.0983602475
 20
269.6985589295
 30
30.6669649441
 11
75.9182635657
 21
269.6566639717
 31
30.6547194511
 11
76.0085064957
 21
269.6777837374
 31
30.6608554285
 11
76.0983602475
 21
269.6985589295
 31
30.6669649441
  0
SPLINE
  5
A5A
330
1B
100
AcDbEntity
  8
0
  6
Continuous
100
AcDbSpline
210
0.2684588731734022
220
1.370859500000000E-9
230
0.9632911467539123
 70
     8
 71
     3
 72
     9
 73
     5
 74
     3
 42
0.0000000001
 43
0.0000000001
 44
0.0000000001
 40
0.0
 40
0.0
 40
0.0
 40
0.0
 40
0.1360700242001118
 40
0.2708772998291622
 40
0.2708772998291622
 40
0.2708772998291622
 40
0.2708772998291622
 10
75.6697856147
 20
269.5739739015
 30
30.7239675814
 10
75.71135347395804
 20
269.5879434929256
 30
30.71238306646555
 10
75.79410343701335
 20
269.6157530360438
 30
30.68932154249125
 10
75.87700567791589
 20
269.6430694401036
 30
30.66621758032084
 10
75.9182635657
 20
269.6566639717
 30
30.6547194511
 11
75.6697856147
 21
269.5739739015
 31
30.7239675814
 11
75.79452761769998
 21
269.6157582389
 31
30.6892033279
 11
75.9182635657
 21
269.6566639717
 31
30.6547194511
  0
SPLINE
  5
A5B
330
1B
100
AcDbEntity
  8
0
  6
Continuous
100
AcDbSpline
210
0.5162786142465392
220
4.695248870000000E-8
230
0.8564206866205829
 70
     8
 71
     3
 72
     9
 73
     5
 74
     3
 42
0.0000000001
 43
0.0000000001
 44
0.0000000001
 40
0.0
 40
0.0
 40
0.0
 40
0.0
 40
0.1201628137876931
 40
0.2396398659045886
 40
0.2396398659045886
 40
0.2396398659045886
 40
0.2396398659045886
 10
75.4771650405
 20
269.4912634343
 30
30.8400856161
 10
75.50933068963026
 20
269.5051820996074
 30
30.82069510198437
 10
75.57347842054085
 20
269.5329399972689
 30
30.78202473420568
 10
75.63774451867148
 20
269.5603220525662
 30
30.74328301078644
 10
75.6697856147
 20
269.5739739015
 30
30.7239675814
 11
75.4771650405
 21
269.4912634343
 31
30.8400856161
 11
75.5736917493
 21
269.5329249311
 31
30.7818961326
 11
75.6697856147
 21
269.5739739015
 31
30.7239675814
  0
SPLINE
  5
A5C
330
1B
100
AcDbEntity
  8
0
  6
Continuous
100
AcDbSpline
210
0.7660444527866948
220
-3.843011790000000E-8
230
0.6427875981650021
 70
     8
 71
     3
 72
     9
 73
     5
 74
     3
 42
0.0000000001
 43
0.0000000001
 44
0.0000000001
 40
0.0
 40
0.0
 40
0.0
 40
0.0
 40
0.2283876390790929
 40
0.4567910521994709
 40
0.4567910521994709
 40
0.4567910521994709
 40
0.4567910521994709
 10
75.2036381242
 20
269.3251966074
 30
31.1660623013
 10
75.24913968708373
 20
269.3532110343758
 30
31.11183565028322
 10
75.3401459555061
 20
269.409241823199
 30
31.0033786029794
 10
75.43149096071795
 20
269.4639222678527
 30
30.89451786479668
 10
75.4771650405
 20
269.4912634343
 30
30.8400856161
 11
75.2036381242
 21
269.3251966074
 31
31.1660623013
 11
75.3402274912
 21
269.4089023256
 31
31.0032814325
 11
75.4771650405
 21
269.4912634343
 31
30.8400856161
  0
SPLINE
  5
A5D
330
1B
100
AcDbEntity
  8
0
  6
Continuous
100
AcDbSpline
210
0.9330605086330995
220
9.387952830000000E-8
230
0.3597194562841057
 70
     8
 71
     3
 72
     9
 73
     5
 74
     3
 42
0.0000000001
 43
0.0000000001
 44
0.0000000001
 40
0.0
 40
0.0
 40
0.0
 40
0.0
 40
0.2417877856820021
 40
0.4803347983181305
 40
0.4803347983181305
 40
0.4803347983181305
 40
0.4803347983181305
 10
75.0418266203
 20
269.1567490505
 30
31.5857781029
 10
75.06892586298193
 20
269.1853938872907
 30
31.51548655928784
 10
75.12276112695724
 20
269.2422996233018
 30
31.37584561618073
 10
75.17680065830609
 20
269.2976888479716
 30
31.23567483329504
 10
75.2036381242
 20
269.3251966074
 30
31.1660623013
 11
75.0418266203
 21
269.1567490505
 31
31.5857781029
 11
75.1231761066
 21
269.2422992999
 31
31.3747692187
 11
75.2036381242
 21
269.3251966074
 31
31.1660623013
  0
SPLINE
  5
A5E
330
1B
100
AcDbEntity
  8
0
  6
Continuous
100
AcDbSpline
210
0.9948905692622837
220
-1.261385002000000E-7
230
-0.1009591758729903
 70
     8
 71
     3
 72
     9
 73
     5
 74
     3
 42
0.0000000001
 43
0.0000000001
 44
0.0000000001
 40
0.0
 40
0.0
 40
0.0
 40
0.0
 40
0.1588286533532645
 40
0.3164801660731027
 40
0.3164801660731027
 40
0.3164801660731027
 40
0.3164801660731027
 10
75.0726350775
 20
269.0728565066
 30
31.8893766004
 10
75.0674861090601
 20
269.0870661782993
 30
31.8386366662596
 10
75.05722633317861
 20
269.1153802083204
 30
31.73753285127241
 10
75.0469471134865
 20
269.1429936723196
 30
31.63623743036834
 10
75.0418266203
 20
269.1567490505
 30
31.5857781029
 11
75.0726350775
 21
269.0728565066
 31
31.8893766004
 11
75.057183275
 21
269.1153090749
 31
31.7371085395
 11
75.0418266203
 21
269.1567490505
 31
31.5857781029
  0
SPLINE
  5
A5F
330
1B
100
AcDbEntity
  8
0
  6
Continuous
100
AcDbSpline
210
-0.8055849690798445
220
3.746889340000000E-8
230
0.5924802592429767
 70
     8
 71
     3
 72
     9
 73
     5
 74
     3
 42
0.0000000001
 43
0.0000000001
 44
0.0000000001
 40
0.0
 40
0.0
 40
0.0
 40
0.0
 40
0.2260024323380848
 40
0.4520142248388583
 40
0.4520142248388583
 40
0.4520142248388583
 40
0.4520142248388583
 10
75.33939827490001
 20
269.0329688919
 30
32.2520898221
 10
75.29495871223614
 20
269.0399986733167
 30
32.19166613131976
 10
75.20607774639043
 20
269.054058527297
 30
32.07081624723945
 10
75.11711658118972
 20
269.0665904269968
 30
31.9498573176058
 10
75.0726350775
 20
269.0728565066
 30
31.8893766004
 11
75.33939827490001
 21
269.0329688919
 31
32.2520898221
 11
75.2060595379
 21
269.0536762634
 31
32.07079148950001
 11
75.0726350775
 21
269.0728565066
 31
31.8893766004
  0
SPLINE
  5
A60
330
1B
100
AcDbEntity
  8
0
  6
Continuous
100
AcDbSpline
210
0.6427876081648387
220
7.475694715000000E-7
230
-0.7660444443954719
 70
     8
 71
     3
 72
     9
 73
     5
 74
     3
 42
0.0000000001
 43
0.0000000001
 44
0.0000000001
 40
0.0
 40
0.0
 40
0.0
 40
0.0
 40
0.0792018460326826
 40
0.1583338958123699
 40
0.1583338958123699
 40
0.1583338958123699
 40
0.1583338958123699
 10
75.46068864359999
 20
269.033347025
 30
32.3538645257
 10
75.44046458446965
 20
269.033331255479
 30
32.33689452519589
 10
75.40003428856562
 20
269.0332997303338
 30
32.30296947892053
 10
75.35960433872052
 20
269.0330791389645
 30
32.26904472283854
 10
75.33939827490001
 20
269.0329688919
 30
32.2520898221
 11
75.46068864359999
 21
269.033347025
 31
32.3538645257
 11
75.4000165528
 21
269.0332524082
 31
32.3029545968
 11
75.33939827490001
 21
269.0329688919
 31
32.2520898221
  0
SPLINE
  5
A61
330
1B
100
AcDbEntity
  8
0
  6
Continuous
100
AcDbSpline
210
0.6427876100468423
220
-1.104719375000000E-7
230
-0.7660444428166402
 70
     8
 71
     3
 72
     9
 73
     5
 74
     3
 42
0.0000000001
 43
0.0000000001
 44
0.0000000001
 40
0.0
 40
0.0
 40
0.0
 40
0.0
 40
0.0791427553324969
 40
0.1583339020360476
 40
0.1583339020360476
 40
0.1583339020360476
 40
0.1583339020360476
 10
75.06587135860001
 20
268.8494922632
 30
32.5780665073
 10
75.08608015430175
 20
268.849603136728
 30
32.59502370032008
 10
75.1265101022542
 20
268.8498249515768
 30
32.62894845473593
 10
75.16694039999945
 20
268.8498566478966
 30
32.66287350269018
 10
75.18716172720001
 20
268.8498725009
 30
32.6798412109
 11
75.06587135860001
 21
268.8494922632
 31
32.5780665073
 11
75.1264978331
 21
268.8497773832
 31
32.6289381597
 11
75.18716172720001
 21
268.8498725009
 31
32.6798412109
  0
SPLINE
  5
A62
330
1B
100
AcDbEntity
  8
0
  6
Continuous
100
AcDbSpline
210
-0.2430283684265467
220
-1.674708420000000E-8
230
0.970019181325777
 70
     8
 71
     3
 72
     9
 73
     5
 74
     3
 42
0.0000000001
 43
0.0000000001
 44
0.0000000001
 40
0.0
 40
0.0
 40
0.0
 40
0.0
 40
0.2489134874079201
 40
0.4965087256327809
 40
0.4965087256327809
 40
0.4965087256327809
 40
0.4965087256327809
 10
74.5939637402
 20
268.7502852446
 30
32.4598348863
 10
74.67273478555215
 20
268.7673138336855
 30
32.47957016502944
 10
74.82985970373898
 20
268.8012808282195
 30
32.51893620418628
 10
74.98734017915807
 20
268.8334502552159
 30
32.55839132453406
 10
75.06587135860001
 20
268.8494922632
 30
32.5780665073
 11
74.5939637402
 21
268.7502852446
 31
32.4598348863
 11
74.8303662382
 21
268.8009192305
 31
32.5190631112
 11
75.06587135860001
 21
268.8494922632
 31
32.5780665073
  0
SPLINE
  5
A63
330
1B
100
AcDbEntity
  8
0
  6
Continuous
100
AcDbSpline
210
0.2684589055665199
220
-8.662065180000000E-8
230
0.9632911377262944
 70
     8
 71
     3
 72
     9
 73
     5
 74
     3
 42
0.0000000001
 43
0.0000000001
 44
0.0000000001
 40
0.0
 40
0.0
 40
0.0
 40
0.0
 40
0.1387081129181137
 40
0.2762324429131357
 40
0.2762324429131357
 40
0.2762324429131357
 40
0.2762324429131357
 10
74.3454857892
 20
268.651454722
 30
32.5290830166
 10
74.38702935294666
 20
268.668124146188
 30
32.51750527257634
 10
74.46976193332449
 20
268.7013207319432
 30
32.49444859299361
 10
74.55268158751241
 20
268.7340104371828
 30
32.47133977790148
 10
74.5939637402
 20
268.7502852446
 30
32.4598348863
 11
74.3454857892
 21
268.651454722
 31
32.5290830166
 11
74.4701636506
 21
268.701335186
 31
32.4943366387
 11
74.5939637402
 21
268.7502852446
 31
32.4598348863
  0
SPLINE
  5
A64
330
1B
100
AcDbEntity
  8
0
  6
Continuous
100
AcDbSpline
210
0.5162793386988213
220
-3.600181910000000E-8
230
0.8564202498964552
 70
     8
 71
     3
 72
     9
 73
     5
 74
     3
 42
0.0000000001
 43
0.0000000001
 44
0.0000000001
 40
0.0
 40
0.0
 40
0.0
 40
0.0
 40
0.2475971659336664
 40
0.4924469685476164
 40
0.4924469685476164
 40
0.4924469685476164
 40
0.4924469685476164
 10
73.96024407349999
 20
268.4510650651
 30
32.7613198548
 10
74.02466099795998
 20
268.4850382400906
 30
32.72248713693499
 10
74.15278007013862
 20
268.5526076202689
 30
32.64525259298946
 10
74.28148990705282
 20
268.6186284649289
 30
32.56766191584554
 10
74.3454857892
 20
268.651454722
 30
32.5290830166
 11
73.96024407349999
 21
268.4510650651
 31
32.7613198548
 11
74.15364419060001
 21
268.5525931245
 31
32.6447316717
 11
74.3454857892
 21
268.651454722
 31
32.5290830166
  0
SPLINE
  5
A65
330
1B
100
AcDbEntity
  8
0
  6
Continuous
100
AcDbSpline
210
0.7660444277092831
220
5.007684820000000E-8
230
0.6427876280510965
 70
     8
 71
     3
 72
     9
 73
     5
 74
     3
 42
0.0000000001
 43
0.0000000001
 44
0.0000000001
 40
0.0
 40
0.0
 40
0.0
 40
0.0
 40
0.1177412719334935
 40
0.2354874263415274
 40
0.2354874263415274
 40
0.2354874263415274
 40
0.2354874263415274
 10
73.82348092179998
 20
268.3501446055
 30
32.9243078321
 10
73.84624777895638
 20
268.3670513442167
 30
32.89717534829562
 10
73.89178243736127
 20
268.4008655227358
 30
32.84290925556178
 10
73.93742321268965
 20
268.4343316530221
 30
32.78851669763631
 10
73.96024407349999
 20
268.4510650651
 30
32.7613198548
 11
73.82348092179998
 21
268.3501446055
 31
32.9243078321
 11
73.8918080214
 21
268.4007778132
 31
32.8428787657
 11
73.96024407349999
 21
268.4510650651
 31
32.7613198548
  0
SPLINE
  5
A66
330
1B
100
AcDbEntity
  8
0
  6
Continuous
100
AcDbSpline
210
0.9638993711209938
220
-7.522591950000000E-8
230
0.2662667879262206
 70
     8
 71
     3
 72
     9
 73
     5
 74
     3
 42
0.0000000001
 43
0.0000000001
 44
0.0000000001
 40
0.0
 40
0.0
 40
0.0
 40
0.0
 40
0.1919559848675331
 40
0.3819713265085944
 40
0.3819713265085944
 40
0.3819713265085944
 40
0.3819713265085944
 10
73.73005068720001
 20
268.1992221965
 30
33.2625300104
 10
73.74567420729726
 20
268.2247421060345
 30
33.20597207693047
 10
73.7767632962902
 20
268.275523923043
 30
33.09342800133496
 10
73.80796121467006
 20
268.3253554359964
 30
32.98048995753228
 10
73.82348092179998
 20
268.3501446055
 30
32.9243078321
 11
73.73005068720001
 21
268.1992221965
 31
33.2625300104
 11
73.77694873199999
 21
268.2755419289
 31
33.0927567146
 11
73.82348092179998
 21
268.3501446055
 31
32.9243078321
  0
SPLINE
  5
A67
330
1B
100
AcDbEntity
  8
0
  6
Continuous
100
AcDbSpline
210
0.9948905688833875
220
-1.152074717000000E-7
230
-0.1009591796067904
 70
     8
 71
     3
 72
     9
 73
     5
 74
     3
 42
0.0000000001
 43
0.0000000001
 44
0.0000000001
 40
0.0
 40
0.0
 40
0.0
 40
0.0
 40
0.1613346420547075
 40
0.321416470758264
 40
0.321416470758264
 40
0.321416470758264
 40
0.321416470758264
 10
73.7608591445
 20
268.0982927093
 30
33.5661285079
 10
73.75571042632448
 20
268.1153607107823
 30
33.51539104013362
 10
73.74545297136116
 20
268.1493641754413
 30
33.41431009671699
 10
73.73517142348815
 20
268.1826460981098
 30
33.31299173332938
 10
73.73005068720001
 20
268.1992221965
 30
33.2625300104
 11
73.7608591445
 21
268.0982927093
 31
33.5661285079
 11
73.7454069197
 21
268.1493149193
 31
33.413856286
 11
73.73005068720001
 21
268.1992221965
 31
33.2625300104
  0
SPLINE
  5
A68
330
1B
100
AcDbEntity
  8
0
  6
Continuous
100
AcDbSpline
210
-0.8316325029105266
220
1.035797492000000E-7
230
0.5553263725979184
 70
     8
 71
     3
 72
     9
 73
     5
 74
     3
 42
0.0000000001
 43
0.0000000001
 44
0.0000000001
 40
0.0
 40
0.0
 40
0.0
 40
0.0
 40
0.1915251824940465
 40
0.3829880583865787
 40
0.3829880583865787
 40
0.3829880583865787
 40
0.3829880583865787
 10
73.9717649193
 20
268.0488927706
 30
33.881971787
 10
73.93662846960353
 20
268.0574075187995
 30
33.82935297412115
 10
73.86636700073237
 20
268.074434245197
 30
33.72413246621375
 10
73.79602461534887
 20
268.0903407505182
 30
33.61879078148324
 10
73.7608591445
 20
268.0982927093
 30
33.5661285079
 11
73.9717649193
 21
268.0488927706
 31
33.881971787
 11
73.86633533449999
 21
268.0741568688
 31
33.7240850443
 11
73.7608591445
 21
268.0982927093
 31
33.5661285079
  0
SPLINE
  5
A69
330
1B
100
AcDbEntity
  8
0
  6
Continuous
100
AcDbSpline
210
0.6427876109676883
220
-7.612195856000000E-7
230
-0.7660444420435884
 70
     8
 71
     3
 72
     9
 73
     5
 74
     3
 42
0.0000000001
 43
0.0000000001
 44
0.0000000001
 40
0.0
 40
0.0
 40
0.0
 40
0.0
 40
0.0791819301490857
 40
0.1583339308768401
 40
0.1583339308768401
 40
0.1583339308768401
 40
0.1583339308768401
 10
74.093055288
 20
268.0492824726
 30
33.9837464906
 10
74.07283631351177
 20
268.0492662287952
 30
33.96678075652264
 10
74.03240600696337
 20
268.0492337473255
 30
33.93285570112653
 10
73.99197606773491
 20
268.0490064151845
 30
33.89893095414207
 10
73.9717649193
 20
268.0488927706
 30
33.881971787
 11
74.093055288
 21
268.0492824726
 31
33.9837464906
 11
74.0323984564
 21
268.0491850101
 31
33.9328493655
 11
73.9717649193
 21
268.0488927706
 31
33.881971787
  0
SPLINE
  5
A6A
330
1B
100
AcDbEntity
  8
0
  6
Continuous
100
AcDbSpline
210
0.642787609728241
220
4.007875350000000E-8
230
-0.7660444430839855
 70
     8
 71
     3
 72
     9
 73
     5
 74
     3
 42
0.0000000001
 43
0.0000000001
 44
0.0000000001
 40
0.0
 40
0.0
 40
0.0
 40
0.0
 40
0.042705148116465
 40
0.0854167628689831
 40
0.0854167628689831
 40
0.0854167628689831
 40
0.0854167628689831
 10
73.6857135261
 20
267.7762395854
 30
34.3363127544
 10
73.69661817967784
 20
267.7762729457501
 30
34.34546284519803
 10
73.71842913807296
 20
267.7763396715018
 30
34.36376441234852
 10
73.74024015514303
 20
267.7763492043933
 30
34.38206602873012
 10
73.7511464893
 20
267.7763539712
 30
34.3912175297
 11
73.6857135261
 21
267.7762395854
 31
34.3363127544
 11
73.7184275015
 21
267.7763253704
 31
34.3637630391
 11
73.7511464893
 21
267.7763539712
 31
34.3912175297
  0
SPLINE
  5
A6B
330
1B
100
AcDbEntity
  8
0
  6
Continuous
100
AcDbSpline
210
-0.7855696601153414
220
-3.395700620000000E-8
230
0.6187732291447862
 70
     8
 71
     3
 72
     9
 73
     5
 74
     3
 42
0.0000000001
 43
0.0000000001
 44
0.0000000001
 40
0.0
 40
0.0
 40
0.0
 40
0.0
 40
0.2618759975261319
 40
0.5237855407849443
 40
0.5237855407849443
 40
0.5237855407849443
 40
0.5237855407849443
 10
73.3630941493
 20
267.8262785825
 30
33.9267281432
 10
73.41689221207444
 20
267.8184715747871
 30
33.99502800433312
 10
73.52449522903551
 20
267.8028565593011
 30
34.13163647565965
 10
73.63197179930721
 20
267.785112288843
 30
34.26808441522687
 10
73.6857135261
 20
267.7762395854
 30
34.3363127544
 11
73.3630941493
 21
267.8262785825
 31
33.9267281432
 11
73.52445673
 21
267.8023253138
 31
34.1315875988
 11
73.6857135261
 21
267.7762395854
 31
34.3363127544
  0
SPLINE
  5
A6C
330
1B
100
AcDbEntity
  8
0
  6
Continuous
100
AcDbSpline
210
0.9707582806629385
220
-3.989846400000000E-8
230
-0.2400590771546319
 70
     8
 71
     3
 72
     9
 73
     5
 74
     3
 42
0.0000000001
 43
0.0000000001
 44
0.0000000001
 40
0.0
 40
0.0
 40
0.0
 40
0.0
 40
0.1872235306878094
 40
0.37539877618413
 40
0.37539877618413
 40
0.37539877618413
 40
0.37539877618413
 10
73.2764270892
 20
267.9291613499
 30
33.5762612025
 10
73.2908523679619
 20
267.912311879616
 30
33.63459459129422
 10
73.31977625361577
 20
267.8785272880062
 30
33.751557895445
 10
73.34863046690659
 20
267.8437242286924
 30
33.86823945652019
 10
73.3630941493
 20
267.8262785825
 30
33.9267281432
 11
73.2764270892
 21
267.9291613499
 31
33.5762612025
 11
73.31968559560001
 21
267.8783596115
 31
33.7511912898
 11
73.3630941493
 21
267.8262785825
 31
33.9267281432
  0
SPLINE
  5
A6D
330
1B
100
AcDbEntity
  8
0
  6
Continuous
100
AcDbSpline
210
0.9952738922433365
220
-1.777310480000000E-8
230
0.0971075662283782
 70
     8
 71
     3
 72
     9
 73
     5
 74
     3
 42
0.0000000001
 43
0.0000000001
 44
0.0000000001
 40
0.0
 40
0.0
 40
0.0
 40
0.0
 40
0.275353723696871
 40
0.5550046281064058
 40
0.5550046281064058
 40
0.5550046281064058
 40
0.5550046281064058
 10
73.326524361
 20
268.1338023784
 30
33.0628047851
 10
73.31821963646661
 20
268.1004743700473
 30
33.14792147825843
 10
73.30148058355204
 20
268.0332982351727
 30
33.31948319893466
 10
73.28482124952271
 20
267.9640523594416
 30
33.49022786523443
 10
73.2764270892
 20
267.9291613499
 30
33.5762612025
 11
73.326524361
 21
268.1338023784
 31
33.0628047851
 11
73.3016298097
 21
268.0333088997
 31
33.3179537518
 11
73.2764270892
 21
267.9291613499
 31
33.5762612025
  0
SPLINE
  5
A6E
330
1B
100
AcDbEntity
  8
0
  6
Continuous
100
AcDbSpline
210
0.8636017286717461
220
-2.219128800000000E-9
230
0.5041746267268631
 70
     8
 71
     3
 72
     9
 73
     5
 74
     3
 42
0.0000000001
 43
0.0000000001
 44
0.0000000001
 40
0.0
 40
0.0
 40
0.0
 40
0.0
 40
0.2375369617362201
 40
0.477646821830909
 40
0.477646821830909
 40
0.477646821830909
 40
0.477646821830909
 10
73.54419390050001
 20
268.3381289292
 30
32.6899581955
 10
73.50802545241106
 20
268.3046167380162
 30
32.75191120257892
 10
73.43529679513611
 20
268.2372293659855
 30
32.8764882651035
 10
73.36291180900329
 20
268.1684016237216
 30
33.00047665263362
 10
73.326524361
 20
268.1338023784
 30
33.0628047851
 11
73.54419390050001
 21
268.3381289292
 31
32.6899581955
 11
73.4357735509
 21
268.237236132
 31
32.8756716292
 11
73.326524361
 21
268.1338023784
 31
33.0628047851
  0
SPLINE
  5
A6F
330
1B
100
AcDbEntity
  8
0
  6
Continuous
100
AcDbSpline
210
0.7660443987939678
220
1.456201535000000E-7
230
0.6427876625110094
 70
     8
 71
     3
 72
     9
 73
     5
 74
     3
 42
0.0000000001
 43
0.0000000001
 44
0.0000000001
 40
0.0
 40
0.0
 40
0.0
 40
0.0
 40
0.1177524597645467
 40
0.2355033923042307
 40
0.2355033923042307
 40
0.2355033923042307
 40
0.2355033923042307
 10
73.6809570521
 20
268.4390866376
 30
32.5269702182
 10
73.65813649674358
 20
268.4223472883016
 30
32.55416669701454
 10
73.61249568200863
 20
268.388868806811
 30
32.60855930191097
 10
73.56696106257317
 20
268.3550421486158
 30
32.6628253482743
 10
73.54419390050001
 20
268.3381289292
 30
32.6899581955
 11
73.6809570521
 21
268.4390866376
 31
32.5269702182
 11
73.61252193519999
 21
268.3887815444
 31
32.6085280146
 11
73.54419390050001
 21
268.3381289292
 31
32.6899581955
  0
SPLINE
  5
A70
330
1B
100
AcDbEntity
  8
0
  6
Continuous
100
AcDbSpline
210
0.6464779606101826
220
-3.468964730000000E-8
230
0.762932661802664
 70
     8
 71
     3
 72
     9
 73
     5
 74
     3
 42
0.0000000001
 43
0.0000000001
 44
0.0000000001
 40
0.0
 40
0.0
 40
0.0
 40
0.0
 40
0.2378436023222359
 40
0.4756198316992105
 40
0.4756198316992105
 40
0.4756198316992105
 40
0.4756198316992105
 10
74.01034134530001
 20
268.6386289772
 30
32.2478634374
 10
73.95531037840635
 20
268.6057239927244
 30
32.2944944284265
 10
73.84526403300694
 20
268.5399233446281
 30
32.3877432015171
 10
73.73572087336561
 20
268.4726956989449
 30
32.48056559549389
 10
73.6809570521
 20
268.4390866376
 30
32.5269702182
 11
74.01034134530001
 21
268.6386289772
 31
32.2478634374
 11
73.8453742767
 21
268.5395571733
 31
32.3876497855
 11
73.6809570521
 21
268.4390866376
 31
32.5269702182
  0
SPLINE
  5
A71
330
1B
100
AcDbEntity
  8
0
  6
Continuous
100
AcDbSpline
210
0.4296008489045795
220
1.886093900000000E-8
230
0.903018887189224
 70
     8
 71
     3
 72
     9
 73
     5
 74
     3
 42
0.0000000001
 43
0.0000000001
 44
0.0000000001
 40
0.0
 40
0.0
 40
0.0
 40
0.0
 40
0.189473442296894
 40
0.3808780192211259
 40
0.3808780192211259
 40
0.3808780192211259
 40
0.3808780192211259
 10
74.3272012244
 20
268.7867625714
 30
32.0971209914
 10
74.27456994762821
 20
268.7624324291876
 30
32.12215971645851
 10
74.16877097019417
 20
268.7135241692179
 30
32.17249236407658
 10
74.06332942414319
 20
268.6636782843751
 30
32.22265496784498
 10
74.01034134530001
 20
268.6386289772
 30
32.2478634374
 11
74.3272012244
 21
268.7867625714
 31
32.0971209914
 11
74.1693958481
 21
268.7135401095
 31
32.1721950856
 11
74.01034134530001
 21
268.6386289772
 31
32.2478634374
  0
SPLINE
  5
A72
330
1B
100
AcDbEntity
  8
0
  6
Continuous
100
AcDbSpline
210
0.1318426108794813
220
1.228591500000000E-9
230
0.991270662309988
 70
     8
 71
     3
 72
     9
 73
     5
 74
     3
 42
0.0000000001
 43
0.0000000001
 44
0.0000000001
 40
0.0
 40
0.0
 40
0.0
 40
0.0
 40
0.2266626812337203
 40
0.4567665714800059
 40
0.4567665714800059
 40
0.4567665714800059
 40
0.4567665714800059
 10
74.7557752442
 20
268.9341007936
 30
32.0401190846
 10
74.68476530966451
 20
268.9100819197948
 30
32.04956366472631
 10
74.54166736269659
 20
268.8616795159271
 30
32.06859621326883
 10
74.39904809436749
 20
268.8118599971035
 30
32.08756509580959
 10
74.3272012244
 20
268.7867625714
 30
32.0971209914
 11
74.7557752442
 21
268.9341007936
 31
32.0401190846
 11
74.5428633139
 21
268.8616952115
 31
32.0684371474
 11
74.3272012244
 21
268.7867625714
 31
32.0971209914
  0
SPLINE
  5
A73
330
1B
100
AcDbEntity
  8
0
  6
Continuous
100
AcDbSpline
210
-0.9412782569567877
220
-7.496785390000001E-8
230
0.3376318157111175
 70
     8
 71
     3
 72
     9
 73
     5
 74
     3
 42
0.0000000001
 43
0.0000000001
 44
0.0000000001
 40
0.0
 40
0.0
 40
0.0
 40
0.0
 40
0.2146715917767973
 40
0.4297887089430635
 40
0.4297887089430635
 40
0.4297887089430635
 40
0.4297887089430635
 10
74.6132519418
 20
269.0148830536
 30
31.6427807019
 10
74.6370029323363
 20
269.0017696257622
 30
31.70899569986408
 10
74.68455420576856
 20
268.975515554725
 30
31.84156311715532
 10
74.7320184973252
 20
268.9479152509372
 30
31.97388803878895
 10
74.7557752442
 20
268.9341007936
 30
32.0401190846
 11
74.6132519418
 21
269.0148830536
 31
31.6427807019
 11
74.68448321299999
 21
268.9752069093
 31
31.8413651975
 11
74.7557752442
 21
268.9341007936
 31
32.0401190846
  0
SPLINE
  5
A74
330
1B
100
AcDbEntity
  8
0
  6
Continuous
100
AcDbSpline
210
0.9638993255861243
220
-4.361788580000000E-8
230
0.2662669527647263
 70
     8
 71
     3
 72
     9
 73
     5
 74
     3
 42
0.0000000001
 43
0.0000000001
 44
0.0000000001
 40
0.0
 40
0.0
 40
0.0
 40
0.0
 40
0.1856714836798053
 40
0.3736029004764461
 40
0.3736029004764461
 40
0.3736029004764461
 40
0.3736029004764461
 10
74.7066822221
 20
269.1431590033
 30
31.3045585619
 10
74.69118222944729
 20
269.122139884145
 30
31.36066928609087
 10
74.6599935832554
 20
269.0798458079296
 30
31.47357369602004
 10
74.6288951939253
 20
269.0366244540534
 30
31.58615137156563
 10
74.6132519418
 20
269.0148830536
 30
31.6427807019
 11
74.7066822221
 21
269.1431590033
 31
31.3045585619
 11
74.6602045362
 21
269.0798726225
 31
31.4728100361
 11
74.6132519418
 21
269.0148830536
 31
31.6427807019
  0
SPLINE
  5
A75
330
1B
100
AcDbEntity
  8
0
  6
Continuous
100
AcDbSpline
210
0.8636020566560813
220
-1.634549870000000E-8
230
0.504174064921418
 70
     8
 71
     3
 72
     9
 73
     5
 74
     3
 42
0.0000000001
 43
0.0000000001
 44
0.0000000001
 40
0.0
 40
0.0
 40
0.0
 40
0.0
 40
0.2306428743070186
 40
0.4638453162904466
 40
0.4638453162904466
 40
0.4638453162904466
 40
0.4638453162904466
 10
74.9243510572
 20
269.3127361533
 30
30.9317126264
 10
74.88820417755554
 20
269.2849773427942
 30
30.99362878060323
 10
74.81550927695656
 20
269.2291516673743
 30
31.11814820578026
 10
74.7430911117997
 20
269.1719284800205
 30
31.24219360951026
 10
74.7066822221
 20
269.1431590033
 30
31.3045585619
 11
74.9243510572
 21
269.3127361533
 31
30.9317126264
 11
74.8159788407
 21
269.229114189
 31
31.1173438879
 11
74.7066822221
 21
269.1431590033
 31
31.3045585619
  0
SPLINE
  5
A76
330
1B
100
AcDbEntity
  8
0
  6
Continuous
100
AcDbSpline
210
0.7660444409273142
220
8.842957600000000E-9
230
0.6427876122984628
 70
     8
 71
     3
 72
     9
 73
     5
 74
     3
 42
0.0000000001
 43
0.0000000001
 44
0.0000000001
 40
0.0
 40
0.0
 40
0.0
 40
0.0
 40
0.2284139173919482
 40
0.4568134507292011
 40
0.4568134507292011
 40
0.4568134507292011
 40
0.4568134507292011
 10
75.1978779735
 20
269.4788645754
 30
30.6057359412
 10
75.15220396984289
 20
269.4515133515327
 30
30.66016809914589
 10
75.06085883878671
 20
269.3968126262042
 30
30.76902898724682
 10
74.96985269586756
 20
269.3407610559544
 30
30.87748588503898
 10
74.9243510572
 20
269.3127361533
 30
30.9317126264
 11
75.1978779735
 21
269.4788645754
 31
30.6057359412
 11
75.0609407149
 21
269.3964731713
 31
30.7689314111
 11
74.9243510572
 21
269.3127361533
 31
30.9317126264
  0
SPLINE
  5
A77
330
1B
100
AcDbEntity
  8
0
  6
Continuous
100
AcDbSpline
210
0.603630920152058
220
8.747456640000000E-8
230
0.797263891215683
 70
     8
 71
     3
 72
     9
 73
     5
 74
     3
 42
0.0000000001
 43
0.0000000001
 44
0.0000000001
 40
0.0
 40
0.0
 40
0.0
 40
0.0
 40
0.1747909773142042
 40
0.3498311342374499
 40
0.3498311342374499
 40
0.3498311342374499
 40
0.3498311342374499
 10
75.4588804757
 20
269.6021859104
 30
30.4081235909
 10
75.41535130062323
 20
269.5818459197292
 30
30.44108075611692
 10
75.32823089587747
 20
269.5411369419772
 30
30.50704206983144
 10
75.24134957572443
 20
269.4996318854077
 30
30.57282236596232
 10
75.1978779735
 20
269.4788645754
 30
30.6057359412
 11
75.4588804757
 21
269.6021859104
 31
30.4081235909
 11
75.3283526365
 21
269.5409672021
 31
30.5069498966
 11
75.1978779735
 21
269.4788645754
 31
30.6057359412
  0
SPLINE
  5
A78
330
1B
100
AcDbEntity
  8
0
  6
Continuous
100
AcDbSpline
210
0.4296011070759496
220
8.932079390000000E-8
230
0.9030187643671146
 70
     8
 71
     3
 72
     9
 73
     5
 74
     3
 42
0.0000000001
 43
0.0000000001
 44
0.0000000001
 40
0.0
 40
0.0
 40
0.0
 40
0.0
 40
0.1847476401978876
 40
0.3715496929715162
 40
0.3715496929715162
 40
0.3715496929715162
 40
0.3715496929715162
 10
75.7757402634
 20
269.7243530508
 30
30.2573810683
 10
75.72315094628195
 20
269.704331411631
 30
30.28239985144618
 10
75.61738751348325
 20
269.6640654906261
 30
30.33271562915532
 10
75.51191055980488
 20
269.6228883308706
 30
30.38289511770773
 10
75.4588804757
 20
269.6021859104
 30
30.4081235909
 11
75.7757402634
 21
269.7243530508
 31
30.2573810683
 11
75.61804314200001
 21
269.6640628359
 31
30.3324037212
 11
75.4588804757
 21
269.6021859104
 31
30.4081235909
  0
SPLINE
  5
A79
330
1B
100
AcDbEntity
  8
0
  6
Continuous
100
AcDbSpline
210
-0.0871569386468625
220
-1.552608990000000E-8
230
0.9961945934633991
 70
     8
 71
     3
 72
     9
 73
     5
 74
     3
 42
0.0000000001
 43
0.0000000001
 44
0.0000000001
 40
0.0
 40
0.0
 40
0.0
 40
0.0
 40
0.2820642694666589
 40
0.5640334198576911
 40
0.5640334198576911
 40
0.5640334198576911
 40
0.5640334198576911
 10
72.7169196463
 20
269.9050682734
 30
21.8736057966
 10
72.62840648987576
 20
269.8743168617221
 30
21.86586179129021
 10
72.45141002586146
 20
269.8128244085058
 30
21.85037639214153
 10
72.27514607785311
 20
269.7492471234594
 30
21.83495508069282
 10
72.18702896649999
 20
269.7174638418
 30
21.8272457253
 11
72.7169196463
 21
269.9050682734
 31
21.8736057966
 11
72.45156336780001
 21
269.8122926546
 31
21.850389808
 11
72.18702896649999
 21
269.7174638418
 31
21.8272457253
  0
SPLINE
  5
A7A
330
1B
100
AcDbEntity
  8
0
  6
Continuous
100
AcDbSpline
210
0.3647852834954051
220
-0.9310916694639562
230
0.0
 70
    24
 71
     3
 72
     8
 73
     4
 74
     2
 42
0.0000000001
 43
0.0000000001
 44
0.0000000001
 40
0.0
 40
0.0
 40
0.0
 40
0.0
 40
0.2765438504461054
 40
0.2765438504461054
 40
0.2765438504461054
 40
0.2765438504461054
 10
72.7410080037
 20
269.9145056667
 30
21.5982747452
 10
72.73297855123334
 20
269.9113598689334
 30
21.69005176233334
 10
72.72494909876667
 20
269.9082140711667
 30
21.78182877946667
 10
72.7169196463
 20
269.9050682734
 30
21.8736057966
 11
72.7410080037
 21
269.9145056667
 31
21.5982747452
 11
72.7169196463
 21
269.9050682734
 31
21.8736057966
  0
SPLINE
  5
A7B
330
1B
100
AcDbEntity
  8
0
  6
Continuous
100
AcDbSpline
210
0.0
220
0.0
230
1.0
 70
     8
 71
     3
 72
    13
 73
     9
 74
     7
 42
0.0000000001
 43
0.0000000001
 44
0.0000000001
 40
0.0
 40
0.0
 40
0.0
 40
0.0
 40
0.0564000309984771
 40
0.1647239981971828
 40
0.3276611560614167
 40
0.5365983574712046
 40
0.7784023890240576
 40
1.037289059263088
 40
1.037289059263088
 40
1.037289059263088
 40
1.037289059263088
 10
101.7357000615
 20
194.8549066018
 30
0.0
 10
101.7519919275156
 20
194.8652000528984
 30
0.0
 10
101.7995745486716
 20
194.8952634835413
 30
0.0
 10
101.8275041962445
 20
195.0092560402805
 30
0.0
 10
101.8648298988536
 20
195.1610517138918
 30
0.0
 10
101.8887504561522
 20
195.3661237747872
 30
0.0
 10
101.9062591267841
 20
195.6015438289691
 30
0.0
 10
101.9082953773629
 20
195.7685529964453
 30
0.0
 10
101.9093482392
 20
195.8549066018
 30
0.0
 11
101.7357000615
 21
194.8549066018
 31
0.0
 11
101.7806435169
 21
194.8889807755
 31
0.0
 11
101.8225241503
 21
194.988881198
 31
0.0
 11
101.8584878654
 21
195.1477998206
 31
0.0
 11
101.8860837947
 21
195.3549066018
 31
0.0
 11
101.903431321
 21
195.5960875567
 31
0.0
 11
101.9093482392
 21
195.8549066018
 31
0.0
  0
SPLINE
  5
A7C
330
1B
100
AcDbEntity
  8
0
  6
Continuous
100
AcDbSpline
210
0.0
220
0.0
230
1.0
 70
    24
 71
     3
 72
     8
 73
     4
 74
     2
 42
0.0000000001
 43
0.0000000001
 44
0.0000000001
 40
0.0
 40
0.0
 40
0.0
 40
0.0
 40
0.0564001456289122
 40
0.0564001456289122
 40
0.0564001456289122
 40
0.0564001456289122
 10
101.7357000615
 20
206.3549066018
 30
0.0
 10
101.7506812364333
 20
206.3435485111667
 30
0.0
 10
101.7656624113666
 20
206.3321904205333
 30
0.0
 10
101.7806435863
 20
206.3208323299
 30
0.0
 11
101.7357000615
 21
206.3549066018
 31
0.0
 11
101.7806435863
 21
206.3208323299
 31
0.0
  0
SPLINE
  5
A7D
330
1B
100
AcDbEntity
  8
0
  6
Continuous
100
AcDbSpline
210
0.0
220
0.0
230
1.0
 70
     8
 71
     3
 72
    12
 73
     8
 74
     6
 42
0.0000000001
 43
0.0000000001
 44
0.0000000001
 40
0.0
 40
0.0
 40
0.0
 40
0.0
 40
0.1083242079957048
 40
0.2712616162930929
 40
0.4801989168034213
 40
0.7220027624545343
 40
0.9808889127413225
 40
0.9808889127413225
 40
0.9808889127413225
 40
0.9808889127413225
 10
101.7806435863
 20
206.3208323299
 30
0.0
 10
101.795750959929
 20
206.2879175616495
 30
0.0
 10
101.8335823058891
 20
206.2054935735058
 30
0.0
 10
101.8623498132114
 20
206.04674644817
 30
0.0
 10
101.8896057612369
 20
205.8443834752246
 30
0.0
 10
101.906013827477
 20
205.6080697112838
 30
0.0
 10
101.9082117724761
 20
205.4411921218689
 30
0.0
 10
101.9093482392
 20
205.3549066018
 30
0.0
 11
101.7806435863
 21
206.3208323299
 31
0.0
 11
101.8225242624
 21
206.2209316642
 31
0.0
 11
101.85848798
 21
206.0620127854
 31
0.0
 11
101.8860838746
 21
205.8549058996
 31
0.0
 11
101.9034313511
 21
205.6137251275
 31
0.0
 11
101.9093482392
 21
205.3549066018
 31
0.0
  0
SPLINE
  5
A7E
330
1B
100
AcDbEntity
  8
0
  6
Continuous
100
AcDbSpline
210
0.0
220
0.0
230
1.0
 70
     8
 71
     3
 72
    25
 73
    21
 74
    19
 42
0.0000000001
 43
0.0000000001
 44
0.0000000001
 40
0.0
 40
0.0
 40
0.0
 40
0.0
 40
0.8299406019819727
 40
1.661403510531122
 40
2.493033394604792
 40
3.323371227315945
 40
4.15188336530624
 40
4.978678007991122
 40
5.803992000012824
 40
6.628181993041247
 40
7.451794659355132
 40
8.275408398336291
 40
9.099599709439284
 40
9.924914800285041
 40
10.75171033863812
 40
11.58022401897975
 40
12.41056324691922
 40
13.24218923226586
 40
14.07364102143819
 40
14.9036309775039
 40
14.9036309775039
 40
14.9036309775039
 40
14.9036309775039
 10
101.9093482392
 20
205.3549066018
 30
0.0
 10
102.1863466947045
 20
205.3408812503177
 30
0.0
 10
102.7408516861313
 20
205.3128048215546
 30
0.0
 10
103.5474963973815
 20
205.0877082504202
 30
0.0
 10
104.304095503816
 20
204.7357072995878
 30
0.0
 10
104.9865618818418
 20
204.2550310445115
 30
0.0
 10
105.5739595683652
 20
203.6648753344576
 30
0.0
 10
106.0490006800706
 20
202.9829140016201
 30
0.0
 10
106.3981022586445
 20
202.2303459424731
 30
0.0
 10
106.6114855133652
 20
201.4297628378288
 30
0.0
 10
106.683269427247
 20
200.6049272093435
 30
0.0
 10
106.6114926547397
 20
199.7800905027221
 30
0.0
 10
106.3981158555772
 20
198.9795044554612
 30
0.0
 10
106.0490199794111
 20
198.2269325110232
 30
0.0
 10
105.5739836016797
 20
197.5449664358548
 30
0.0
 10
104.9865896113503
 20
196.9548051921038
 30
0.0
 10
104.3041269287135
 20
196.4741242524345
 30
0.0
 10
103.5475348820492
 20
196.1221190246264
 30
0.0
 10
102.7408810308114
 20
195.8970124840993
 30
0.0
 10
102.1863632040556
 20
195.8689336607723
 30
0.0
 10
101.9093482392
 20
195.8549066018
 30
0.0
 11
101.9093482392
 21
205.3549066018
 31
0.0
 11
102.7361158505
 21
205.2824033624
 31
0.0
 11
103.5390776421
 21
205.0665725733
 31
0.0
 11
104.2922502148
 21
204.7139547351
 31
0.0
 11
104.9713872492
 21
204.2362165171
 31
0.0
 11
105.555781235
 21
203.6489209934
 31
0.0
 11
106.0283791334
 21
202.97051064
 31
0.0
 11
106.3756746248
 21
202.221825775
 31
0.0
 11
106.5879406175
 21
201.4254387504
 31
0.0
 11
106.6593482367
 21
200.604927461
 31
0.0
 11
106.5879476659
 21
199.7844144815
 31
0.0
 11
106.3756880616
 21
198.9880243901
 31
0.0
 11
106.0283982423
 21
198.2393356827
 31
0.0
 11
105.5558052393
 21
197.5609208275
 31
0.0
 11
104.9714147142
 21
196.9736196844
 31
0.0
 11
104.292280043
 21
196.495875682
 31
0.0
 11
103.5391137794
 21
196.1432535629
 31
0.0
 11
102.7361646269
 21
195.9274185884
 31
0.0
 11
101.9093482392
 21
195.8549066018
 31
0.0
  0
SPLINE
  5
A7F
330
1B
100
AcDbEntity
  8
0
  6
Continuous
100
AcDbSpline
210
0.0
220
0.0
230
1.0
 70
     8
 71
     3
 72
    11
 73
     7
 74
     5
 42
0.0000000001
 43
0.0000000001
 44
0.0000000001
 40
0.0
 40
0.0
 40
0.0
 40
0.0
 40
0.0038816921205941
 40
0.0297353089460715
 40
0.0763669934822491
 40
0.1383614487991257
 40
0.1383614487991257
 40
0.1383614487991257
 40
0.1383614487991257
 10
69.7308808528
 20
266.5336019023
 30
0.0
 10
69.73101106640723
 20
266.5349368946223
 30
0.0
 10
69.73200855454377
 20
266.5451634679588
 30
0.0
 10
69.76685421590307
 20
266.54570184875
 30
0.0
 10
69.80435092974003
 20
266.5589184692311
 30
0.0
 10
69.84142286132141
 20
266.5632600395026
 30
0.0
 10
69.8625803305
 20
266.5657378343
 30
0.0
 11
69.7308808528
 21
266.5336019023
 31
0.0
 11
69.73148570860001
 21
266.5374361797
 31
0.0
 11
69.75573689339998
 21
266.5463966227
 31
0.0
 11
69.8013175464
 21
266.5562413205
 31
0.0
 11
69.8625803305
 21
266.5657378343
 31
0.0
  0
SPLINE
  5
A80
330
1B
100
AcDbEntity
  8
0
  6
Continuous
100
AcDbSpline
210
0.0
220
0.0
230
1.0
 70
     8
 71
     3
 72
     9
 73
     5
 74
     3
 42
0.0000000001
 43
0.0000000001
 44
0.0000000001
 40
0.0
 40
0.0
 40
0.0
 40
0.0
 40
0.0043465625373667
 40
0.0287699009352201
 40
0.0287699009352201
 40
0.0287699009352201
 40
0.0287699009352201
 10
72.9852969041
 20
266.9444884452
 30
0.0
 10
72.98477353427221
 20
266.9458919632327
 30
0.0
 10
72.98130934896059
 20
266.9551818502215
 30
0.0
 10
72.96956116257529
 20
266.9541365066501
 30
0.0
 10
72.95958789460001
 20
266.9532490938
 30
0.0
 11
72.9852969041
 21
266.9444884452
 31
0.0
 11
72.9835377104
 21
266.9484630953
 31
0.0
 11
72.95958789460001
 21
266.9532490938
 31
0.0
  0
SPLINE
  5
A81
330
1B
100
AcDbEntity
  8
0
  6
Continuous
100
AcDbSpline
210
0.0
220
0.0
230
1.0
 70
    24
 71
     3
 72
     8
 73
     4
 74
     2
 42
0.0000000001
 43
0.0000000001
 44
0.0000000001
 40
0.0
 40
0.0
 40
0.0
 40
0.0
 40
0.0440964826932062
 40
0.0440964826932062
 40
0.0440964826932062
 40
0.0440964826932062
 10
72.95958789460001
 20
266.9532490938
 30
0.0
 10
72.9448994545
 20
266.9538015964668
 30
0.0
 10
72.9302110144
 20
266.9543540991334
 30
0.0
 10
72.9155225743
 20
266.9549066018
 30
0.0
 11
72.95958789460001
 21
266.9532490938
 31
0.0
 11
72.9155225743
 21
266.9549066018
 31
0.0
  0
SPLINE
  5
A82
330
1B
100
AcDbEntity
  8
0
  6
Continuous
100
AcDbSpline
210
0.0
220
0.0
230
1.0
 70
     8
 71
     3
 72
    10
 73
     6
 74
     4
 42
0.0000000001
 43
0.0000000001
 44
0.0000000001
 40
0.0
 40
0.0
 40
0.0
 40
0.0
 40
0.0590870513131535
 40
0.1265746451247124
 40
0.1949190253723529
 40
0.1949190253723529
 40
0.1949190253723529
 40
0.1949190253723529
 10
72.9155225743
 20
266.9549066018
 30
0.0
 10
72.89582826684978
 20
266.9545197029023
 30
0.0
 10
72.85363966679122
 20
266.9536908987973
 30
0.0
 10
72.78880633465275
 20
266.9489039775804
 30
0.0
 10
72.74382801636359
 20
266.9436969697297
 30
0.0
 10
72.72119700250001
 20
266.9410770437
 30
0.0
 11
72.9155225743
 21
266.9549066018
 31
0.0
 11
72.85645877490001
 21
266.9532491238
 31
0.0
 11
72.78914109989999
 21
266.9484631076
 31
0.0
 11
72.72119700250001
 21
266.9410770437
 31
0.0
  0
SPLINE
  5
A83
330
1B
100
AcDbEntity
  8
0
  6
Continuous
100
AcDbSpline
210
0.0
220
0.0
230
1.0
 70
     8
 71
     3
 72
    10
 73
     6
 74
     4
 42
0.0000000001
 43
0.0000000001
 44
0.0000000001
 40
0.0
 40
0.0
 40
0.0
 40
0.0
 40
0.9100253386053677
 40
1.870269810147858
 40
2.883155315183844
 40
2.883155315183844
 40
2.883155315183844
 40
2.883155315183844
 10
72.72119700250001
 20
266.9410770437
 30
0.0
 10
72.42035328028301
 20
266.9022269816999
 30
0.0
 10
71.80206397847388
 20
266.8223829432995
 30
0.0
 10
70.84919735964331
 20
266.6972131294918
 30
0.0
 10
70.19725042648376
 20
266.6103355336724
 30
0.0
 10
69.8625803305
 20
266.5657378343
 30
0.0
 11
72.72119700250001
 21
266.9410770437
 31
0.0
 11
71.818707421
 21
266.8242067216
 31
0.0
 11
70.86663315769999
 21
266.6992105525
 31
0.0
 11
69.8625803305
 21
266.5657378343
 31
0.0
  0
SPLINE
  5
A84
330
1B
100
AcDbEntity
  8
0
  6
Continuous
100
AcDbSpline
210
0.0
220
0.0
230
1.0
 70
     8
 71
     3
 72
    10
 73
     6
 74
     4
 42
0.0000000001
 43
0.0000000001
 44
0.0000000001
 40
0.0
 40
0.0
 40
0.0
 40
0.0
 40
0.0057412734924074
 40
0.0137858627168605
 40
0.0241304686860561
 40
0.0241304686860561
 40
0.0241304686860561
 40
0.0241304686860561
 10
72.50051472680001
 20
265.7657378343
 30
0.0
 10
72.49889957888402
 20
265.7647038631329
 30
0.0
 10
72.49502130911222
 20
265.762221106549
 30
0.0
 10
72.48745624061161
 20
265.759357680887
 30
0.0
 10
72.48160393050944
 20
265.7575537282984
 30
0.0
 10
72.47831178849999
 20
265.7565389379
 30
0.0
 11
72.50051472680001
 21
265.7657378343
 31
0.0
 11
72.495592329
 21
265.7627828011
 31
0.0
 11
72.4881606296
 21
265.7597029862
 31
0.0
 11
72.47831178849999
 21
265.7565389379
 31
0.0
  0
SPLINE
  5
A85
330
1B
100
AcDbEntity
  8
0
  6
Continuous
100
AcDbSpline
210
0.0
220
0.0
230
1.0
 70
     8
 71
     3
 72
    10
 73
     6
 74
     4
 42
0.0000000001
 43
0.0000000001
 44
0.0000000001
 40
0.0
 40
0.0
 40
0.0
 40
0.0
 40
0.0142381197263098
 40
0.0444796619535893
 40
0.0883421108354741
 40
0.0883421108354741
 40
0.0883421108354741
 40
0.0883421108354741
 10
69.7288478424
 20
265.7038194767
 30
0.0
 10
69.7294966863393
 20
265.6989808492443
 30
0.0
 10
69.73152366459459
 20
265.68386505322
 30
0.0
 10
69.76060828298962
 20
265.6664646181611
 30
0.0
 10
69.78522225988003
 20
265.6668974212311
 30
0.0
 10
69.7997913713
 20
265.6671535991
 30
0.0
 11
69.7288478424
 21
265.7038194767
 31
0.0
 11
69.7320871884
 21
265.6899547484
 31
0.0
 11
69.75616003979999
 21
265.6716504128
 31
0.0
 11
69.7997913713
 21
265.6671535991
 31
0.0
  0
SPLINE
  5
A86
330
1B
100
AcDbEntity
  8
0
  6
Continuous
100
AcDbSpline
210
0.0
220
0.0
230
1.0
 70
     8
 71
     3
 72
    10
 73
     6
 74
     4
 42
0.0000000001
 43
0.0000000001
 44
0.0000000001
 40
0.0
 40
0.0
 40
0.0
 40
0.0
 40
0.0447000465309332
 40
0.0688242306331128
 40
0.0720166930076471
 40
0.0720166930076471
 40
0.0720166930076471
 40
0.0720166930076471
 10
69.7997913713
 20
266.5252557468
 30
0.0
 10
69.78675561501176
 20
266.5266617399883
 30
0.0
 10
69.76668458674924
 20
266.5288265341434
 30
0.0
 10
69.73183516243728
 20
266.5230350564502
 30
0.0
 10
69.73098071142339
 20
266.5324961912825
 30
0.0
 10
69.7308808528
 20
266.5336019023
 30
0.0
 11
69.7997913713
 21
266.5252557468
 31
0.0
 11
69.7551018531
 21
266.5262258617
 31
0.0
 11
69.7313493038
 21
266.5304439964
 31
0.0
 11
69.7308808528
 21
266.5336019023
 31
0.0
  0
SPLINE
  5
A87
330
1B
100
AcDbEntity
  8
0
  6
Continuous
100
AcDbSpline
210
0.0
220
0.0
230
1.0
 70
     8
 71
     3
 72
    13
 73
     9
 74
     7
 42
0.0000000001
 43
0.0000000001
 44
0.0000000001
 40
0.0
 40
0.0
 40
0.0
 40
0.0
 40
0.0250331227080301
 40
0.0707387910128193
 40
0.13194596602252
 40
0.2011352379033596
 40
0.2698840074955504
 40
0.3300739611093464
 40
0.3300739611093464
 40
0.3300739611093464
 40
0.3300739611093464
 10
72.50051472680001
 20
266.5657378343
 30
0.0
 10
72.49286856343102
 20
266.5623400017784
 30
0.0
 10
72.47126197607402
 20
266.5527383804603
 30
0.0
 10
72.42751195838805
 20
266.5455047768783
 30
0.0
 10
72.36964293421166
 20
266.5364928553976
 30
0.0
 10
72.30349334921144
 20
266.5301331976017
 30
0.0
 10
72.23758622147223
 20
266.5256717861049
 30
0.0
 10
72.19459697690583
 20
266.5253881507637
 30
0.0
 10
72.17452914490001
 20
266.5252557468
 30
0.0
 11
72.50051472680001
 21
266.5657378343
 31
0.0
 11
72.4773447274
 21
266.556261107
 31
0.0
 11
72.4327098017
 21
266.5464258885
 31
0.0
 11
72.3721637435
 21
266.5374540933
 31
0.0
 11
72.3033303125
 21
266.5304459466
 31
0.0
 11
72.2347113126
 21
266.5262238413
 31
0.0
 11
72.17452914490001
 21
266.5252557468
 31
0.0
  0
SPLINE
  5
A88
330
1B
100
AcDbEntity
  8
0
  6
Continuous
100
AcDbSpline
210
0.0
220
0.0
230
1.0
 70
     8
 71
     3
 72
    10
 73
     6
 74
     4
 42
0.0000000001
 43
0.0000000001
 44
0.0000000001
 40
0.0
 40
0.0
 40
0.0
 40
0.0
 40
0.7913886824542562
 40
1.583412918954254
 40
2.374802088708527
 40
2.374802088708527
 40
2.374802088708527
 40
2.374802088708527
 10
72.17452914490001
 20
266.5252557468
 30
0.0
 10
71.91074720870462
 20
266.5281092089377
 30
0.0
 10
71.38297149644241
 20
266.5338184247917
 30
0.0
 10
70.59134934462645
 20
266.5338184271398
 30
0.0
 10
70.06357346992652
 20
266.5281092103061
 30
0.0
 10
69.7997913713
 20
266.5252557468
 30
0.0
 11
72.17452914490001
 21
266.5252557468
 31
0.0
 11
71.38317262
 21
266.5323899752
 31
0.0
 11
70.5911483835
 21
266.5323899774
 31
0.0
 11
69.7997913713
 21
266.5252557468
 31
0.0
  0
SPLINE
  5
A89
330
1B
100
AcDbEntity
  8
0
  6
Continuous
100
AcDbSpline
210
0.0
220
0.0
230
1.0
 70
     8
 71
     3
 72
    10
 73
     6
 74
     4
 42
0.0000000001
 43
0.0000000001
 44
0.0000000001
 40
0.0
 40
0.0
 40
0.0
 40
0.0
 40
0.2158155543678539
 40
0.4197924046969916
 40
0.5660998964757148
 40
0.5660998964757148
 40
0.5660998964757148
 40
0.5660998964757148
 10
72.50051472680001
 20
265.7657378343
 30
0.0
 10
72.557038122889
 20
265.8102380882046
 30
0.0
 10
72.66698428703521
 20
265.8967975053465
 30
0.0
 10
72.81606692112743
 20
266.0124822091075
 30
0.0
 10
72.90881122250904
 20
266.0834171562145
 30
0.0
 10
72.94754885499999
 20
266.1130454123
 30
0.0
 11
72.50051472680001
 21
265.7657378343
 31
0.0
 11
72.67024516870001
 21
265.8990342356
 31
0.0
 11
72.8314226249
 21
266.0240477672
 31
0.0
 11
72.94754885499999
 21
266.1130454123
 31
0.0
  0
SPLINE
  5
A8A
330
1B
100
AcDbEntity
  8
0
  6
Continuous
100
AcDbSpline
210
0.0
220
0.0
230
1.0
 70
    24
 71
     3
 72
     8
 73
     4
 74
     2
 42
0.0000000001
 43
0.0000000001
 44
0.0000000001
 40
0.0
 40
0.0
 40
0.0
 40
0.0
 40
0.0462958901271894
 40
0.0462958901271894
 40
0.0462958901271894
 40
0.0462958901271894
 10
72.94754885499999
 20
266.1130454123
 30
0.0
 10
72.95983044503333
 20
266.1223892894334
 30
0.0
 10
72.97211203506666
 20
266.1317331665667
 30
0.0
 10
72.98439362509998
 20
266.1410770437
 30
0.0
 11
72.94754885499999
 21
266.1130454123
 31
0.0
 11
72.98439362509998
 21
266.1410770437
 31
0.0
  0
SPLINE
  5
A8B
330
1B
100
AcDbEntity
  8
0
  6
Continuous
100
AcDbSpline
210
0.0
220
0.0
230
1.0
 70
     8
 71
     3
 72
    10
 73
     6
 74
     4
 42
0.0000000001
 43
0.0000000001
 44
0.0000000001
 40
0.0
 40
0.0
 40
0.0
 40
0.0
 40
0.2158387064324326
 40
0.4198031545911487
 40
0.6123955678742452
 40
0.6123955678742452
 40
0.6123955678742452
 40
0.6123955678742452
 10
72.50051472680001
 20
266.5657378343
 30
0.0
 10
72.55704490604568
 20
266.6102419159939
 30
0.0
 10
72.66699528505409
 20
266.696801709629
 30
0.0
 10
72.8282601933536
 20
266.8219598867253
 30
0.0
 10
72.93335373469486
 20
266.9021377430687
 30
0.0
 10
72.98439362509998
 20
266.9410770437
 30
0.0
 11
72.50051472680001
 21
266.5657378343
 31
0.0
 11
72.6702634191
 21
266.6990484815
 31
0.0
 11
72.8314311406
 21
266.824054328
 31
0.0
 11
72.98439362509998
 21
266.9410770437
 31
0.0
  0
SPLINE
  5
A8C
330
1B
100
AcDbEntity
  8
0
  6
Continuous
100
AcDbSpline
210
0.0
220
0.0
230
1.0
 70
     8
 71
     3
 72
    10
 73
     6
 74
     4
 42
0.0000000001
 43
0.0000000001
 44
0.0000000001
 40
0.0
 40
0.0
 40
0.0
 40
0.0
 40
0.3821463144343141
 40
0.7781548185394639
 40
1.188098495959381
 40
1.188098495959381
 40
1.188098495959381
 40
1.188098495959381
 10
69.7997913713
 20
265.6671535991
 30
0.0
 10
69.92695900315083
 20
265.674654181649
 30
0.0
 10
70.18590721683033
 20
265.6899274270838
 30
0.0
 10
70.58186604482464
 20
265.7005189171454
 30
0.0
 10
70.85051385131752
 20
265.7019710739617
 30
0.0
 10
70.98716025820001
 20
265.7027097065
 30
0.0
 11
69.7997913713
 21
265.6671535991
 31
0.0
 11
70.1813879035
 21
265.6876448716
 31
0.0
 11
70.57723326990001
 21
265.6990106634
 31
0.0
 11
70.98716025820001
 21
265.7027097065
 31
0.0
  0
SPLINE
  5
A8D
330
1B
100
AcDbEntity
  8
0
  6
Continuous
100
AcDbSpline
210
0.0
220
0.0
230
1.0
 70
     8
 71
     3
 72
    13
 73
     9
 74
     7
 42
0.0000000001
 43
0.0000000001
 44
0.0000000001
 40
0.0
 40
0.0
 40
0.0
 40
0.0
 40
0.0476878422421202
 40
0.1035227920114461
 40
0.1646563900783293
 40
0.2261628902772085
 40
0.2791507608139419
 40
0.3185075461580982
 40
0.3185075461580982
 40
0.3185075461580982
 40
0.3185075461580982
 10
72.17452914490001
 20
265.6671535991
 30
0.0
 10
72.19047628168846
 20
265.6674275741439
 30
0.0
 10
72.22509500309228
 20
265.6680223307976
 30
0.0
 10
72.27846275737474
 20
265.6825095258749
 30
0.0
 10
72.33452616143593
 20
265.7021997627979
 30
0.0
 10
72.38892613983396
 20
265.7238929972823
 30
0.0
 10
72.43654624856697
 20
265.7429779695252
 30
0.0
 10
72.46583085150616
 20
265.7524864680377
 30
0.0
 10
72.47831178849999
 20
265.7565389379
 30
0.0
 11
72.17452914490001
 21
265.6671535991
 31
0.0
 11
72.2221444915
 21
265.6697821093
 31
0.0
 11
72.27647908500001
 21
265.6826387638
 31
0.0
 11
72.3342755764
 21
265.7025606712
 31
0.0
 11
72.3915573167
 21
265.7249627201
 31
0.0
 11
72.4409964947
 21
265.7440279267
 31
0.0
 11
72.47831178849999
 21
265.7565389379
 31
0.0
  0
SPLINE
  5
A8E
330
1B
100
AcDbEntity
  8
0
  6
Continuous
100
AcDbSpline
210
0.0
220
0.0
230
1.0
 70
     8
 71
     3
 72
    10
 73
     6
 74
     4
 42
0.0000000001
 43
0.0000000001
 44
0.0000000001
 40
0.0
 40
0.0
 40
0.0
 40
0.0
 40
0.4098907285958663
 40
0.8058968662627488
 40
1.188098493663014
 40
1.188098493663014
 40
1.188098493663014
 40
1.188098493663014
 10
70.98716025820001
 20
265.7027097065
 30
0.0
 10
71.12378901507147
 20
265.7019712472305
 30
0.0
 10
71.39241838217447
 20
265.7005193431752
 30
0.0
 10
71.78837723909604
 20
265.6899290582734
 30
0.0
 10
72.04734309506273
 20
265.6746551047042
 30
0.0
 10
72.17452914490001
 20
265.6671535991
 30
0.0
 11
70.98716025820001
 21
265.7027097065
 31
0.0
 11
71.39703430430001
 21
265.6990116364
 31
0.0
 11
71.79287733889998
 21
265.687647085
 31
0.0
 11
72.17452914490001
 21
265.6671535991
 31
0.0
  0
SPLINE
  5
A8F
330
1B
100
AcDbEntity
  8
0
  6
Continuous
100
AcDbSpline
210
0.0
220
0.0
230
1.0
 70
     8
 71
     3
 72
     9
 73
     5
 74
     3
 42
0.0000000001
 43
0.0000000001
 44
0.0000000001
 40
0.0
 40
0.0
 40
0.0
 40
0.0
 40
0.0159276332842759
 40
0.3664839867016925
 40
0.3664839867016925
 40
0.3664839867016925
 40
0.3664839867016925
 10
75.70071519329999
 20
254.037772019
 30
0.0
 10
75.70602004180189
 20
254.0379872049474
 30
0.0
 10
75.82808099041434
 20
254.0429384869426
 30
0.0
 10
75.95014580082629
 20
254.0477939199145
 30
0.0
 10
76.06690559490001
 20
254.0524383326
 30
0.0
 11
75.70071519329999
 21
254.037772019
 31
0.0
 11
75.7166297461
 21
254.0384173958
 31
0.0
 11
76.06690559490001
 21
254.0524383326
 31
0.0
  0
SPLINE
  5
A90
330
1B
100
AcDbEntity
  8
0
  6
Continuous
100
AcDbSpline
210
0.0
220
0.0
230
1.0
 70
     8
 71
     3
 72
     9
 73
     5
 74
     3
 42
0.0000000001
 43
0.0000000001
 44
0.0000000001
 40
0.0
 40
0.0
 40
0.0
 40
0.0
 40
0.2626083028611591
 40
0.7220824665438728
 40
0.7220824665438728
 40
0.7220824665438728
 40
0.7220824665438728
 10
89.4857017273
 20
254.4994140816
 30
0.0
 10
89.57318782512741
 20
254.5023724415548
 30
0.0
 10
89.81374448925126
 20
254.5105069134271
 30
0.0
 10
90.05429649390734
 20
254.5187781312531
 30
0.0
 10
90.20736409529999
 20
254.5240412571
 30
0.0
 11
89.4857017273
 21
254.4994140816
 31
0.0
 11
89.7481594045
 21
254.5083072481
 31
0.0
 11
90.20736409529999
 21
254.5240412571
 31
0.0
  0
SPLINE
  5
A91
330
1B
100
AcDbEntity
  8
0
  6
Continuous
100
AcDbSpline
210
0.0
220
0.0
230
1.0
 70
     8
 71
     3
 72
     9
 73
     5
 74
     3
 42
0.0000000001
 43
0.0000000001
 44
0.0000000001
 40
0.0
 40
0.0
 40
0.0
 40
0.0
 40
0.1377469277765847
 40
0.1815885198973988
 40
0.1815885198973988
 40
0.1815885198973988
 40
0.1815885198973988
 10
75.83788941730001
 20
236.1604741012
 30
0.0
 10
75.79201037433842
 20
236.1586411464249
 30
0.0
 10
75.7315291161341
 20
236.1562248054579
 30
0.0
 10
75.67104878678558
 20
236.1537853450133
 30
0.0
 10
75.65644679579999
 20
236.153196377
 30
0.0
 11
75.83788941730001
 21
236.1604741012
 31
0.0
 11
75.7002528229
 21
236.1549619334
 31
0.0
 11
75.65644679579999
 21
236.153196377
 31
0.0
  0
SPLINE
  5
A92
330
1B
100
AcDbEntity
  8
0
  6
Continuous
100
AcDbSpline
210
0.0
220
0.0
230
1.0
 70
    24
 71
     3
 72
     8
 73
     4
 74
     2
 42
0.0000000001
 43
0.0000000001
 44
0.0000000001
 40
0.0
 40
0.0
 40
0.0
 40
0.0
 40
0.2105618505140192
 40
0.2105618505140192
 40
0.2105618505140192
 40
0.2105618505140192
 10
75.8737605619
 20
238.9625944465
 30
0.0
 10
75.80363200286668
 20
238.9597239110667
 30
0.0
 10
75.73350344383334
 20
238.9568533756334
 30
0.0
 10
75.66337488480001
 20
238.9539828402
 30
0.0
 11
75.8737605619
 21
238.9625944465
 31
0.0
 11
75.66337488480001
 21
238.9539828402
 31
0.0
  0
SPLINE
  5
A93
330
1B
100
AcDbEntity
  8
0
  6
Continuous
100
AcDbSpline
210
0.0
220
0.0
230
1.0
 70
    24
 71
     3
 72
     8
 73
     4
 74
     2
 42
0.0000000001
 43
0.0000000001
 44
0.0000000001
 40
0.0
 40
0.0
 40
0.0
 40
0.0
 40
0.1816086985260527
 40
0.1816086985260527
 40
0.1816086985260527
 40
0.1816086985260527
 10
75.6564411403
 20
236.1539944842
 30
0.0
 10
75.71692582243333
 20
236.1564922259666
 30
0.0
 10
75.77741050456665
 20
236.1589899677333
 30
0.0
 10
75.8378951867
 20
236.1614877095
 30
0.0
 11
75.6564411403
 21
236.1539944842
 31
0.0
 11
75.8378951867
 21
236.1614877095
 31
0.0
  0
SPLINE
  5
A94
330
1B
100
AcDbEntity
  8
0
  6
Continuous
100
AcDbSpline
210
0.0
220
0.0
230
1.0
 70
    24
 71
     3
 72
     8
 73
     4
 74
     2
 42
0.0000000001
 43
0.0000000001
 44
0.0000000001
 40
0.0
 40
0.0
 40
0.0
 40
0.0
 40
0.2000715666768644
 40
0.2000715666768644
 40
0.2000715666768644
 40
0.2000715666768644
 10
90.22443810229999
 20
244.1555444863
 30
0.0
 10
90.15787889079999
 20
244.1513615305
 30
0.0
 10
90.0913196793
 20
244.1471785747
 30
0.0
 10
90.02476046779999
 20
244.1429956189
 30
0.0
 11
90.22443810229999
 21
244.1555444863
 31
0.0
 11
90.02476046779999
 21
244.1429956189
 31
0.0
  0
SPLINE
  5
A95
330
1B
100
AcDbEntity
  8
0
  6
Continuous
100
AcDbSpline
210
0.0
220
0.0
230
1.0
 70
     8
 71
     3
 72
     9
 73
     5
 74
     3
 42
0.0000000001
 43
0.0000000001
 44
0.0000000001
 40
0.0
 40
0.0
 40
0.0
 40
0.0
 40
0.0273296514156926
 40
0.2557617855871778
 40
0.2557617855871778
 40
0.2557617855871778
 40
0.2557617855871778
 10
75.9291346894
 20
243.289029409
 30
0.0
 10
75.9200481871185
 20
243.2883771352787
 30
0.0
 10
75.83501307222048
 20
243.2822728974639
 30
0.0
 10
75.74998362762192
 20
243.2760900450026
 30
0.0
 10
75.6740400794
 20
243.2705678667
 30
0.0
 11
75.9291346894
 21
243.289029409
 31
0.0
 11
75.9018752473
 21
243.2870716902
 31
0.0
 11
75.6740400794
 21
243.2705678667
 31
0.0
  0
SPLINE
  5
A96
330
1B
100
AcDbEntity
  8
0
  6
Continuous
100
AcDbSpline
210
0.0
220
0.0
230
1.0
 70
     8
 71
     3
 72
     9
 73
     5
 74
     3
 42
0.0000000001
 43
0.0000000001
 44
0.0000000001
 40
0.0
 40
0.0
 40
0.0
 40
0.0
 40
0.3284844135623031
 40
0.7317718434658689
 40
0.7317718434658689
 40
0.7317718434658689
 40
0.7317718434658689
 10
90.2160641875
 20
249.2425177274
 30
0.0
 10
90.10678504107682
 20
249.23564880056
 30
0.0
 10
89.86334151947031
 20
249.2203467434492
 30
0.0
 10
89.61988126135535
 20
249.2053132358894
 30
0.0
 10
89.48570766250001
 20
249.1970281062
 30
0.0
 11
90.2160641875
 21
249.2425177274
 31
0.0
 11
89.8882233758
 21
249.22196506
 31
0.0
 11
89.48570766250001
 21
249.1970281062
 31
0.0
  0
SPLINE
  5
A97
330
1B
100
AcDbEntity
  8
0
  6
Continuous
100
AcDbSpline
210
0.0
220
0.0
230
1.0
 70
    24
 71
     3
 72
     8
 73
     4
 74
     2
 42
0.0000000001
 43
0.0000000001
 44
0.0000000001
 40
0.0
 40
0.0
 40
0.0
 40
0.0
 40
0.3084742430885032
 40
0.3084742430885032
 40
0.3084742430885032
 40
0.3084742430885032
 10
75.9943144702
 20
248.38119727
 30
0.0
 10
75.89175656643332
 20
248.3737942224
 30
0.0
 10
75.78919866266666
 20
248.3663911748
 30
0.0
 10
75.6866407589
 20
248.3589881272
 30
0.0
 11
75.9943144702
 21
248.38119727
 31
0.0
 11
75.6866407589
 21
248.3589881272
 31
0.0
  0
SPLINE
  5
A98
330
1B
100
AcDbEntity
  8
0
  6
Continuous
100
AcDbSpline
210
0.0
220
0.0
230
1.0
 70
    24
 71
     3
 72
     8
 73
     4
 74
     2
 42
0.0000000001
 43
0.0000000001
 44
0.0000000001
 40
0.0
 40
0.0
 40
0.0
 40
0.0
 40
0.3319101677209089
 40
0.3319101677209089
 40
0.3319101677209089
 40
0.3319101677209089
 10
75.6922500984
 20
250.6303252288
 30
0.0
 10
75.80262775530001
 20
250.6378920801334
 30
0.0
 10
75.91300541220001
 20
250.6454589314667
 30
0.0
 10
76.02338306910001
 20
250.6530257828
 30
0.0
 11
75.6922500984
 21
250.6303252288
 31
0.0
 11
76.02338306910001
 21
250.6530257828
 31
0.0
  0
SPLINE
  5
A99
330
1B
100
AcDbEntity
  8
0
  6
Continuous
100
AcDbSpline
210
0.0
220
0.0
230
1.0
 70
     8
 71
     3
 72
     9
 73
     5
 74
     3
 42
0.0000000001
 43
0.0000000001
 44
0.0000000001
 40
0.0
 40
0.0
 40
0.0
 40
0.0
 40
0.5010113446939841
 40
0.7277489243521935
 40
0.7277489243521935
 40
0.7277489243521935
 40
0.7277489243521935
 10
89.485702855
 20
251.3751234924
 30
0.0
 10
89.65248762604033
 20
251.3836736613955
 30
0.0
 10
89.89475247494721
 20
251.3960932929175
 30
0.0
 10
90.13700960821826
 20
251.4086624149
 30
0.0
 10
90.21248728219999
 20
251.4125784527
 30
0.0
 11
89.485702855
 21
251.3751234924
 31
0.0
 11
89.98605351130001
 21
251.4008448503
 31
0.0
 11
90.21248728219999
 21
251.4125784527
 31
0.0
  0
SPLINE
  5
A9A
330
1B
100
AcDbEntity
  8
0
  6
Continuous
100
AcDbSpline
210
0.0
220
0.0
230
1.0
 70
    24
 71
     3
 72
     8
 73
     4
 74
     2
 42
0.0000000001
 43
0.0000000001
 44
0.0000000001
 40
0.0
 40
0.0
 40
0.0
 40
0.0
 40
0.226729170405924
 40
0.226729170405924
 40
0.226729170405924
 40
0.226729170405924
 10
75.6671103429
 20
240.4682949703
 30
0.0
 10
75.74248312250001
 20
240.4738388715667
 30
0.0
 10
75.81785590210001
 20
240.4793827728333
 30
0.0
 10
75.8932286817
 20
240.4849266741
 30
0.0
 11
75.6671103429
 21
240.4682949703
 31
0.0
 11
75.8932286817
 21
240.4849266741
 31
0.0
  0
SPLINE
  5
A9B
330
1B
100
AcDbEntity
  8
0
  6
Continuous
100
AcDbSpline
210
0.0
220
0.0
230
1.0
 70
     8
 71
     3
 72
     9
 73
     5
 74
     3
 42
0.0000000001
 43
0.0000000001
 44
0.0000000001
 40
0.0
 40
0.0
 40
0.0
 40
0.0
 40
0.222516189549229
 40
0.2794619764252097
 40
0.2794619764252097
 40
0.2794619764252097
 40
0.2794619764252097
 10
75.679706912
 20
245.5567297303
 30
0.0
 10
75.75367788874686
 20
245.562187860369
 30
0.0
 10
75.84657933291439
 20
245.5690428214383
 30
0.0
 10
75.93948820765601
 20
245.5757961735014
 30
0.0
 10
75.95842018919998
 20
245.5771722997
 30
0.0
 11
75.679706912
 21
245.5567297303
 31
0.0
 11
75.90162455310001
 21
245.5730397021
 31
0.0
 11
75.95842018919998
 21
245.5771722997
 31
0.0
  0
SPLINE
  5
A9C
330
1B
100
AcDbEntity
  8
0
  6
Continuous
100
AcDbSpline
210
0.0
220
0.0
230
1.0
 70
    24
 71
     3
 72
     8
 73
     4
 74
     2
 42
0.0000000001
 43
0.0000000001
 44
0.0000000001
 40
0.0
 40
0.0
 40
0.0
 40
0.0
 40
0.7363657468630328
 40
0.7363657468630328
 40
0.7363657468630328
 40
0.7363657468630328
 10
89.4857065105
 20
246.3976042678
 30
0.0
 10
89.7306922388
 20
246.4127789891667
 30
0.0
 10
89.9756779671
 20
246.4279537105333
 30
0.0
 10
90.22066369540001
 20
246.4431284319
 30
0.0
 11
89.4857065105
 21
246.3976042678
 31
0.0
 11
90.22066369540001
 21
246.4431284319
 31
0.0
  0
SPLINE
  5
A9D
330
1B
100
AcDbEntity
  8
0
  6
Continuous
100
AcDbSpline
210
0.0
220
0.0
230
1.0
 70
     8
 71
     3
 72
     9
 73
     5
 74
     3
 42
0.0000000001
 43
0.0000000001
 44
0.0000000001
 40
0.0
 40
0.0
 40
0.0
 40
0.0
 40
0.4363641663153092
 40
0.7231444882390379
 40
0.7231444882390379
 40
0.7231444882390379
 40
0.7231444882390379
 10
90.20788163899998
 20
254.2117235295
 30
0.0
 10
90.06262360107499
 20
254.2041617785696
 30
0.0
 10
89.82190138415959
 20
254.1916304138773
 30
0.0
 10
89.58117129565733
 20
254.1792512496933
 30
0.0
 10
89.48570399499999
 20
254.1743419947
 30
0.0
 11
90.20788163899998
 21
254.2117235295
 31
0.0
 11
89.77210465899998
 21
254.1890936964
 31
0.0
 11
89.48570399499999
 21
254.1743419947
 31
0.0
  0
SPLINE
  5
A9E
330
1B
100
AcDbEntity
  8
0
  6
Continuous
100
AcDbSpline
210
0.0
220
0.0
230
1.0
 70
    24
 71
     3
 72
     8
 73
     4
 74
     2
 42
0.0000000001
 43
0.0000000001
 44
0.0000000001
 40
0.0
 40
0.0
 40
0.0
 40
0.0
 40
0.3608569506117482
 40
0.3608569506117482
 40
0.3608569506117482
 40
0.3608569506117482
 10
76.0592397787
 20
253.4564816792
 30
0.0
 10
75.9392271018
 20
253.4483826034333
 30
0.0
 10
75.8192144249
 20
253.4402835276667
 30
0.0
 10
75.69920174799999
 20
253.4321844519
 30
0.0
 11
76.0592397787
 21
253.4564816792
 31
0.0
 11
75.69920174799999
 21
253.4321844519
 31
0.0
  0
SPLINE
  5
A9F
330
1B
100
AcDbEntity
  8
0
  6
Continuous
100
AcDbSpline
210
0.0
220
0.0
230
1.0
 70
     8
 71
     3
 72
    10
 73
     6
 74
     4
 42
0.0000000001
 43
0.0000000001
 44
0.0000000001
 40
0.0
 40
0.0
 40
0.0
 40
0.0
 40
0.0621427480317242
 40
0.1252609421546615
 40
0.1576867365361137
 40
0.1576867365361137
 40
0.1576867365361137
 40
0.1576867365361137
 10
183.8468232497
 20
314.67146917
 30
0.0
 10
183.8675802089128
 20
314.6733852521986
 30
0.0
 10
183.9094199464464
 20
314.6772474930719
 30
0.0
 10
183.9575764775101
 20
314.7020853909083
 30
0.0
 10
183.9810789336484
 20
314.7235834905436
 30
0.0
 10
183.9890552158
 20
314.7308795326
 30
0.0
 11
183.8468232497
 21
314.67146917
 31
0.0
 11
183.9082115753
 21
314.6811229057
 31
0.0
 11
183.9644726031
 21
314.7097341479
 31
0.0
 11
183.9890552158
 21
314.7308795326
 31
0.0
  0
SPLINE
  5
AA0
330
1B
100
AcDbEntity
  8
0
  6
Continuous
100
AcDbSpline
210
0.0
220
0.0
230
1.0
 70
     8
 71
     3
 72
    10
 73
     6
 74
     4
 42
0.0000000001
 43
0.0000000001
 44
0.0000000001
 40
0.0
 40
0.0
 40
0.0
 40
0.0
 40
0.0319644101885019
 40
0.0953552746527954
 40
0.1576798589671689
 40
0.1576798589671689
 40
0.1576798589671689
 40
0.1576798589671689
 10
183.9890533275
 20
397.7342461489
 30
0.0
 10
183.981195697541
 20
397.7414431179491
 30
0.0
 10
183.9577550503199
 20
397.7629129012578
 30
0.0
 10
183.90963433547
 20
397.7878407293151
 30
0.0
 10
183.8676415549649
 20
397.7917276486604
 30
0.0
 10
183.8468232497
 20
397.7936546245
 30
0.0
 11
183.9890533275
 21
397.7342461489
 31
0.0
 11
183.9648444485
 21
397.7551184678
 31
0.0
 11
183.9083867418
 21
397.7839443078
 31
0.0
 11
183.8468232497
 21
397.7936546245
 31
0.0
  0
SPLINE
  5
AA1
330
1B
100
AcDbEntity
  8
0
  6
Continuous
100
AcDbSpline
210
0.0
220
0.0
230
1.0
 70
     8
 71
     3
 72
    10
 73
     6
 74
     4
 42
0.0000000001
 43
0.0000000001
 44
0.0000000001
 40
0.0
 40
0.0
 40
0.0
 40
0.0
 40
0.0621427480317242
 40
0.1252609422000615
 40
0.1576867365162455
 40
0.1576867365162455
 40
0.1576867365162455
 40
0.1576867365162455
 10
165.1245768733
 20
397.7936546245
 30
0.0
 10
165.1038199140799
 20
397.7917385423135
 30
0.0
 10
165.0619801765165
 20
397.787876301463
 30
0.0
 10
165.0138236455537
 20
397.7630384034686
 30
0.0
 10
164.9903211893571
 20
397.7415403039155
 30
0.0
 10
164.9823449072
 20
397.7342442619
 30
0.0
 11
165.1245768733
 21
397.7936546245
 31
0.0
 11
165.0631885477
 21
397.7840008888
 31
0.0
 11
165.0069275198999
 21
397.7553896465
 31
0.0
 11
164.9823449072
 21
397.7342442619
 31
0.0
  0
SPLINE
  5
AA2
330
1B
100
AcDbEntity
  8
0
  6
Continuous
100
AcDbSpline
210
0.0
220
0.0
230
1.0
 70
     8
 71
     3
 72
    10
 73
     6
 74
     4
 42
0.0000000001
 43
0.0000000001
 44
0.0000000001
 40
0.0
 40
0.0
 40
0.0
 40
0.0
 40
0.031964410264251
 40
0.0953552745939999
 40
0.1576798589083734
 40
0.1576798589083734
 40
0.1576798589083734
 40
0.1576798589083734
 10
164.9823467955
 20
314.7308776455
 30
0.0
 10
164.9902044254931
 20
314.7236806764511
 30
0.0
 10
165.0136450727457
 20
314.7022108932069
 30
0.0
 10
165.0617657875726
 20
314.6772830651809
 30
0.0
 10
165.1037585680344
 20
314.6733961458397
 30
0.0
 10
165.1245768733
 20
314.67146917
 30
0.0
 11
164.9823467955
 21
314.7308776455
 31
0.0
 11
165.0065556746
 21
314.7100053266
 31
0.0
 11
165.0630133812
 21
314.6811794867
 31
0.0
 11
165.1245768733
 21
314.67146917
 31
0.0
  0
SPLINE
  5
AA3
330
1B
100
AcDbEntity
  8
0
  6
Continuous
100
AcDbSpline
210
0.0
220
0.0
230
1.0
 70
     8
 71
     3
 72
     9
 73
     5
 74
     3
 42
0.0000000001
 43
0.0000000001
 44
0.0000000001
 40
0.0
 40
0.0
 40
0.0
 40
0.0
 40
0.10499289279705
 40
0.1175122123568051
 40
0.1175122123568051
 40
0.1175122123568051
 40
0.1175122123568051
 10
172.7867344922
 20
397.3803895191
 30
0.0
 10
172.7515712122069
 20
397.3780466417303
 30
0.0
 10
172.7122150737519
 20
397.3754244003987
 30
0.0
 10
172.6746191589934
 20
397.3643449303513
 30
0.0
 10
172.6706138283
 20
397.3631645643
 30
0.0
 11
172.7867344922
 21
397.3803895191
 31
0.0
 11
172.6826497989
 21
397.366609673
 31
0.0
 11
172.6706138283
 21
397.3631645643
 31
0.0
  0
SPLINE
  5
AA4
330
1B
100
AcDbEntity
  8
0
  6
Continuous
100
AcDbSpline
210
0.0
220
0.0
230
1.0
 70
     8
 71
     3
 72
     9
 73
     5
 74
     3
 42
0.0000000001
 43
0.0000000001
 44
0.0000000001
 40
0.0
 40
0.0
 40
0.0
 40
0.0
 40
0.0125193193810402
 40
0.1175122120585691
 40
0.1175122120585691
 40
0.1175122120585691
 40
0.1175122120585691
 10
176.3007862945
 20
397.363164564
 30
0.0
 10
176.2967809638383
 20
397.3643449299447
 30
0.0
 10
176.2591850489363
 20
397.3754243991218
 30
0.0
 10
176.2198289107248
 20
397.378046641126
 30
0.0
 10
176.1846656309
 20
397.3803895191
 30
0.0
 11
176.3007862945
 21
397.363164564
 31
0.0
 11
176.288750324
 21
397.3666096724
 31
0.0
 11
176.1846656309
 21
397.3803895191
 31
0.0
  0
SPLINE
  5
AA5
330
1B
100
AcDbEntity
  8
0
  6
Continuous
100
AcDbSpline
210
0.0
220
0.0
230
1.0
 70
     8
 71
     3
 72
     9
 73
     5
 74
     3
 42
0.0000000001
 43
0.0000000001
 44
0.0000000001
 40
0.0
 40
0.0
 40
0.0
 40
0.0
 40
0.0125193193810245
 40
0.1175122121708347
 40
0.1175122121708347
 40
0.1175122121708347
 40
0.1175122121708347
 10
172.6706138285
 20
315.1019592305
 30
0.0
 10
172.6746191591617
 20
315.1007788645555
 30
0.0
 10
172.7122150741001
 20
315.0896993953703
 30
0.0
 10
172.7515712123431
 20
315.0870771533176
 30
0.0
 10
172.7867344922
 20
315.0847342753
 30
0.0
 11
172.6706138285
 21
315.1019592305
 31
0.0
 11
172.682649799
 21
315.0985141221
 31
0.0
 11
172.7867344922
 21
315.0847342753
 31
0.0
  0
SPLINE
  5
AA6
330
1B
100
AcDbEntity
  8
0
  6
Continuous
100
AcDbSpline
210
0.0
220
0.0
230
1.0
 70
     8
 71
     3
 72
     9
 73
     5
 74
     3
 42
0.0000000001
 43
0.0000000001
 44
0.0000000001
 40
0.0
 40
0.0
 40
0.0
 40
0.0
 40
0.1049928927110296
 40
0.1175122122432698
 40
0.1175122122432698
 40
0.1175122122432698
 40
0.1175122122432698
 10
176.1846656309
 20
315.0847342753
 30
0.0
 10
176.2198289108242
 20
315.0870771528365
 30
0.0
 10
176.2591850491963
 20
315.0896993943543
 30
0.0
 10
176.2967809640061
 20
315.1007788640841
 30
0.0
 10
176.3007862947
 20
315.1019592301
 30
0.0
 11
176.1846656309
 21
315.0847342753
 31
0.0
 11
176.2887503241
 21
315.0985141215
 31
0.0
 11
176.3007862947
 21
315.1019592301
 31
0.0
  0
SPLINE
  5
AA7
330
1B
100
AcDbEntity
  8
0
  6
Continuous
100
AcDbSpline
210
0.0
220
0.0
230
1.0
 70
     8
 71
     3
 72
    15
 73
    11
 74
     9
 42
0.0000000001
 43
0.0000000001
 44
0.0000000001
 40
0.0
 40
0.0
 40
0.0
 40
0.0
 40
0.2522605160692675
 40
0.5170487873425909
 40
0.791728152327283
 40
1.077989545109405
 40
1.38351031045943
 40
1.714590761950506
 40
2.084549351276266
 40
2.498765987179677
 40
2.498765987179677
 40
2.498765987179677
 40
2.498765987179677
 10
75.47177088780001
 20
194.4049066018
 30
0.0
 10
75.53735023714856
 20
194.3520226770767
 30
0.0
 10
75.67176573579157
 20
194.2436285075327
 30
0.0
 10
75.84310381548724
 20
194.0410108503806
 30
0.0
 10
75.99353549634489
 20
193.809835418704
 30
0.0
 10
76.11779362404718
 20
193.5481560897505
 30
0.0
 10
76.21356940532957
 20
193.2548507071724
 30
0.0
 10
76.27367445201841
 20
192.9239904094107
 30
0.0
 10
76.29160557897079
 20
192.5504404833146
 30
0.0
 10
76.25076669537818
 20
192.2916204089448
 30
0.0
 10
76.2291948012
 20
192.1549066018
 30
0.0
 11
75.47177088780001
 21
194.4049066018
 31
0.0
 11
75.66314825169999
 21
194.2405591876
 31
0.0
 11
75.83651454779999
 21
194.0404168483
 31
0.0
 11
75.9862105254
 21
193.8101129885
 31
0.0
 11
76.109544339
 21
193.5517830533
 31
0.0
 11
76.2044552528
 21
193.2613784106
 31
0.0
 11
76.26453010589999
 21
192.9357938941
 31
0.0
 11
76.2789979568
 21
192.5661183078
 31
0.0
 11
76.2291948012
 21
192.1549066018
 31
0.0
  0
SPLINE
  5
AA8
330
1B
100
AcDbEntity
  8
0
  6
Continuous
100
AcDbSpline
210
0.0
220
0.0
230
1.0
 70
     8
 71
     3
 72
    15
 73
    11
 74
     9
 42
0.0000000001
 43
0.0000000001
 44
0.0000000001
 40
0.0
 40
0.0
 40
0.0
 40
0.0
 40
0.4142161172288237
 40
0.7841739016097744
 40
1.11525355569952
 40
1.420773820471974
 40
1.707035268029537
 40
1.981715296761308
 40
2.246504584608396
 40
2.498765988636608
 40
2.498765988636608
 40
2.498765988636608
 40
2.498765988636608
 10
92.74220532180001
 20
192.1549066018
 30
0.0
 10
92.72063344586763
 20
192.2916202355883
 30
0.0
 10
92.67979461461182
 20
192.550439868992
 30
0.0
 10
92.69772556223046
 20
192.9239890826186
 30
0.0
 10
92.75783024933845
 20
193.2548487273689
 30
0.0
 10
92.85360560439251
 20
193.5481538077334
 30
0.0
 10
92.97786345778124
 20
193.8098333473435
 30
0.0
 10
93.1282952052361
 20
194.0410094285143
 30
0.0
 10
93.2996336859557
 20
194.24362788669
 30
0.0
 10
93.43404966317884
 20
194.3520224793091
 30
0.0
 10
93.49962923530001
 20
194.4049066018
 30
0.0
 11
92.74220532180001
 21
192.1549066018
 31
0.0
 11
92.6924021849
 21
192.5661177876
 31
0.0
 11
92.70686986559998
 21
192.935792575
 31
0.0
 11
92.7669443417
 21
193.2613763502
 31
0.0
 11
92.86185480499999
 21
193.5517806135
 31
0.0
 11
92.98518833960002
 21
193.8101107426
 31
0.0
 11
93.13488442880001
 21
194.0404153215
 31
0.0
 11
93.3082512412
 21
194.2405585585
 31
0.0
 11
93.49962923530001
 21
194.4049066018
 31
0.0
  0
SPLINE
  5
AA9
330
1B
100
AcDbEntity
  8
0
  6
Continuous
100
AcDbSpline
210
0.0
220
0.0
230
1.0
 70
    24
 71
     3
 72
     8
 73
     4
 74
     2
 42
0.0000000001
 43
0.0000000001
 44
0.0000000001
 40
0.0
 40
0.0
 40
0.0
 40
0.0
 40
0.4555631415102134
 40
0.4555631415102134
 40
0.4555631415102134
 40
0.4555631415102134
 10
71.01263350089999
 20
194.8511670907
 30
0.0
 10
70.9821023657
 20
194.7024135944
 30
0.0
 10
70.95157123050001
 20
194.5536600981
 30
0.0
 10
70.9210400953
 20
194.4049066018
 30
0.0
 11
71.01263350089999
 21
194.8511670907
 31
0.0
 11
70.9210400953
 21
194.4049066018
 31
0.0
  0
SPLINE
  5
AAA
330
1B
100
AcDbEntity
  8
0
  6
Continuous
100
AcDbSpline
210
0.0
220
0.0
230
1.0
 70
     8
 71
     3
 72
    10
 73
     6
 74
     4
 42
0.0000000001
 43
0.0000000001
 44
0.0000000001
 40
0.0
 40
0.0
 40
0.0
 40
0.0
 40
0.2992997914089984
 40
0.5896078765311108
 40
0.7298132873565577
 40
0.7298132873565577
 40
0.7298132873565577
 40
0.7298132873565577
 10
93.49962923530001
 20
194.4049066018
 30
0.0
 10
93.58146873797479
 20
194.4627503139334
 30
0.0
 10
93.74268908216976
 20
194.576699969966
 30
0.0
 10
93.981776812482
 20
194.6466054788355
 30
0.0
 10
94.12518920702101
 20
194.6528200280076
 30
0.0
 10
94.1718943484
 20
194.6548439214
 30
0.0
 11
93.49962923530001
 21
194.4049066018
 31
0.0
 11
93.7533770969
 21
194.5636277027
 31
0.0
 11
94.03203088759999
 21
194.6450577292
 31
0.0
 11
94.1718943484
 21
194.6548439214
 31
0.0
  0
SPLINE
  5
AAB
330
1B
100
AcDbEntity
  8
0
  6
Continuous
100
AcDbSpline
210
0.0
220
0.0
230
1.0
 70
    24
 71
     3
 72
     8
 73
     4
 74
     2
 42
0.0000000001
 43
0.0000000001
 44
0.0000000001
 40
0.0
 40
0.0
 40
0.0
 40
0.0
 40
0.4555631415303193
 40
0.4555631415303193
 40
0.4555631415303193
 40
0.4555631415303193
 10
98.0503600278
 20
194.4049066018
 30
0.0
 10
98.01982889256667
 20
194.5536600981
 30
0.0
 10
97.98929775733333
 20
194.7024135944
 30
0.0
 10
97.9587666221
 20
194.8511670907
 30
0.0
 11
98.0503600278
 21
194.4049066018
 31
0.0
 11
97.9587666221
 21
194.8511670907
 31
0.0
  0
SPLINE
  5
AAC
330
1B
100
AcDbEntity
  8
0
  6
Continuous
100
AcDbSpline
210
0.0
220
0.0
230
1.0
 70
     8
 71
     3
 72
    10
 73
     6
 74
     4
 42
0.0000000001
 43
0.0000000001
 44
0.0000000001
 40
0.0
 40
0.0
 40
0.0
 40
0.0
 40
0.1400879027638286
 40
0.4303961437360919
 40
0.7298196417626148
 40
0.7298196417626148
 40
0.7298196417626148
 40
0.7298196417626148
 10
74.7994985282
 20
194.6548439528
 30
0.0
 10
74.84616448953358
 20
194.6528237099028
 30
0.0
 10
74.98953768168967
 20
194.6466168588099
 30
0.0
 10
75.2286371579463
 20
194.5767423265734
 30
0.0
 10
75.38989547521786
 20
194.4627723733268
 30
0.0
 10
75.47177088780001
 20
194.4049066018
 30
0.0
 11
74.7994985282
 21
194.6548439528
 31
0.0
 11
74.9392454179
 21
194.645075262
 31
0.0
 11
75.2179092672
 21
194.5636791081
 31
0.0
 11
75.47177088780001
 21
194.4049066018
 31
0.0
  0
SPLINE
  5
AAD
330
1B
100
AcDbEntity
  8
0
  6
Continuous
100
AcDbSpline
210
0.0
220
0.0
230
1.0
 70
     8
 71
     3
 72
    12
 73
     8
 74
     6
 42
0.0000000001
 43
0.0000000001
 44
0.0000000001
 40
0.0
 40
0.0
 40
0.0
 40
0.0
 40
0.30797688646573
 40
0.5843013810325299
 40
0.8363478026622719
 40
1.069068065557919
 40
1.286968429013954
 40
1.286968429013954
 40
1.286968429013954
 40
1.286968429013954
 10
93.7281477798
 20
192.6549066018
 30
0.0
 10
93.72552703865533
 20
192.7575980626962
 30
0.0
 10
93.72055490361061
 20
192.9524268471238
 30
0.0
 10
93.68278761235507
 20
193.2291990468963
 30
0.0
 10
93.62809005237062
 20
193.4770787589036
 30
0.0
 10
93.55894610653175
 20
193.7014416667252
 30
0.0
 10
93.49740458008924
 20
193.8385884397986
 30
0.0
 10
93.46764579809999
 20
193.9049066018
 30
0.0
 11
93.7281477798
 21
192.6549066018
 31
0.0
 11
93.7143365017
 21
192.9625736478
 31
0.0
 11
93.677831414
 21
193.2364761941
 31
0.0
 11
93.62322381049999
 21
193.4825359598
 31
0.0
 11
93.5529004472
 21
193.7043767706
 31
0.0
 11
93.46764579809999
 21
193.9049066018
 31
0.0
  0
SPLINE
  5
AAE
330
1B
100
AcDbEntity
  8
0
  6
Continuous
100
AcDbSpline
210
0.0
220
0.0
230
1.0
 70
     8
 71
     3
 72
    12
 73
     8
 74
     6
 42
0.0000000001
 43
0.0000000001
 44
0.0000000001
 40
0.0
 40
0.0
 40
0.0
 40
0.0
 40
0.2178995225662501
 40
0.4506195783074969
 40
0.7026662356529225
 40
0.9789911953011594
 40
1.286968429022232
 40
1.286968429022232
 40
1.286968429022232
 40
1.286968429022232
 10
75.5037543249
 20
193.9049066018
 30
0.0
 10
75.47399565041781
 20
193.8385886994613
 30
0.0
 10
75.412454251941
 20
193.7014422530893
 30
0.0
 10
75.34331030013543
 20
193.4770796321511
 30
0.0
 10
75.28861262732735
 20
193.22919977545
 30
0.0
 10
75.25084523796744
 20
192.9524272339954
 30
0.0
 10
75.24587309030613
 20
192.7575981785601
 30
0.0
 10
75.24325234319998
 20
192.6549066018
 30
0.0
 11
75.5037543249
 21
193.9049066018
 31
0.0
 11
75.41849996729999
 21
193.7043775604
 31
0.0
 11
75.3481765848
 21
193.482536973
 31
0.0
 11
75.2935688513
 21
193.2364769947
 31
0.0
 11
75.2570636526
 21
192.962573994
 31
0.0
 11
75.24325234319998
 21
192.6549066018
 31
0.0
  0
SPLINE
  5
AAF
330
1B
100
AcDbEntity
  8
0
  6
Continuous
100
AcDbSpline
210
0.0
220
0.0
230
1.0
 70
     8
 71
     3
 72
    12
 73
     8
 74
     6
 42
0.0000000001
 43
0.0000000001
 44
0.0000000001
 40
0.0
 40
0.0
 40
0.0
 40
0.0
 40
0.1104371213367425
 40
0.2269257678477752
 40
0.3572218863150313
 40
0.5033358524717924
 40
0.6555640098936066
 40
0.6555640098936066
 40
0.6555640098936066
 40
0.6555640098936066
 10
74.92150196619998
 20
192.1549066018
 30
0.0
 10
74.95867544432673
 20
192.1598514834104
 30
0.0
 10
75.0350593627536
 20
192.1700122069312
 30
0.0
 10
75.12951115590764
 20
192.2515587207001
 30
0.0
 10
75.19534049469648
 20
192.3657308686983
 30
0.0
 10
75.2358320630435
 20
192.5045669201787
 30
0.0
 10
75.24074535234104
 20
192.604113343377
 30
0.0
 10
75.24325234319998
 20
192.6549066018
 30
0.0
 11
74.92150196619998
 21
192.1549066018
 31
0.0
 11
75.0291421207
 21
192.179603867
 31
0.0
 11
75.1205345403
 21
192.2518328806
 31
0.0
 11
75.18820154390001
 21
192.3631803328
 31
0.0
 11
75.22967303859998
 21
192.5032853157
 31
0.0
 11
75.24325234319998
 21
192.6549066018
 31
0.0
  0
SPLINE
  5
AB0
330
1B
100
AcDbEntity
  8
0
  6
Continuous
100
AcDbSpline
210
0.0
220
0.0
230
1.0
 70
     8
 71
     3
 72
    12
 73
     8
 74
     6
 42
0.0000000001
 43
0.0000000001
 44
0.0000000001
 40
0.0
 40
0.0
 40
0.0
 40
0.0
 40
0.152228157421813
 40
0.2983421235785861
 40
0.4286382420458348
 40
0.5451268885568675
 40
0.6555640098935962
 40
0.6555640098935962
 40
0.6555640098935962
 40
0.6555640098935962
 10
93.7281477798
 20
192.6549066018
 30
0.0
 10
93.73065477065892
 20
192.604113343377
 30
0.0
 10
93.73556805995642
 20
192.5045669201787
 30
0.0
 10
93.77605962830357
 20
192.3657308686983
 30
0.0
 10
93.84188896709236
 20
192.2515587207001
 30
0.0
 10
93.9363407602464
 20
192.1700122069313
 30
0.0
 10
94.01272467867324
 20
192.1598514834104
 30
0.0
 10
94.0498981568
 20
192.1549066018
 30
0.0
 11
93.7281477798
 21
192.6549066018
 31
0.0
 11
93.74172708439998
 21
192.5032853157
 31
0.0
 11
93.7831985791
 21
192.3631803328
 31
0.0
 11
93.8508655827
 21
192.2518328806
 31
0.0
 11
93.94225800229999
 21
192.179603867
 31
0.0
 11
94.0498981568
 21
192.1549066018
 31
0.0
  0
SPLINE
  5
AB1
330
1B
100
AcDbEntity
  8
0
  6
Continuous
100
AcDbSpline
210
0.0
220
0.0
230
1.0
 70
     8
 71
     3
 72
    10
 73
     6
 74
     4
 42
0.0000000001
 43
0.0000000001
 44
0.0000000001
 40
0.0
 40
0.0
 40
0.0
 40
0.0
 40
0.1646685172390051
 40
0.3210606950514234
 40
0.3477655909597723
 40
0.3477655909597723
 40
0.3477655909597723
 40
0.3477655909597723
 10
75.5037543249
 20
193.9049066018
 30
0.0
 10
75.53136925698917
 20
193.9525661526313
 30
0.0
 10
75.58521117795257
 20
194.0454898563987
 30
0.0
 10
75.66754244650537
 20
194.1287412678576
 30
0.0
 10
75.71380743761678
 20
194.1685140013467
 30
0.0
 10
75.720555234
 20
194.1743148953
 30
0.0
 11
75.5037543249
 21
193.9049066018
 31
0.0
 11
75.59243030099999
 21
194.04365923
 31
0.0
 11
75.7003739167
 21
194.1568258731
 31
0.0
 11
75.720555234
 21
194.1743148953
 31
0.0
  0
SPLINE
  5
AB2
330
1B
100
AcDbEntity
  8
0
  6
Continuous
100
AcDbSpline
210
0.0
220
0.0
230
1.0
 70
     8
 71
     3
 72
    10
 73
     6
 74
     4
 42
0.0000000001
 43
0.0000000001
 44
0.0000000001
 40
0.0
 40
0.0
 40
0.0
 40
0.0
 40
0.0267770936252512
 40
0.1828023208334173
 40
0.3477652857136562
 40
0.3477652857136562
 40
0.3477652857136562
 40
0.3477652857136562
 10
93.25084487359999
 20
194.1743148951
 30
0.0
 10
93.25761077650269
 20
194.1684981612837
 30
0.0
 10
93.30380035818226
 20
194.1287883833604
 30
0.0
 10
93.38613541738737
 20
194.0455470330791
 30
0.0
 10
93.43997595128914
 20
193.9526489771254
 30
0.0
 10
93.46764579809999
 20
193.9049066018
 30
0.0
 11
93.25084487359999
 21
194.1743148951
 31
0.0
 11
93.2710801373
 21
194.1567778815
 31
0.0
 11
93.37878478689999
 21
194.0438904155
 31
0.0
 11
93.46764579809999
 21
193.9049066018
 31
0.0
  0
SPLINE
  5
AB3
330
1B
100
AcDbEntity
  8
0
  6
Continuous
100
AcDbSpline
210
0.0
220
0.0
230
1.0
 70
     8
 71
     3
 72
    14
 73
    10
 74
     8
 42
0.0000000001
 43
0.0000000001
 44
0.0000000001
 40
0.0
 40
0.0
 40
0.0
 40
0.0
 40
0.2970004188888598
 40
0.6080254298661746
 40
0.9403368727155279
 40
1.299211854579734
 40
1.671807651238174
 40
2.05154454771641
 40
2.422387773319763
 40
2.422387773319763
 40
2.422387773319763
 40
2.422387773319763
 10
94.86893562900001
 20
194.4049066018
 30
0.0
 10
94.9402378707956
 20
194.3357007917911
 30
0.0
 10
95.08620930201576
 20
194.1940212192933
 30
0.0
 10
95.24909842485894
 20
193.9227940269536
 30
0.0
 10
95.37849936045919
 20
193.6141445622448
 30
0.0
 10
95.46828486181852
 20
193.269769100118
 30
0.0
 10
95.51670335431456
 20
192.9019474117426
 30
0.0
 10
95.52585045039531
 20
192.5263923201386
 30
0.0
 10
95.49570984375318
 20
192.2777531274575
 30
0.0
 10
95.48081810940001
 20
192.1549066018
 30
0.0
 11
94.86893562900001
 21
194.4049066018
 31
0.0
 11
95.07314404749999
 21
194.1892490709
 31
0.0
 11
95.23877858989999
 21
193.9259968044
 31
0.0
 11
95.36792575819999
 21
193.6198074774
 31
0.0
 11
95.45993791620001
 21
193.2729285138
 31
0.0
 11
95.5098545166
 21
192.9036915158
 31
0.0
 11
95.5166434991
 21
192.5240153113
 31
0.0
 11
95.48081810940001
 21
192.1549066018
 31
0.0
  0
SPLINE
  5
AB4
330
1B
100
AcDbEntity
  8
0
  6
Continuous
100
AcDbSpline
210
0.0
220
0.0
230
1.0
 70
     8
 71
     3
 72
    10
 73
     6
 74
     4
 42
0.0000000001
 43
0.0000000001
 44
0.0000000001
 40
0.0
 40
0.0
 40
0.0
 40
0.0
 40
0.1452709474537829
 40
0.4406755851430512
 40
0.7518693021593086
 40
0.7518693021593086
 40
0.7518693021593086
 40
0.7518693021593086
 10
94.1718943484
 20
194.6548439214
 30
0.0
 10
94.22030309980978
 20
194.6526738680285
 30
0.0
 10
94.36714976961851
 20
194.6460910683975
 30
0.0
 10
94.61252998974783
 20
194.5735760625539
 30
0.0
 10
94.78199673902557
 20
194.4620969808154
 30
0.0
 10
94.86893562900001
 20
194.4049066018
 30
0.0
 11
94.1718943484
 21
194.6548439214
 31
0.0
 11
94.31679157550001
 21
194.6444303844
 31
0.0
 11
94.6006174795
 21
194.5625355971
 31
0.0
 11
94.86893562900001
 21
194.4049066018
 31
0.0
  0
SPLINE
  5
AB5
330
1B
100
AcDbEntity
  8
0
  6
Continuous
100
AcDbSpline
210
0.0
220
0.0
230
1.0
 70
     8
 71
     3
 72
    10
 73
     6
 74
     4
 42
0.0000000001
 43
0.0000000001
 44
0.0000000001
 40
0.0
 40
0.0
 40
0.0
 40
0.0
 40
0.3112277630620656
 40
0.60652175158272
 40
0.7518626522158858
 40
0.7518626522158858
 40
0.7518626522158858
 40
0.7518626522158858
 10
74.102464494
 20
194.4049066018
 30
0.0
 10
74.18941340249999
 20
194.4621028047174
 30
0.0
 10
74.35885973904388
 20
194.5735669647141
 30
0.0
 10
74.6042333006794
 20
194.6460852358791
 30
0.0
 10
74.7510664521231
 20
194.6526715084297
 30
0.0
 10
74.7994985282
 20
194.6548439528
 30
0.0
 11
74.102464494
 21
194.4049066018
 31
0.0
 11
74.37081407469999
 21
194.5625493087
 31
0.0
 11
74.6545319653
 21
194.6444193167
 31
0.0
 11
74.7994985282
 21
194.6548439528
 31
0.0
  0
SPLINE
  5
AB6
330
1B
100
AcDbEntity
  8
0
  6
Continuous
100
AcDbSpline
210
0.0
220
0.0
230
1.0
 70
     8
 71
     3
 72
    14
 73
    10
 74
     8
 42
0.0000000001
 43
0.0000000001
 44
0.0000000001
 40
0.0
 40
0.0
 40
0.0
 40
0.0
 40
0.3708597164100049
 40
0.7506751216637921
 40
1.123356102851658
 40
1.482266548502363
 40
1.814539918073109
 40
2.125498806794502
 40
2.422388116168916
 40
2.422388116168916
 40
2.422388116168916
 40
2.422388116168916
 10
73.49058201370001
 20
192.1549066018
 30
0.0
 10
73.4756898544112
 20
192.2777586265581
 30
0.0
 10
73.44554591320839
 20
192.5264293625568
 30
0.0
 10
73.45470104819614
 20
192.9020449899906
 30
0.0
 10
73.50314393079849
 20
193.269930939471
 30
0.0
 10
73.59296103303886
 20
193.6143271217108
 30
0.0
 10
73.72238004940112
 20
193.9229444235855
 30
0.0
 10
73.88525513769565
 20
194.194094476562
 30
0.0
 10
74.03118731664148
 20
194.3357286736685
 30
0.0
 10
74.102464494
 20
194.4049066018
 30
0.0
 11
73.49058201370001
 21
192.1549066018
 31
0.0
 11
73.45475597079999
 21
192.5240318162
 31
0.0
 11
73.4615527924
 21
192.9037864018
 31
0.0
 11
73.51149721429999
 21
193.2731055977
 31
0.0
 11
73.60354383480001
 21
193.6200121091
 31
0.0
 11
73.7327032008
 21
193.9261549684
 31
0.0
 11
73.8983240379
 21
194.1893377353
 31
0.0
 11
74.102464494
 21
194.4049066018
 31
0.0
  0
SPLINE
  5
AB7
330
1B
100
AcDbEntity
  8
0
  6
Continuous
100
AcDbSpline
210
0.0
220
0.0
230
1.0
 70
     8
 71
     3
 72
     9
 73
     5
 74
     3
 42
0.0000000001
 43
0.0000000001
 44
0.0000000001
 40
0.0
 40
0.0
 40
0.0
 40
0.0
 40
0.1767625708103201
 40
0.2267972155592478
 40
0.2267972155592478
 40
0.2267972155592478
 40
0.2267972155592478
 10
75.79350078890001
 20
232.1226227704
 30
0.0
 10
75.75659127389469
 20
232.0766803818436
 30
0.0
 10
75.70923410324213
 20
232.0177334806248
 30
0.0
 10
75.65955577979017
 20
231.9607441333283
 30
0.0
 10
75.6485960453
 20
231.9481714845
 30
0.0
 11
75.79350078890001
 21
232.1226227704
 31
0.0
 11
75.68136227700001
 21
231.9859847062
 31
0.0
 11
75.6485960453
 21
231.9481714845
 31
0.0
  0
SPLINE
  5
AB8
330
1B
100
AcDbEntity
  8
0
  6
Continuous
100
AcDbSpline
210
0.0
220
0.0
230
1.0
 70
     8
 71
     3
 72
    10
 73
     6
 74
     4
 42
0.0000000001
 43
0.0000000001
 44
0.0000000001
 40
0.0
 40
0.0
 40
0.0
 40
0.0
 40
0.2104633597277702
 40
0.4391296522519157
 40
0.4750478129741398
 40
0.4750478129741398
 40
0.4750478129741398
 40
0.4750478129741398
 10
89.48570006149998
 20
246.0785547724
 30
0.0
 10
89.47560535720037
 20
246.0079447599462
 30
0.0
 10
89.45454285969765
 20
245.8606176895505
 30
0.0
 10
89.34986997758233
 20
245.7334382217384
 30
0.0
 10
89.28902485820166
 20
245.6698095817618
 30
0.0
 10
89.28076494440001
 20
245.6611717964
 30
0.0
 11
89.48570006149998
 21
246.0785547724
 31
0.0
 11
89.4380282922
 21
245.873561533
 31
0.0
 11
89.30549776380001
 21
245.6872179461
 31
0.0
 11
89.28076494440001
 21
245.6611717964
 31
0.0
  0
SPLINE
  5
AB9
330
1B
100
AcDbEntity
  8
0
  6
Continuous
100
AcDbSpline
210
0.0
220
0.0
230
1.0
 70
    24
 71
     3
 72
     8
 73
     4
 74
     2
 42
0.0000000001
 43
0.0000000001
 44
0.0000000001
 40
0.0
 40
0.0
 40
0.0
 40
0.0
 40
3.51595432584006
 40
3.51595432584006
 40
3.51595432584006
 40
3.51595432584006
 10
89.2845726083
 20
244.897416592
 30
0.0
 10
89.59930904716666
 20
243.7684837828667
 30
0.0
 10
89.91404548603333
 20
242.6395509737333
 30
0.0
 10
90.22878192490001
 20
241.5106181646
 30
0.0
 11
89.2845726083
 21
244.897416592
 31
0.0
 11
90.22878192490001
 21
241.5106181646
 31
0.0
  0
SPLINE
  5
ABA
330
1B
100
AcDbEntity
  8
0
  6
Continuous
100
AcDbSpline
210
0.0
220
0.0
230
1.0
 70
     8
 71
     3
 72
    22
 73
    18
 74
    16
 42
0.0000000001
 43
0.0000000001
 44
0.0000000001
 40
0.0
 40
0.0
 40
0.0
 40
0.0
 40
0.0450336667775274
 40
0.1611890888982214
 40
0.3443535088131955
 40
0.5868270788601699
 40
0.8782845519612926
 40
1.20629458462078
 40
1.55687245893156
 40
1.915079914831575
 40
2.265657544039143
 40
2.593667156650935
 40
2.885124150996573
 40
3.12759730311007
 40
3.310761443479209
 40
3.426916741729134
 40
3.471950389856145
 40
3.471950389856145
 40
3.471950389856145
 40
3.471950389856145
 10
172.7527101115
 20
315.2667447517
 30
0.0
 10
172.7670638936979
 20
315.271262742647
 30
0.0
 10
172.8184404135392
 20
315.2874339962116
 30
0.0
 10
172.9343274417782
 20
315.2911177812551
 30
0.0
 10
173.1138756041863
 20
315.3043537843538
 30
0.0
 10
173.3530827027529
 20
315.3116776537096
 30
0.0
 10
173.6402017483502
 20
315.3191241844835
 30
0.0
 10
173.9635551024828
 20
315.3238081830032
 30
0.0
 10
174.3091359485713
 20
315.326331569262
 30
0.0
 10
174.6622660768446
 20
315.32633156233
 30
0.0
 10
175.0078467011273
 20
315.3238081640312
 30
0.0
 10
175.3311996737611
 20
315.3191241583294
 30
0.0
 10
175.6183182804834
 20
315.3116776275503
 30
0.0
 10
175.8575249862826
 20
315.3043537601915
 30
0.0
 10
176.0370728761257
 20
315.2911177704762
 30
0.0
 10
176.1529597621308
 20
315.2874339845516
 30
0.0
 10
176.2043362355304
 20
315.2712627417607
 30
0.0
 10
176.2186900115
 20
315.2667447517
 30
0.0
 11
172.7527101115
 21
315.2667447517
 31
0.0
 11
172.7959954195
 21
315.2791710647
 31
0.0
 11
172.911544917
 21
315.2910199345
 31
0.0
 11
173.0943927594
 21
315.3017842855
 31
0.0
 11
173.3366909808
 21
315.3110040511
 31
0.0
 11
173.6280574752
 21
315.3182858481
 31
0.0
 11
173.9560288821
 21
315.3233195129
 31
0.0
 11
174.3065973256
 21
315.3258909674
 31
0.0
 11
174.6648047815
 21
315.3258909602
 31
0.0
 11
175.0153729798
 21
315.3233194934
 31
0.0
 11
175.3433439665
 21
315.3182858219
 31
0.0
 11
175.634709982
 21
315.3110040251
 31
0.0
 11
175.8770077854
 21
315.3017842657
 31
0.0
 11
176.0598553483
 21
315.2910199237
 31
0.0
 11
176.1754047221
 21
315.2791710619
 31
0.0
 11
176.2186900115
 21
315.2667447517
 31
0.0
  0
SPLINE
  5
ABB
330
1B
100
AcDbEntity
  8
0
  6
Continuous
100
AcDbSpline
210
0.0
220
0.0
230
1.0
 70
     8
 71
     3
 72
    15
 73
    11
 74
     9
 42
0.0000000001
 43
0.0000000001
 44
0.0000000001
 40
0.0
 40
0.0
 40
0.0
 40
0.0
 40
0.2894176912350605
 40
0.5820721225149015
 40
0.8729161629671745
 40
1.16783464906215
 40
1.464502844886813
 40
1.759856594818493
 40
2.059387711020179
 40
2.357576652463612
 40
2.357576652463612
 40
2.357576652463612
 40
2.357576652463612
 10
190.7175475985
 20
316.2243803217
 30
0.0
 10
190.712057349757
 20
316.1277536881542
 30
0.0
 10
190.7010154513667
 20
315.9334197846549
 30
0.0
 10
190.6124385086453
 20
315.6532256980165
 30
0.0
 10
190.4737995555948
 20
315.3936360288165
 30
0.0
 10
190.2849777352313
 20
315.1654513076268
 30
0.0
 10
190.0541196734828
 20
314.9775292543806
 30
0.0
 10
189.7897287560904
 20
314.8385990944233
 30
0.0
 10
189.5027410215007
 20
314.7492960930696
 30
0.0
 10
189.3031898203863
 20
314.7381316059064
 30
0.0
 10
189.203638265
 20
314.7325618972
 30
0.0
 11
190.7175475985
 21
316.2243803217
 31
0.0
 11
190.6892044039
 21
315.9363538241
 31
0.0
 11
190.6039828408
 21
315.6563825732
 31
0.0
 11
190.4663338219
 21
315.4001736673
 31
0.0
 11
190.2785439862
 21
315.1727711804
 31
0.0
 11
190.0483862486
 21
314.9855829483
 31
0.0
 11
189.7873312821
 21
314.8474375826
 31
0.0
 11
189.5004325924
 21
314.7613676609
 31
0.0
 11
189.203638265
 21
314.7325618972
 31
0.0
  0
SPLINE
  5
ABC
330
1B
100
AcDbEntity
  8
0
  6
Continuous
100
AcDbSpline
210
0.0
220
0.0
230
1.0
 70
     8
 71
     3
 72
    15
 73
    11
 74
     9
 42
0.0000000001
 43
0.0000000001
 44
0.0000000001
 40
0.0
 40
0.0
 40
0.0
 40
0.0
 40
0.299192557832335
 40
0.5997389866391496
 40
0.8961889217190748
 40
1.19403536942072
 40
1.489860017708264
 40
1.77997774683919
 40
2.069111078679225
 40
2.357576354859454
 40
2.357576354859454
 40
2.357576354859454
 40
2.357576354859454
 10
189.203638265
 20
397.7325618972
 30
0.0
 10
189.3035259390719
 20
397.7269543885187
 30
0.0
 10
189.5037532871707
 20
397.7157139967175
 30
0.0
 10
189.791669160824
 20
397.6257996717005
 30
0.0
 10
190.0568100430009
 20
397.4859034361967
 30
0.0
 10
190.2880421844034
 20
397.2967241701042
 30
0.0
 10
190.4764310387831
 20
397.067575718909
 30
0.0
 10
190.6136918043922
 20
396.8085240173344
 30
0.0
 10
190.7011814182734
 20
396.5298919283611
 30
0.0
 10
190.7120964132177
 20
396.3370519444433
 30
0.0
 10
190.7175475985
 20
396.2407434727
 30
0.0
 11
189.203638265
 21
397.7325618972
 31
0.0
 11
189.501422041
 21
397.7035617349
 31
0.0
 11
189.7892074453
 21
397.6169146522
 31
0.0
 11
190.0509953932
 21
397.4778116891
 31
0.0
 11
190.2816016145
 21
397.2893089647
 31
0.0
 11
190.4692382688
 21
397.060606738
 31
0.0
 11
190.6057049793
 21
396.8045888994
 31
0.0
 11
190.6893906958
 21
396.5278312718
 31
0.0
 11
190.7175475985
 21
396.2407434727
 31
0.0
  0
SPLINE
  5
ABD
330
1B
100
AcDbEntity
  8
0
  6
Continuous
100
AcDbSpline
210
0.0
220
0.0
230
1.0
 70
     8
 71
     3
 72
    15
 73
    11
 74
     9
 42
0.0000000001
 43
0.0000000001
 44
0.0000000001
 40
0.0
 40
0.0
 40
0.0
 40
0.0
 40
0.289417691235117
 40
0.5820721225149581
 40
0.8729161629672311
 40
1.167834649062163
 40
1.464502844886862
 40
1.759856594906917
 40
2.059387711012821
 40
2.357576652456254
 40
2.357576652456254
 40
2.357576652456254
 40
2.357576652456254
 10
158.2538525245
 20
396.2407434727
 30
0.0
 10
158.259342773243
 20
396.3373701062458
 30
0.0
 10
158.2703846716332
 20
396.5317040097451
 30
0.0
 10
158.3589616143549
 20
396.8118980963832
 30
0.0
 10
158.4976005674046
 20
397.0714877655848
 30
0.0
 10
158.6864223877707
 20
397.2996724867688
 30
0.0
 10
158.9172804495325
 20
397.4875945400539
 30
0.0
 10
159.1816713669639
 20
397.6265246999283
 30
0.0
 10
159.4686591015258
 20
397.7158277013478
 30
0.0
 10
159.668210302612
 20
397.7269921884989
 30
0.0
 10
159.767761858
 20
397.7325618972
 30
0.0
 11
158.2538525245
 21
396.2407434727
 31
0.0
 11
158.2821957191
 21
396.5287699703
 31
0.0
 11
158.3674172822
 21
396.8087412212
 31
0.0
 11
158.5050663011
 21
397.0649501271
 31
0.0
 11
158.6928561368
 21
397.292352614
 31
0.0
 11
158.9230138744
 21
397.4795408461
 31
0.0
 11
159.184068841
 21
397.6176862118
 31
0.0
 11
159.4709675306
 21
397.7037561335
 31
0.0
 11
159.767761858
 21
397.7325618972
 31
0.0
  0
SPLINE
  5
ABE
330
1B
100
AcDbEntity
  8
0
  6
Continuous
100
AcDbSpline
210
0.0
220
0.0
230
1.0
 70
     8
 71
     3
 72
    15
 73
    11
 74
     9
 42
0.0000000001
 43
0.0000000001
 44
0.0000000001
 40
0.0
 40
0.0
 40
0.0
 40
0.0
 40
0.2991925578323068
 40
0.5997389866391485
 40
0.8961889217190737
 40
1.194035369483999
 40
1.489860017771525
 40
1.779977746855433
 40
2.069111078628645
 40
2.357576354808874
 40
2.357576354808874
 40
2.357576354808874
 40
2.357576354808874
 10
159.767761858
 20
314.7325618972
 30
0.0
 10
159.6678741839276
 20
314.7381694058808
 30
0.0
 10
159.467646835828
 20
314.7494097976811
 30
0.0
 10
159.1797309621815
 20
314.8393241227056
 30
0.0
 10
158.9145900799603
 20
314.979220358191
 30
0.0
 10
158.68335793864
 20
315.1683996244075
 30
0.0
 10
158.4949690841808
 20
315.3975480755534
 30
0.0
 10
158.3577083187838
 20
315.6565997771896
 30
0.0
 10
158.2702187046763
 20
315.9352318660447
 30
0.0
 10
158.259303709766
 20
316.1280718499513
 30
0.0
 10
158.2538525245
 20
316.2243803217
 30
0.0
 11
159.767761858
 21
314.7325618972
 31
0.0
 11
159.469978082
 21
314.7615620595
 31
0.0
 11
159.1821926777
 21
314.8482091422
 31
0.0
 11
158.9204047298
 21
314.9873121053
 31
0.0
 11
158.6897985085
 21
315.1758148298
 31
0.0
 11
158.5021618542
 21
315.4045170565
 31
0.0
 11
158.3656951438
 21
315.6605348951
 31
0.0
 11
158.2820094272
 21
315.9372925226
 31
0.0
 11
158.2538525245
 21
316.2243803217
 31
0.0
  0
SPLINE
  5
ABF
330
1B
100
AcDbEntity
  8
0
  6
Continuous
100
AcDbSpline
210
0.0
220
0.0
230
1.0
 70
     8
 71
     3
 72
    22
 73
    18
 74
    16
 42
0.0000000001
 43
0.0000000001
 44
0.0000000001
 40
0.0
 40
0.0
 40
0.0
 40
0.0
 40
0.045033666805133
 40
0.1611890889258213
 40
0.3443535088407986
 40
0.5868270788877732
 40
0.8782845519888944
 40
1.206294584646848
 40
1.556872458957627
 40
1.915079914857642
 40
2.26565754406521
 40
2.593667156677002
 40
2.885124151020141
 40
3.127597303137441
 40
3.310761443500701
 40
3.426916741760832
 40
3.471950389887843
 40
3.471950389887843
 40
3.471950389887843
 40
3.471950389887843
 10
172.7527101115
 20
397.1983790428
 30
0.0
 10
172.7670638936965
 20
397.1938610518147
 30
0.0
 10
172.81844041351
 20
397.1776897981197
 30
0.0
 10
172.93432744179
 20
397.1740060131855
 30
0.0
 10
173.1138756041812
 20
397.1607700100275
 30
0.0
 10
173.3530827027548
 20
397.1534461407036
 30
0.0
 10
173.6402017483486
 20
397.145999609882
 30
0.0
 10
173.9635551024842
 20
397.1413156115378
 30
0.0
 10
174.3091359485711
 20
397.1387922252251
 30
0.0
 10
174.6622660768445
 20
397.1387922321787
 30
0.0
 10
175.007846701128
 20
397.1413156304478
 30
0.0
 10
175.331199673758
 20
397.1459996362381
 30
0.0
 10
175.6183182804902
 20
397.1534461667445
 30
0.0
 10
175.8575249862724
 20
397.1607700344204
 30
0.0
 10
176.0370728761391
 20
397.174006023833
 30
0.0
 10
176.1529597621263
 20
397.1776898099598
 30
0.0
 10
176.2043362355301
 20
397.193861052742
 30
0.0
 10
176.2186900115
 20
397.1983790428
 30
0.0
 11
172.7527101115
 21
397.1983790428
 31
0.0
 11
172.7959954195
 21
397.1859527297
 31
0.0
 11
172.911544917
 21
397.1741038599
 31
0.0
 11
173.0943927594
 21
397.1633395089
 31
0.0
 11
173.3366909808
 21
397.1541197433
 31
0.0
 11
173.6280574752
 21
397.1468379463
 31
0.0
 11
173.9560288821
 21
397.1418042816
 31
0.0
 11
174.3065973256
 21
397.1392328271
 31
0.0
 11
174.6648047815
 21
397.1392328343
 31
0.0
 11
175.0153729798
 21
397.1418043011
 31
0.0
 11
175.3433439665
 21
397.1468379726
 31
0.0
 11
175.634709982
 21
397.1541197693
 31
0.0
 11
175.8770077854
 21
397.1633395288
 31
0.0
 11
176.0598553483
 21
397.1741038707
 31
0.0
 11
176.1754047221
 21
397.1859527326
 31
0.0
 11
176.2186900115
 21
397.1983790428
 31
0.0
  0
SPLINE
  5
AC0
330
1B
100
AcDbEntity
  8
0
  6
Continuous
100
AcDbSpline
210
0.0
220
0.0
230
1.0
 70
     8
 71
     3
 72
    15
 73
    11
 74
     9
 42
0.0000000001
 43
0.0000000001
 44
0.0000000001
 40
0.0
 40
0.0
 40
0.0
 40
0.0
 40
0.0972904732559134
 40
0.1949396939472697
 40
0.2927427816687946
 40
0.39080262254327
 40
0.4891963744843896
 40
0.587920386295363
 40
0.6869355550807629
 40
0.7858584640097932
 40
0.7858584640097932
 40
0.7858584640097932
 40
0.7858584640097932
 10
185.6466004303
 20
395.4315018465
 30
0.0
 10
185.6447400832971
 20
395.4639850295808
 30
0.0
 10
185.6410125294757
 20
395.5290711737459
 30
0.0
 10
185.6111334458907
 20
395.6229849945606
 30
0.0
 10
185.5645714896024
 20
395.7096090089541
 30
0.0
 10
185.5013549801584
 20
395.7854859537056
 30
0.0
 10
185.4243718737
 20
395.8478264618489
 30
0.0
 10
185.3364403721149
 20
395.8937701229858
 30
0.0
 10
185.2410714688213
 20
395.9232584066849
 30
0.0
 10
185.1749895464436
 20
395.9269364767501
 30
0.0
 10
185.1419639858
 20
395.9287746546
 30
0.0
 11
185.6466004303
 21
395.4315018465
 31
0.0
 11
185.6369919636
 21
395.5283166881
 31
0.0
 11
185.6083892561
 21
395.6216829316
 31
0.0
 11
185.561867686
 21
395.7077130861
 31
0.0
 11
185.4991767348
 21
395.7831158515
 31
0.0
 11
185.4226835079
 21
395.8450037878
 31
0.0
 11
185.3353172345
 21
395.8909773104
 31
0.0
 11
185.2404287035
 21
395.9192645926
 31
0.0
 11
185.1419639858
 21
395.9287746546
 31
0.0
  0
SPLINE
  5
AC1
330
1B
100
AcDbEntity
  8
0
  6
Continuous
100
AcDbSpline
210
0.0
220
0.0
230
1.0
 70
     8
 71
     3
 72
    15
 73
    11
 74
     9
 42
0.0000000001
 43
0.0000000001
 44
0.0000000001
 40
0.0
 40
0.0
 40
0.0
 40
0.0
 40
0.291849325384937
 40
0.5838006549931439
 40
0.8759373368987926
 40
1.16825926659669
 40
1.460759532458662
 40
1.753404867617695
 40
2.046101435088066
 40
2.338792601278696
 40
2.338792601278696
 40
2.338792601278696
 40
2.338792601278696
 10
185.1419639858
 20
315.5369583128
 30
0.0
 10
185.2393798699007
 20
315.5429076232015
 30
0.0
 10
185.4342456859164
 20
315.5548083233473
 30
0.0
 10
185.7150521585346
 20
315.6446323607923
 30
0.0
 10
185.9737835648308
 20
315.7834362574707
 30
0.0
 10
186.200478717893
 20
315.9710906623049
 30
0.0
 10
186.3869215369985
 20
316.198988071427
 30
0.0
 10
186.5246773645663
 20
316.4588055614041
 30
0.0
 10
186.6137284465077
 20
316.7405374351521
 30
0.0
 10
186.6255149739534
 20
316.935927711329
 30
0.0
 10
186.6314081833
 20
317.033621948
 30
0.0
 11
185.1419639858
 21
315.5369583128
 31
0.0
 11
185.4322843082
 21
315.5667935123
 31
0.0
 11
185.7112918345
 21
315.6527608266
 31
0.0
 11
185.96836755
 21
315.7915265191
 31
0.0
 11
186.1937078807
 21
315.9777356648
 31
0.0
 11
186.3787681222
 21
316.2042508134
 31
0.0
 11
186.5165484832
 21
316.4624326569
 31
0.0
 11
186.6018327393
 21
316.7424288645
 31
0.0
 11
186.6314081833
 21
317.033621948
 31
0.0
  0
SPLINE
  5
AC2
330
1B
100
AcDbEntity
  8
0
  6
Continuous
100
AcDbSpline
210
0.0
220
0.0
230
1.0
 70
     8
 71
     3
 72
    15
 73
    11
 74
     9
 42
0.0000000001
 43
0.0000000001
 44
0.0000000001
 40
0.0
 40
0.0
 40
0.0
 40
0.0
 40
0.0989229089578731
 40
0.197938077724844
 40
0.2966620895404583
 40
0.3950558414815421
 40
0.4931156823560612
 40
0.5909187700775862
 40
0.6885679907026364
 40
0.785858464048171
 40
0.785858464048171
 40
0.785858464048171
 40
0.785858464048171
 10
185.1419639858
 20
316.5363491398
 30
0.0
 10
185.1749895464246
 20
316.5381873178263
 30
0.0
 10
185.2410714687487
 20
316.5418653882439
 30
0.0
 10
185.336440372304
 20
316.5713536710823
 30
0.0
 10
185.4243718736499
 20
316.6172973327655
 30
0.0
 10
185.5013549801682
 20
316.6796378407645
 30
0.0
 10
185.564571489612
 20
316.7555147855505
 30
0.0
 10
185.6111334458322
 20
316.8421387999309
 30
0.0
 10
185.6410125296551
 20
316.9360526206904
 30
0.0
 10
185.6447400833559
 20
317.0011387648806
 30
0.0
 10
185.6466004303
 20
317.033621948
 30
0.0
 11
185.1419639858
 21
316.5363491398
 31
0.0
 11
185.2404287035
 21
316.5458592021
 31
0.0
 11
185.3353172346
 21
316.5741464839
 31
0.0
 11
185.4226835079
 21
316.6201200067
 31
0.0
 11
185.4991767348
 21
316.682007943
 31
0.0
 11
185.561867686
 21
316.7574107084
 31
0.0
 11
185.6083892561
 21
316.8434408629
 31
0.0
 11
185.6369919637
 21
316.9368071063
 31
0.0
 11
185.6466004303
 21
317.033621948
 31
0.0
  0
SPLINE
  5
AC3
330
1B
100
AcDbEntity
  8
0
  6
Continuous
100
AcDbSpline
210
0.0
220
0.0
230
1.0
 70
     8
 71
     3
 72
    15
 73
    11
 74
     9
 42
0.0000000001
 43
0.0000000001
 44
0.0000000001
 40
0.0
 40
0.0
 40
0.0
 40
0.0
 40
0.2926911662007301
 40
0.5853877336419755
 40
0.8780330688009961
 40
1.170533334726246
 40
1.462855264269968
 40
1.75499194639211
 40
2.046943275676945
 40
2.33879260125061
 40
2.33879260125061
 40
2.33879260125061
 40
2.33879260125061
 10
162.3399919397
 20
317.033621948
 30
0.0
 10
162.3458851490981
 20
316.9359277113323
 30
0.0
 10
162.3576716766458
 20
316.7405374351749
 30
0.0
 10
162.4467227584061
 20
316.4588055613933
 30
0.0
 10
162.5844785859907
 20
316.198988071378
 30
0.0
 10
162.7709214052178
 20
315.9710906624367
 30
0.0
 10
162.9976165580878
 20
315.7834362572575
 30
0.0
 10
163.256347964583
 20
315.6446323611622
 30
0.0
 10
163.5371544370041
 20
315.5548083230636
 30
0.0
 10
163.7320202530158
 20
315.5429076231105
 30
0.0
 10
163.8294361372
 20
315.5369583128
 30
0.0
 11
162.3399919397
 21
317.033621948
 31
0.0
 11
162.3695673838
 21
316.7424288645
 31
0.0
 11
162.4548516398
 21
316.4624326569
 31
0.0
 11
162.5926320008
 21
316.2042508134
 31
0.0
 11
162.7776922424
 21
315.9777356648
 31
0.0
 11
163.0030325729
 21
315.7915265191
 31
0.0
 11
163.2601082887
 21
315.6527608267
 31
0.0
 11
163.5391158146
 21
315.5667935122
 31
0.0
 11
163.8294361372
 21
315.5369583128
 31
0.0
  0
SPLINE
  5
AC4
330
1B
100
AcDbEntity
  8
0
  6
Continuous
100
AcDbSpline
210
0.0
220
0.0
230
1.0
 70
     8
 71
     3
 72
    15
 73
    11
 74
     9
 42
0.0000000001
 43
0.0000000001
 44
0.0000000001
 40
0.0
 40
0.0
 40
0.0
 40
0.0
 40
0.0972904733554122
 40
0.1949396940468228
 40
0.2927427816803461
 40
0.3908026225548652
 40
0.489196374495949
 40
0.587920386353511
 40
0.6869355551103458
 40
0.7858584640489885
 40
0.7858584640489885
 40
0.7858584640489885
 40
0.7858584640489885
 10
163.3247996927
 20
317.033621948
 30
0.0
 10
163.3266600397014
 20
317.0011387648863
 30
0.0
 10
163.330387593518
 20
316.9360526206886
 30
0.0
 10
163.3602666770832
 20
316.8421387998577
 30
0.0
 10
163.4068286334315
 20
316.7555147855334
 30
0.0
 10
163.4700451428329
 20
316.6796378407817
 30
0.0
 10
163.5470282493315
 20
316.6172973326819
 30
0.0
 10
163.6349597508361
 20
316.5713536713547
 30
0.0
 10
163.7303286542069
 20
316.5418653878779
 30
0.0
 10
163.7964105765616
 20
316.5381873177043
 30
0.0
 10
163.8294361372
 20
316.5363491398
 30
0.0
 11
163.3247996927
 21
317.033621948
 31
0.0
 11
163.3344081594
 21
316.9368071063
 31
0.0
 11
163.3630108669
 21
316.8434408628
 31
0.0
 11
163.409532437
 21
316.7574107084
 31
0.0
 11
163.4722233882
 21
316.682007943
 31
0.0
 11
163.5487166151
 21
316.6201200067
 31
0.0
 11
163.6360828885
 21
316.574146484
 31
0.0
 11
163.7309714195
 21
316.5458592019
 31
0.0
 11
163.8294361372
 21
316.5363491398
 31
0.0
  0
SPLINE
  5
AC5
330
1B
100
AcDbEntity
  8
0
  6
Continuous
100
AcDbSpline
210
0.0
220
0.0
230
1.0
 70
     8
 71
     3
 72
    15
 73
    11
 74
     9
 42
0.0000000001
 43
0.0000000001
 44
0.0000000001
 40
0.0
 40
0.0
 40
0.0
 40
0.0
 40
0.2918493253849311
 40
0.5838006549931381
 40
0.8759373368987887
 40
1.168259266455917
 40
1.460759532458599
 40
1.753404867617619
 40
2.046101434963161
 40
2.338792601163891
 40
2.338792601163891
 40
2.338792601163891
 40
2.338792601163891
 10
163.8294361372
 20
396.9281654816
 30
0.0
 10
163.7320202530993
 20
396.9222161711986
 30
0.0
 10
163.5371544370836
 20
396.9103154710527
 30
0.0
 10
163.2563479644651
 20
396.8204914336076
 30
0.0
 10
162.9976165582112
 20
396.6816875369516
 30
0.0
 10
162.7709214051395
 20
396.4940331321296
 30
0.0
 10
162.584478586032
 20
396.2661357230123
 30
0.0
 10
162.4467227584209
 20
396.0063182330413
 30
0.0
 10
162.3576716766343
 20
395.7245863592945
 30
0.0
 10
162.3458851490949
 20
395.5291960831681
 30
0.0
 10
162.3399919397
 20
395.4315018465
 30
0.0
 11
163.8294361372
 21
396.9281654816
 31
0.0
 11
163.5391158148
 21
396.8983302821
 31
0.0
 11
163.2601082885
 21
396.8123629678
 31
0.0
 11
163.003032573
 21
396.6735972753
 31
0.0
 11
162.7776922424
 21
396.4873881297
 31
0.0
 11
162.5926320008
 21
396.260872981
 31
0.0
 11
162.4548516398
 21
396.0026911375
 31
0.0
 11
162.3695673838
 21
395.72269493
 31
0.0
 11
162.3399919397
 21
395.4315018465
 31
0.0
  0
SPLINE
  5
AC6
330
1B
100
AcDbEntity
  8
0
  6
Continuous
100
AcDbSpline
210
0.0
220
0.0
230
1.0
 70
     8
 71
     3
 72
    15
 73
    11
 74
     9
 42
0.0000000001
 43
0.0000000001
 44
0.0000000001
 40
0.0
 40
0.0
 40
0.0
 40
0.0
 40
0.0989229089482552
 40
0.1979380777437803
 40
0.2966620895128312
 40
0.3950558414539508
 40
0.4931156823284262
 40
0.5909187700499512
 40
0.6885679907413074
 40
0.7858584639972208
 40
0.7858584639972208
 40
0.7858584639972208
 40
0.7858584639972208
 10
163.8294361372
 20
395.9287746546
 30
0.0
 10
163.7964105765703
 20
395.926936476628
 30
0.0
 10
163.7303286542233
 20
395.9232584063189
 30
0.0
 10
163.6349597507446
 20
395.8937701232584
 30
0.0
 10
163.5470282493205
 20
395.8478264617646
 30
0.0
 10
163.4700451428332
 20
395.7854859537258
 30
0.0
 10
163.4068286333998
 20
395.7096090089487
 30
0.0
 10
163.3602666771087
 20
395.6229849945622
 30
0.0
 10
163.3303875935244
 20
395.5290711737453
 30
0.0
 10
163.3266600397029
 20
395.4639850295807
 30
0.0
 10
163.3247996927
 20
395.4315018465
 30
0.0
 11
163.8294361372
 21
395.9287746546
 31
0.0
 11
163.7309714195
 21
395.9192645924
 31
0.0
 11
163.6360828884
 21
395.8909773105
 31
0.0
 11
163.5487166151
 21
395.8450037878
 31
0.0
 11
163.4722233882
 21
395.7831158515
 31
0.0
 11
163.409532437
 21
395.7077130861
 31
0.0
 11
163.3630108669
 21
395.6216829316
 31
0.0
 11
163.3344081594
 21
395.5283166881
 31
0.0
 11
163.3247996927
 21
395.4315018465
 31
0.0
  0
SPLINE
  5
AC7
330
1B
100
AcDbEntity
  8
0
  6
Continuous
100
AcDbSpline
210
0.0
220
0.0
230
1.0
 70
     8
 71
     3
 72
    15
 73
    11
 74
     9
 42
0.0000000001
 43
0.0000000001
 44
0.0000000001
 40
0.0
 40
0.0
 40
0.0
 40
0.0
 40
0.2926911662007329
 40
0.5853877335462667
 40
0.8780330687053006
 40
1.170533334707982
 40
1.462855264188012
 40
1.754991946269688
 40
2.046943275620619
 40
2.338792601194284
 40
2.338792601194284
 40
2.338792601194284
 40
2.338792601194284
 10
186.6314081833
 20
395.4315018465
 30
0.0
 10
186.6255149739053
 20
395.5291960831684
 30
0.0
 10
186.6137284463661
 20
395.7245863592948
 30
0.0
 10
186.5246773645777
 20
396.0063182330393
 30
0.0
 10
186.3869215369731
 20
396.2661357230199
 30
0.0
 10
186.2004787178579
 20
396.4940331320809
 30
0.0
 10
185.9737835648558
 20
396.6816875370657
 30
0.0
 10
185.7150521585268
 20
396.8204914334446
 30
0.0
 10
185.4342456859978
 20
396.9103154712804
 30
0.0
 10
185.2393798699775
 20
396.9222161712713
 30
0.0
 10
185.1419639858
 20
396.9281654816
 30
0.0
 11
186.6314081833
 21
395.4315018465
 31
0.0
 11
186.6018327392
 21
395.72269493
 31
0.0
 11
186.5165484832
 21
396.0026911375
 31
0.0
 11
186.3787681222
 21
396.260872981
 31
0.0
 11
186.1937078806
 21
396.4873881297
 31
0.0
 11
185.9683675501
 21
396.6735972753
 31
0.0
 11
185.7112918344
 21
396.8123629678
 31
0.0
 11
185.4322843084
 21
396.8983302822
 31
0.0
 11
185.1419639858
 21
396.9281654816
 31
0.0
  0
SPLINE
  5
AC8
330
1B
100
AcDbEntity
  8
0
  6
Continuous
100
AcDbSpline
210
0.0
220
0.0
230
1.0
 70
    24
 71
     3
 72
     8
 73
     4
 74
     2
 42
0.0000000001
 43
0.0000000001
 44
0.0000000001
 40
0.0
 40
0.0
 40
0.0
 40
0.0
 40
7.008357841200597
 40
7.008357841200597
 40
7.008357841200597
 40
7.008357841200597
 10
63.6630232059
 20
262.3549066018
 30
0.0
 10
63.58569381413334
 20
260.0200675372333
 30
0.0
 10
63.50836442236667
 20
257.6852284726667
 30
0.0
 10
63.4310350306
 20
255.3503894081
 30
0.0
 11
63.6630232059
 21
262.3549066018
 31
0.0
 11
63.4310350306
 21
255.3503894081
 31
0.0
  0
SPLINE
  5
AC9
330
1B
100
AcDbEntity
  8
0
  6
Continuous
100
AcDbSpline
210
0.0
220
0.0
230
1.0
 70
     8
 71
     3
 72
     9
 73
     5
 74
     3
 42
0.0000000001
 43
0.0000000001
 44
0.0000000001
 40
0.0
 40
0.0
 40
0.0
 40
0.0
 40
21.00699468041897
 40
49.02234720203839
 40
49.02234720203839
 40
49.02234720203839
 40
49.02234720203839
 10
63.4310350306
 20
255.3503894081
 30
0.0
 10
63.19924804238664
 20
248.3518951364568
 30
0.0
 10
62.65834524377252
 20
232.0200675097395
 30
0.0
 10
62.11744102620563
 20
215.6882399300172
 30
0.0
 10
61.8083244049
 20
206.3549066018
 30
0.0
 11
63.4310350306
 21
255.3503894081
 31
0.0
 11
62.7356738054
 21
234.3549066018
 31
0.0
 11
61.8083244049
 21
206.3549066018
 31
0.0
  0
SPLINE
  5
ACA
330
1B
100
AcDbEntity
  8
0
  6
Continuous
100
AcDbSpline
210
0.0
220
0.0
230
1.0
 70
     8
 71
     3
 72
     9
 73
     5
 74
     3
 42
0.0000000001
 43
0.0000000001
 44
0.0000000001
 40
0.0
 40
0.0
 40
0.0
 40
0.0
 40
28.01535252161942
 40
33.72397316770415
 40
33.72397316770415
 40
33.72397316770415
 40
33.72397316770415
 10
105.3083769171
 20
262.3549066018
 30
0.0
 10
105.6174932223805
 20
253.021573263116
 30
0.0
 10
105.9895974097875
 20
241.7864091567169
 30
0.0
 10
106.3617022994922
 20
230.5512450735779
 30
0.0
 10
106.4246903005
 20
228.6494143098
 30
0.0
 11
105.3083769171
 21
262.3549066018
 31
0.0
 11
106.2357263176
 21
234.3549066018
 31
0.0
 11
106.4246903005
 21
228.6494143098
 31
0.0
  0
SPLINE
  5
ACB
330
1B
100
AcDbEntity
  8
0
  6
Continuous
100
AcDbSpline
210
0.0
220
0.0
230
1.0
 70
    24
 71
     3
 72
     8
 73
     4
 74
     2
 42
0.0000000001
 43
0.0000000001
 44
0.0000000001
 40
0.0
 40
0.0
 40
0.0
 40
0.0
 40
22.3067318755347
 40
22.3067318755347
 40
22.3067318755347
 40
22.3067318755347
 10
106.4246903005
 20
228.6494143098
 30
0.0
 10
106.6708187730333
 20
221.2179117404666
 30
0.0
 10
106.9169472455667
 20
213.7864091711333
 30
0.0
 10
107.1630757181
 20
206.3549066018
 30
0.0
 11
106.4246903005
 21
228.6494143098
 31
0.0
 11
107.1630757181
 21
206.3549066018
 31
0.0
  0
SPLINE
  5
ACC
330
1B
100
AcDbEntity
  8
0
  6
Continuous
100
AcDbSpline
210
0.0
220
0.0
230
1.0
 70
     8
 71
     3
 72
     9
 73
     5
 74
     3
 42
0.0000000001
 43
0.0000000001
 44
0.0000000001
 40
0.0
 40
0.0
 40
0.0
 40
0.0
 40
28.00466143519398
 40
33.70179684073093
 40
33.70179684073093
 40
33.70179684073093
 40
33.70179684073093
 10
96.18085125610001
 20
262.3549066018
 30
0.0
 10
96.35116528860911
 20
253.0215732668428
 30
0.0
 10
96.55612719954064
 20
241.7895108964601
 30
0.0
 10
96.761089497117
 20
230.5574485331328
 30
0.0
 10
96.79573744089998
 20
228.6587194989
 30
0.0
 11
96.18085125610001
 21
262.3549066018
 31
0.0
 11
96.6917936206
 21
234.3549066018
 31
0.0
 11
96.79573744089998
 21
228.6587194989
 31
0.0
  0
SPLINE
  5
ACD
330
1B
100
AcDbEntity
  8
0
  6
Continuous
100
AcDbSpline
210
0.0
220
0.0
230
1.0
 70
    24
 71
     3
 72
     8
 73
     4
 74
     2
 42
0.0000000001
 43
0.0000000001
 44
0.0000000001
 40
0.0
 40
0.0
 40
0.0
 40
0.0
 40
22.30752602965885
 40
22.30752602965885
 40
22.30752602965885
 40
22.30752602965885
 10
96.79573744089998
 20
228.6587194989
 30
0.0
 10
96.93140362233332
 20
221.2241151998667
 30
0.0
 10
97.06706980376666
 20
213.7895109008333
 30
0.0
 10
97.20273598519999
 20
206.3549066018
 30
0.0
 11
96.79573744089998
 21
228.6587194989
 31
0.0
 11
97.20273598519999
 21
206.3549066018
 31
0.0
  0
SPLINE
  5
ACE
330
1B
100
AcDbEntity
  8
0
  6
Continuous
100
AcDbSpline
210
0.0
220
0.0
230
1.0
 70
    24
 71
     3
 72
     8
 73
     4
 74
     2
 42
0.0000000001
 43
0.0000000001
 44
0.0000000001
 40
0.0
 40
0.0
 40
0.0
 40
0.0
 40
6.998696891930857
 40
6.998696891930857
 40
6.998696891930857
 40
6.998696891930857
 10
92.7982213569
 20
262.3549066018
 30
0.0
 10
92.82807977873333
 20
260.0221987223666
 30
0.0
 10
92.85793820056666
 20
257.6894908429333
 30
0.0
 10
92.8877966224
 20
255.3567829635
 30
0.0
 11
92.7982213569
 21
262.3549066018
 31
0.0
 11
92.8877966224
 21
255.3567829635
 31
0.0
  0
SPLINE
  5
ACF
330
1B
100
AcDbEntity
  8
0
  6
Continuous
100
AcDbSpline
210
0.0
220
0.0
230
1.0
 70
     8
 71
     3
 72
     9
 73
     5
 74
     3
 42
0.0000000001
 43
0.0000000001
 44
0.0000000001
 40
0.0
 40
0.0
 40
0.0
 40
0.0
 40
21.00359671332087
 40
49.00589031857386
 40
49.00589031857386
 40
49.00589031857386
 40
49.00589031857386
 10
92.8877966224
 20
255.3567829635
 30
0.0
 10
92.97740325007321
 20
248.35615750917
 30
0.0
 10
93.1864747070959
 20
232.0221987182583
 30
0.0
 10
93.39554671275567
 20
215.6882399343691
 30
0.0
 10
93.51501185559999
 20
206.3549066018
 30
0.0
 11
92.8877966224
 21
255.3567829635
 31
0.0
 11
93.1566166062
 21
234.3549066018
 31
0.0
 11
93.51501185559999
 21
206.3549066018
 31
0.0
  0
SPLINE
  5
AD0
330
1B
100
AcDbEntity
  8
0
  6
Continuous
100
AcDbSpline
210
0.0
220
0.0
230
1.0
 70
     8
 71
     3
 72
     9
 73
     5
 74
     3
 42
0.0000000001
 43
0.0000000001
 44
0.0000000001
 40
0.0
 40
0.0
 40
0.0
 40
0.0
 40
28.00067872047614
 40
33.70026158646108
 40
33.70026158646108
 40
33.70026158646108
 40
33.70026158646108
 10
89.16301970440001
 20
262.3549066018
 30
0.0
 10
89.22800582900794
 20
253.0215732682298
 30
0.0
 10
89.30621998305182
 20
241.7884250308285
 30
0.0
 10
89.3844342849569
 20
230.5552767944569
 30
0.0
 10
89.3976623394
 20
228.6554618908
 30
0.0
 11
89.16301970440001
 21
262.3549066018
 31
0.0
 11
89.3579781803
 21
234.3549066018
 31
0.0
 11
89.3976623394
 21
228.6554618908
 31
0.0
  0
SPLINE
  5
AD1
330
1B
100
AcDbEntity
  8
0
  6
Continuous
100
AcDbSpline
210
0.0
220
0.0
230
1.0
 70
    24
 71
     3
 72
     8
 73
     4
 74
     2
 42
0.0000000001
 43
0.0000000001
 44
0.0000000001
 40
0.0
 40
0.0
 40
0.0
 40
0.0
 40
22.30109585449119
 40
22.30109585449119
 40
22.30109585449119
 40
22.30109585449119
 10
89.3976623394
 20
228.6554618908
 30
0.0
 10
89.449420445
 20
221.2219434611333
 30
0.0
 10
89.5011785506
 20
213.7884250314667
 30
0.0
 10
89.5529366562
 20
206.3549066018
 30
0.0
 11
89.3976623394
 21
228.6554618908
 31
0.0
 11
89.5529366562
 21
206.3549066018
 31
0.0
  0
SPLINE
  5
AD2
330
1B
100
AcDbEntity
  8
0
  6
Continuous
100
AcDbSpline
210
0.0
220
0.0
230
1.0
 70
    24
 71
     3
 72
     8
 73
     4
 74
     2
 42
0.0000000001
 43
0.0000000001
 44
0.0000000001
 40
0.0
 40
0.0
 40
0.0
 40
0.0
 40
6.99999335168047
 40
6.99999335168047
 40
6.99999335168047
 40
6.99999335168047
 10
85.3857000615
 20
262.3549066018
 30
0.0
 10
85.38783323543333
 20
260.0215764596667
 30
0.0
 10
85.38996640936665
 20
257.6882463175333
 30
0.0
 10
85.3920995833
 20
255.3549161754
 30
0.0
 11
85.3857000615
 21
262.3549066018
 31
0.0
 11
85.3920995833
 21
255.3549161754
 31
0.0
  0
SPLINE
  5
AD3
330
1B
100
AcDbEntity
  8
0
  6
Continuous
100
AcDbSpline
210
0.0
220
0.0
230
1.0
 70
     8
 71
     3
 72
     9
 73
     5
 74
     3
 42
0.0000000001
 43
0.0000000001
 44
0.0000000001
 40
0.0
 40
0.0
 40
0.0
 40
0.0
 40
21.00001834933457
 40
49.00003005034952
 40
49.00003005034952
 40
49.00003005034952
 40
49.00003005034952
 10
85.3920995833
 20
255.3549161754
 30
0.0
 10
85.39849906957186
 20
248.3549129841978
 30
0.0
 10
85.41343120031628
 20
232.0215764596457
 30
0.0
 10
85.42836337017589
 20
215.6882399351294
 30
0.0
 10
85.436896037
 20
206.3549066018
 30
0.0
 11
85.3920995833
 21
255.3549161754
 31
0.0
 11
85.41129804929999
 21
234.3549066018
 31
0.0
 11
85.436896037
 21
206.3549066018
 31
0.0
  0
SPLINE
  5
AD4
330
1B
100
AcDbEntity
  8
0
  6
Continuous
100
AcDbSpline
210
0.0
220
0.0
230
1.0
 70
     8
 71
     3
 72
     9
 73
     5
 74
     3
 42
0.0000000001
 43
0.0000000001
 44
0.0000000001
 40
0.0
 40
0.0
 40
0.0
 40
0.0
 40
28.00001170101504
 40
33.70000450960935
 40
33.70000450960935
 40
33.70000450960935
 40
33.70000450960935
 10
83.58570006150001
 20
262.3549066018
 30
0.0
 10
83.57716740332639
 20
253.0215732684626
 30
0.0
 10
83.56689774265621
 20
241.7882431262557
 30
0.0
 10
83.55662806275011
 20
230.5549129840665
 30
0.0
 10
83.55489105700001
 20
228.6549161752
 30
0.0
 11
83.58570006150001
 21
262.3549066018
 31
0.0
 11
83.56010207369999
 21
234.3549066018
 31
0.0
 11
83.55489105700001
 21
228.6549161752
 31
0.0
  0
SPLINE
  5
AD5
330
1B
100
AcDbEntity
  8
0
  6
Continuous
100
AcDbSpline
210
0.0
220
0.0
230
1.0
 70
    24
 71
     3
 72
     8
 73
     4
 74
     2
 42
0.0000000001
 43
0.0000000001
 44
0.0000000001
 40
0.0
 40
0.0
 40
0.0
 40
0.0
 40
22.30001889242065
 40
22.30001889242065
 40
22.30001889242065
 40
22.30001889242065
 10
83.55489105700001
 20
228.6549161752
 30
0.0
 10
83.54809540000002
 20
221.2215796507334
 30
0.0
 10
83.54129974300001
 20
213.7882431262667
 30
0.0
 10
83.534504086
 20
206.3549066018
 30
0.0
 11
83.55489105700001
 21
228.6549161752
 31
0.0
 11
83.534504086
 21
206.3549066018
 31
0.0
  0
SPLINE
  5
AD6
330
1B
100
AcDbEntity
  8
0
  6
Continuous
100
AcDbSpline
210
0.0
220
0.0
230
1.0
 70
    24
 71
     3
 72
     8
 73
     4
 74
     2
 42
0.0000000001
 43
0.0000000001
 44
0.0000000001
 40
0.0
 40
0.0
 40
0.0
 40
0.0
 40
6.999614370040042
 40
6.999614370040042
 40
6.999614370040042
 40
6.999614370040042
 10
79.8083804186
 20
262.3549066018
 30
0.0
 10
79.79213508246667
 20
260.0217583679333
 30
0.0
 10
79.77588974633333
 20
257.6886101340667
 30
0.0
 10
79.7596444102
 20
255.3554619002
 30
0.0
 11
79.8083804186
 21
262.3549066018
 31
0.0
 11
79.7596444102
 21
255.3554619002
 31
0.0
  0
SPLINE
  5
AD7
330
1B
100
AcDbEntity
  8
0
  6
Continuous
100
AcDbSpline
210
0.0
220
0.0
230
1.0
 70
     8
 71
     3
 72
     9
 73
     5
 74
     3
 42
0.0000000001
 43
0.0000000001
 44
0.0000000001
 40
0.0
 40
0.0
 40
0.0
 40
0.0
 40
21.0010643504361
 40
49.00174307091224
 40
49.00174307091224
 40
49.00174307091224
 40
49.00174307091224
 10
79.7596444102
 20
255.3554619002
 30
0.0
 10
79.71090360597498
 20
248.3552768006061
 30
0.0
 10
79.59717678118886
 20
232.0217583667175
 30
0.0
 10
79.48344965792046
 20
215.6882399349071
 30
0.0
 10
79.41846346680001
 20
206.3549066018
 30
0.0
 11
79.7596444102
 21
255.3554619002
 31
0.0
 11
79.6134219427
 21
234.3549066018
 31
0.0
 11
79.41846346680001
 21
206.3549066018
 31
0.0
  0
SPLINE
  5
AD8
330
1B
100
AcDbEntity
  8
0
  6
Continuous
100
AcDbSpline
210
0.0
220
0.0
230
1.0
 70
     8
 71
     3
 72
     9
 73
     5
 74
     3
 42
0.0000000001
 43
0.0000000001
 44
0.0000000001
 40
0.0
 40
0.0
 40
0.0
 40
0.0
 40
28.00229360525171
 40
33.70088403532586
 40
33.70088403532586
 40
33.70088403532586
 40
33.70088403532586
 10
76.17317876609999
 20
262.3549066018
 30
0.0
 10
76.05371374546714
 20
253.021573267667
 30
0.0
 10
75.90993706547866
 20
241.7888653762797
 30
0.0
 10
75.76616011405369
 20
230.556157488367
 30
0.0
 10
75.7418484088
 20
228.6567829317
 30
0.0
 11
76.17317876609999
 21
262.3549066018
 31
0.0
 11
75.81478351680001
 21
234.3549066018
 31
0.0
 11
75.7418484088
 21
228.6567829317
 31
0.0
  0
SPLINE
  5
AD9
330
1B
100
AcDbEntity
  8
0
  6
Continuous
100
AcDbSpline
210
0.0
220
0.0
230
1.0
 70
    24
 71
     3
 72
     8
 73
     4
 74
     2
 42
0.0000000001
 43
0.0000000001
 44
0.0000000001
 40
0.0
 40
0.0
 40
0.0
 40
0.0
 40
22.30370317517884
 40
22.30370317517884
 40
22.30370317517884
 40
22.30370317517884
 10
75.7418484088
 20
228.6567829317
 30
0.0
 10
75.64669502833333
 20
221.2228241550667
 30
0.0
 10
75.55154164786666
 20
213.7888653784333
 30
0.0
 10
75.4563882674
 20
206.3549066018
 30
0.0
 11
75.7418484088
 21
228.6567829317
 31
0.0
 11
75.4563882674
 21
206.3549066018
 31
0.0
  0
SPLINE
  5
ADA
330
1B
100
AcDbEntity
  8
0
  6
Continuous
100
AcDbSpline
210
0.0
220
0.0
230
1.0
 70
    24
 71
     3
 72
     8
 73
     4
 74
     2
 42
0.0000000001
 43
0.0000000001
 44
0.0000000001
 40
0.0
 40
0.0
 40
0.0
 40
0.0
 40
6.997351774450122
 40
6.997351774450122
 40
6.997351774450122
 40
6.997351774450122
 10
72.7905488669
 20
262.3549066018
 30
0.0
 10
72.74799330593332
 20
260.0228442557333
 30
0.0
 10
72.70543774496665
 20
257.6907819096667
 30
0.0
 10
72.66288218399998
 20
255.3587195636
 30
0.0
 11
72.7905488669
 21
262.3549066018
 31
0.0
 11
72.66288218399998
 21
255.3587195636
 31
0.0
  0
SPLINE
  5
ADB
330
1B
100
AcDbEntity
  8
0
  6
Continuous
100
AcDbSpline
210
0.0
220
0.0
230
1.0
 70
     8
 71
     3
 72
     9
 73
     5
 74
     3
 42
0.0000000001
 43
0.0000000001
 44
0.0000000001
 40
0.0
 40
0.0
 40
0.0
 40
0.0
 40
21.0073096607439
 40
49.0119710959397
 40
49.0119710959397
 40
49.0119710959397
 40
49.0119710959397
 10
72.66288218399998
 20
255.3587195636
 30
0.0
 10
72.53512367135241
 20
248.3574485754595
 30
0.0
 10
72.23705139887841
 20
232.0228442473853
 30
0.0
 10
71.93897834443266
 20
215.6882399335805
 30
0.0
 10
71.7686641378
 20
206.3549066018
 30
0.0
 11
72.66288218399998
 21
255.3587195636
 31
0.0
 11
72.2796065024
 21
234.3549066018
 31
0.0
 11
71.7686641378
 21
206.3549066018
 31
0.0
  0
SPLINE
  5
ADC
330
1B
100
AcDbEntity
  8
0
  6
Continuous
100
AcDbSpline
210
0.0
220
0.0
230
1.0
 70
    24
 71
     3
 72
     8
 73
     4
 74
     2
 42
0.0000000001
 43
0.0000000001
 44
0.0000000001
 40
0.0
 40
0.0
 40
0.0
 40
0.0
 40
6.999788032071327
 40
6.999788032071327
 40
6.999788032071327
 40
6.999788032071327
 10
87.390365749
 20
262.3549066018
 30
0.0
 10
87.40241031053333
 20
260.0216750123334
 30
0.0
 10
87.41445487206667
 20
257.6884434228667
 30
0.0
 10
87.4264994336
 20
255.3552118334
 30
0.0
 11
87.390365749
 21
262.3549066018
 31
0.0
 11
87.4264994336
 21
255.3552118334
 31
0.0
  0
SPLINE
  5
ADD
330
1B
100
AcDbEntity
  8
0
  6
Continuous
100
AcDbSpline
210
0.0
220
0.0
230
1.0
 70
     8
 71
     3
 72
     9
 73
     5
 74
     3
 42
0.0000000001
 43
0.0000000001
 44
0.0000000001
 40
0.0
 40
0.0
 40
0.0
 40
0.0
 40
21.0005850349649
 40
49.00095810200112
 40
49.00095810200112
 40
49.00095810200112
 40
49.00095810200112
 10
87.4264994336
 20
255.3552118334
 30
0.0
 10
87.46263495261856
 20
248.3551100894634
 30
0.0
 10
87.54695046337565
 20
232.021675011665
 30
0.0
 10
87.63126619541515
 20
215.688239935009
 30
0.0
 10
87.6794463136
 20
206.3549066018
 30
0.0
 11
87.4264994336
 21
255.3552118334
 31
0.0
 11
87.5349060313
 21
234.3549066018
 31
0.0
 11
87.6794463136
 21
206.3549066018
 31
0.0
  0
SPLINE
  5
ADE
330
1B
100
AcDbEntity
  8
0
  6
Continuous
100
AcDbSpline
210
0.0
220
0.0
230
1.0
 70
     8
 71
     3
 72
     9
 73
     5
 74
     3
 42
0.0000000001
 43
0.0000000001
 44
0.0000000001
 40
0.0
 40
0.0
 40
0.0
 40
0.0
 40
28.00037306703622
 40
33.70014378254979
 40
33.70014378254979
 40
33.70014378254979
 40
33.70014378254979
 10
81.58103437399998
 20
262.3549066018
 30
0.0
 10
81.53285430505019
 20
253.0215732683368
 30
0.0
 10
81.47486667584346
 20
241.788341676917
 30
0.0
 10
81.41687893734218
 20
230.5551100860613
 30
0.0
 10
81.40707135860001
 20
228.6552118282
 30
0.0
 11
81.58103437399998
 21
262.3549066018
 31
0.0
 11
81.4364940917
 21
234.3549066018
 31
0.0
 11
81.40707135860001
 21
228.6552118282
 31
0.0
  0
SPLINE
  5
ADF
330
1B
100
AcDbEntity
  8
0
  6
Continuous
100
AcDbSpline
210
0.0
220
0.0
230
1.0
 70
    24
 71
     3
 72
     8
 73
     4
 74
     2
 42
0.0000000001
 43
0.0000000001
 44
0.0000000001
 40
0.0
 40
0.0
 40
0.0
 40
0.0
 40
22.30060235152213
 40
22.30060235152213
 40
22.30060235152213
 40
22.30060235152213
 10
81.40707135860001
 20
228.6552118282
 30
0.0
 10
81.36869884223336
 20
221.2217767527334
 30
0.0
 10
81.33032632586668
 20
213.7883416772667
 30
0.0
 10
81.29195380949999
 20
206.3549066018
 30
0.0
 11
81.40707135860001
 21
228.6552118282
 31
0.0
 11
81.29195380949999
 21
206.3549066018
 31
0.0
  0
SPLINE
  5
AE0
330
1B
100
AcDbEntity
  8
0
  6
Continuous
100
AcDbSpline
210
0.0
220
0.0
230
1.0
 70
     8
 71
     3
 72
     9
 73
     5
 74
     3
 42
0.0000000001
 43
0.0000000001
 44
0.0000000001
 40
0.0
 40
0.0
 40
0.0
 40
0.0
 40
24.51086003369195
 40
33.3105757194334
 40
33.3105757194334
 40
33.3105757194334
 40
33.3105757194334
 10
66.1617511745
 20
255.3549066018
 30
0.0
 10
65.91856425113861
 20
247.1882399305483
 30
0.0
 10
65.58807007780193
 20
236.0896343265766
 30
0.0
 10
65.25757505134548
 20
224.991028748009
 30
0.0
 10
65.170267576
 20
222.059089822
 30
0.0
 11
66.1617511745
 21
255.3549066018
 31
0.0
 11
65.4321899425
 21
230.8549066018
 31
0.0
 11
65.170267576
 21
222.059089822
 31
0.0
  0
SPLINE
  5
AE1
330
1B
100
AcDbEntity
  8
0
  6
Continuous
100
AcDbSpline
210
0.0
220
0.0
230
1.0
 70
    24
 71
     3
 72
     8
 73
     4
 74
     2
 42
0.0000000001
 43
0.0000000001
 44
0.0000000001
 40
0.0
 40
0.0
 40
0.0
 40
0.0
 40
15.7111443479535
 40
15.7111443479535
 40
15.7111443479535
 40
15.7111443479535
 10
65.170267576
 20
222.059089822
 30
0.0
 10
65.01438795413333
 20
216.8243620819333
 30
0.0
 10
64.85850833226667
 20
211.5896343418667
 30
0.0
 10
64.70262871040001
 20
206.3549066018
 30
0.0
 11
65.170267576
 21
222.059089822
 31
0.0
 11
64.70262871040001
 21
206.3549066018
 31
0.0
  0
ENDSEC
  0
SECTION
  2
OBJECTS
  0
DICTIONARY
  5
BE1
330
0
100
AcDbDictionary
281
     1
  3
ACAD_COLOR
350
D81
  3
ACAD_GROUP
350
BE2
  3
ACAD_LAYOUT
350
D82
  3
ACAD_MATERIAL
350
D80
  3
ACAD_MLINESTYLE
350
BE3
  3
ACAD_PLOTSETTINGS
350
D83
  3
ACAD_PLOTSTYLENAME
350
D7E
  3
ACDBHEADERROUNDTRIPXREC
350
D91
  3
AcDbVariableDictionary
350
D89
  0
DICTIONARY
  5
D81
102
{ACAD_REACTORS
330
BE1
102
}
330
BE1
100
AcDbDictionary
281
     1
  0
DICTIONARY
  5
BE2
102
{ACAD_REACTORS
330
BE1
102
}
330
BE1
100
AcDbDictionary
281
     1
  0
DICTIONARY
  5
D82
102
{ACAD_REACTORS
330
BE1
102
}
330
BE1
100
AcDbDictionary
281
     1
  3
Layout1
350
D85
  3
Model
350
D84
  0
DICTIONARY
  5
D80
102
{ACAD_REACTORS
330
BE1
102
}
330
BE1
100
AcDbDictionary
281
     1
  0
DICTIONARY
  5
BE3
102
{ACAD_REACTORS
330
BE1
102
}
330
BE1
100
AcDbDictionary
281
     1
  3
STANDARD
350
BE4
  0
DICTIONARY
  5
D83
102
{ACAD_REACTORS
330
BE1
102
}
330
BE1
100
AcDbDictionary
281
     1
  0
ACDBDICTIONARYWDFLT
  5
D7E
102
{ACAD_REACTORS
330
BE1
102
}
330
BE1
100
AcDbDictionary
281
     1
  3
Normal
350
D7F
100
AcDbDictionaryWithDefault
340
D7F
  0
DICTIONARY
  5
D91
102
{ACAD_REACTORS
330
BE1
102
}
330
BE1
100
AcDbDictionary
281
     1
  3
COLORDICT
350
D92
  3
MATERIALDICT
350
D93
  0
DICTIONARY
  5
D89
102
{ACAD_REACTORS
330
BE1
102
}
330
BE1
100
AcDbDictionary
281
     1
  0
LAYOUT
  5
D85
102
{ACAD_REACTORS
330
D82
102
}
330
D82
100
AcDbPlotSettings
  1

  2
Microsoft Office Document Image Writer
  4

  6

 40
0.0
 41
0.0
 42
0.0
 43
0.0
 44
0.0
 45
0.0
 46
0.0
 47
0.0
 48
0.0
 49
0.0
140
0.0
141
0.0
142
1.0
143
1.0
 70
   688
 72
     0
 73
     0
 74
     5
  7

 75
    16
147
1.0
148
0.0
149
0.0
100
AcDbLayout
  1
Layout1
 70
     0
 71
     1
 10
0.0
 20
0.0
 11
12.0
 21
9.0
 12
0.0
 22
0.0
 32
0.0
 14
1.000000000000000E+20
 24
1.000000000000000E+20
 34
1.000000000000000E+20
 15
-1.000000000000000E+20
 25
-1.000000000000000E+20
 35
-1.000000000000000E+20
146
0.0
 13
0.0
 23
0.0
 33
0.0
 16
1.0
 26
0.0
 36
0.0
 17
0.0
 27
1.0
 37
0.0
 76
     0
330
1C
  0
LAYOUT
  5
D84
102
{ACAD_REACTORS
330
D82
102
}
330
D82
100
AcDbPlotSettings
  1

  2
Microsoft Office Document Image Writer
  4

  6

 40
0.0
 41
0.0
 42
0.0
 43
0.0
 44
0.0
 45
0.0
 46
0.0
 47
0.0
 48
0.0
 49
0.0
140
0.0
141
0.0
142
1.0
143
1.0
 70
  1712
 72
     0
 73
     0
 74
     0
  7

 75
     0
147
1.0
148
0.0
149
0.0
100
AcDbLayout
  1
Model
 70
     1
 71
     0
 10
0.0
 20
0.0
 11
12.0
 21
9.0
 12
0.0
 22
0.0
 32
0.0
 14
0.0
 24
0.0
 34
0.0
 15
0.0
 25
0.0
 35
0.0
146
0.0
 13
0.0
 23
0.0
 33
0.0
 16
1.0
 26
0.0
 36
0.0
 17
0.0
 27
1.0
 37
0.0
 76
     0
330
1B
  0
MLINESTYLE
  5
BE4
102
{ACAD_REACTORS
330
BE3
102
}
330
BE3
100
AcDbMlineStyle
  2
STANDARD
 70
     0
  3

 62
   256
 51
90.00000000000019
 52
90.00000000000019
 71
     2
 49
0.5
 62
   256
  6
BYLAYER
 49
-0.5
 62
   256
  6
BYLAYER
  0
ACDBPLACEHOLDER
  5
D7F
102
{ACAD_REACTORS
330
D7E
102
}
330
D7E
  0
XRECORD
  5
D92
102
{ACAD_REACTORS
330
D91
102
}
330
D91
100
AcDbXrecord
280
     1
340
D81
  0
XRECORD
  5
D93
102
{ACAD_REACTORS
330
D91
102
}
330
D91
100
AcDbXrecord
280
     1
340
D80
  0
ENDSEC
  0
EOF
