  0
SECTION
  2
HEADER
  9
$ACADVER
  1
AC1015
  9
$ACADMAINTVER
 70
     6
  9
$DWGCODEPAGE
  3
ANSI_1252
  9
$INSBASE
 10
0.0
 20
0.0
 30
0.0
  9
$EXTMIN
 10
0.0
 20
0.0
 30
-170.6334906532999
  9
$EXTMAX
 10
297.0
 20
420.0
 30
21.3570187388
  9
$LIMMIN
 10
0.0
 20
0.0
  9
$LIMMAX
 10
297.0
 20
420.0
  9
$ORTHOMODE
 70
     0
  9
$REGENMODE
 70
     1
  9
$FILLMODE
 70
     1
  9
$QTEXTMODE
 70
     0
  9
$MIRRTEXT
 70
     1
  9
$LTSCALE
 40
27.3777777778
  9
$ATTMODE
 70
     1
  9
$TEXTSIZE
 40
0.2
  9
$TRACEWID
 40
0.05
  9
$TEXTSTYLE
  7
STANDARD
  9
$CLAYER
  8
0
  9
$CELTYPE
  6
BYLAYER
  9
$CECOLOR
 62
   256
  9
$CELTSCALE
 40
1.0
  9
$DISPSILH
 70
     0
  9
$DIMSCALE
 40
1.0
  9
$DIMASZ
 40
3.0
  9
$DIMEXO
 40
3.1111111111
  9
$DIMDLI
 40
18.9155555556
  9
$DIMRND
 40
0.0
  9
$DIMDLE
 40
0.0
  9
$DIMEXE
 40
8.960000000000001
  9
$DIMTP
 40
0.003
  9
$DIMTM
 40
0.003
  9
$DIMTXT
 40
1.5
  9
$DIMCEN
 40
4.48
  9
$DIMTSZ
 40
0.0
  9
$DIMTOL
 70
     1
  9
$DIMLIM
 70
     0
  9
$DIMTIH
 70
     1
  9
$DIMTOH
 70
     1
  9
$DIMSE1
 70
     0
  9
$DIMSE2
 70
     0
  9
$DIMTAD
 70
     0
  9
$DIMZIN
 70
     0
  9
$DIMBLK
  1

  9
$DIMASO
 70
     1
  9
$DIMSHO
 70
     1
  9
$DIMPOST
  1

  9
$DIMAPOST
  1

  9
$DIMALT
 70
     0
  9
$DIMALTD
 70
     2
  9
$DIMALTF
 40
25.4
  9
$DIMLFAC
 40
1.0
  9
$DIMTOFL
 70
     0
  9
$DIMTVP
 40
0.0
  9
$DIMTIX
 70
     0
  9
$DIMSOXD
 70
     0
  9
$DIMSAH
 70
     0
  9
$DIMBLK1
  1

  9
$DIMBLK2
  1

  9
$DIMSTYLE
  2
STANDARD
  9
$DIMCLRD
 70
     0
  9
$DIMCLRE
 70
     0
  9
$DIMCLRT
 70
     0
  9
$DIMTFAC
 40
1.0
  9
$DIMGAP
 40
0.09
  9
$DIMJUST
 70
     0
  9
$DIMSD1
 70
     0
  9
$DIMSD2
 70
     0
  9
$DIMTOLJ
 70
     1
  9
$DIMTZIN
 70
     0
  9
$DIMALTZ
 70
     0
  9
$DIMALTTZ
 70
     0
  9
$DIMUPT
 70
     0
  9
$DIMDEC
 70
     4
  9
$DIMTDEC
 70
     4
  9
$DIMALTU
 70
     2
  9
$DIMALTTD
 70
     2
  9
$DIMTXSTY
  7
STANDARD
  9
$DIMAUNIT
 70
     0
  9
$DIMADEC
 70
     0
  9
$DIMALTRND
 40
0.0
  9
$DIMAZIN
 70
     0
  9
$DIMDSEP
 70
    46
  9
$DIMATFIT
 70
     3
  9
$DIMFRAC
 70
     0
  9
$DIMLDRBLK
  1

  9
$DIMLUNIT
 70
     2
  9
$DIMLWD
 70
    -2
  9
$DIMLWE
 70
    -2
  9
$DIMTMOVE
 70
     0
  9
$LUNITS
 70
     2
  9
$LUPREC
 70
     4
  9
$SKETCHINC
 40
0.1
  9
$FILLETRAD
 40
0.0
  9
$AUNITS
 70
     0
  9
$AUPREC
 70
     0
  9
$MENU
  1
acad
  9
$ELEVATION
 40
0.0
  9
$PELEVATION
 40
0.0
  9
$THICKNESS
 40
0.0
  9
$LIMCHECK
 70
     0
  9
$CHAMFERA
 40
0.0
  9
$CHAMFERB
 40
0.0
  9
$CHAMFERC
 40
0.0
  9
$CHAMFERD
 40
0.0
  9
$SKPOLY
 70
     0
  9
$TDCREATE
 40
2444972.041666667
  9
$TDUCREATE
 40
2444972.0
  9
$TDUPDATE
 40
2453410.364934757
  9
$TDUUPDATE
 40
2453410.32326809
  9
$TDINDWG
 40
0.0005334954
  9
$TDUSRTIMER
 40
0.0005334954
  9
$USRTIMER
 70
     1
  9
$ANGBASE
 50
0.0
  9
$ANGDIR
 70
     0
  9
$PDMODE
 70
     0
  9
$PDSIZE
 40
0.0
  9
$PLINEWID
 40
0.0
  9
$SPLFRAME
 70
     0
  9
$SPLINETYPE
 70
     6
  9
$SPLINESEGS
 70
     8
  9
$HANDSEED
  5
C6A
  9
$SURFTAB1
 70
     6
  9
$SURFTAB2
 70
     6
  9
$SURFTYPE
 70
     6
  9
$SURFU
 70
     6
  9
$SURFV
 70
     6
  9
$UCSBASE
  2

  9
$UCSNAME
  2

  9
$UCSORG
 10
0.0
 20
0.0
 30
0.0
  9
$UCSXDIR
 10
1.0
 20
0.0
 30
0.0
  9
$UCSYDIR
 10
0.0
 20
1.0
 30
0.0
  9
$UCSORTHOREF
  2

  9
$UCSORTHOVIEW
 70
     0
  9
$UCSORGTOP
 10
0.0
 20
0.0
 30
0.0
  9
$UCSORGBOTTOM
 10
0.0
 20
0.0
 30
0.0
  9
$UCSORGLEFT
 10
0.0
 20
0.0
 30
0.0
  9
$UCSORGRIGHT
 10
0.0
 20
0.0
 30
0.0
  9
$UCSORGFRONT
 10
0.0
 20
0.0
 30
0.0
  9
$UCSORGBACK
 10
0.0
 20
0.0
 30
0.0
  9
$PUCSBASE
  2

  9
$PUCSNAME
  2

  9
$PUCSORG
 10
0.0
 20
0.0
 30
0.0
  9
$PUCSXDIR
 10
1.0
 20
0.0
 30
0.0
  9
$PUCSYDIR
 10
0.0
 20
1.0
 30
0.0
  9
$PUCSORTHOREF
  2

  9
$PUCSORTHOVIEW
 70
     0
  9
$PUCSORGTOP
 10
0.0
 20
0.0
 30
0.0
  9
$PUCSORGBOTTOM
 10
0.0
 20
0.0
 30
0.0
  9
$PUCSORGLEFT
 10
0.0
 20
0.0
 30
0.0
  9
$PUCSORGRIGHT
 10
0.0
 20
0.0
 30
0.0
  9
$PUCSORGFRONT
 10
0.0
 20
0.0
 30
0.0
  9
$PUCSORGBACK
 10
0.0
 20
0.0
 30
0.0
  9
$USERI1
 70
     0
  9
$USERI2
 70
     0
  9
$USERI3
 70
     0
  9
$USERI4
 70
     0
  9
$USERI5
 70
     0
  9
$USERR1
 40
0.0
  9
$USERR2
 40
0.0
  9
$USERR3
 40
0.0
  9
$USERR4
 40
0.0
  9
$USERR5
 40
0.0
  9
$WORLDVIEW
 70
     1
  9
$SHADEDGE
 70
     3
  9
$SHADEDIF
 70
    70
  9
$TILEMODE
 70
     1
  9
$MAXACTVP
 70
    16
  9
$PINSBASE
 10
0.0
 20
0.0
 30
0.0
  9
$PLIMCHECK
 70
     0
  9
$PEXTMIN
 10
1.000000000000000E+20
 20
1.000000000000000E+20
 30
1.000000000000000E+20
  9
$PEXTMAX
 10
-1.000000000000000E+20
 20
-1.000000000000000E+20
 30
-1.000000000000000E+20
  9
$PLIMMIN
 10
0.0
 20
0.0
  9
$PLIMMAX
 10
12.0
 20
9.0
  9
$UNITMODE
 70
     0
  9
$VISRETAIN
 70
     0
  9
$PLINEGEN
 70
     1
  9
$PSLTSCALE
 70
     0
  9
$TREEDEPTH
 70
  3020
  9
$CMLSTYLE
  2
STANDARD
  9
$CMLJUST
 70
     0
  9
$CMLSCALE
 40
1.0
  9
$PROXYGRAPHICS
 70
     1
  9
$MEASUREMENT
 70
     0
  9
$CELWEIGHT
370
    -1
  9
$ENDCAPS
280
     0
  9
$JOINSTYLE
280
     0
  9
$LWDISPLAY
290
     0
  9
$INSUNITS
 70
     0
  9
$HYPERLINKBASE
  1

  9
$STYLESHEET
  1

  9
$XEDIT
290
     1
  9
$CEPSNTYPE
380
     0
  9
$PSTYLEMODE
290
     1
  9
$FINGERPRINTGUID
  2
{F18135EC-ADDB-4F8F-8A3B-64E73B6CC787}
  9
$VERSIONGUID
  2
{477D68B7-3C28-4415-8426-7657C3352BE6}
  9
$EXTNAMES
290
     1
  9
$PSVPSCALE
 40
0.0
  9
$OLESTARTUP
290
     0
  0
ENDSEC
  0
SECTION
  2
CLASSES
  0
CLASS
  1
IMAGE
  2
AcDbRasterImage
  3
ISM
 90
      127
280
     0
281
     1
  0
CLASS
  1
DICTIONARYVAR
  2
AcDbDictionaryVar
  3
ObjectDBX Classes
 90
        0
280
     0
281
     0
  0
CLASS
  1
RASTERVARIABLES
  2
AcDbRasterVariables
  3
ISM
 90
        0
280
     0
281
     0
  0
CLASS
  1
IMAGEDEF
  2
AcDbRasterImageDef
  3
ISM
 90
        0
280
     0
281
     0
  0
CLASS
  1
IMAGEDEF_REACTOR
  2
AcDbRasterImageDefReactor
  3
ISM
 90
        1
280
     0
281
     0
  0
CLASS
  1
IDBUFFER
  2
AcDbIdBuffer
  3
ObjectDBX Classes
 90
        0
280
     0
281
     0
  0
CLASS
  1
SPATIAL_FILTER
  2
AcDbSpatialFilter
  3
ObjectDBX Classes
 90
        0
280
     0
281
     0
  0
CLASS
  1
SORTENTSTABLE
  2
AcDbSortentsTable
  3
ObjectDBX Classes
 90
        0
280
     0
281
     0
  0
CLASS
  1
LAYER_INDEX
  2
AcDbLayerIndex
  3
ObjectDBX Classes
 90
        0
280
     0
281
     0
  0
CLASS
  1
SPATIAL_INDEX
  2
AcDbSpatialIndex
  3
AutoCAD 2000
 90
        0
280
     0
281
     0
  0
CLASS
  1
OBJECT_PTR
  2
CAseDLPNTableRecord
  3
ASE-LPNTableRecord
 90
        1
280
     0
281
     0
  0
CLASS
  1
PLOTSETTINGS
  2
AcDbPlotSettings
  3
ObjectDBX Classes
 90
        0
280
     0
281
     0
  0
CLASS
  1
ACDBDICTIONARYWDFLT
  2
AcDbDictionaryWithDefault
  3
ObjectDBX Classes
 90
        0
280
     0
281
     0
  0
CLASS
  1
WIPEOUT
  2
AcDbWipeout
  3
WipeOut|AutoCAD Express Tool|expresstools@autodesk.com
 90
      127
280
     0
281
     1
  0
CLASS
  1
WIPEOUTVARIABLES
  2
AcDbWipeoutVariables
  3
WipeOut|AutoCAD Express Tool|expresstools@autodesk.com
 90
        0
280
     0
281
     0
  0
CLASS
  1
RTEXT
  2
RText
  3
RText|AutoCAD Express Tool|expresstools@autodesk.com
 90
        0
280
     0
281
     1
  0
CLASS
  1
ARCALIGNEDTEXT
  2
AcDbArcAlignedText
  3
ATEXT|AutoCAD Express Tool|expresstools@autodesk.com
 90
        0
280
     0
281
     1
  0
CLASS
  1
ACDBPLACEHOLDER
  2
AcDbPlaceHolder
  3
ObjectDBX Classes
 90
        0
280
     0
281
     0
  0
CLASS
  1
LAYOUT
  2
AcDbLayout
  3
ObjectDBX Classes
 90
        0
280
     0
281
     0
  0
ENDSEC
  0
SECTION
  2
TABLES
  0
TABLE
  2
VPORT
  5
8
330
0
100
AcDbSymbolTable
 70
     1
  0
VPORT
  5
C5E
330
8
100
AcDbSymbolTableRecord
100
AcDbViewportTableRecord
  2
*Active
 70
     0
 10
0.0
 20
0.0
 11
1.0
 21
1.0
 12
227.5478730691056
 22
296.0693344027903
 13
0.0
 23
0.0
 14
1.0
 24
1.0
 15
0.0
 25
0.0
 16
0.0
 26
0.0
 36
1.0
 17
0.0
 27
0.0
 37
0.0
 40
229.2783711404281
 41
1.888667992047713
 42
50.0
 43
0.0
 44
0.0
 50
0.0
 51
0.0
 71
     0
 72
   100
 73
     1
 74
     1
 75
     0
 76
     0
 77
     0
 78
     0
281
     0
 65
     1
110
0.0
120
0.0
130
0.0
111
1.0
121
0.0
131
0.0
112
0.0
122
1.0
132
0.0
 79
     0
146
0.0
  0
ENDTAB
  0
TABLE
  2
LTYPE
  5
5
330
0
100
AcDbSymbolTable
 70
     1
  0
LTYPE
  5
14
330
5
100
AcDbSymbolTableRecord
100
AcDbLinetypeTableRecord
  2
BYBLOCK
 70
     0
  3

 72
    65
 73
     0
 40
0.0
  0
LTYPE
  5
15
330
5
100
AcDbSymbolTableRecord
100
AcDbLinetypeTableRecord
  2
BYLAYER
 70
     0
  3

 72
    65
 73
     0
 40
0.0
  0
LTYPE
  5
16
330
5
100
AcDbSymbolTableRecord
100
AcDbLinetypeTableRecord
  2
CONTINUOUS
 70
     0
  3
Solid line
 72
    65
 73
     0
 40
0.0
  0
ENDTAB
  0
TABLE
  2
LAYER
  5
2
330
0
100
AcDbSymbolTable
 70
     1
  0
LAYER
  5
10
330
2
100
AcDbSymbolTableRecord
100
AcDbLayerTableRecord
  2
0
 70
     0
 62
     7
  6
CONTINUOUS
370
    -3
390
C55
  0
ENDTAB
  0
TABLE
  2
STYLE
  5
3
330
0
100
AcDbSymbolTable
 70
     1
  0
STYLE
  5
11
330
3
100
AcDbSymbolTableRecord
100
AcDbTextStyleTableRecord
  2
STANDARD
 70
     0
 40
0.0
 41
1.0
 50
0.0
 71
     0
 42
0.2
  3
txt
  4

  0
ENDTAB
  0
TABLE
  2
VIEW
  5
6
330
0
100
AcDbSymbolTable
 70
     0
  0
ENDTAB
  0
TABLE
  2
UCS
  5
7
330
0
100
AcDbSymbolTable
 70
     0
  0
ENDTAB
  0
TABLE
  2
APPID
  5
9
330
0
100
AcDbSymbolTable
 70
     1
  0
APPID
  5
235
330
9
100
AcDbSymbolTableRecord
100
AcDbRegAppTableRecord
  2
ACAD
 70
     0
  0
ENDTAB
  0
TABLE
  2
DIMSTYLE
  5
A
330
0
100
AcDbSymbolTable
 70
     1
100
AcDbDimStyleTable
  0
DIMSTYLE
105
236
330
A
100
AcDbSymbolTableRecord
100
AcDbDimStyleTableRecord
  2
STANDARD
 70
     0
 41
3.0
 47
0.003
 48
0.003
 71
     1
 73
     0
 74
     0
 77
     1
 78
     8
140
1.5
271
     3
272
     3
284
     8
340
11
  0
ENDTAB
  0
TABLE
  2
BLOCK_RECORD
  5
1
330
0
100
AcDbSymbolTable
 70
     0
  0
BLOCK_RECORD
  5
1B
330
1
100
AcDbSymbolTableRecord
100
AcDbBlockTableRecord
  2
*MODEL_SPACE
340
C5A
  0
BLOCK_RECORD
  5
1C
330
1
100
AcDbSymbolTableRecord
100
AcDbBlockTableRecord
  2
*PAPER_SPACE
340
C5B
  0
ENDTAB
  0
ENDSEC
  0
SECTION
  2
BLOCKS
  0
BLOCK
  5
1E
330
1B
100
AcDbEntity
  8
0
100
AcDbBlockBegin
  2
*MODEL_SPACE
 70
     0
 71
     0
 10
0.0
 20
0.0
 30
0.0
  3
*MODEL_SPACE
  1

  0
ENDBLK
  5
1F
330
1B
100
AcDbEntity
  8
0
100
AcDbBlockEnd
  0
BLOCK
  5
20
330
1C
100
AcDbEntity
 67
     1
  8
0
100
AcDbBlockBegin
  2
*PAPER_SPACE
 70
     0
 71
     0
 10
0.0
 20
0.0
 30
0.0
  3
*PAPER_SPACE
  1

  0
ENDBLK
  5
21
330
1C
100
AcDbEntity
 67
     1
  8
0
100
AcDbBlockEnd
  0
ENDSEC
  0
SECTION
  2
ENTITIES
  0
LWPOLYLINE
  5
23B
330
1B
100
AcDbEntity
  8
0
  6
Continuous
100
AcDbPolyline
 90
        3
 70
     0
 43
0.0
 10
113.6940499347
 20
285.3835208527
 10
113.7041729831
 20
285.2883485673
 10
113.7103440857
 20
285.2730510037
  0
LWPOLYLINE
  5
240
330
1B
100
AcDbEntity
  8
0
  6
Continuous
100
AcDbPolyline
 90
        6
 70
     0
 43
0.0
 10
115.9947756677
 20
285.3835208527
 10
116.0036185142
 20
285.2883485673
 10
116.0341041871
 20
285.2018369338
 10
116.0831155882
 20
285.1328315926
 10
116.1456414008
 20
285.0883882003
 10
116.2152884871
 20
285.0730510037
  0
LWPOLYLINE
  5
248
330
1B
100
AcDbEntity
  8
0
  6
Continuous
100
AcDbPolyline
 90
        3
 70
     0
 43
0.0
 10
118.7783716713
 20
285.3835208527
 10
118.7856656304
 20
285.2883485673
 10
118.7901120944
 20
285.2730510037
  0
LWPOLYLINE
  5
24D
330
1B
100
AcDbEntity
  8
0
  6
Continuous
100
AcDbPolyline
 90
        6
 70
     0
 43
0.0
 10
121.9602597893
 20
285.3835208527
 10
121.9657832379
 20
285.2883485673
 10
121.9848253015
 20
285.2018369338
 10
122.0154389679
 20
285.1328315926
 10
122.0544940515
 20
285.0883882003
 10
122.097997249
 20
285.0730510037
  0
LINE
  5
255
330
1B
100
AcDbEntity
  8
0
  6
Continuous
100
AcDbLine
 10
100.8867721225
 20
259.6936281403
 30
0.0
 11
100.8867721225
 21
241.8936281403
 31
0.0
  0
LINE
  5
256
330
1B
100
AcDbEntity
  8
0
  6
Continuous
100
AcDbLine
 10
105.6735686869
 20
241.8936281403
 30
0.0
 11
105.6735686869
 21
240.0936281403
 31
0.0
  0
LINE
  5
257
330
1B
100
AcDbEntity
  8
0
  6
Continuous
100
AcDbLine
 10
105.8867721225
 20
259.8936281403
 30
0.0
 11
105.8867721225
 21
241.8936281403
 31
0.0
  0
LINE
  5
258
330
1B
100
AcDbEntity
  8
0
  6
Continuous
100
AcDbLine
 10
107.8235686869
 20
216.3936281403
 30
0.0
 11
107.8235686869
 21
217.2936281403
 31
0.0
  0
LINE
  5
259
330
1B
100
AcDbEntity
  8
0
  6
Continuous
100
AcDbLine
 10
107.8235686869
 20
221.3936281403
 30
0.0
 11
107.8235686869
 21
222.2936281403
 31
0.0
  0
LINE
  5
25A
330
1B
100
AcDbEntity
  8
0
  6
Continuous
100
AcDbLine
 10
107.8235686869
 20
226.3936281403
 30
0.0
 11
107.8235686869
 21
238.010294807
 31
0.0
  0
LINE
  5
25B
330
1B
100
AcDbEntity
  8
0
  6
Continuous
100
AcDbLine
 10
108.3235686869
 20
226.3936281403
 30
0.0
 11
108.3235686869
 21
224.0936281403
 31
0.0
  0
LINE
  5
25C
330
1B
100
AcDbEntity
  8
0
  6
Continuous
100
AcDbLine
 10
108.3235686869
 20
221.3936281403
 30
0.0
 11
108.3235686869
 21
219.0936281403
 31
0.0
  0
LINE
  5
25D
330
1B
100
AcDbEntity
  8
0
  6
Continuous
100
AcDbLine
 10
108.3235686869
 20
216.3936281403
 30
0.0
 11
108.3235686869
 21
214.0936281403
 31
0.0
  0
LINE
  5
25E
330
1B
100
AcDbEntity
  8
0
  6
Continuous
100
AcDbLine
 10
108.505481997
 20
226.3936281403
 30
0.0
 11
108.505481997
 21
237.5936281403
 31
0.0
  0
LINE
  5
25F
330
1B
100
AcDbEntity
  8
0
  6
Continuous
100
AcDbLine
 10
108.8237308278
 20
226.3936281403
 30
0.0
 11
108.8237308278
 21
237.5936281403
 31
0.0
  0
LINE
  5
260
330
1B
100
AcDbEntity
  8
0
  6
Continuous
100
AcDbLine
 10
110.3235686869
 20
209.5936281403
 30
0.0
 11
110.3235686869
 21
233.5936281403
 31
0.0
  0
LINE
  5
261
330
1B
100
AcDbEntity
  8
0
  6
Continuous
100
AcDbLine
 10
110.6735686869
 20
240.0936281403
 30
0.0
 11
110.6735686869
 21
238.010294807
 31
0.0
  0
LINE
  5
262
330
1B
100
AcDbEntity
  8
0
  6
Continuous
100
AcDbLine
 10
111.0235686869
 20
209.5936281403
 30
0.0
 11
111.0235686869
 21
233.5936281403
 31
0.0
  0
LINE
  5
263
330
1B
100
AcDbEntity
  8
0
  6
Continuous
100
AcDbLine
 10
112.5234065461
 20
226.3936281403
 30
0.0
 11
112.5234065461
 21
237.5936281403
 31
0.0
  0
LINE
  5
264
330
1B
100
AcDbEntity
  8
0
  6
Continuous
100
AcDbLine
 10
112.8416553768
 20
226.3936281403
 30
0.0
 11
112.8416553768
 21
237.5936281403
 31
0.0
  0
LINE
  5
265
330
1B
100
AcDbEntity
  8
0
  6
Continuous
100
AcDbLine
 10
113.0235686869
 20
226.3936281403
 30
0.0
 11
113.0235686869
 21
224.0936281403
 31
0.0
  0
LINE
  5
266
330
1B
100
AcDbEntity
  8
0
  6
Continuous
100
AcDbLine
 10
113.0235686869
 20
221.3936281403
 30
0.0
 11
113.0235686869
 21
219.0936281403
 31
0.0
  0
LINE
  5
267
330
1B
100
AcDbEntity
  8
0
  6
Continuous
100
AcDbLine
 10
113.0235686869
 20
216.3936281403
 30
0.0
 11
113.0235686869
 21
214.0936281403
 31
0.0
  0
LINE
  5
268
330
1B
100
AcDbEntity
  8
0
  6
Continuous
100
AcDbLine
 10
113.5235686869
 20
216.3936281403
 30
0.0
 11
113.5235686869
 21
217.2936281403
 31
0.0
  0
LINE
  5
269
330
1B
100
AcDbEntity
  8
0
  6
Continuous
100
AcDbLine
 10
113.5235686869
 20
221.3936281403
 30
0.0
 11
113.5235686869
 21
222.2936281403
 31
0.0
  0
LINE
  5
26A
330
1B
100
AcDbEntity
  8
0
  6
Continuous
100
AcDbLine
 10
113.5235686869
 20
226.3936281403
 30
0.0
 11
113.5235686869
 21
238.010294807
 31
0.0
  0
LINE
  5
26B
330
1B
100
AcDbEntity
  8
0
  6
Continuous
100
AcDbLine
 10
114.5867721225
 20
297.0730510037
 30
0.0
 11
114.5867721225
 21
296.7730510037
 31
0.0
  0
LINE
  5
26C
330
1B
100
AcDbEntity
  8
0
  6
Continuous
100
AcDbLine
 10
114.6519237043
 20
296.7730510037
 30
0.0
 11
114.6519237043
 21
296.0730510037
 31
0.0
  0
LINE
  5
26D
330
1B
100
AcDbEntity
  8
0
  6
Continuous
100
AcDbLine
 10
115.6735686869
 20
241.8936281403
 30
0.0
 11
115.6735686869
 21
240.0936281403
 31
0.0
  0
LINE
  5
26E
330
1B
100
AcDbEntity
  8
0
  6
Continuous
100
AcDbLine
 10
122.7049027281
 20
259.8936281403
 30
0.0
 11
122.7049027122
 21
280.3774380968
 31
0.0
  0
LINE
  5
26F
330
1B
100
AcDbEntity
  8
0
  6
Continuous
100
AcDbLine
 10
122.8003476405
 20
285.0730510037
 30
0.0
 11
122.8003476405
 21
280.3776524002
 31
0.0
  0
LINE
  5
270
330
1B
100
AcDbEntity
  8
0
  6
Continuous
100
AcDbLine
 10
123.5920161325
 20
292.2730510037
 30
0.0
 11
123.6214314533
 21
294.4835208527
 31
0.0
  0
LINE
  5
271
330
1B
100
AcDbEntity
  8
0
  6
Continuous
100
AcDbLine
 10
122.0707869123
 20
292.2730510037
 30
0.0
 11
121.9602597893
 21
285.3835208527
 31
0.0
  0
LINE
  5
272
330
1B
100
AcDbEntity
  8
0
  6
Continuous
100
AcDbLine
 10
121.802210842
 20
292.2730510037
 30
0.0
 11
121.837973269
 21
294.4835208527
 31
0.0
  0
LINE
  5
273
330
1B
100
AcDbEntity
  8
0
  6
Continuous
100
AcDbLine
 10
122.028088851
 20
294.7730510037
 30
0.0
 11
121.9876422159
 21
292.2730510037
 31
0.0
  0
LINE
  5
274
330
1B
100
AcDbEntity
  8
0
  6
Continuous
100
AcDbLine
 10
120.2234343426
 20
292.2730510037
 30
0.0
 11
120.2647955138
 21
294.4835208527
 31
0.0
  0
LINE
  5
275
330
1B
100
AcDbEntity
  8
0
  6
Continuous
100
AcDbLine
 10
118.6057469703
 20
292.2730510037
 30
0.0
 11
118.6528448736
 21
294.4835208527
 31
0.0
  0
LINE
  5
276
330
1B
100
AcDbEntity
  8
0
  6
Continuous
100
AcDbLine
 10
118.9032206466
 20
294.7730510037
 30
0.0
 11
118.8499538001
 21
292.2730510037
 31
0.0
  0
LINE
  5
277
330
1B
100
AcDbEntity
  8
0
  6
Continuous
100
AcDbLine
 10
118.9243276465
 20
292.2730510037
 30
0.0
 11
118.7783716713
 21
285.3835208527
 31
0.0
  0
LINE
  5
278
330
1B
100
AcDbEntity
  8
0
  6
Continuous
100
AcDbLine
 10
117.2092371693
 20
292.2730510037
 30
0.0
 11
117.2612874526
 21
294.4835208527
 31
0.0
  0
LINE
  5
279
330
1B
100
AcDbEntity
  8
0
  6
Continuous
100
AcDbLine
 10
116.1717256968
 20
292.2730510037
 30
0.0
 11
115.9947756677
 21
285.3835208527
 31
0.0
  0
LINE
  5
27A
330
1B
100
AcDbEntity
  8
0
  6
Continuous
100
AcDbLine
 10
115.8128203273
 20
292.2730510037
 30
0.0
 11
115.869822661
 21
294.4835208527
 31
0.0
  0
LINE
  5
27B
330
1B
100
AcDbEntity
  8
0
  6
Continuous
100
AcDbLine
 10
116.1728510839
 20
294.7730510037
 30
0.0
 11
116.108382512
 21
292.2730510037
 31
0.0
  0
LINE
  5
27C
330
1B
100
AcDbEntity
  8
0
  6
Continuous
100
AcDbLine
 10
114.6410094683
 20
292.2730510037
 30
0.0
 11
114.7021673423
 21
294.4835208527
 31
0.0
  0
LINE
  5
27D
330
1B
100
AcDbEntity
  8
0
  6
Continuous
100
AcDbLine
 10
113.5082925757
 20
292.2730510037
 30
0.0
 11
113.5734673528
 21
294.4835208527
 31
0.0
  0
LINE
  5
27E
330
1B
100
AcDbEntity
  8
0
  6
Continuous
100
AcDbLine
 10
113.9199410602
 20
294.7730510037
 30
0.0
 11
113.8462296081
 21
292.2730510037
 31
0.0
  0
LINE
  5
27F
330
1B
100
AcDbEntity
  8
0
  6
Continuous
100
AcDbLine
 10
113.8966174806
 20
292.2730510037
 30
0.0
 11
113.6940499347
 21
285.3835208527
 31
0.0
  0
LINE
  5
280
330
1B
100
AcDbEntity
  8
0
  6
Continuous
100
AcDbLine
 10
112.5967855388
 20
292.2730510037
 30
0.0
 11
112.6651927523
 21
294.4835208527
 31
0.0
  0
LINE
  5
281
330
1B
100
AcDbEntity
  8
0
  6
Continuous
100
AcDbLine
 10
111.7621856253
 20
292.2730510037
 30
0.0
 11
111.833552543
 21
294.4835208527
 31
0.0
  0
LINE
  5
282
330
1B
100
AcDbEntity
  8
0
  6
Continuous
100
AcDbLine
 10
112.2129441067
 20
294.7730510037
 30
0.0
 11
112.1322294594
 21
292.2730510037
 31
0.0
  0
LINE
  5
283
330
1B
100
AcDbEntity
  8
0
  6
Continuous
100
AcDbLine
 10
112.1681310097
 20
292.2730510037
 30
0.0
 11
111.9461008595
 21
285.3835208527
 31
0.0
  0
LINE
  5
284
330
1B
100
AcDbEntity
  8
0
  6
Continuous
100
AcDbLine
 10
111.1386780905
 20
292.2730510037
 30
0.0
 11
111.2122561249
 21
294.4835208527
 31
0.0
  0
LINE
  5
285
330
1B
100
AcDbEntity
  8
0
  6
Continuous
100
AcDbLine
 10
111.0387854709
 20
292.2730510037
 30
0.0
 11
110.80403899
 21
285.3835208527
 31
0.0
  0
LINE
  5
286
330
1B
100
AcDbEntity
  8
0
  6
Continuous
100
AcDbLine
 10
110.627554052
 20
292.2730510037
 30
0.0
 11
110.7029446627
 21
294.4835208527
 31
0.0
  0
LINE
  5
287
330
1B
100
AcDbEntity
  8
0
  6
Continuous
100
AcDbLine
 10
111.1037264621
 20
294.7730510037
 30
0.0
 11
111.0184610934
 21
292.2730510037
 31
0.0
  0
LINE
  5
288
330
1B
100
AcDbEntity
  8
0
  6
Continuous
100
AcDbLine
 10
110.3109909802
 20
292.2730510037
 30
0.0
 11
110.3875042044
 21
294.4835208527
 31
0.0
  0
LINE
  5
289
330
1B
100
AcDbEntity
  8
0
  6
Continuous
100
AcDbLine
 10
108.9060577604
 20
259.8936281403
 30
0.0
 11
110.0367721225
 21
292.2730510037
 31
0.0
  0
LINE
  5
28A
330
1B
100
AcDbEntity
  8
0
  6
Continuous
100
AcDbLine
 10
110.1969710196
 20
294.4835208527
 30
0.0
 11
110.1197797115
 21
292.2730510037
 31
0.0
  0
LINE
  5
28B
330
1B
100
AcDbEntity
  8
0
  6
Continuous
100
AcDbLine
 10
110.1388730621
 20
292.2730510037
 30
0.0
 11
110.2159966603
 21
294.4835208527
 31
0.0
  0
LINE
  5
28C
330
1B
100
AcDbEntity
  8
0
  6
Continuous
100
AcDbLine
 10
110.6221300451
 20
295.1969990538
 30
0.0
 11
110.607325453
 21
294.7730510037
 31
0.0
  0
LWPOLYLINE
  5
28D
330
1B
100
AcDbEntity
  8
0
  6
Continuous
100
AcDbPolyline
 90
        5
 70
     0
 43
0.0
 10
123.6214314533
 20
294.4835208527
 10
123.6312453914
 20
294.5950719966
 10
123.6562688069
 20
294.6888529438
 10
123.6928574822
 20
294.7512061601
 10
123.7356829249
 20
294.7730510037
  0
LWPOLYLINE
  5
294
330
1B
100
AcDbEntity
  8
0
  6
Continuous
100
AcDbPolyline
 90
        5
 70
     0
 43
0.0
 10
121.837973269
 20
294.4835208527
 10
121.8499048148
 20
294.5950719966
 10
121.8803276707
 20
294.6888529438
 10
121.9248112865
 20
294.7512061601
 10
121.9768774113
 20
294.7730510037
  0
LWPOLYLINE
  5
29B
330
1B
100
AcDbEntity
  8
0
  6
Continuous
100
AcDbPolyline
 90
        5
 70
     0
 43
0.0
 10
120.2647955138
 20
294.4835208527
 10
120.2785949886
 20
294.5950719966
 10
120.3137806585
 20
294.6888529438
 10
120.3652283539
 20
294.7512061601
 10
120.425445629
 20
294.7730510037
  0
LWPOLYLINE
  5
2A2
330
1B
100
AcDbEntity
  8
0
  6
Continuous
100
AcDbPolyline
 90
        5
 70
     0
 43
0.0
 10
118.6528448736
 20
294.4835208527
 10
118.6685583147
 20
294.5950719966
 10
118.708624184
 20
294.6888529438
 10
118.7672075972
 20
294.7512061601
 10
118.8357769176
 20
294.7730510037
  0
LWPOLYLINE
  5
2A9
330
1B
100
AcDbEntity
  8
0
  6
Continuous
100
AcDbPolyline
 90
        5
 70
     0
 43
0.0
 10
117.2612874526
 20
294.4835208527
 10
117.2786531739
 20
294.5950719966
 10
117.3229319995
 20
294.6888529438
 10
117.3876755028
 20
294.7512061601
 10
117.4634549389
 20
294.7730510037
  0
LWPOLYLINE
  5
2B0
330
1B
100
AcDbEntity
  8
0
  6
Continuous
100
AcDbPolyline
 90
        5
 70
     0
 43
0.0
 10
115.869822661
 20
294.4835208527
 10
115.8888405524
 20
294.5950719966
 10
115.937332054
 20
294.6888529438
 10
116.0082352372
 20
294.7512061601
 10
116.091224309
 20
294.7730510037
  0
LWPOLYLINE
  5
2B7
330
1B
100
AcDbEntity
  8
0
  6
Continuous
100
AcDbPolyline
 90
        5
 70
     0
 43
0.0
 10
114.7021673423
 20
294.4835208527
 10
114.7225716614
 20
294.5950719966
 10
114.7745982531
 20
294.6888529438
 10
114.8506703655
 20
294.7512061601
 10
114.9397094428
 20
294.7730510037
  0
LWPOLYLINE
  5
2BE
330
1B
100
AcDbEntity
  8
0
  6
Continuous
100
AcDbPolyline
 90
        5
 70
     0
 43
0.0
 10
113.5734673528
 20
294.4835208527
 10
113.5952118455
 20
294.5950719966
 10
113.6506555896
 20
294.6888529438
 10
113.7317241855
 20
294.7512061601
 10
113.8266114279
 20
294.7730510037
  0
LWPOLYLINE
  5
2C5
330
1B
100
AcDbEntity
  8
0
  6
Continuous
100
AcDbPolyline
 90
        5
 70
     0
 43
0.0
 10
112.6651927523
 20
294.4835208527
 10
112.6880156944
 20
294.5950719966
 10
112.7462092504
 20
294.6888529438
 10
112.8312985595
 20
294.7512061601
 10
112.9308918707
 20
294.7730510037
  0
LWPOLYLINE
  5
2CC
330
1B
100
AcDbEntity
  8
0
  6
Continuous
100
AcDbPolyline
 90
        5
 70
     0
 43
0.0
 10
111.833552543
 20
294.4835208527
 10
111.8573629417
 20
294.5950719966
 10
111.9180742982
 20
294.6888529438
 10
112.0068450785
 20
294.7512061601
 10
112.1107473905
 20
294.7730510037
  0
LWPOLYLINE
  5
2D3
330
1B
100
AcDbEntity
  8
0
  6
Continuous
100
AcDbPolyline
 90
        5
 70
     0
 43
0.0
 10
111.2122561249
 20
294.4835208527
 10
111.2368042264
 20
294.5950719966
 10
111.2993965651
 20
294.6888529438
 10
111.3909176752
 20
294.7512061601
 10
111.4980391279
 20
294.7730510037
  0
LWPOLYLINE
  5
2DA
330
1B
100
AcDbEntity
  8
0
  6
Continuous
100
AcDbPolyline
 90
        5
 70
     0
 43
0.0
 10
110.7029446627
 20
294.4835208527
 10
110.7280975005
 20
294.5950719966
 10
110.7922317855
 20
294.6888529438
 10
110.886007495
 20
294.7512061601
 10
110.9957678575
 20
294.7730510037
  0
LWPOLYLINE
  5
2E1
330
1B
100
AcDbEntity
  8
0
  6
Continuous
100
AcDbPolyline
 90
        5
 70
     0
 43
0.0
 10
110.3875042044
 20
294.4835208527
 10
110.4130315836
 20
294.5950719966
 10
110.4781208683
 20
294.6888529438
 10
110.5732929569
 20
294.7512061601
 10
110.6846877199
 20
294.7730510037
  0
LWPOLYLINE
  5
2E8
330
1B
100
AcDbEntity
  8
0
  6
Continuous
100
AcDbPolyline
 90
        4
 70
     0
 43
0.0
 10
110.2159966603
 20
294.4835208527
 10
110.2417276808
 20
294.5950719966
 10
110.3073362066
 20
294.6888529438
 10
110.4032675178
 20
294.7512061601
  0
LINE
  5
2EE
330
1B
100
AcDbEntity
  8
0
  6
Continuous
100
AcDbLine
 10
106.9235686869
 20
214.0936281403
 30
0.0
 11
107.8626544527
 21
212.2154566089
 31
0.0
  0
LINE
  5
2EF
330
1B
100
AcDbEntity
  8
0
  6
Continuous
100
AcDbLine
 10
106.9235686869
 20
219.0936281403
 30
0.0
 11
107.8235686869
 21
217.2936281403
 31
0.0
  0
LINE
  5
2F0
330
1B
100
AcDbEntity
  8
0
  6
Continuous
100
AcDbLine
 10
106.9235686869
 20
224.0936281403
 30
0.0
 11
107.8235686869
 21
222.2936281403
 31
0.0
  0
LINE
  5
2F1
330
1B
100
AcDbEntity
  8
0
  6
Continuous
100
AcDbLine
 10
107.0735686869
 20
240.0936281403
 30
0.0
 11
107.8235686869
 21
238.010294807
 31
0.0
  0
LWPOLYLINE
  5
2F2
330
1B
100
AcDbEntity
  8
0
  6
Continuous
100
AcDbPolyline
 90
        3
 70
     0
 43
0.0
 10
110.80403899
 20
285.3835208527
 10
110.8157701386
 20
285.2883485673
 10
110.8229215538
 20
285.2730510037
  0
LWPOLYLINE
  5
2F7
330
1B
100
AcDbEntity
  8
0
  6
Continuous
100
AcDbPolyline
 90
        6
 70
     0
 43
0.0
 10
111.9461008595
 20
285.3835208527
 10
111.957196526
 20
285.2883485673
 10
111.9954487861
 20
285.2018369338
 10
112.0569464237
 20
285.1328315926
 10
112.1354014295
 20
285.0883882003
 10
112.2227919381
 20
285.0730510037
  0
LWPOLYLINE
  5
2FF
330
1B
100
AcDbEntity
  8
0
  6
Continuous
100
AcDbPolyline
 90
        5
 70
     0
 43
0.0
 10
141.9355709761
 20
294.4835208527
 10
141.9236394303
 20
294.5950719966
 10
141.8932165744
 20
294.6888529438
 10
141.8487329586
 20
294.7512061601
 10
141.7966668336999
 20
294.7730510037
  0
LWPOLYLINE
  5
306
330
1B
100
AcDbEntity
  8
0
  6
Continuous
100
AcDbPolyline
 90
        5
 70
     0
 43
0.0
 10
140.1521127918
 20
294.4835208527
 10
140.1422988536
 20
294.5950719966
 10
140.1172754382
 20
294.6888529438
 10
140.0806867629
 20
294.7512061601
 10
140.0378613202
 20
294.7730510037
  0
LWPOLYLINE
  5
30D
330
1B
100
AcDbEntity
  8
0
  6
Continuous
100
AcDbPolyline
 90
        5
 70
     0
 43
0.0
 10
138.4451149124
 20
294.4835208527
 10
138.4373277959
 20
294.5950719966
 10
138.4174723365
 20
294.6888529438
 10
138.3884401303
 20
294.7512061601
 10
138.3544592039
 20
294.7730510037
  0
LWPOLYLINE
  5
314
330
1B
100
AcDbEntity
  8
0
  6
Continuous
100
AcDbPolyline
 90
        5
 70
     0
 43
0.0
 10
136.5443386586
 20
294.4835208527
 10
136.5388084485
 20
294.5950719966
 10
136.5247076114
 20
294.6888529438
 10
136.5040896845
 20
294.7512061601
 10
136.4799573037
 20
294.7730510037
  0
LWPOLYLINE
  5
31B
330
1B
100
AcDbEntity
  8
0
  6
Continuous
100
AcDbPolyline
 90
        3
 70
     0
 43
0.0
 10
125.4437599616
 20
285.3835208527
 10
125.4473450727
 20
285.2883485631
 10
125.4495305884
 20
285.2730510037
  0
LWPOLYLINE
  5
320
330
1B
100
AcDbEntity
  8
0
  6
Continuous
100
AcDbPolyline
 90
        5
 70
     0
 43
0.0
 10
134.7553869218
 20
294.4835208527
 10
134.7519808422
 20
294.5950719966
 10
134.7432960774
 20
294.6888529438
 10
134.7305974096
 20
294.7512061601
 10
134.7157341748
 20
294.7730510037
  0
LINE
  5
327
330
1B
100
AcDbEntity
  8
0
  6
Continuous
100
AcDbLine
 10
147.6018185482
 20
292.2730510037
 30
0.0
 11
147.7787685773
 21
285.3835208527
 31
0.0
  0
LINE
  5
328
330
1B
100
AcDbEntity
  8
0
  6
Continuous
100
AcDbLine
 10
147.6006931612
 20
294.7730510037
 30
0.0
 11
147.665161733
 21
292.2730510037
 31
0.0
  0
LINE
  5
329
330
1B
100
AcDbEntity
  8
0
  6
Continuous
100
AcDbLine
 10
147.9607239178
 20
292.2730510037
 30
0.0
 11
147.9037215841
 21
294.4835208527
 31
0.0
  0
LINE
  5
32A
330
1B
100
AcDbEntity
  8
0
  6
Continuous
100
AcDbLine
 10
146.5643070758
 20
292.2730510037
 30
0.0
 11
146.5122567925
 21
294.4835208527
 31
0.0
  0
LINE
  5
32B
330
1B
100
AcDbEntity
  8
0
  6
Continuous
100
AcDbLine
 10
144.8703235984
 20
294.7730510037
 30
0.0
 11
144.923590445
 21
292.2730510037
 31
0.0
  0
LINE
  5
32C
330
1B
100
AcDbEntity
  8
0
  6
Continuous
100
AcDbLine
 10
145.1677972748
 20
292.2730510037
 30
0.0
 11
145.1206993715
 21
294.4835208527
 31
0.0
  0
LINE
  5
32D
330
1B
100
AcDbEntity
  8
0
  6
Continuous
100
AcDbLine
 10
144.8492165985
 20
292.2730510037
 30
0.0
 11
144.9951725738
 21
285.3835208527
 31
0.0
  0
LINE
  5
32E
330
1B
100
AcDbEntity
  8
0
  6
Continuous
100
AcDbLine
 10
143.5501099024
 20
292.2730510037
 30
0.0
 11
143.5087487312
 21
294.4835208527
 31
0.0
  0
LWPOLYLINE
  5
32F
330
1B
100
AcDbEntity
  8
0
  6
Continuous
100
AcDbPolyline
 90
        6
 70
     0
 43
0.0
 10
129.1230277981
 20
285.3835208527
 10
129.1245656394
 20
285.2883485631
 10
129.1298673404
 20
285.2018369266
 10
129.1383908128
 20
285.1328315848
 10
129.1492645486
 20
285.0883881948
 10
129.1613767276
 20
285.0730510037
  0
LINE
  5
337
330
1B
100
AcDbEntity
  8
0
  6
Continuous
100
AcDbLine
 10
141.7027573328
 20
292.2730510037
 30
0.0
 11
141.8132844557
 21
285.3835208527
 31
0.0
  0
LINE
  5
338
330
1B
100
AcDbEntity
  8
0
  6
Continuous
100
AcDbLine
 10
141.7454553941
 20
294.7730510037
 30
0.0
 11
141.7859020292
 21
292.2730510037
 31
0.0
  0
LINE
  5
339
330
1B
100
AcDbEntity
  8
0
  6
Continuous
100
AcDbLine
 10
141.971333403
 20
292.2730510037
 30
0.0
 11
141.9355709761
 21
294.4835208527
 31
0.0
  0
LINE
  5
33A
330
1B
100
AcDbEntity
  8
0
  6
Continuous
100
AcDbLine
 10
140.1815281126
 20
292.2730510037
 30
0.0
 11
140.1521127918
 21
294.4835208527
 31
0.0
  0
LINE
  5
33B
330
1B
100
AcDbEntity
  8
0
  6
Continuous
100
AcDbLine
 10
138.3210360872
 20
294.7730510037
 30
0.0
 11
138.3474335604
 21
292.2730510037
 31
0.0
  0
LINE
  5
33C
330
1B
100
AcDbEntity
  8
0
  6
Continuous
100
AcDbLine
 10
138.4684552398
 20
292.2730510037
 30
0.0
 11
138.4451149124
 21
294.4835208527
 31
0.0
  0
LINE
  5
33D
330
1B
100
AcDbEntity
  8
0
  6
Continuous
100
AcDbLine
 10
138.2580443235
 20
292.2730510037
 30
0.0
 11
138.3297842835
 21
285.3835208527
 31
0.0
  0
LWPOLYLINE
  5
33E
330
1B
100
AcDbEntity
  8
0
  6
Continuous
100
AcDbPolyline
 90
        5
 70
     0
 43
0.0
 10
132.795046723
 20
294.4835208527
 10
132.7939682737
 20
294.5950719966
 10
132.7912184617
 20
294.6888529438
 10
132.7871977485
 20
294.7512061601
 10
132.7824916797
 20
294.7730510037
  0
LINE
  5
345
330
1B
100
AcDbEntity
  8
0
  6
Continuous
100
AcDbLine
 10
136.5609143594
 20
292.2730510037
 30
0.0
 11
136.5443386586
 21
294.4835208527
 31
0.0
  0
LWPOLYLINE
  5
346
330
1B
100
AcDbEntity
  8
0
  6
Continuous
100
AcDbPolyline
 90
        6
 70
     0
 43
0.0
 10
130.8872736378
 20
285.3835208527
 10
130.8878297927
 20
285.2883485667
 10
130.8897471342
 20
285.2018369334
 10
130.8928296179
 20
285.1328315924
 10
130.8967620663
 20
285.0883882002
 10
130.9011423943
 20
285.0730510037
  0
LINE
  5
34E
330
1B
100
AcDbEntity
  8
0
  6
Continuous
100
AcDbLine
 10
134.7011149257
 20
294.7730510037
 30
0.0
 11
134.712661163
 21
292.2730510037
 31
0.0
  0
LINE
  5
34F
330
1B
100
AcDbEntity
  8
0
  6
Continuous
100
AcDbLine
 10
134.7655959656
 20
292.2730510037
 30
0.0
 11
134.7553869218
 21
294.4835208527
 31
0.0
  0
LINE
  5
350
330
1B
100
AcDbEntity
  8
0
  6
Continuous
100
AcDbLine
 10
134.6197434324
 20
292.2730510037
 30
0.0
 11
134.650516447
 21
285.3835208527
 31
0.0
  0
LINE
  5
351
330
1B
100
AcDbEntity
  8
0
  6
Continuous
100
AcDbLine
 10
132.875141654
 20
292.2730510037
 30
0.0
 11
132.8862706073
 21
285.3835208527
 31
0.0
  0
LINE
  5
352
330
1B
100
AcDbEntity
  8
0
  6
Continuous
100
AcDbLine
 10
132.7982791595
 20
292.2730510037
 30
0.0
 11
132.795046723
 21
294.4835208527
 31
0.0
  0
LINE
  5
353
330
1B
100
AcDbEntity
  8
0
  6
Continuous
100
AcDbLine
 10
129.2777619814
 20
259.8936281403
 30
0.0
 11
129.2777619751
 21
278.7730510037
 31
0.0
  0
LINE
  5
354
330
1B
100
AcDbEntity
  8
0
  6
Continuous
100
AcDbLine
 10
129.3073279403
 20
285.0730510037
 30
0.0
 11
129.3073279403
 21
278.7730510037
 31
0.0
  0
LINE
  5
355
330
1B
100
AcDbEntity
  8
0
  6
Continuous
100
AcDbLine
 10
130.3867721225
 20
296.7730510037
 30
0.0
 11
130.3867721225
 21
296.0730510037
 31
0.0
  0
LINE
  5
356
330
1B
100
AcDbEntity
  8
0
  6
Continuous
100
AcDbLine
 10
133.3867721225
 20
296.7730510037
 30
0.0
 11
133.3867721225
 21
296.0730510037
 31
0.0
  0
LINE
  5
357
330
1B
100
AcDbEntity
  8
0
  6
Continuous
100
AcDbLine
 10
137.6367721225
 20
261.3960577473
 30
0.0
 11
137.6367721225
 21
263.5139772519
 31
0.0
  0
LINE
  5
358
330
1B
100
AcDbEntity
  8
0
  6
Continuous
100
AcDbLine
 10
137.6367721225
 20
265.3966367117
 30
0.0
 11
137.6367721225
 21
267.5139802437
 31
0.0
  0
LINE
  5
359
330
1B
100
AcDbEntity
  8
0
  6
Continuous
100
AcDbLine
 10
137.6367721225
 20
269.3966843325
 30
0.0
 11
137.6367721225
 21
271.5139822913
 31
0.0
  0
LINE
  5
35A
330
1B
100
AcDbEntity
  8
0
  6
Continuous
100
AcDbLine
 10
137.6367721225
 20
273.3960389622
 30
0.0
 11
137.6367721225
 21
275.5139818155
 31
0.0
  0
LINE
  5
35B
330
1B
100
AcDbEntity
  8
0
  6
Continuous
100
AcDbLine
 10
137.6367721225
 20
277.3960553075
 30
0.0
 11
137.6367721225
 21
278.7730510037
 31
0.0
  0
LINE
  5
35C
330
1B
100
AcDbEntity
  8
0
  6
Continuous
100
AcDbLine
 10
137.8096888688
 20
285.0730510037
 30
0.0
 11
137.8096888688
 21
278.7730510037
 31
0.0
  0
LINE
  5
35D
330
1B
100
AcDbEntity
  8
0
  6
Continuous
100
AcDbLine
 10
137.8731585497
 20
259.8936281403
 30
0.0
 11
137.873158565
 21
278.7730510037
 31
0.0
  0
LINE
  5
35E
330
1B
100
AcDbEntity
  8
0
  6
Continuous
100
AcDbLine
 10
143.8606179305
 20
285.0730510037
 30
0.0
 11
143.8606179305
 21
278.7730510037
 31
0.0
  0
LINE
  5
35F
330
1B
100
AcDbEntity
  8
0
  6
Continuous
100
AcDbLine
 10
143.9851379831
 20
270.1766541888
 30
0.0
 11
143.9851380536
 21
278.7730510037
 31
0.0
  0
LINE
  5
360
330
1B
100
AcDbEntity
  8
0
  6
Continuous
100
AcDbLine
 10
145.6314680692
 20
241.8936281403
 30
0.0
 11
145.6314680692
 21
241.5936281403
 31
0.0
  0
LINE
  5
361
330
1B
100
AcDbEntity
  8
0
  6
Continuous
100
AcDbLine
 10
148.0999755581
 20
241.8936281403
 30
0.0
 11
148.0999755581
 21
240.0936281403
 31
0.0
  0
LINE
  5
362
330
1B
100
AcDbEntity
  8
0
  6
Continuous
100
AcDbLine
 10
149.1216205408
 20
296.7730510037
 30
0.0
 11
149.1216205408
 21
296.0730510037
 31
0.0
  0
LINE
  5
363
330
1B
100
AcDbEntity
  8
0
  6
Continuous
100
AcDbLine
 10
149.1867721225
 20
297.0730510037
 30
0.0
 11
149.1867721225
 21
296.7730510037
 31
0.0
  0
LINE
  5
364
330
1B
100
AcDbEntity
  8
0
  6
Continuous
100
AcDbLine
 10
130.8984025911
 20
292.2730510037
 30
0.0
 11
130.8872736378
 21
285.3835208527
 31
0.0
  0
LINE
  5
365
330
1B
100
AcDbEntity
  8
0
  6
Continuous
100
AcDbLine
 10
130.9752650856
 20
292.2730510037
 30
0.0
 11
130.9784975221
 21
294.4835208527
 31
0.0
  0
LINE
  5
366
330
1B
100
AcDbEntity
  8
0
  6
Continuous
100
AcDbLine
 10
129.1538008126
 20
292.2730510037
 30
0.0
 11
129.1230277981
 21
285.3835208527
 31
0.0
  0
LINE
  5
367
330
1B
100
AcDbEntity
  8
0
  6
Continuous
100
AcDbLine
 10
129.0079482795
 20
292.2730510037
 30
0.0
 11
129.0181573233
 21
294.4835208527
 31
0.0
  0
LINE
  5
368
330
1B
100
AcDbEntity
  8
0
  6
Continuous
100
AcDbLine
 10
129.0724293194
 20
294.7730510037
 30
0.0
 11
129.0608830821
 21
292.2730510037
 31
0.0
  0
LWPOLYLINE
  5
369
330
1B
100
AcDbEntity
  8
0
  6
Continuous
100
AcDbPolyline
 90
        3
 70
     0
 43
0.0
 10
132.8862706073
 20
285.3835208527
 10
132.8857144524
 20
285.2883485667
 10
132.8853754153
 20
285.2730510037
  0
LINE
  5
36E
330
1B
100
AcDbEntity
  8
0
  6
Continuous
100
AcDbLine
 10
127.2126298857
 20
292.2730510037
 30
0.0
 11
127.2292055865
 21
294.4835208527
 31
0.0
  0
LWPOLYLINE
  5
36F
330
1B
100
AcDbEntity
  8
0
  6
Continuous
100
AcDbPolyline
 90
        5
 70
     0
 43
0.0
 10
130.9784975221
 20
294.4835208527
 10
130.9795759714
 20
294.5950719966
 10
130.9823257833
 20
294.6888529438
 10
130.9863464966
 20
294.7512061601
 10
130.9910525654
 20
294.7730510037
  0
LINE
  5
376
330
1B
100
AcDbEntity
  8
0
  6
Continuous
100
AcDbLine
 10
125.5154999216
 20
292.2730510037
 30
0.0
 11
125.4437599616
 21
285.3835208527
 31
0.0
  0
LINE
  5
377
330
1B
100
AcDbEntity
  8
0
  6
Continuous
100
AcDbLine
 10
125.3050890053
 20
292.2730510037
 30
0.0
 11
125.3284293326
 21
294.4835208527
 31
0.0
  0
LINE
  5
378
330
1B
100
AcDbEntity
  8
0
  6
Continuous
100
AcDbLine
 10
125.4525081578
 20
294.7730510037
 30
0.0
 11
125.4261106847
 21
292.2730510037
 31
0.0
  0
LWPOLYLINE
  5
379
330
1B
100
AcDbEntity
  8
0
  6
Continuous
100
AcDbPolyline
 90
        3
 70
     0
 43
0.0
 10
134.650516447
 20
285.3835208527
 10
134.6489786058
 20
285.2883485667
 10
134.6480411238
 20
285.2730510037
  0
LWPOLYLINE
  5
37E
330
1B
100
AcDbEntity
  8
0
  6
Continuous
100
AcDbPolyline
 90
        5
 70
     0
 43
0.0
 10
129.0181573233
 20
294.4835208527
 10
129.0215634029
 20
294.5950719966
 10
129.0302481677
 20
294.6888529438
 10
129.0429468355
 20
294.7512061601
 10
129.0578100702
 20
294.7730510037
  0
LWPOLYLINE
  5
385
330
1B
100
AcDbEntity
  8
0
  6
Continuous
100
AcDbPolyline
 90
        6
 70
     0
 43
0.0
 10
138.3297842835
 20
285.3835208527
 10
138.3261991727
 20
285.2883485667
 10
138.3138395197
 20
285.2018369334
 10
138.2939690739
 20
285.1328315924
 10
138.2686195483
 20
285.0883882002
 10
138.2403828806
 20
285.0730510037
  0
LWPOLYLINE
  5
38D
330
1B
100
AcDbEntity
  8
0
  6
Continuous
100
AcDbPolyline
 90
        5
 70
     0
 43
0.0
 10
127.2292055865
 20
294.4835208527
 10
127.2347357966
 20
294.5950719966
 10
127.2488366336
 20
294.6888529438
 10
127.2694545606
 20
294.7512061601
 10
127.2935869414
 20
294.7730510037
  0
LWPOLYLINE
  5
394
330
1B
100
AcDbEntity
  8
0
  6
Continuous
100
AcDbPolyline
 90
        3
 70
     0
 43
0.0
 10
141.8132844557
 20
285.3835208527
 10
141.8077610071
 20
285.2883485667
 10
141.8043938627
 20
285.2730510037
  0
LWPOLYLINE
  5
399
330
1B
100
AcDbEntity
  8
0
  6
Continuous
100
AcDbPolyline
 90
        5
 70
     0
 43
0.0
 10
125.3284293326
 20
294.4835208527
 10
125.3362164491
 20
294.5950719966
 10
125.3560719085
 20
294.6888529438
 10
125.3851041148
 20
294.7512061601
 10
125.4190850412
 20
294.7730510037
  0
LWPOLYLINE
  5
3A0
330
1B
100
AcDbEntity
  8
0
  6
Continuous
100
AcDbPolyline
 90
        6
 70
     0
 43
0.0
 10
144.9951725738
 20
285.3835208527
 10
144.9878786146
 20
285.2883485667
 10
144.9627327236
 20
285.2018369334
 10
144.9223060174
 20
285.1328315924
 10
144.8707320448
 20
285.0883882002
 10
144.8132841403
 20
285.0730510037
  0
LWPOLYLINE
  5
3A8
330
1B
100
AcDbEntity
  8
0
  6
Continuous
100
AcDbPolyline
 90
        3
 70
     0
 43
0.0
 10
147.7787685773
 20
285.3835208527
 10
147.7699257308
 20
285.2883485667
 10
147.7645350511
 20
285.2730510037
  0
LINE
  5
3AD
330
1B
100
AcDbEntity
  8
0
  6
Continuous
100
AcDbLine
 10
114.2735686869
 20
240.0936281403
 30
0.0
 11
113.5235686869
 21
238.010294807
 31
0.0
  0
LINE
  5
3AE
330
1B
100
AcDbEntity
  8
0
  6
Continuous
100
AcDbLine
 10
149.3499755581
 20
214.0936281403
 30
0.0
 11
150.2890613239
 21
212.2154566089
 31
0.0
  0
LINE
  5
3AF
330
1B
100
AcDbEntity
  8
0
  6
Continuous
100
AcDbLine
 10
149.3499755581
 20
219.0936281403
 30
0.0
 11
150.2499755581
 21
217.2936281403
 31
0.0
  0
LWPOLYLINE
  5
3B0
330
1B
100
AcDbEntity
  8
0
  6
Continuous
100
AcDbPolyline
 90
        5
 70
     0
 43
0.0
 10
143.5087487312
 20
294.4835208527
 10
143.4949492565
 20
294.5950719966
 10
143.4597635866
 20
294.6888529438
 10
143.4083158912
 20
294.7512061601
 10
143.3480986161
 20
294.7730510037
  0
LINE
  5
3B7
330
1B
100
AcDbEntity
  8
0
  6
Continuous
100
AcDbLine
 10
153.1514141999
 20
295.1969990538
 30
0.0
 11
153.1662187921
 21
294.7730510037
 31
0.0
  0
LINE
  5
3B8
330
1B
100
AcDbEntity
  8
0
  6
Continuous
100
AcDbLine
 10
153.6346711829
 20
292.2730510037
 30
0.0
 11
153.5575475848
 21
294.4835208527
 31
0.0
  0
LINE
  5
3B9
330
1B
100
AcDbEntity
  8
0
  6
Continuous
100
AcDbLine
 10
153.5765732255
 20
294.4835208527
 30
0.0
 11
153.6537645335
 21
292.2730510037
 31
0.0
  0
LINE
  5
3BA
330
1B
100
AcDbEntity
  8
0
  6
Continuous
100
AcDbLine
 10
154.8674864846
 20
259.8936281403
 30
0.0
 11
153.7367721225
 21
292.2730510037
 31
0.0
  0
LINE
  5
3BB
330
1B
100
AcDbEntity
  8
0
  6
Continuous
100
AcDbLine
 10
153.4625532648
 20
292.2730510037
 30
0.0
 11
153.3860400407
 21
294.4835208527
 31
0.0
  0
LINE
  5
3BC
330
1B
100
AcDbEntity
  8
0
  6
Continuous
100
AcDbLine
 10
152.7347587742
 20
292.2730510037
 30
0.0
 11
152.969505255
 21
285.3835208527
 31
0.0
  0
LINE
  5
3BD
330
1B
100
AcDbEntity
  8
0
  6
Continuous
100
AcDbLine
 10
152.669817783
 20
294.7730510037
 30
0.0
 11
152.7550831517
 21
292.2730510037
 31
0.0
  0
LINE
  5
3BE
330
1B
100
AcDbEntity
  8
0
  6
Continuous
100
AcDbLine
 10
153.1459901931
 20
292.2730510037
 30
0.0
 11
153.0705995823
 21
294.4835208527
 31
0.0
  0
LINE
  5
3BF
330
1B
100
AcDbEntity
  8
0
  6
Continuous
100
AcDbLine
 10
152.6348661546
 20
292.2730510037
 30
0.0
 11
152.5612881201
 21
294.4835208527
 31
0.0
  0
LINE
  5
3C0
330
1B
100
AcDbEntity
  8
0
  6
Continuous
100
AcDbLine
 10
151.5606001383
 20
294.7730510037
 30
0.0
 11
151.6413147856
 21
292.2730510037
 31
0.0
  0
LINE
  5
3C1
330
1B
100
AcDbEntity
  8
0
  6
Continuous
100
AcDbLine
 10
152.0113586198
 20
292.2730510037
 30
0.0
 11
151.9399917021
 21
294.4835208527
 31
0.0
  0
LINE
  5
3C2
330
1B
100
AcDbEntity
  8
0
  6
Continuous
100
AcDbLine
 10
151.6054132354
 20
292.2730510037
 30
0.0
 11
151.8274433856
 21
285.3835208527
 31
0.0
  0
LINE
  5
3C3
330
1B
100
AcDbEntity
  8
0
  6
Continuous
100
AcDbLine
 10
151.1767587062
 20
292.2730510037
 30
0.0
 11
151.1083514928
 21
294.4835208527
 31
0.0
  0
LINE
  5
3C4
330
1B
100
AcDbEntity
  8
0
  6
Continuous
100
AcDbLine
 10
149.8536031849
 20
294.7730510037
 30
0.0
 11
149.927314637
 21
292.2730510037
 31
0.0
  0
LINE
  5
3C5
330
1B
100
AcDbEntity
  8
0
  6
Continuous
100
AcDbLine
 10
150.2652516693
 20
292.2730510037
 30
0.0
 11
150.2000768923
 21
294.4835208527
 31
0.0
  0
LINE
  5
3C6
330
1B
100
AcDbEntity
  8
0
  6
Continuous
100
AcDbLine
 10
149.8769267645
 20
292.2730510037
 30
0.0
 11
150.0794943103
 21
285.3835208527
 31
0.0
  0
LINE
  5
3C7
330
1B
100
AcDbEntity
  8
0
  6
Continuous
100
AcDbLine
 10
149.1325347768
 20
292.2730510037
 30
0.0
 11
149.0713769028
 21
294.4835208527
 31
0.0
  0
LINE
  5
3C8
330
1B
100
AcDbEntity
  8
0
  6
Continuous
100
AcDbLine
 10
150.2499755581
 20
216.3936281403
 30
0.0
 11
150.2499755581
 21
217.2936281403
 31
0.0
  0
LINE
  5
3C9
330
1B
100
AcDbEntity
  8
0
  6
Continuous
100
AcDbLine
 10
150.2499755581
 20
221.3936281403
 30
0.0
 11
150.2499755581
 21
222.2936281403
 31
0.0
  0
LINE
  5
3CA
330
1B
100
AcDbEntity
  8
0
  6
Continuous
100
AcDbLine
 10
150.2499755581
 20
226.3936281403
 30
0.0
 11
150.2499755581
 21
238.010294807
 31
0.0
  0
LINE
  5
3CB
330
1B
100
AcDbEntity
  8
0
  6
Continuous
100
AcDbLine
 10
150.7499755581
 20
226.3936281403
 30
0.0
 11
150.7499755581
 21
224.0936281403
 31
0.0
  0
LINE
  5
3CC
330
1B
100
AcDbEntity
  8
0
  6
Continuous
100
AcDbLine
 10
150.7499755581
 20
221.3936281403
 30
0.0
 11
150.7499755581
 21
219.0936281403
 31
0.0
  0
LINE
  5
3CD
330
1B
100
AcDbEntity
  8
0
  6
Continuous
100
AcDbLine
 10
150.7499755581
 20
216.3936281403
 30
0.0
 11
150.7499755581
 21
214.0936281403
 31
0.0
  0
LINE
  5
3CE
330
1B
100
AcDbEntity
  8
0
  6
Continuous
100
AcDbLine
 10
150.9318888682
 20
226.3936281403
 30
0.0
 11
150.9318888682
 21
237.5936281403
 31
0.0
  0
LINE
  5
3CF
330
1B
100
AcDbEntity
  8
0
  6
Continuous
100
AcDbLine
 10
151.250137699
 20
226.3936281403
 30
0.0
 11
151.250137699
 21
237.5936281403
 31
0.0
  0
LINE
  5
3D0
330
1B
100
AcDbEntity
  8
0
  6
Continuous
100
AcDbLine
 10
152.7499755581
 20
209.5936281403
 30
0.0
 11
152.7499755581
 21
233.5936281403
 31
0.0
  0
LINE
  5
3D1
330
1B
100
AcDbEntity
  8
0
  6
Continuous
100
AcDbLine
 10
153.0999755581
 20
240.0936281403
 30
0.0
 11
153.0999755581
 21
238.010294807
 31
0.0
  0
LINE
  5
3D2
330
1B
100
AcDbEntity
  8
0
  6
Continuous
100
AcDbLine
 10
153.4499755581
 20
209.5936281403
 30
0.0
 11
153.4499755581
 21
233.5936281403
 31
0.0
  0
LINE
  5
3D3
330
1B
100
AcDbEntity
  8
0
  6
Continuous
100
AcDbLine
 10
154.9498134173
 20
226.3936281403
 30
0.0
 11
154.9498134173
 21
237.5936281403
 31
0.0
  0
LINE
  5
3D4
330
1B
100
AcDbEntity
  8
0
  6
Continuous
100
AcDbLine
 10
155.268062248
 20
226.3936281403
 30
0.0
 11
155.268062248
 21
237.5936281403
 31
0.0
  0
LINE
  5
3D5
330
1B
100
AcDbEntity
  8
0
  6
Continuous
100
AcDbLine
 10
155.4499755581
 20
226.3936281403
 30
0.0
 11
155.4499755581
 21
224.0936281403
 31
0.0
  0
LINE
  5
3D6
330
1B
100
AcDbEntity
  8
0
  6
Continuous
100
AcDbLine
 10
155.4499755581
 20
221.3936281403
 30
0.0
 11
155.4499755581
 21
219.0936281403
 31
0.0
  0
LINE
  5
3D7
330
1B
100
AcDbEntity
  8
0
  6
Continuous
100
AcDbLine
 10
155.4499755581
 20
216.3936281403
 30
0.0
 11
155.4499755581
 21
214.0936281403
 31
0.0
  0
LINE
  5
3D8
330
1B
100
AcDbEntity
  8
0
  6
Continuous
100
AcDbLine
 10
155.9499755581
 20
216.3936281403
 30
0.0
 11
155.9499755581
 21
217.2936281403
 31
0.0
  0
LINE
  5
3D9
330
1B
100
AcDbEntity
  8
0
  6
Continuous
100
AcDbLine
 10
155.9499755581
 20
221.3936281403
 30
0.0
 11
155.9499755581
 21
222.2936281403
 31
0.0
  0
LINE
  5
3DA
330
1B
100
AcDbEntity
  8
0
  6
Continuous
100
AcDbLine
 10
155.9499755581
 20
226.3936281403
 30
0.0
 11
155.9499755581
 21
238.010294807
 31
0.0
  0
LINE
  5
3DB
330
1B
100
AcDbEntity
  8
0
  6
Continuous
100
AcDbLine
 10
157.8867721225
 20
259.8936281403
 30
0.0
 11
157.8867721225
 21
241.8936281403
 31
0.0
  0
LINE
  5
3DC
330
1B
100
AcDbEntity
  8
0
  6
Continuous
100
AcDbLine
 10
158.0999755581
 20
241.8936281403
 30
0.0
 11
158.0999755581
 21
240.0936281403
 31
0.0
  0
LINE
  5
3DD
330
1B
100
AcDbEntity
  8
0
  6
Continuous
100
AcDbLine
 10
160.3867721225
 20
240.8936281403
 30
0.0
 11
160.3867721225
 21
241.5936281403
 31
0.0
  0
LINE
  5
3DE
330
1B
100
AcDbEntity
  8
0
  6
Continuous
100
AcDbLine
 10
160.8867721225
 20
241.8936281403
 30
0.0
 11
160.8867721225
 21
241.5936281403
 31
0.0
  0
LINE
  5
3DF
330
1B
100
AcDbEntity
  8
0
  6
Continuous
100
AcDbLine
 10
162.8867721225
 20
259.6936281403
 30
0.0
 11
162.8867721225
 21
241.8936281403
 31
0.0
  0
LINE
  5
3E0
330
1B
100
AcDbEntity
  8
0
  6
Continuous
100
AcDbLine
 10
164.3867721225
 20
246.8936281403
 30
0.0
 11
164.3867721225
 21
241.8936281403
 31
0.0
  0
LINE
  5
3E1
330
1B
100
AcDbEntity
  8
0
  6
Continuous
100
AcDbLine
 10
164.3867721225
 20
240.8936281403
 30
0.0
 11
164.3867721225
 21
241.8936281403
 31
0.0
  0
LINE
  5
3E2
330
1B
100
AcDbEntity
  8
0
  6
Continuous
100
AcDbLine
 10
165.3867721225
 20
246.8936281403
 30
0.0
 11
165.3867721225
 21
241.8936281403
 31
0.0
  0
LINE
  5
3E3
330
1B
100
AcDbEntity
  8
0
  6
Continuous
100
AcDbLine
 10
165.3867721225
 20
246.8936281403
 30
0.0
 11
165.3867721225
 21
247.8936281403
 31
0.0
  0
LWPOLYLINE
  5
3E4
330
1B
100
AcDbEntity
  8
0
  6
Continuous
100
AcDbPolyline
 90
        6
 70
     0
 43
0.0
 10
150.0794943103
 20
285.3835208527
 10
150.0693712618
 20
285.2883485667
 10
150.0344720985
 20
285.2018369334
 10
149.9783651892
 20
285.1328315924
 10
149.9067873519
 20
285.0883882002
 10
149.8270572755
 20
285.0730510037
  0
LWPOLYLINE
  5
3EC
330
1B
100
AcDbEntity
  8
0
  6
Continuous
100
AcDbPolyline
 90
        3
 70
     0
 43
0.0
 10
151.8274433856
 20
285.3835208527
 10
151.8163477189
 20
285.2883485667
 10
151.8095836996
 20
285.2730510037
  0
LWPOLYLINE
  5
3F1
330
1B
100
AcDbEntity
  8
0
  6
Continuous
100
AcDbPolyline
 90
        3
 70
     0
 43
0.0
 10
152.969505255
 20
285.3835208527
 10
152.9577741063
 20
285.2883485667
 10
152.9419045008
 20
285.2544019574
  0
LINE
  5
3F6
330
1B
100
AcDbEntity
  8
0
  6
Continuous
100
AcDbLine
 10
114.4235686869
 20
224.0936281403
 30
0.0
 11
113.5235686869
 21
222.2936281403
 31
0.0
  0
LINE
  5
3F7
330
1B
100
AcDbEntity
  8
0
  6
Continuous
100
AcDbLine
 10
114.4235686869
 20
219.0936281403
 30
0.0
 11
113.5235686869
 21
217.2936281403
 31
0.0
  0
LINE
  5
3F8
330
1B
100
AcDbEntity
  8
0
  6
Continuous
100
AcDbLine
 10
114.4235686869
 20
214.0936281403
 30
0.0
 11
113.4844829212
 21
212.2154566089
 31
0.0
  0
LINE
  5
3F9
330
1B
100
AcDbEntity
  8
0
  6
Continuous
100
AcDbLine
 10
149.3499755581
 20
224.0936281403
 30
0.0
 11
150.2499755581
 21
222.2936281403
 31
0.0
  0
LINE
  5
3FA
330
1B
100
AcDbEntity
  8
0
  6
Continuous
100
AcDbLine
 10
149.4999755581
 20
240.0936281403
 30
0.0
 11
150.2499755581
 21
238.010294807
 31
0.0
  0
LWPOLYLINE
  5
3FB
330
1B
100
AcDbEntity
  8
0
  6
Continuous
100
AcDbPolyline
 90
        4
 70
     0
 43
0.0
 10
153.5575475848
 20
294.4835208527
 10
153.5318165642
 20
294.5950719966
 10
153.4662080384
 20
294.6888529438
 10
153.3702767273
 20
294.7512061601
  0
LWPOLYLINE
  5
401
330
1B
100
AcDbEntity
  8
0
  6
Continuous
100
AcDbPolyline
 90
        5
 70
     0
 43
0.0
 10
153.3860400407
 20
294.4835208527
 10
153.3605126615
 20
294.5950719966
 10
153.2954233767
 20
294.6888529438
 10
153.2002512882
 20
294.7512061601
 10
153.0888565252
 20
294.7730510037
  0
LWPOLYLINE
  5
408
330
1B
100
AcDbEntity
  8
0
  6
Continuous
100
AcDbPolyline
 90
        5
 70
     0
 43
0.0
 10
153.0705995823
 20
294.4835208527
 10
153.0454467446
 20
294.5950719966
 10
152.9813124596
 20
294.6888529438
 10
152.8875367501
 20
294.7512061601
 10
152.7777763875
 20
294.7730510037
  0
LWPOLYLINE
  5
40F
330
1B
100
AcDbEntity
  8
0
  6
Continuous
100
AcDbPolyline
 90
        5
 70
     0
 43
0.0
 10
152.5612881201
 20
294.4835208527
 10
152.5367400186
 20
294.5950719966
 10
152.47414768
 20
294.6888529438
 10
152.3826265699
 20
294.7512061601
 10
152.2755051172
 20
294.7730510037
  0
LWPOLYLINE
  5
416
330
1B
100
AcDbEntity
  8
0
  6
Continuous
100
AcDbPolyline
 90
        5
 70
     0
 43
0.0
 10
151.9399917021
 20
294.4835208527
 10
151.9161813034
 20
294.5950719966
 10
151.8554699469
 20
294.6888529438
 10
151.7666991666
 20
294.7512061601
 10
151.6627968545
 20
294.7730510037
  0
LWPOLYLINE
  5
41D
330
1B
100
AcDbEntity
  8
0
  6
Continuous
100
AcDbPolyline
 90
        5
 70
     0
 43
0.0
 10
151.1083514928
 20
294.4835208527
 10
151.0855285507
 20
294.5950719966
 10
151.0273349946
 20
294.6888529438
 10
150.9422456855
 20
294.7512061601
 10
150.8426523744
 20
294.7730510037
  0
LWPOLYLINE
  5
424
330
1B
100
AcDbEntity
  8
0
  6
Continuous
100
AcDbPolyline
 90
        5
 70
     0
 43
0.0
 10
150.2000768923
 20
294.4835208527
 10
150.1783323995
 20
294.5950719966
 10
150.1228886555
 20
294.6888529438
 10
150.0418200596
 20
294.7512061601
 10
149.9469328172
 20
294.7730510037
  0
LWPOLYLINE
  5
42B
330
1B
100
AcDbEntity
  8
0
  6
Continuous
100
AcDbPolyline
 90
        5
 70
     0
 43
0.0
 10
149.0713769028
 20
294.4835208527
 10
149.0509725837
 20
294.5950719966
 10
148.998945992
 20
294.6888529438
 10
148.9228738795
 20
294.7512061601
 10
148.8338348022
 20
294.7730510037
  0
LWPOLYLINE
  5
432
330
1B
100
AcDbEntity
  8
0
  6
Continuous
100
AcDbPolyline
 90
        5
 70
     0
 43
0.0
 10
147.9037215841
 20
294.4835208527
 10
147.8847036927
 20
294.5950719966
 10
147.8362121911
 20
294.6888529438
 10
147.7653090079
 20
294.7512061601
 10
147.682319936
 20
294.7730510037
  0
LWPOLYLINE
  5
439
330
1B
100
AcDbEntity
  8
0
  6
Continuous
100
AcDbPolyline
 90
        5
 70
     0
 43
0.0
 10
146.5122567925
 20
294.4835208527
 10
146.4948910712
 20
294.5950719966
 10
146.4506122455
 20
294.6888529438
 10
146.3858687423
 20
294.7512061601
 10
146.3100893062
 20
294.7730510037
  0
LWPOLYLINE
  5
440
330
1B
100
AcDbEntity
  8
0
  6
Continuous
100
AcDbPolyline
 90
        5
 70
     0
 43
0.0
 10
145.1206993715
 20
294.4835208527
 10
145.1049859304
 20
294.5950719966
 10
145.0649200611
 20
294.6888529438
 10
145.0063366479
 20
294.7512061601
 10
144.9377673275
 20
294.7730510037
  0
LINE
  5
447
330
1B
100
AcDbEntity
  8
0
  6
Continuous
100
AcDbLine
 10
190.3867721225
 20
330.3936281403
 30
0.0
 11
190.3867721225
 21
247.8936281403
 31
0.0
  0
LINE
  5
448
330
1B
100
AcDbEntity
  8
0
  6
Continuous
100
AcDbLine
 10
190.3867721225
 20
246.8936281403
 30
0.0
 11
190.3867721225
 21
247.8936281403
 31
0.0
  0
LINE
  5
449
330
1B
100
AcDbEntity
  8
0
  6
Continuous
100
AcDbLine
 10
191.3867721225
 20
330.3936281403
 30
0.0
 11
191.3867721225
 21
247.8936281403
 31
0.0
  0
LINE
  5
44A
330
1B
100
AcDbEntity
  8
0
  6
Continuous
100
AcDbLine
 10
191.3867721225
 20
330.3936281403
 30
0.0
 11
191.3867721225
 21
331.3936281403
 31
0.0
  0
LINE
  5
44B
330
1B
100
AcDbEntity
  8
0
  6
Continuous
100
AcDbLine
 10
194.3867721225
 20
317.6952941902
 30
0.0
 11
194.3867721225
 21
313.6538423058
 31
0.0
  0
LINE
  5
44C
330
1B
100
AcDbEntity
  8
0
  6
Continuous
100
AcDbLine
 10
156.6999755581
 20
240.0936281403
 30
0.0
 11
155.9499755581
 21
238.010294807
 31
0.0
  0
LINE
  5
44D
330
1B
100
AcDbEntity
  8
0
  6
Continuous
100
AcDbLine
 10
201.3867721225
 20
313.6538423058
 30
0.0
 11
201.3867721225
 21
317.6952941902
 31
0.0
  0
LINE
  5
44E
330
1B
100
AcDbEntity
  8
0
  6
Continuous
100
AcDbLine
 10
201.4748717591
 20
320.424568248
 30
0.0
 11
201.4748717591
 21
310.924568248
 31
0.0
  0
LINE
  5
44F
330
1B
100
AcDbEntity
  8
0
  6
Continuous
100
AcDbLine
 10
203.2327974729
 20
320.424568248
 30
0.0
 11
203.2327974729
 21
310.924568248
 31
0.0
  0
LINE
  5
450
330
1B
100
AcDbEntity
  8
0
  6
Continuous
100
AcDbLine
 10
204.1367721225
 20
360.5589812282
 30
0.0
 11
204.1367721225
 21
331.674568248
 31
0.0
  0
LINE
  5
451
330
1B
100
AcDbEntity
  8
0
  6
Continuous
100
AcDbLine
 10
204.36406828
 20
331.674568248
 30
0.0
 11
204.36406828
 21
324.9556571612
 31
0.0
  0
LINE
  5
452
330
1B
100
AcDbEntity
  8
0
  6
Continuous
100
AcDbLine
 10
213.1367721225
 20
321.424568248
 30
0.0
 11
213.1367721225
 21
331.674568248
 31
0.0
  0
LINE
  5
453
330
1B
100
AcDbEntity
  8
0
  6
Continuous
100
AcDbLine
 10
217.6367721225
 20
331.674568248
 30
0.0
 11
217.6367721225
 21
321.424568248
 31
0.0
  0
LINE
  5
454
330
1B
100
AcDbEntity
  8
0
  6
Continuous
100
AcDbLine
 10
156.8499755581
 20
224.0936281403
 30
0.0
 11
155.9499755581
 21
222.2936281403
 31
0.0
  0
LINE
  5
455
330
1B
100
AcDbEntity
  8
0
  6
Continuous
100
AcDbLine
 10
156.8499755581
 20
219.0936281403
 30
0.0
 11
155.9499755581
 21
217.2936281403
 31
0.0
  0
LINE
  5
456
330
1B
100
AcDbEntity
  8
0
  6
Continuous
100
AcDbLine
 10
156.8499755581
 20
214.0936281403
 30
0.0
 11
155.9108897924
 21
212.2154566089
 31
0.0
  0
LINE
  5
457
330
1B
100
AcDbEntity
  8
0
  6
Continuous
100
AcDbLine
 10
226.4094759651
 20
331.674568248
 30
0.0
 11
226.4094759651
 21
324.9556571612
 31
0.0
  0
LINE
  5
458
330
1B
100
AcDbEntity
  8
0
  6
Continuous
100
AcDbLine
 10
226.6367721225
 20
360.5589812282
 30
0.0
 11
226.6367721225
 21
331.674568248
 31
0.0
  0
LINE
  5
459
330
1B
100
AcDbEntity
  8
0
  6
Continuous
100
AcDbLine
 10
231.3867721225
 20
320.424568248
 30
0.0
 11
231.3867721225
 21
310.924568248
 31
0.0
  0
LWPOLYLINE
  5
45A
330
1B
100
AcDbEntity
  8
0
  6
Continuous
100
AcDbPolyline
 90
        7
 70
     0
 43
0.0
 10
201.6485199368
 20
321.424568248
 10
201.6035762475
 20
321.390493714
 10
201.5616955305
 20
321.2905925977
 10
201.5257318611
 20
321.1316734673
 10
201.4981360471
 20
320.9245666931
 10
201.4807886314
 20
320.6833863223
 10
201.4748717583
 20
320.424568248
  0
LINE
  5
463
330
1B
100
AcDbEntity
  8
0
  6
Continuous
100
AcDbLine
 10
197.8867721225
 20
319.7160201323
 30
0.0
 11
194.3867721225
 21
317.6952941902
 31
0.0
  0
LINE
  5
464
330
1B
100
AcDbEntity
  8
0
  6
Continuous
100
AcDbLine
 10
197.8867721225
 20
311.6331163637
 30
0.0
 11
201.3867721225
 21
313.6538423058
 31
0.0
  0
LWPOLYLINE
  5
465
330
1B
100
AcDbEntity
  8
0
  6
Continuous
100
AcDbPolyline
 90
        7
 70
     0
 43
0.0
 10
201.6485199368
 20
309.924568248
 10
201.6035764812
 20
309.9586424217
 10
201.5616958479
 20
310.0585428442
 10
201.5257321328
 20
310.2174614668
 10
201.4981362036
 20
310.424568248
 10
201.4807886773
 20
310.6657492029
 10
201.4748717591
 20
310.924568248
  0
LINE
  5
46E
330
1B
100
AcDbEntity
  8
0
  6
Continuous
100
AcDbLine
 10
154.5999755581
 20
209.5936281403
 30
0.0
 11
153.4499755581
 21
209.5936281403
 31
0.0
  0
LINE
  5
46F
330
1B
100
AcDbEntity
  8
0
  6
Continuous
100
AcDbLine
 10
152.7499755581
 20
209.5936281403
 30
0.0
 11
151.5999755581
 21
209.5936281403
 31
0.0
  0
LINE
  5
470
330
1B
100
AcDbEntity
  8
0
  6
Continuous
100
AcDbLine
 10
112.1735686869
 20
209.5936281403
 30
0.0
 11
111.0235686869
 21
209.5936281403
 31
0.0
  0
LINE
  5
471
330
1B
100
AcDbEntity
  8
0
  6
Continuous
100
AcDbLine
 10
110.3235686869
 20
209.5936281403
 30
0.0
 11
109.1735686869
 21
209.5936281403
 31
0.0
  0
LINE
  5
472
330
1B
100
AcDbEntity
  8
0
  6
Continuous
100
AcDbLine
 10
107.8275491031
 20
212.8072709332
 30
0.0
 11
110.3235686869
 21
212.8072709332
 31
0.0
  0
LINE
  5
473
330
1B
100
AcDbEntity
  8
0
  6
Continuous
100
AcDbLine
 10
111.0235686869
 20
212.8072709332
 30
0.0
 11
113.5195882708
 21
212.8072709332
 31
0.0
  0
LINE
  5
474
330
1B
100
AcDbEntity
  8
0
  6
Continuous
100
AcDbLine
 10
150.2539559743
 20
212.8072709332
 30
0.0
 11
152.7499755581
 21
212.8072709332
 31
0.0
  0
LINE
  5
475
330
1B
100
AcDbEntity
  8
0
  6
Continuous
100
AcDbLine
 10
153.4499755581
 20
212.8072709332
 30
0.0
 11
155.945995142
 21
212.8072709332
 31
0.0
  0
LINE
  5
476
330
1B
100
AcDbEntity
  8
0
  6
Continuous
100
AcDbLine
 10
106.9235686869
 20
214.0936281403
 30
0.0
 11
110.3235686869
 21
214.0936281403
 31
0.0
  0
LINE
  5
477
330
1B
100
AcDbEntity
  8
0
  6
Continuous
100
AcDbLine
 10
111.0235686869
 20
214.0936281403
 30
0.0
 11
114.4235686869
 21
214.0936281403
 31
0.0
  0
LINE
  5
478
330
1B
100
AcDbEntity
  8
0
  6
Continuous
100
AcDbLine
 10
149.3499755581
 20
214.0936281403
 30
0.0
 11
152.7499755581
 21
214.0936281403
 31
0.0
  0
LINE
  5
479
330
1B
100
AcDbEntity
  8
0
  6
Continuous
100
AcDbLine
 10
153.4499755581
 20
214.0936281403
 30
0.0
 11
156.8499755581
 21
214.0936281403
 31
0.0
  0
LINE
  5
47A
330
1B
100
AcDbEntity
  8
0
  6
Continuous
100
AcDbLine
 10
155.9499755581
 20
216.3936281403
 30
0.0
 11
153.4499755581
 21
216.3936281403
 31
0.0
  0
LINE
  5
47B
330
1B
100
AcDbEntity
  8
0
  6
Continuous
100
AcDbLine
 10
152.7499755581
 20
216.3936281403
 30
0.0
 11
150.2499755581
 21
216.3936281403
 31
0.0
  0
LINE
  5
47C
330
1B
100
AcDbEntity
  8
0
  6
Continuous
100
AcDbLine
 10
113.5235686869
 20
216.3936281403
 30
0.0
 11
111.0235686869
 21
216.3936281403
 31
0.0
  0
LINE
  5
47D
330
1B
100
AcDbEntity
  8
0
  6
Continuous
100
AcDbLine
 10
110.3235686869
 20
216.3936281403
 30
0.0
 11
107.8235686869
 21
216.3936281403
 31
0.0
  0
LINE
  5
47E
330
1B
100
AcDbEntity
  8
0
  6
Continuous
100
AcDbLine
 10
106.9235686869
 20
219.0936281403
 30
0.0
 11
110.3235686869
 21
219.0936281403
 31
0.0
  0
LINE
  5
47F
330
1B
100
AcDbEntity
  8
0
  6
Continuous
100
AcDbLine
 10
111.0235686869
 20
219.0936281403
 30
0.0
 11
114.4235686869
 21
219.0936281403
 31
0.0
  0
LINE
  5
480
330
1B
100
AcDbEntity
  8
0
  6
Continuous
100
AcDbLine
 10
149.3499755581
 20
219.0936281403
 30
0.0
 11
152.7499755581
 21
219.0936281403
 31
0.0
  0
LINE
  5
481
330
1B
100
AcDbEntity
  8
0
  6
Continuous
100
AcDbLine
 10
153.4499755581
 20
219.0936281403
 30
0.0
 11
156.8499755581
 21
219.0936281403
 31
0.0
  0
LINE
  5
482
330
1B
100
AcDbEntity
  8
0
  6
Continuous
100
AcDbLine
 10
155.9499755581
 20
221.3936281403
 30
0.0
 11
153.4499755581
 21
221.3936281403
 31
0.0
  0
LINE
  5
483
330
1B
100
AcDbEntity
  8
0
  6
Continuous
100
AcDbLine
 10
152.7499755581
 20
221.3936281403
 30
0.0
 11
150.2499755581
 21
221.3936281403
 31
0.0
  0
LINE
  5
484
330
1B
100
AcDbEntity
  8
0
  6
Continuous
100
AcDbLine
 10
113.5235686869
 20
221.3936281403
 30
0.0
 11
111.0235686869
 21
221.3936281403
 31
0.0
  0
LINE
  5
485
330
1B
100
AcDbEntity
  8
0
  6
Continuous
100
AcDbLine
 10
110.3235686869
 20
221.3936281403
 30
0.0
 11
107.8235686869
 21
221.3936281403
 31
0.0
  0
LINE
  5
486
330
1B
100
AcDbEntity
  8
0
  6
Continuous
100
AcDbLine
 10
106.9235686869
 20
224.0936281403
 30
0.0
 11
110.3235686869
 21
224.0936281403
 31
0.0
  0
LINE
  5
487
330
1B
100
AcDbEntity
  8
0
  6
Continuous
100
AcDbLine
 10
111.0235686869
 20
224.0936281403
 30
0.0
 11
114.4235686869
 21
224.0936281403
 31
0.0
  0
LINE
  5
488
330
1B
100
AcDbEntity
  8
0
  6
Continuous
100
AcDbLine
 10
149.3499755581
 20
224.0936281403
 30
0.0
 11
152.7499755581
 21
224.0936281403
 31
0.0
  0
LINE
  5
489
330
1B
100
AcDbEntity
  8
0
  6
Continuous
100
AcDbLine
 10
153.4499755581
 20
224.0936281403
 30
0.0
 11
156.8499755581
 21
224.0936281403
 31
0.0
  0
LINE
  5
48A
330
1B
100
AcDbEntity
  8
0
  6
Continuous
100
AcDbLine
 10
107.8235686869
 20
226.3936281403
 30
0.0
 11
108.8166180609
 21
226.3936281403
 31
0.0
  0
LINE
  5
48B
330
1B
100
AcDbEntity
  8
0
  6
Continuous
100
AcDbLine
 10
108.8237308278
 20
226.3936281403
 30
0.0
 11
110.3235686869
 21
226.3936281403
 31
0.0
  0
LINE
  5
48C
330
1B
100
AcDbEntity
  8
0
  6
Continuous
100
AcDbLine
 10
111.0235686869
 20
226.3936281403
 30
0.0
 11
113.5235686869
 21
226.3936281403
 31
0.0
  0
LINE
  5
48D
330
1B
100
AcDbEntity
  8
0
  6
Continuous
100
AcDbLine
 10
150.2499755581
 20
226.3936281403
 30
0.0
 11
151.2430249321
 21
226.3936281403
 31
0.0
  0
LINE
  5
48E
330
1B
100
AcDbEntity
  8
0
  6
Continuous
100
AcDbLine
 10
151.250137699
 20
226.3936281403
 30
0.0
 11
152.7499755581
 21
226.3936281403
 31
0.0
  0
LINE
  5
48F
330
1B
100
AcDbEntity
  8
0
  6
Continuous
100
AcDbLine
 10
153.4499755581
 20
226.3936281403
 30
0.0
 11
155.9499755581
 21
226.3936281403
 31
0.0
  0
LINE
  5
490
330
1B
100
AcDbEntity
  8
0
  6
Continuous
100
AcDbLine
 10
194.3867721225
 20
313.6538423058
 30
0.0
 11
197.8867721225
 21
311.6331163637
 31
0.0
  0
LINE
  5
491
330
1B
100
AcDbEntity
  8
0
  6
Continuous
100
AcDbLine
 10
201.3867721225
 20
317.6952941902
 30
0.0
 11
197.8867721225
 21
319.7160201323
 31
0.0
  0
LINE
  5
492
330
1B
100
AcDbEntity
  8
0
  6
Continuous
100
AcDbLine
 10
110.3235686869
 20
233.5936281403
 30
0.0
 11
111.0235686869
 21
233.5936281403
 31
0.0
  0
LINE
  5
493
330
1B
100
AcDbEntity
  8
0
  6
Continuous
100
AcDbLine
 10
152.7499755581
 20
233.5936281403
 30
0.0
 11
153.4499755581
 21
233.5936281403
 31
0.0
  0
LINE
  5
494
330
1B
100
AcDbEntity
  8
0
  6
Continuous
100
AcDbLine
 10
108.505481997
 20
237.5936281403
 30
0.0
 11
108.8237308278
 21
237.5936281403
 31
0.0
  0
LINE
  5
495
330
1B
100
AcDbEntity
  8
0
  6
Continuous
100
AcDbLine
 10
112.5234065461
 20
237.5936281403
 30
0.0
 11
112.8416553768
 21
237.5936281403
 31
0.0
  0
LINE
  5
496
330
1B
100
AcDbEntity
  8
0
  6
Continuous
100
AcDbLine
 10
150.9318888682
 20
237.5936281403
 30
0.0
 11
151.250137699
 21
237.5936281403
 31
0.0
  0
LINE
  5
497
330
1B
100
AcDbEntity
  8
0
  6
Continuous
100
AcDbLine
 10
154.9498134173
 20
237.5936281403
 30
0.0
 11
155.268062248
 21
237.5936281403
 31
0.0
  0
LINE
  5
498
330
1B
100
AcDbEntity
  8
0
  6
Continuous
100
AcDbLine
 10
158.0999755581
 20
240.0936281403
 30
0.0
 11
148.0999755581
 21
240.0936281403
 31
0.0
  0
LINE
  5
499
330
1B
100
AcDbEntity
  8
0
  6
Continuous
100
AcDbLine
 10
115.6735686869
 20
240.0936281403
 30
0.0
 11
105.6735686869
 21
240.0936281403
 31
0.0
  0
LINE
  5
49A
330
1B
100
AcDbEntity
  8
0
  6
Continuous
100
AcDbLine
 10
164.3867721225
 20
240.8936281403
 30
0.0
 11
160.3867721225
 21
240.8936281403
 31
0.0
  0
LINE
  5
49B
330
1B
100
AcDbEntity
  8
0
  6
Continuous
100
AcDbLine
 10
160.8867721225
 20
241.5936281403
 30
0.0
 11
158.0999755581
 21
241.5936281403
 31
0.0
  0
LINE
  5
49C
330
1B
100
AcDbEntity
  8
0
  6
Continuous
100
AcDbLine
 10
148.0999755581
 20
241.5936281403
 30
0.0
 11
145.6314680692
 21
241.5936281403
 31
0.0
  0
LINE
  5
49D
330
1B
100
AcDbEntity
  8
0
  6
Continuous
100
AcDbLine
 10
165.3867721225
 20
241.8936281403
 30
0.0
 11
164.3867721225
 21
241.8936281403
 31
0.0
  0
LINE
  5
49E
330
1B
100
AcDbEntity
  8
0
  6
Continuous
100
AcDbLine
 10
100.8867721225
 20
241.8936281403
 30
0.0
 11
164.3867721225
 21
241.8936281403
 31
0.0
  0
LINE
  5
49F
330
1B
100
AcDbEntity
  8
0
  6
Continuous
100
AcDbLine
 10
190.3867721225
 20
246.8936281403
 30
0.0
 11
165.3867721225
 21
246.8936281403
 31
0.0
  0
LINE
  5
4A0
330
1B
100
AcDbEntity
  8
0
  6
Continuous
100
AcDbLine
 10
165.3867721225
 20
246.8936281403
 30
0.0
 11
164.3867721225
 21
246.8936281403
 31
0.0
  0
LINE
  5
4A1
330
1B
100
AcDbEntity
  8
0
  6
Continuous
100
AcDbLine
 10
191.3867721225
 20
247.8936281403
 30
0.0
 11
190.3867721225
 21
247.8936281403
 31
0.0
  0
LINE
  5
4A2
330
1B
100
AcDbEntity
  8
0
  6
Continuous
100
AcDbLine
 10
190.3867721225
 20
247.8936281403
 30
0.0
 11
165.3867721225
 21
247.8936281403
 31
0.0
  0
LINE
  5
4A3
330
1B
100
AcDbEntity
  8
0
  6
Continuous
100
AcDbLine
 10
153.3702767273
 20
294.7512061601
 30
0.0
 11
153.2579933273
 21
294.7730510037
 31
0.0
  0
LINE
  5
4A4
330
1B
100
AcDbEntity
  8
0
  6
Continuous
100
AcDbLine
 10
100.8867721225
 20
259.6936281403
 30
0.0
 11
162.8867721225
 21
259.6936281403
 31
0.0
  0
LINE
  5
4A5
330
1B
100
AcDbEntity
  8
0
  6
Continuous
100
AcDbLine
 10
101.0867721225
 20
259.8936281403
 30
0.0
 11
162.6867721225
 21
259.8936281403
 31
0.0
  0
LINE
  5
4A6
330
1B
100
AcDbEntity
  8
0
  6
Continuous
100
AcDbLine
 10
130.9692392766
 20
273.0950364509
 30
0.0
 11
129.2777619914
 21
273.0950364539
 31
0.0
  0
LINE
  5
4A7
330
1B
100
AcDbEntity
  8
0
  6
Continuous
100
AcDbLine
 10
143.9851380121
 20
275.8936281735
 30
0.0
 11
143.8808147411
 21
275.893628169
 31
0.0
  0
LINE
  5
4A8
330
1B
100
AcDbEntity
  8
0
  6
Continuous
100
AcDbLine
 10
143.9851380246
 20
278.0936281403
 30
0.0
 11
143.8406691797
 21
278.0936281403
 31
0.0
  0
LINE
  5
4A9
330
1B
100
AcDbEntity
  8
0
  6
Continuous
100
AcDbLine
 10
137.8731585538
 20
278.0936281403
 30
0.0
 11
137.6367721225
 21
278.0936281403
 31
0.0
  0
LINE
  5
4AA
330
1B
100
AcDbEntity
  8
0
  6
Continuous
100
AcDbLine
 10
123.3927562118
 20
278.0936281403
 30
0.0
 11
122.7049027189
 21
278.0936281403
 31
0.0
  0
LINE
  5
4AB
330
1B
100
AcDbEntity
  8
0
  6
Continuous
100
AcDbLine
 10
129.2777619751
 20
278.7730510037
 30
0.0
 11
130.9744302078
 21
278.7730510037
 31
0.0
  0
LINE
  5
4AC
330
1B
100
AcDbEntity
  8
0
  6
Continuous
100
AcDbLine
 10
136.6580898136
 20
278.7730510037
 30
0.0
 11
137.873158565
 21
278.7730510037
 31
0.0
  0
LINE
  5
4AD
330
1B
100
AcDbEntity
  8
0
  6
Continuous
100
AcDbLine
 10
143.8282710831
 20
278.7730510037
 30
0.0
 11
143.9851380536
 21
278.7730510037
 31
0.0
  0
LINE
  5
4AE
330
1B
100
AcDbEntity
  8
0
  6
Continuous
100
AcDbLine
 10
149.8867721225
 20
296.0730510037
 30
0.0
 11
152.7213053369
 21
295.6746833398
 31
0.0
  0
LWPOLYLINE
  5
4AF
330
1B
100
AcDbEntity
  8
0
  6
Continuous
100
AcDbPolyline
 90
        7
 70
     0
 43
0.0
 10
203.9924208886
 20
309.924568248
 10
203.7958141002
 20
309.9586430501
 10
203.612606704
 20
310.058544727
 10
203.4552838654
 20
310.2174643042
 10
203.334566464
 20
310.4245710978
 10
203.2586806519
 20
310.6657509809
 10
203.2327974737
 20
310.924568248
  0
LINE
  5
4B8
330
1B
100
AcDbEntity
  8
0
  6
Continuous
100
AcDbLine
 10
149.8270572755
 20
285.0730510037
 30
0.0
 11
149.3859386633
 21
285.0730510037
 31
0.0
  0
LINE
  5
4B9
330
1B
100
AcDbEntity
  8
0
  6
Continuous
100
AcDbLine
 10
144.8132841403
 20
285.0730510037
 30
0.0
 11
143.7133087923
 21
285.0730510037
 31
0.0
  0
LINE
  5
4BA
330
1B
100
AcDbEntity
  8
0
  6
Continuous
100
AcDbLine
 10
138.2403828806
 20
285.0730510037
 30
0.0
 11
136.6142240578
 21
285.0730510037
 31
0.0
  0
LINE
  5
4BB
330
1B
100
AcDbEntity
  8
0
  6
Continuous
100
AcDbLine
 10
123.4820918413
 20
285.0730510037
 30
0.0
 11
122.097997249
 21
285.0730510037
 31
0.0
  0
LINE
  5
4BC
330
1B
100
AcDbEntity
  8
0
  6
Continuous
100
AcDbLine
 10
116.9977223964
 20
285.0730510037
 30
0.0
 11
116.2152884871
 21
285.0730510037
 31
0.0
  0
LINE
  5
4BD
330
1B
100
AcDbEntity
  8
0
  6
Continuous
100
AcDbLine
 10
112.3091920875
 20
285.0730510037
 30
0.0
 11
112.2227919381
 21
285.0730510037
 31
0.0
  0
LINE
  5
4BE
330
1B
100
AcDbEntity
  8
0
  6
Continuous
100
AcDbLine
 10
129.1613767276
 20
285.0730510037
 30
0.0
 11
130.980189768
 21
285.0730510037
 31
0.0
  0
LINE
  5
4BF
330
1B
100
AcDbEntity
  8
0
  6
Continuous
100
AcDbLine
 10
151.949065527
 20
285.2730510037
 30
0.0
 11
151.4582137142
 21
285.2730510037
 31
0.0
  0
LINE
  5
4C0
330
1B
100
AcDbEntity
  8
0
  6
Continuous
100
AcDbLine
 10
147.9156125775
 20
285.2730510037
 30
0.0
 11
146.7711935186
 21
285.2730510037
 31
0.0
  0
LINE
  5
4C1
330
1B
100
AcDbEntity
  8
0
  6
Continuous
100
AcDbLine
 10
141.9488449085
 20
285.2730510037
 30
0.0
 11
140.2888924319
 21
285.2730510037
 31
0.0
  0
LINE
  5
4C2
330
1B
100
AcDbEntity
  8
0
  6
Continuous
100
AcDbLine
 10
110.832257395
 20
285.2730510037
 30
0.0
 11
110.6957168336
 21
285.2730510037
 31
0.0
  0
LINE
  5
4C3
330
1B
100
AcDbEntity
  8
0
  6
Continuous
100
AcDbLine
 10
113.5628232355
 20
285.2730510037
 30
0.0
 11
114.393072016
 21
285.2730510037
 31
0.0
  0
LINE
  5
4C4
330
1B
100
AcDbEntity
  8
0
  6
Continuous
100
AcDbLine
 10
118.6400683059
 20
285.2730510037
 30
0.0
 11
120.0638850493
 21
285.2730510037
 31
0.0
  0
LINE
  5
4C5
330
1B
100
AcDbEntity
  8
0
  6
Continuous
100
AcDbLine
 10
125.3150613571
 20
285.2730510037
 30
0.0
 11
127.1607127509
 21
285.2730510037
 31
0.0
  0
LINE
  5
4C6
330
1B
100
AcDbEntity
  8
0
  6
Continuous
100
AcDbLine
 10
132.7931716339
 20
285.2730510037
 30
0.0
 11
134.7684427613
 21
285.2730510037
 31
0.0
  0
LINE
  5
4C7
330
1B
100
AcDbEntity
  8
0
  6
Continuous
100
AcDbLine
 10
110.80403899
 20
285.3835208527
 30
0.0
 11
110.8359161228
 21
285.3835208527
 31
0.0
  0
LINE
  5
4C8
330
1B
100
AcDbEntity
  8
0
  6
Continuous
100
AcDbLine
 10
111.9461008595
 20
285.3835208527
 30
0.0
 11
112.3187210955
 21
285.3835208527
 31
0.0
  0
LINE
  5
4C9
330
1B
100
AcDbEntity
  8
0
  6
Continuous
100
AcDbLine
 10
113.6940499347
 20
285.3835208527
 30
0.0
 11
114.3960913967
 21
285.3835208527
 31
0.0
  0
LINE
  5
4CA
330
1B
100
AcDbEntity
  8
0
  6
Continuous
100
AcDbLine
 10
115.9947756677
 20
285.3835208527
 30
0.0
 11
117.0049071811
 21
285.3835208527
 31
0.0
  0
LINE
  5
4CB
330
1B
100
AcDbEntity
  8
0
  6
Continuous
100
AcDbLine
 10
118.7783716713
 20
285.3835208527
 30
0.0
 11
120.0659009012
 21
285.3835208527
 31
0.0
  0
LINE
  5
4CC
330
1B
100
AcDbEntity
  8
0
  6
Continuous
100
AcDbLine
 10
121.9602597893
 20
285.3835208527
 30
0.0
 11
123.4860658117
 21
285.3835208527
 31
0.0
  0
LINE
  5
4CD
330
1B
100
AcDbEntity
  8
0
  6
Continuous
100
AcDbLine
 10
125.4437599616
 20
285.3835208527
 30
0.0
 11
127.1544000842
 21
285.3835208527
 31
0.0
  0
LINE
  5
4CE
330
1B
100
AcDbEntity
  8
0
  6
Continuous
100
AcDbLine
 10
129.1230277981
 20
285.3835208527
 30
0.0
 11
130.8872736378
 21
285.3835208527
 31
0.0
  0
LINE
  5
4CF
330
1B
100
AcDbEntity
  8
0
  6
Continuous
100
AcDbLine
 10
132.8862706073
 20
285.3835208527
 30
0.0
 11
134.650516447
 21
285.3835208527
 31
0.0
  0
LINE
  5
4D0
330
1B
100
AcDbEntity
  8
0
  6
Continuous
100
AcDbLine
 10
136.6191441608
 20
285.3835208527
 30
0.0
 11
138.3297842835
 21
285.3835208527
 31
0.0
  0
LINE
  5
4D1
330
1B
100
AcDbEntity
  8
0
  6
Continuous
100
AcDbLine
 10
140.2874784334
 20
285.3835208527
 30
0.0
 11
141.8132844557
 21
285.3835208527
 31
0.0
  0
LINE
  5
4D2
330
1B
100
AcDbEntity
  8
0
  6
Continuous
100
AcDbLine
 10
143.7076433439
 20
285.3835208527
 30
0.0
 11
144.9951725738
 21
285.3835208527
 31
0.0
  0
LINE
  5
4D3
330
1B
100
AcDbEntity
  8
0
  6
Continuous
100
AcDbLine
 10
146.7686370639
 20
285.3835208527
 30
0.0
 11
147.7787685773
 21
285.3835208527
 31
0.0
  0
LINE
  5
4D4
330
1B
100
AcDbEntity
  8
0
  6
Continuous
100
AcDbLine
 10
149.3774528483
 20
285.3835208527
 30
0.0
 11
150.0794943103
 21
285.3835208527
 31
0.0
  0
LINE
  5
4D5
330
1B
100
AcDbEntity
  8
0
  6
Continuous
100
AcDbLine
 10
151.4548231496
 20
285.3835208527
 30
0.0
 11
151.8274433856
 21
285.3835208527
 31
0.0
  0
LINE
  5
4D6
330
1B
100
AcDbEntity
  8
0
  6
Continuous
100
AcDbLine
 10
152.9376281223
 20
285.3835208527
 30
0.0
 11
152.969505255
 21
285.3835208527
 31
0.0
  0
LINE
  5
4D7
330
1B
100
AcDbEntity
  8
0
  6
Continuous
100
AcDbLine
 10
132.875141654
 20
292.2730510037
 30
0.0
 11
132.7982791595
 21
292.2730510037
 31
0.0
  0
LINE
  5
4D8
330
1B
100
AcDbEntity
  8
0
  6
Continuous
100
AcDbLine
 10
132.7867721225
 20
292.2730510037
 30
0.0
 11
130.8984025911
 21
292.2730510037
 31
0.0
  0
LINE
  5
4D9
330
1B
100
AcDbEntity
  8
0
  6
Continuous
100
AcDbLine
 10
110.036772414
 20
292.2730510037
 30
0.0
 11
111.0387854709
 21
292.2730510037
 31
0.0
  0
LINE
  5
4DA
330
1B
100
AcDbEntity
  8
0
  6
Continuous
100
AcDbLine
 10
111.0640952669
 20
292.2730510037
 30
0.0
 11
112.1681310097
 21
292.2730510037
 31
0.0
  0
LINE
  5
4DB
330
1B
100
AcDbEntity
  8
0
  6
Continuous
100
AcDbLine
 10
112.5301760513
 20
292.2730510037
 30
0.0
 11
113.8966174806
 21
292.2730510037
 31
0.0
  0
LINE
  5
4DC
330
1B
100
AcDbEntity
  8
0
  6
Continuous
100
AcDbLine
 10
114.5843972124
 20
292.2730510037
 30
0.0
 11
116.1717256968
 21
292.2730510037
 31
0.0
  0
LINE
  5
4DD
330
1B
100
AcDbEntity
  8
0
  6
Continuous
100
AcDbLine
 10
117.1643422798
 20
292.2730510037
 30
0.0
 11
118.9243276465
 21
292.2730510037
 31
0.0
  0
LINE
  5
4DE
330
1B
100
AcDbEntity
  8
0
  6
Continuous
100
AcDbLine
 10
120.191620928
 20
292.2730510037
 30
0.0
 11
122.0707869123
 21
292.2730510037
 31
0.0
  0
LINE
  5
4DF
330
1B
100
AcDbEntity
  8
0
  6
Continuous
100
AcDbLine
 10
123.5742508272
 20
292.2730510037
 30
0.0
 11
125.5154999216
 21
292.2730510037
 31
0.0
  0
LINE
  5
4E0
330
1B
100
AcDbEntity
  8
0
  6
Continuous
100
AcDbLine
 10
127.2094524796
 20
292.2730510037
 30
0.0
 11
129.1538008126
 21
292.2730510037
 31
0.0
  0
LINE
  5
4E1
330
1B
100
AcDbEntity
  8
0
  6
Continuous
100
AcDbLine
 10
134.6197434324
 20
292.2730510037
 30
0.0
 11
136.5640917655
 21
292.2730510037
 31
0.0
  0
LINE
  5
4E2
330
1B
100
AcDbEntity
  8
0
  6
Continuous
100
AcDbLine
 10
138.2580443235
 20
292.2730510037
 30
0.0
 11
140.1992934179
 21
292.2730510037
 31
0.0
  0
LINE
  5
4E3
330
1B
100
AcDbEntity
  8
0
  6
Continuous
100
AcDbLine
 10
141.7027573328
 20
292.2730510037
 30
0.0
 11
143.5819233171
 21
292.2730510037
 31
0.0
  0
LINE
  5
4E4
330
1B
100
AcDbEntity
  8
0
  6
Continuous
100
AcDbLine
 10
144.8492165985
 20
292.2730510037
 30
0.0
 11
146.6092019653
 21
292.2730510037
 31
0.0
  0
LINE
  5
4E5
330
1B
100
AcDbEntity
  8
0
  6
Continuous
100
AcDbLine
 10
147.6018185482
 20
292.2730510037
 30
0.0
 11
149.1891470326
 21
292.2730510037
 31
0.0
  0
LINE
  5
4E6
330
1B
100
AcDbEntity
  8
0
  6
Continuous
100
AcDbLine
 10
149.8769267645
 20
292.2730510037
 30
0.0
 11
151.2433681937
 21
292.2730510037
 31
0.0
  0
LINE
  5
4E7
330
1B
100
AcDbEntity
  8
0
  6
Continuous
100
AcDbLine
 10
151.6054132354
 20
292.2730510037
 30
0.0
 11
152.7094489781
 21
292.2730510037
 31
0.0
  0
LINE
  5
4E8
330
1B
100
AcDbEntity
  8
0
  6
Continuous
100
AcDbLine
 10
152.7347587742
 20
292.2730510037
 30
0.0
 11
153.7367718311
 21
292.2730510037
 31
0.0
  0
LINE
  5
4E9
330
1B
100
AcDbEntity
  8
0
  6
Continuous
100
AcDbLine
 10
153.5765732255
 20
294.4835208527
 30
0.0
 11
153.5575475848
 21
294.4835208527
 31
0.0
  0
LINE
  5
4EA
330
1B
100
AcDbEntity
  8
0
  6
Continuous
100
AcDbLine
 10
153.3860400407
 20
294.4835208527
 30
0.0
 11
153.0705995823
 21
294.4835208527
 31
0.0
  0
LINE
  5
4EB
330
1B
100
AcDbEntity
  8
0
  6
Continuous
100
AcDbLine
 10
152.5612881201
 20
294.4835208527
 30
0.0
 11
151.9399917021
 21
294.4835208527
 31
0.0
  0
LINE
  5
4EC
330
1B
100
AcDbEntity
  8
0
  6
Continuous
100
AcDbLine
 10
151.1083514928
 20
294.4835208527
 30
0.0
 11
150.2000768923
 21
294.4835208527
 31
0.0
  0
LINE
  5
4ED
330
1B
100
AcDbEntity
  8
0
  6
Continuous
100
AcDbLine
 10
149.0713769028
 20
294.4835208527
 30
0.0
 11
147.9037215841
 21
294.4835208527
 31
0.0
  0
LINE
  5
4EE
330
1B
100
AcDbEntity
  8
0
  6
Continuous
100
AcDbLine
 10
146.5122567925
 20
294.4835208527
 30
0.0
 11
145.1206993715
 21
294.4835208527
 31
0.0
  0
LINE
  5
4EF
330
1B
100
AcDbEntity
  8
0
  6
Continuous
100
AcDbLine
 10
143.5087487312
 20
294.4835208527
 30
0.0
 11
141.9355709761
 21
294.4835208527
 31
0.0
  0
LINE
  5
4F0
330
1B
100
AcDbEntity
  8
0
  6
Continuous
100
AcDbLine
 10
140.1521127918
 20
294.4835208527
 30
0.0
 11
138.4451149124
 21
294.4835208527
 31
0.0
  0
LINE
  5
4F1
330
1B
100
AcDbEntity
  8
0
  6
Continuous
100
AcDbLine
 10
136.5443386586
 20
294.4835208527
 30
0.0
 11
134.7553869218
 21
294.4835208527
 31
0.0
  0
LINE
  5
4F2
330
1B
100
AcDbEntity
  8
0
  6
Continuous
100
AcDbLine
 10
132.795046723
 20
294.4835208527
 30
0.0
 11
130.9784975221
 21
294.4835208527
 31
0.0
  0
LINE
  5
4F3
330
1B
100
AcDbEntity
  8
0
  6
Continuous
100
AcDbLine
 10
129.0181573233
 20
294.4835208527
 30
0.0
 11
127.2292055865
 21
294.4835208527
 31
0.0
  0
LINE
  5
4F4
330
1B
100
AcDbEntity
  8
0
  6
Continuous
100
AcDbLine
 10
125.3284293326
 20
294.4835208527
 30
0.0
 11
123.6214314533
 21
294.4835208527
 31
0.0
  0
LINE
  5
4F5
330
1B
100
AcDbEntity
  8
0
  6
Continuous
100
AcDbLine
 10
121.837973269
 20
294.4835208527
 30
0.0
 11
120.2647955138
 21
294.4835208527
 31
0.0
  0
LINE
  5
4F6
330
1B
100
AcDbEntity
  8
0
  6
Continuous
100
AcDbLine
 10
118.6528448736
 20
294.4835208527
 30
0.0
 11
117.2612874526
 21
294.4835208527
 31
0.0
  0
LINE
  5
4F7
330
1B
100
AcDbEntity
  8
0
  6
Continuous
100
AcDbLine
 10
115.869822661
 20
294.4835208527
 30
0.0
 11
114.7021673423
 21
294.4835208527
 31
0.0
  0
LINE
  5
4F8
330
1B
100
AcDbEntity
  8
0
  6
Continuous
100
AcDbLine
 10
113.5734673528
 20
294.4835208527
 30
0.0
 11
112.6651927523
 21
294.4835208527
 31
0.0
  0
LINE
  5
4F9
330
1B
100
AcDbEntity
  8
0
  6
Continuous
100
AcDbLine
 10
111.833552543
 20
294.4835208527
 30
0.0
 11
111.2122561249
 21
294.4835208527
 31
0.0
  0
LINE
  5
4FA
330
1B
100
AcDbEntity
  8
0
  6
Continuous
100
AcDbLine
 10
110.7029446627
 20
294.4835208527
 30
0.0
 11
110.3875042044
 21
294.4835208527
 31
0.0
  0
LINE
  5
4FB
330
1B
100
AcDbEntity
  8
0
  6
Continuous
100
AcDbLine
 10
110.2159966603
 20
294.4835208527
 30
0.0
 11
110.1969710196
 21
294.4835208527
 31
0.0
  0
LINE
  5
4FC
330
1B
100
AcDbEntity
  8
0
  6
Continuous
100
AcDbLine
 10
153.2579933273
 20
294.7730510037
 30
0.0
 11
153.1475531019
 21
294.7730510037
 31
0.0
  0
LINE
  5
4FD
330
1B
100
AcDbEntity
  8
0
  6
Continuous
100
AcDbLine
 10
153.0888565252
 20
294.7730510037
 30
0.0
 11
152.669817783
 21
294.7730510037
 31
0.0
  0
LINE
  5
4FE
330
1B
100
AcDbEntity
  8
0
  6
Continuous
100
AcDbLine
 10
152.2755051172
 20
294.7730510037
 30
0.0
 11
151.5606001383
 21
294.7730510037
 31
0.0
  0
LINE
  5
4FF
330
1B
100
AcDbEntity
  8
0
  6
Continuous
100
AcDbLine
 10
150.8426523744
 20
294.7730510037
 30
0.0
 11
149.8536031849
 21
294.7730510037
 31
0.0
  0
LINE
  5
500
330
1B
100
AcDbEntity
  8
0
  6
Continuous
100
AcDbLine
 10
148.8338348022
 20
294.7730510037
 30
0.0
 11
147.6006931612
 21
294.7730510037
 31
0.0
  0
LINE
  5
501
330
1B
100
AcDbEntity
  8
0
  6
Continuous
100
AcDbLine
 10
146.3100893062
 20
294.7730510037
 30
0.0
 11
144.8703235984
 21
294.7730510037
 31
0.0
  0
LINE
  5
502
330
1B
100
AcDbEntity
  8
0
  6
Continuous
100
AcDbLine
 10
143.3480986161
 20
294.7730510037
 30
0.0
 11
141.7454553941
 21
294.7730510037
 31
0.0
  0
LINE
  5
503
330
1B
100
AcDbEntity
  8
0
  6
Continuous
100
AcDbLine
 10
140.0378613202
 20
294.7730510037
 30
0.0
 11
138.3210360872
 21
294.7730510037
 31
0.0
  0
LINE
  5
504
330
1B
100
AcDbEntity
  8
0
  6
Continuous
100
AcDbLine
 10
136.4799573037
 20
294.7730510037
 30
0.0
 11
134.7011149257
 21
294.7730510037
 31
0.0
  0
LINE
  5
505
330
1B
100
AcDbEntity
  8
0
  6
Continuous
100
AcDbLine
 10
132.7824916797
 20
294.7730510037
 30
0.0
 11
130.9910525654
 21
294.7730510037
 31
0.0
  0
LINE
  5
506
330
1B
100
AcDbEntity
  8
0
  6
Continuous
100
AcDbLine
 10
110.5155509177
 20
294.7730510037
 30
0.0
 11
110.6259911431
 21
294.7730510037
 31
0.0
  0
LINE
  5
507
330
1B
100
AcDbEntity
  8
0
  6
Continuous
100
AcDbLine
 10
110.6846877199
 20
294.7730510037
 30
0.0
 11
111.1037264621
 21
294.7730510037
 31
0.0
  0
LINE
  5
508
330
1B
100
AcDbEntity
  8
0
  6
Continuous
100
AcDbLine
 10
111.4980391279
 20
294.7730510037
 30
0.0
 11
112.2129441067
 21
294.7730510037
 31
0.0
  0
LINE
  5
509
330
1B
100
AcDbEntity
  8
0
  6
Continuous
100
AcDbLine
 10
112.9308918707
 20
294.7730510037
 30
0.0
 11
113.9199410602
 21
294.7730510037
 31
0.0
  0
LINE
  5
50A
330
1B
100
AcDbEntity
  8
0
  6
Continuous
100
AcDbLine
 10
114.9397094428
 20
294.7730510037
 30
0.0
 11
116.1728510839
 21
294.7730510037
 31
0.0
  0
LINE
  5
50B
330
1B
100
AcDbEntity
  8
0
  6
Continuous
100
AcDbLine
 10
117.4634549389
 20
294.7730510037
 30
0.0
 11
118.9032206466
 21
294.7730510037
 31
0.0
  0
LINE
  5
50C
330
1B
100
AcDbEntity
  8
0
  6
Continuous
100
AcDbLine
 10
120.425445629
 20
294.7730510037
 30
0.0
 11
122.028088851
 21
294.7730510037
 31
0.0
  0
LINE
  5
50D
330
1B
100
AcDbEntity
  8
0
  6
Continuous
100
AcDbLine
 10
123.7356829249
 20
294.7730510037
 30
0.0
 11
125.4525081578
 21
294.7730510037
 31
0.0
  0
LINE
  5
50E
330
1B
100
AcDbEntity
  8
0
  6
Continuous
100
AcDbLine
 10
127.2935869414
 20
294.7730510037
 30
0.0
 11
129.0724293194
 21
294.7730510037
 31
0.0
  0
LINE
  5
50F
330
1B
100
AcDbEntity
  8
0
  6
Continuous
100
AcDbLine
 10
110.6221300451
 20
295.1969990538
 30
0.0
 11
153.1514141999
 21
295.1969990538
 31
0.0
  0
LINE
  5
510
330
1B
100
AcDbEntity
  8
0
  6
Continuous
100
AcDbLine
 10
111.0522389082
 20
295.6746833398
 30
0.0
 11
152.7213053369
 21
295.6746833398
 31
0.0
  0
LINE
  5
511
330
1B
100
AcDbEntity
  8
0
  6
Continuous
100
AcDbLine
 10
113.8869185883
 20
296.0730510037
 30
0.0
 11
149.8867721225
 21
296.0730510037
 31
0.0
  0
LINE
  5
512
330
1B
100
AcDbEntity
  8
0
  6
Continuous
100
AcDbLine
 10
149.1867568656
 20
296.7730510037
 30
0.0
 11
149.1216205408
 21
296.7730510037
 31
0.0
  0
LINE
  5
513
330
1B
100
AcDbEntity
  8
0
  6
Continuous
100
AcDbLine
 10
133.3867721225
 20
296.7730510037
 30
0.0
 11
130.3867721225
 21
296.7730510037
 31
0.0
  0
LINE
  5
514
330
1B
100
AcDbEntity
  8
0
  6
Continuous
100
AcDbLine
 10
114.6519237043
 20
296.7730510037
 30
0.0
 11
114.5867873798
 21
296.7730510037
 31
0.0
  0
LINE
  5
515
330
1B
100
AcDbEntity
  8
0
  6
Continuous
100
AcDbLine
 10
114.5867721225
 20
297.0730510037
 30
0.0
 11
149.1867721225
 21
297.0730510037
 31
0.0
  0
LINE
  5
516
330
1B
100
AcDbEntity
  8
0
  6
Continuous
100
AcDbLine
 10
120.3867721225
 20
299.6161169329
 30
0.0
 11
122.4647498912
 21
299.6161170285
 31
0.0
  0
LINE
  5
517
330
1B
100
AcDbEntity
  8
0
  6
Continuous
100
AcDbLine
 10
122.4647498912
 20
299.6161170285
 30
0.0
 11
125.2931770214
 21
299.6161170285
 31
0.0
  0
LINE
  5
518
330
1B
100
AcDbEntity
  8
0
  6
Continuous
100
AcDbLine
 10
125.2931769959
 20
299.6161169329
 30
0.0
 11
143.3867721225
 21
299.6161169329
 31
0.0
  0
LINE
  5
519
330
1B
100
AcDbEntity
  8
0
  6
Continuous
100
AcDbLine
 10
230.3866815073
 20
309.924568248
 30
0.0
 11
198.1367721225
 21
309.924568248
 31
0.0
  0
LINE
  5
51A
330
1B
100
AcDbEntity
  8
0
  6
Continuous
100
AcDbLine
 10
231.3867721225
 20
310.924568248
 30
0.0
 11
197.9631239449
 21
310.924568248
 31
0.0
  0
LINE
  5
51B
330
1B
100
AcDbEntity
  8
0
  6
Continuous
100
AcDbLine
 10
194.4476588647
 20
315.024568248
 30
0.0
 11
201.3258853803
 21
315.024568248
 31
0.0
  0
LINE
  5
51C
330
1B
100
AcDbEntity
  8
0
  6
Continuous
100
AcDbLine
 10
194.4476588647
 20
316.324568248
 30
0.0
 11
201.3258853803
 21
316.324568248
 31
0.0
  0
LINE
  5
51D
330
1B
100
AcDbEntity
  8
0
  6
Continuous
100
AcDbLine
 10
197.9631239449
 20
320.424568248
 30
0.0
 11
231.3867721225
 21
320.424568248
 31
0.0
  0
LINE
  5
51E
330
1B
100
AcDbEntity
  8
0
  6
Continuous
100
AcDbLine
 10
198.1367721225
 20
321.424568248
 30
0.0
 11
230.3866815073
 21
321.424568248
 31
0.0
  0
LINE
  5
51F
330
1B
100
AcDbEntity
  8
0
  6
Continuous
100
AcDbLine
 10
213.1367721225
 20
321.924568248
 30
0.0
 11
201.8221121563
 21
321.924568248
 31
0.0
  0
LINE
  5
520
330
1B
100
AcDbEntity
  8
0
  6
Continuous
100
AcDbLine
 10
217.6367721225
 20
321.924568248
 30
0.0
 11
228.9514320888
 21
321.924568248
 31
0.0
  0
LINE
  5
521
330
1B
100
AcDbEntity
  8
0
  6
Continuous
100
AcDbLine
 10
213.1367721225
 20
322.224568248
 30
0.0
 11
217.6367721225
 21
322.224568248
 31
0.0
  0
LINE
  5
522
330
1B
100
AcDbEntity
  8
0
  6
Continuous
100
AcDbLine
 10
213.1367721225
 20
322.724568248
 30
0.0
 11
217.6367721225
 21
322.724568248
 31
0.0
  0
LINE
  5
523
330
1B
100
AcDbEntity
  8
0
  6
Continuous
100
AcDbLine
 10
213.1367721225
 20
323.324568248
 30
0.0
 11
217.6367721225
 21
323.324568248
 31
0.0
  0
LINE
  5
524
330
1B
100
AcDbEntity
  8
0
  6
Continuous
100
AcDbLine
 10
213.1367721225
 20
323.824568248
 30
0.0
 11
217.6367721225
 21
323.824568248
 31
0.0
  0
LINE
  5
525
330
1B
100
AcDbEntity
  8
0
  6
Continuous
100
AcDbLine
 10
217.6367721225
 20
324.324568248
 30
0.0
 11
213.1367721225
 21
324.324568248
 31
0.0
  0
LINE
  5
526
330
1B
100
AcDbEntity
  8
0
  6
Continuous
100
AcDbLine
 10
213.1367721225
 20
324.9556571612
 30
0.0
 11
204.36406828
 21
324.9556571612
 31
0.0
  0
LINE
  5
527
330
1B
100
AcDbEntity
  8
0
  6
Continuous
100
AcDbLine
 10
217.6367721225
 20
324.9556571612
 30
0.0
 11
226.4094759651
 21
324.9556571612
 31
0.0
  0
LINE
  5
528
330
1B
100
AcDbEntity
  8
0
  6
Continuous
100
AcDbLine
 10
213.1367721225
 20
328.524568248
 30
0.0
 11
217.6367721225
 21
328.524568248
 31
0.0
  0
LINE
  5
529
330
1B
100
AcDbEntity
  8
0
  6
Continuous
100
AcDbLine
 10
213.1367721225
 20
328.824568248
 30
0.0
 11
217.6367721225
 21
328.824568248
 31
0.0
  0
LINE
  5
52A
330
1B
100
AcDbEntity
  8
0
  6
Continuous
100
AcDbLine
 10
204.36406828
 20
330.3936281403
 30
0.0
 11
191.3867721225
 21
330.3936281403
 31
0.0
  0
LINE
  5
52B
330
1B
100
AcDbEntity
  8
0
  6
Continuous
100
AcDbLine
 10
191.3867721225
 20
330.3936281403
 30
0.0
 11
190.3867721225
 21
330.3936281403
 31
0.0
  0
LINE
  5
52C
330
1B
100
AcDbEntity
  8
0
  6
Continuous
100
AcDbLine
 10
204.36406828
 20
331.3936281403
 30
0.0
 11
191.3867721225
 21
331.3936281403
 31
0.0
  0
LINE
  5
52D
330
1B
100
AcDbEntity
  8
0
  6
Continuous
100
AcDbLine
 10
110.4032675178
 20
294.7512061601
 30
0.0
 11
110.5155509177
 21
294.7730510037
 31
0.0
  0
LWPOLYLINE
  5
52E
330
1B
100
AcDbEntity
  8
0
  6
Continuous
100
AcDbPolyline
 90
        7
 70
     0
 43
0.0
 10
203.9924208885
 20
321.424568248
 10
203.7958161457
 20
321.3904941674
 10
203.6126095381
 20
321.2905939228
 10
203.4552863243
 20
321.1316754283
 10
203.3345678869
 20
320.924568642
 10
203.2586810632
 20
320.6833875363
 10
203.2327974729
 20
320.424568248
  0
LINE
  5
537
330
1B
100
AcDbEntity
  8
0
  6
Continuous
100
AcDbLine
 10
113.8867721225
 20
296.0730510037
 30
0.0
 11
111.0522389082
 21
295.6746833398
 31
0.0
  0
LINE
  5
538
330
1B
100
AcDbEntity
  8
0
  6
Continuous
100
AcDbLine
 10
226.6366442939
 20
331.674568248
 30
0.0
 11
226.4094759651
 21
331.674568248
 31
0.0
  0
LINE
  5
539
330
1B
100
AcDbEntity
  8
0
  6
Continuous
100
AcDbLine
 10
217.6367721225
 20
331.674568248
 30
0.0
 11
213.1367721225
 21
331.674568248
 31
0.0
  0
LINE
  5
53A
330
1B
100
AcDbEntity
  8
0
  6
Continuous
100
AcDbLine
 10
204.36406828
 20
331.674568248
 30
0.0
 11
204.1368999512
 21
331.674568248
 31
0.0
  0
LINE
  5
53B
330
1B
100
AcDbEntity
  8
0
  6
Continuous
100
AcDbLine
 10
204.1367721237
 20
360.5589812262
 30
0.0
 11
226.6367721214
 21
360.5589812262
 31
0.0
  0
LINE
  5
53C
330
1B
100
AcDbEntity
  8
0
  6
Continuous
100
AcDbLine
 10
204.7136952664
 20
361.9642755684
 30
0.0
 11
226.0598489787
 21
361.9642755684
 31
0.0
  0
CIRCLE
  5
749
330
1B
100
AcDbEntity
  8
0
  6
Continuous
100
AcDbCircle
 10
197.8867721225
 20
315.674568248
 30
0.0
 40
3.5
  0
ARC
  5
74A
330
1B
100
AcDbEntity
  8
0
  6
Continuous
100
AcDbCircle
 10
197.8867721225
 20
315.674568248
 30
0.0
 40
3.0
100
AcDbArc
 50
12.51332536290003
 51
167.4866746371004
  0
ARC
  5
74B
330
1B
100
AcDbEntity
  8
0
  6
Continuous
100
AcDbCircle
 10
197.8867721225
 20
315.674568248
 30
0.0
 40
3.0
100
AcDbArc
 50
192.5133253629004
 51
347.4866746371008
  0
ARC
  5
74C
330
1B
100
AcDbEntity
  8
0
  6
Continuous
100
AcDbCircle
 10
151.5999755581
 20
227.1551199076
 30
0.0
 40
3.0
100
AcDbArc
 50
300.0000000000007
 51
308.1706435819007
  0
ARC
  5
74D
330
1B
100
AcDbEntity
  8
0
  6
Continuous
100
AcDbCircle
 10
154.5999755581
 20
227.1551199076
 30
0.0
 40
3.0
100
AcDbArc
 50
231.8293564181005
 51
240.0000000000005
  0
ARC
  5
74E
330
1B
100
AcDbEntity
  8
0
  6
Continuous
100
AcDbCircle
 10
109.1735686869
 20
227.1551199076
 30
0.0
 40
3.0
100
AcDbArc
 50
300.0000000000007
 51
308.1706435819007
  0
ARC
  5
74F
330
1B
100
AcDbEntity
  8
0
  6
Continuous
100
AcDbCircle
 10
112.1735686869
 20
227.1551199076
 30
0.0
 40
3.0
100
AcDbArc
 50
231.8293564181005
 51
240.0000000000005
  0
ARC
  5
750
330
1B
100
AcDbEntity
  8
0
  6
Continuous
100
AcDbCircle
 10
112.3235686869
 20
212.8072709332
 30
0.0
 40
4.5
100
AcDbArc
 50
187.5571063550004
 51
225.5729959992005
  0
ARC
  5
751
330
1B
100
AcDbEntity
  8
0
  6
Continuous
100
AcDbCircle
 10
109.0235686869
 20
212.8072709332
 30
0.0
 40
4.5
100
AcDbArc
 50
314.4270040008007
 51
352.4428936450008
  0
ARC
  5
752
330
1B
100
AcDbEntity
  8
0
  6
Continuous
100
AcDbCircle
 10
154.7499755581
 20
212.8072709332
 30
0.0
 40
4.5
100
AcDbArc
 50
187.5571063550004
 51
225.5729959992005
  0
ARC
  5
753
330
1B
100
AcDbEntity
  8
0
  6
Continuous
100
AcDbCircle
 10
151.4499755581
 20
212.8072709332
 30
0.0
 40
4.5
100
AcDbArc
 50
314.4270040008007
 51
352.4428936450008
  0
ARC
  5
754
330
1B
100
AcDbEntity
  8
0
  6
Continuous
100
AcDbCircle
 10
131.8867721225
 20
265.5023367261
 30
0.0
 40
36.0
100
AcDbArc
 50
108.6293305747002
 51
118.7216925088002
  0
ARC
  5
755
330
1B
100
AcDbEntity
  8
0
  6
Continuous
100
AcDbCircle
 10
131.8867721225
 20
265.5023367261
 30
0.0
 40
36.0
100
AcDbArc
 50
61.27830749120015
 51
71.37066942530015
  0
ARC
  5
756
330
1B
100
AcDbEntity
  8
0
  6
Continuous
100
AcDbCircle
 10
230.3867721225
 20
320.424568248
 30
0.0
 40
1.0
100
AcDbArc
 50
0.0
 51
90.00000000000019
  0
ARC
  5
757
330
1B
100
AcDbEntity
  8
0
  6
Continuous
100
AcDbCircle
 10
230.3867721225
 20
310.924568248
 30
0.0
 40
1.0
100
AcDbArc
 50
270.0000000000006
 51
360.0000000000008
  0
ARC
  5
758
330
1B
100
AcDbEntity
  8
0
  6
Continuous
100
AcDbCircle
 10
198.1367721225
 20
315.674568248
 30
0.0
 40
5.75
100
AcDbArc
 50
90.00000000000019
 51
270.0000000000006
  0
ARC
  5
759
330
1B
100
AcDbEntity
  8
0
  6
Continuous
100
AcDbCircle
 10
152.6517187864
 20
295.1795493054
 30
0.0
 40
0.5
100
AcDbArc
 50
2.000000000500004
 51
82.0000000000002
  0
ARC
  5
75A
330
1B
100
AcDbEntity
  8
0
  6
Continuous
100
AcDbCircle
 10
111.1218254586
 20
295.1795493054
 30
0.0
 40
0.5
100
AcDbArc
 50
98.00000000000023
 51
177.9999999995004
  0
ARC
  5
75B
330
1B
100
AcDbEntity
  8
0
  6
Continuous
100
AcDbCircle
 10
110.4967882677
 20
294.4730510037
 30
0.0
 40
0.3
100
AcDbArc
 50
90.00000000000019
 51
178.0000000000004
  0
ARC
  5
75C
330
1B
100
AcDbEntity
  8
0
  6
Continuous
100
AcDbCircle
 10
153.2767559773
 20
294.4730510037
 30
0.0
 40
0.3
100
AcDbArc
 50
2.000000000000004
 51
90.00000000000019
  0
ARC
  5
75D
330
1B
100
AcDbEntity
  8
0
  6
Continuous
100
AcDbCircle
 10
162.6867721225
 20
259.6936281403
 30
0.0
 40
0.2
100
AcDbArc
 50
0.0
 51
90.00000000000019
  0
ARC
  5
75E
330
1B
100
AcDbEntity
  8
0
  6
Continuous
100
AcDbCircle
 10
101.0867721225
 20
259.6936281403
 30
0.0
 40
0.2
100
AcDbArc
 50
90.00000000000019
 51
180.0000000000004
  0
ARC
  5
75F
330
1B
100
AcDbEntity
  8
0
  6
Continuous
100
AcDbCircle
 10
224.6367721225
 20
360.5589812012
 30
0.0
 40
2.0
100
AcDbArc
 50
0.0000007726
 51
44.63977585570012
  0
ARC
  5
760
330
1B
100
AcDbEntity
  8
0
  6
Continuous
100
AcDbCircle
 10
206.1367721225
 20
360.5589812012
 30
0.0
 40
2.0
100
AcDbArc
 50
135.3602241443002
 51
179.9999992274004
  0
ARC
  5
761
330
1B
100
AcDbEntity
  8
0
  6
Continuous
100
AcDbCircle
 10
215.3867721225
 20
351.424568248
 30
0.0
 40
15.0
100
AcDbArc
 50
44.6397733449001
 51
135.3602266551003
  0
ARC
  5
762
330
1B
100
AcDbEntity
  8
0
  6
Continuous
100
AcDbCircle
 10
131.8867721225
 20
263.9371187382
 30
0.0
 40
2.5
100
AcDbArc
 50
202.6039967209005
 51
248.1116702966006
  0
ARC
  5
763
330
1B
100
AcDbEntity
  8
0
  6
Continuous
100
AcDbCircle
 10
160.3867721225
 20
241.8936281403
 30
0.0
 40
1.0
100
AcDbArc
 50
197.5414564140004
 51
270.0000000000006
  0
ARC
  5
764
330
1B
100
AcDbEntity
  8
0
  6
Continuous
100
AcDbCircle
 10
164.3867721225
 20
241.8936281403
 30
0.0
 40
1.0
100
AcDbArc
 50
270.0000000000006
 51
360.0000000000008
  0
ARC
  5
765
330
1B
100
AcDbEntity
  8
0
  6
Continuous
100
AcDbCircle
 10
165.3867721225
 20
246.8936281403
 30
0.0
 40
1.0
100
AcDbArc
 50
90.00000000000019
 51
180.0000000000004
  0
ARC
  5
766
330
1B
100
AcDbEntity
  8
0
  6
Continuous
100
AcDbCircle
 10
190.3867721225
 20
247.8936281403
 30
0.0
 40
1.0
100
AcDbArc
 50
270.0000000000006
 51
360.0000000000008
  0
ARC
  5
767
330
1B
100
AcDbEntity
  8
0
  6
Continuous
100
AcDbCircle
 10
191.3867721225
 20
330.3936281403
 30
0.0
 40
1.0
100
AcDbArc
 50
90.00000000000019
 51
180.0000000000004
  0
SPLINE
  5
920
330
1B
100
AcDbEntity
  8
0
  6
Continuous
100
AcDbSpline
210
0.0
220
0.0
230
1.0
 70
     8
 71
     3
 72
    16
 73
    12
 74
    10
 42
0.0000000001
 43
0.0000000001
 44
0.0000000001
 40
0.0
 40
0.0
 40
0.0
 40
0.0
 40
0.1749963164229589
 40
0.4454151003160764
 40
0.6973792844611001
 40
0.9296656262231373
 40
1.141557805486832
 40
1.332794753011157
 40
1.503558345091179
 40
1.654537347776167
 40
1.7023912570158
 40
1.7023912570158
 40
1.7023912570158
 40
1.7023912570158
 10
130.9742932216
 20
278.6284111304
 30
0.0
 10
130.9160905920177
 20
278.6245266575654
 30
0.0
 10
130.7679484446629
 20
278.6146395759819
 30
0.0
 10
130.5360404515194
 20
278.5986271402098
 30
0.0
 10
130.2851369214213
 20
278.580507479851
 30
0.0
 10
130.0537636319909
 20
278.5628187409964
 30
0.0
 10
129.8426618589256
 20
278.5455579743984
 30
0.0
 10
129.6521048355212
 20
278.5287189779432
 30
0.0
 10
129.4819066406502
 20
278.5122321504716
 30
0.0
 10
129.3594002009929
 20
278.4991505980913
 30
0.0
 10
129.2935766211583
 20
278.4914048231267
 30
0.0
 10
129.2777345979
 20
278.4895406166
 30
0.0
 11
130.9742932216
 21
278.6284111304
 31
0.0
 11
130.7996888616
 21
278.6167052246
 31
0.0
 11
130.529913872
 21
278.5980565338
 31
0.0
 11
130.2786082258
 21
278.5798515268
 31
0.0
 11
130.0470021404
 21
278.5620873557
 31
0.0
 11
129.8358200759
 21
278.5447544025
 31
0.0
 11
129.6453330031
 21
278.5278356202
 31
0.0
 11
129.4753717706
 21
278.5113012975
 31
0.0
 11
129.3252653924
 21
278.4950922113
 31
0.0
 11
129.2777345979
 21
278.4895406166
 31
0.0
  0
SPLINE
  5
921
330
1B
100
AcDbEntity
  8
0
  6
Continuous
100
AcDbSpline
210
0.0
220
0.0
230
1.0
 70
     8
 71
     3
 72
     9
 73
     5
 74
     3
 42
0.0000000001
 43
0.0000000001
 44
0.0000000001
 40
0.0
 40
0.0
 40
0.0
 40
0.0
 40
0.3182511219807083
 40
0.7064646816464375
 40
0.7064646816464375
 40
0.7064646816464375
 40
0.7064646816464375
 10
153.4499947108
 20
230.6796319246
 30
0.0
 10
153.3448794884094
 20
230.6653300707408
 30
0.0
 10
153.1115411370465
 20
230.6335823283585
 30
0.0
 10
152.8781972631127
 20
230.6018752011438
 30
0.0
 10
152.7499710994
 20
230.5844516313
 30
0.0
 11
153.4499947108
 21
230.6796319246
 31
0.0
 11
153.1346479229
 21
230.6367346053
 31
0.0
 11
152.7499710994
 21
230.5844516313
 31
0.0
  0
SPLINE
  5
922
330
1B
100
AcDbEntity
  8
0
  6
Continuous
100
AcDbSpline
210
0.0
220
0.0
230
1.0
 70
     8
 71
     3
 72
    10
 73
     6
 74
     4
 42
0.0000000001
 43
0.0000000001
 44
0.0000000001
 40
0.0
 40
0.0
 40
0.0
 40
0.0
 40
0.2662790961843427
 40
0.6756281616914026
 40
0.70648219043733
 40
0.70648219043733
 40
0.70648219043733
 40
0.70648219043733
 10
153.4500035641
 20
232.379633176
 30
0.0
 10
153.3620584891248
 20
232.3676353510944
 30
0.0
 10
153.1389160412692
 20
232.3371933505713
 30
0.0
 10
152.9055212442723
 20
232.3058164342001
 30
0.0
 10
152.7601521582605
 20
232.2858463298116
 30
0.0
 10
152.749963175
 20
232.2844466164
 30
0.0
 11
153.4500035641
 21
232.379633176
 31
0.0
 11
153.1861591197
 21
232.3437073326
 31
0.0
 11
152.780530406
 21
232.2886436962
 31
0.0
 11
152.749963175
 21
232.2844466164
 31
0.0
  0
SPLINE
  5
923
330
1B
100
AcDbEntity
  8
0
  6
Continuous
100
AcDbSpline
210
0.0
220
0.0
230
1.0
 70
     8
 71
     3
 72
    10
 73
     6
 74
     4
 42
0.0000000001
 43
0.0000000001
 44
0.0000000001
 40
0.0
 40
0.0
 40
0.0
 40
0.0
 40
0.1981137665556737
 40
0.5143998567060679
 40
0.7116221802039405
 40
0.7116221802039405
 40
0.7116221802039405
 40
0.7116221802039405
 10
153.4500316881
 20
230.9844531981
 30
0.0
 10
153.3850821814369
 20
230.9725126145676
 30
0.0
 10
153.2164416194939
 20
230.9415090424039
 30
0.0
 10
152.9829246830248
 20
230.8998230187256
 30
0.0
 10
152.8145765792806
 20
230.8688720417989
 30
0.0
 10
152.7499194027
 20
230.8569847515
 30
0.0
 11
153.4500316881
 21
230.9844531981
 31
0.0
 11
153.2551596741
 21
230.9487605846
 31
0.0
 11
152.9439142866
 21
230.8925182555
 31
0.0
 11
152.7499194027
 21
230.8569847515
 31
0.0
  0
SPLINE
  5
924
330
1B
100
AcDbEntity
  8
0
  6
Continuous
100
AcDbSpline
210
0.0
220
0.0
230
1.0
 70
     8
 71
     3
 72
    10
 73
     6
 74
     4
 42
0.0000000001
 43
0.0000000001
 44
0.0000000001
 40
0.0
 40
0.0
 40
0.0
 40
0.0
 40
0.2116260078614946
 40
0.5259564753565648
 40
0.7116160060613042
 40
0.7116160060613042
 40
0.7116160060613042
 40
0.7116160060613042
 10
152.7499247638
 20
228.5796340153
 30
0.0
 10
152.8193054151289
 20
228.592381918627
 30
0.0
 10
152.9917379209424
 20
228.6240644248077
 30
0.0
 10
153.2252519826358
 20
228.6657547605061
 30
0.0
 10
153.3891655502814
 20
228.695905483997
 30
0.0
 10
153.4500309999
 20
228.7071012463
 30
0.0
 11
152.7499247638
 21
228.5796340153
 31
0.0
 11
152.9580923126
 21
228.6177370182
 31
0.0
 11
153.2674131093
 21
228.6736323447
 31
0.0
 11
153.4500309999
 21
228.7071012463
 31
0.0
  0
SPLINE
  5
925
330
1B
100
AcDbEntity
  8
0
  6
Continuous
100
AcDbSpline
210
0.0
220
0.0
230
1.0
 70
     8
 71
     3
 72
    10
 73
     6
 74
     4
 42
0.0000000001
 43
0.0000000001
 44
0.0000000001
 40
0.0
 40
0.0
 40
0.0
 40
0.0
 40
0.197222323461838
 40
0.5135084135588875
 40
0.7116221800785282
 40
0.7116221800785282
 40
0.7116221800785282
 40
0.7116221800785282
 10
152.7499194027
 20
230.2796344955
 30
0.0
 10
152.8145765792808
 20
230.2915217857312
 30
0.0
 10
152.9829246830271
 20
230.3224727624815
 30
0.0
 10
153.2164416194916
 20
230.3641587859473
 30
0.0
 10
153.3850821814367
 20
230.3951623579354
 30
0.0
 10
153.4500316881
 20
230.4071029414
 30
0.0
 11
152.7499194027
 21
230.2796344955
 31
0.0
 11
152.9439142866
 21
230.3151679993
 31
0.0
 11
153.2551596741
 21
230.3714103281
 31
0.0
 11
153.4500316881
 21
230.4071029414
 31
0.0
  0
SPLINE
  5
926
330
1B
100
AcDbEntity
  8
0
  6
Continuous
100
AcDbSpline
210
0.0
220
0.0
230
1.0
 70
     8
 71
     3
 72
    10
 73
     6
 74
     4
 42
0.0000000001
 43
0.0000000001
 44
0.0000000001
 40
0.0
 40
0.0
 40
0.0
 40
0.0
 40
0.1858773159164205
 40
0.5000737926730495
 40
0.7116159130058162
 40
0.7116159130058162
 40
0.7116159130058162
 40
0.7116159130058162
 10
152.7499201173
 20
231.9796359207
 30
0.0
 10
152.8108569833946
 20
231.9908447119376
 30
0.0
 10
152.9747980732004
 20
232.0210002084158
 30
0.0
 10
153.2083120738552
 20
232.0626907037148
 30
0.0
 10
153.38067312791
 20
232.094360202108
 30
0.0
 10
153.4500262685
 20
232.1071030992
 30
0.0
 11
152.7499201173
 21
231.9796359207
 31
0.0
 11
152.9327522942
 21
232.0131437058
 31
0.0
 11
153.2419412618
 21
232.0690150609
 31
0.0
 11
153.4500262685
 21
232.1071030992
 31
0.0
  0
SPLINE
  5
927
330
1B
100
AcDbEntity
  8
0
  6
Continuous
100
AcDbSpline
210
0.0
220
0.0
230
1.0
 70
     8
 71
     3
 72
    10
 73
     6
 74
     4
 42
0.0000000001
 43
0.0000000001
 44
0.0000000001
 40
0.0
 40
0.0
 40
0.0
 40
0.0
 40
0.2033964636772379
 40
0.4862829592755454
 40
0.7065407371639184
 40
0.7065407371639184
 40
0.7065407371639184
 40
0.7065407371639184
 10
153.4499855324
 20
227.2797983862
 30
0.0
 10
153.3828139519589
 20
227.27059733132
 30
0.0
 10
153.2222192477759
 20
227.248599327448
 30
0.0
 10
152.9888317378588
 20
227.2170238315543
 30
0.0
 10
152.8226931705389
 20
227.1940839358649
 30
0.0
 10
152.7499639086
 20
227.184041706
 30
0.0
 11
153.4499855324
 21
227.2797983862
 31
0.0
 11
153.2484644353
 21
227.252241738
 31
0.0
 11
152.9681636078
 21
227.2140813463
 31
0.0
 11
152.7499639086
 21
227.184041706
 31
0.0
  0
SPLINE
  5
928
330
1B
100
AcDbEntity
  8
0
  6
Continuous
100
AcDbSpline
210
0.0
220
0.0
230
1.0
 70
     8
 71
     3
 72
    10
 73
     6
 74
     4
 42
0.0000000001
 43
0.0000000001
 44
0.0000000001
 40
0.0
 40
0.0
 40
0.0
 40
0.0
 40
0.185659530785092
 40
0.499989998244569
 40
0.7116160059897074
 40
0.7116160059897074
 40
0.7116160059897074
 40
0.7116160059897074
 10
153.4500309999
 20
229.2844515001
 30
0.0
 10
153.3891655502482
 20
229.2732557378293
 30
0.0
 10
153.2252519825694
 20
229.243105014436
 30
0.0
 10
152.9917379208689
 20
229.2014146789129
 30
0.0
 10
152.8193054150949
 20
229.1697321727975
 30
0.0
 10
152.7499247638
 20
229.1569842695
 30
0.0
 11
153.4500309999
 21
229.2844515001
 31
0.0
 11
153.2674131092
 21
229.2509825986
 31
0.0
 11
152.9580923125
 21
229.1950872723
 31
0.0
 11
152.7499247638
 21
229.1569842695
 31
0.0
  0
SPLINE
  5
929
330
1B
100
AcDbEntity
  8
0
  6
Continuous
100
AcDbSpline
210
0.0
220
0.0
230
1.0
 70
     8
 71
     3
 72
    11
 73
     7
 74
     5
 42
0.0000000001
 43
0.0000000001
 44
0.0000000001
 40
0.0
 40
0.0
 40
0.0
 40
0.0
 40
0.0787332855447515
 40
0.3756472293001895
 40
0.6751254847253988
 40
0.7130332781158859
 40
0.7130332781158859
 40
0.7130332781158859
 40
0.7130332781158859
 10
153.4500160637
 20
227.5813343899
 30
0.0
 10
153.4242462139264
 20
227.5763659466084
 30
0.0
 10
153.3012947506421
 20
227.5526608269312
 30
0.0
 10
153.0802031809863
 20
227.5106825823752
 30
0.0
 10
152.872602636622
 20
227.4705939639226
 30
0.0
 10
152.7623202177053
 20
227.4485598650701
 30
0.0
 10
152.7499291803
 20
227.4460841727
 30
0.0
 11
153.4500160637
 21
227.5813343899
 31
0.0
 11
153.3727036013
 21
227.5664443459
 31
0.0
 11
153.0810712396
 21
227.5106908204
 31
0.0
 11
152.7871040716
 21
227.453502276
 31
0.0
 11
152.7499291803
 21
227.4460841727
 31
0.0
  0
SPLINE
  5
92A
330
1B
100
AcDbEntity
  8
0
  6
Continuous
100
AcDbSpline
210
0.0
220
0.0
230
1.0
 70
     8
 71
     3
 72
    10
 73
     6
 74
     4
 42
0.0000000001
 43
0.0000000001
 44
0.0000000001
 40
0.0
 40
0.0
 40
0.0
 40
0.0
 40
0.2115421203687721
 40
0.5257385970803244
 40
0.7116159131131521
 40
0.7116159131131521
 40
0.7116159131131521
 40
0.7116159131131521
 10
153.4500262685
 20
232.6844533655
 30
0.0
 10
153.3806731279094
 20
232.6717104683451
 30
0.0
 10
153.2083120738853
 20
232.6400409698013
 30
0.0
 10
152.9747980732489
 20
232.5983504741973
 30
0.0
 10
152.8108569834292
 20
232.5681949776637
 30
0.0
 10
152.7499201173
 20
232.5569861864
 30
0.0
 11
153.4500262685
 21
232.6844533655
 31
0.0
 11
153.2419412618
 21
232.646365327
 31
0.0
 11
152.9327522943
 21
232.5904939716
 31
0.0
 11
152.7499201173
 21
232.5569861864
 31
0.0
  0
SPLINE
  5
92B
330
1B
100
AcDbEntity
  8
0
  6
Continuous
100
AcDbSpline
210
0.0
220
0.0
230
1.0
 70
     8
 71
     3
 72
    10
 73
     6
 74
     4
 42
0.0000000001
 43
0.0000000001
 44
0.0000000001
 40
0.0
 40
0.0
 40
0.0
 40
0.0
 40
0.2408394015968522
 40
0.5602977644670969
 40
0.6993792841878166
 40
0.6993792841878166
 40
0.6993792841878166
 40
0.6993792841878166
 10
152.7499368841
 20
226.8828988377
 30
0.0
 10
152.8289419166302
 20
226.8971487640017
 30
0.0
 10
153.0127421703049
 20
226.9303003239116
 30
0.0
 10
153.2423573792916
 20
226.9706156721695
 30
0.0
 10
153.3927535538669
 20
226.9978760401842
 30
0.0
 10
153.438370804
 20
227.0061444887
 30
0.0
 11
152.7499368841
 21
226.8828988377
 31
0.0
 11
152.986980196
 21
226.925490922
 31
0.0
 11
153.3015054043
 21
226.9814153259
 31
0.0
 11
153.438370804
 21
227.0061444887
 31
0.0
  0
SPLINE
  5
92C
330
1B
100
AcDbEntity
  8
0
  6
Continuous
100
AcDbSpline
210
0.0
220
0.0
230
1.0
 70
     8
 71
     3
 72
     9
 73
     5
 74
     3
 42
0.0000000001
 43
0.0000000001
 44
0.0000000001
 40
0.0
 40
0.0
 40
0.0
 40
0.0
 40
0.370242504461998
 40
0.706464893640371
 40
0.706464893640371
 40
0.706464893640371
 40
0.706464893640371
 10
153.449983916
 20
228.9796335857
 30
0.0
 10
153.3276942495039
 20
228.9630114803805
 30
0.0
 10
153.0943516289422
 20
228.9312946090731
 30
0.0
 10
152.8610116774811
 20
228.8995581073435
 30
0.0
 10
152.7499599937
 20
228.8844539988
 30
0.0
 11
153.449983916
 21
228.9796335857
 31
0.0
 11
153.0831156496
 21
228.9297618781
 31
0.0
 11
152.7499599937
 21
228.8844539988
 31
0.0
  0
SPLINE
  5
92D
330
1B
100
AcDbEntity
  8
0
  6
Continuous
100
AcDbSpline
210
0.0
220
0.0
230
1.0
 70
     8
 71
     3
 72
     9
 73
     5
 74
     3
 42
0.0000000001
 43
0.0000000001
 44
0.0000000001
 40
0.0
 40
0.0
 40
0.0
 40
0.0
 40
0.3182511219806942
 40
0.7064646816464233
 40
0.7064646816464233
 40
0.7064646816464233
 40
0.7064646816464233
 10
111.0235878396
 20
230.6796319246
 30
0.0
 10
110.9184726172094
 20
230.6653300707408
 30
0.0
 10
110.6851342658464
 20
230.6335823283584
 30
0.0
 10
110.4517903919127
 20
230.6018752011438
 30
0.0
 10
110.3235642282
 20
230.5844516313
 30
0.0
 11
111.0235878396
 21
230.6796319246
 31
0.0
 11
110.7082410517
 21
230.6367346053
 31
0.0
 11
110.3235642282
 21
230.5844516313
 31
0.0
  0
SPLINE
  5
92E
330
1B
100
AcDbEntity
  8
0
  6
Continuous
100
AcDbSpline
210
0.0
220
0.0
230
1.0
 70
     8
 71
     3
 72
    10
 73
     6
 74
     4
 42
0.0000000001
 43
0.0000000001
 44
0.0000000001
 40
0.0
 40
0.0
 40
0.0
 40
0.0
 40
0.2662790960852552
 40
0.6756281616914079
 40
0.7064821904373353
 40
0.7064821904373353
 40
0.7064821904373353
 40
0.7064821904373353
 10
111.0235966929
 20
232.379633176
 30
0.0
 10
110.9356516179583
 20
232.3676353510923
 30
0.0
 10
110.712509170105
 20
232.337193350553
 30
0.0
 10
110.479114373105
 20
232.3058164342046
 30
0.0
 10
110.3337452870605
 20
232.2858463298117
 30
0.0
 10
110.3235563038
 20
232.2844466164
 30
0.0
 11
111.0235966929
 21
232.379633176
 31
0.0
 11
110.7597522486
 21
232.3437073326
 31
0.0
 11
110.3541235348
 21
232.2886436962
 31
0.0
 11
110.3235563038
 21
232.2844466164
 31
0.0
  0
SPLINE
  5
92F
330
1B
100
AcDbEntity
  8
0
  6
Continuous
100
AcDbSpline
210
0.0
220
0.0
230
1.0
 70
     8
 71
     3
 72
    10
 73
     6
 74
     4
 42
0.0000000001
 43
0.0000000001
 44
0.0000000001
 40
0.0
 40
0.0
 40
0.0
 40
0.0
 40
0.1981137665556737
 40
0.5143998567060539
 40
0.7116221802039126
 40
0.7116221802039126
 40
0.7116221802039126
 40
0.7116221802039126
 10
111.0236248169
 20
230.9844531981
 30
0.0
 10
110.9586753102369
 20
230.9725126145676
 30
0.0
 10
110.7900347482939
 20
230.9415090424038
 30
0.0
 10
110.5565178118248
 20
230.8998230187255
 30
0.0
 10
110.3881697080806
 20
230.868872041799
 30
0.0
 10
110.3235125315
 20
230.8569847515
 30
0.0
 11
111.0236248169
 21
230.9844531981
 31
0.0
 11
110.8287528029
 21
230.9487605846
 31
0.0
 11
110.5175074154
 21
230.8925182555
 31
0.0
 11
110.3235125315
 21
230.8569847515
 31
0.0
  0
SPLINE
  5
930
330
1B
100
AcDbEntity
  8
0
  6
Continuous
100
AcDbSpline
210
0.0
220
0.0
230
1.0
 70
     8
 71
     3
 72
    10
 73
     6
 74
     4
 42
0.0000000001
 43
0.0000000001
 44
0.0000000001
 40
0.0
 40
0.0
 40
0.0
 40
0.0
 40
0.2116260078615085
 40
0.5259564753565648
 40
0.7116160060613181
 40
0.7116160060613181
 40
0.7116160060613181
 40
0.7116160060613181
 10
110.3235178926
 20
228.5796340153
 30
0.0
 10
110.3928985439289
 20
228.592381918627
 30
0.0
 10
110.5653310497423
 20
228.6240644248076
 30
0.0
 10
110.7988451114358
 20
228.6657547605062
 30
0.0
 10
110.9627586790814
 20
228.695905483997
 30
0.0
 10
111.0236241287
 20
228.7071012463
 30
0.0
 11
110.3235178926
 21
228.5796340153
 31
0.0
 11
110.5316854414
 21
228.6177370182
 31
0.0
 11
110.8410062381
 21
228.6736323447
 31
0.0
 11
111.0236241287
 21
228.7071012463
 31
0.0
  0
SPLINE
  5
931
330
1B
100
AcDbEntity
  8
0
  6
Continuous
100
AcDbSpline
210
0.0
220
0.0
230
1.0
 70
     8
 71
     3
 72
    10
 73
     6
 74
     4
 42
0.0000000001
 43
0.0000000001
 44
0.0000000001
 40
0.0
 40
0.0
 40
0.0
 40
0.0
 40
0.197222323461824
 40
0.5135084136572676
 40
0.7116221800785427
 40
0.7116221800785427
 40
0.7116221800785427
 40
0.7116221800785427
 10
110.3235125315
 20
230.2796344955
 30
0.0
 10
110.3881697080806
 20
230.2915217857326
 30
0.0
 10
110.5565178118584
 20
230.3224727624924
 30
0.0
 10
110.7900347483292
 20
230.3641587859239
 30
0.0
 10
110.9586753102704
 20
230.3951623579332
 30
0.0
 10
111.0236248169
 20
230.4071029414
 30
0.0
 11
110.3235125315
 21
230.2796344955
 31
0.0
 11
110.5175074154
 21
230.3151679993
 31
0.0
 11
110.828752803
 21
230.3714103281
 31
0.0
 11
111.0236248169
 21
230.4071029414
 31
0.0
  0
SPLINE
  5
932
330
1B
100
AcDbEntity
  8
0
  6
Continuous
100
AcDbSpline
210
0.0
220
0.0
230
1.0
 70
     8
 71
     3
 72
    10
 73
     6
 74
     4
 42
0.0000000001
 43
0.0000000001
 44
0.0000000001
 40
0.0
 40
0.0
 40
0.0
 40
0.0
 40
0.1858773159164345
 40
0.5000737926730495
 40
0.7116159130058022
 40
0.7116159130058022
 40
0.7116159130058022
 40
0.7116159130058022
 10
110.3235132461
 20
231.9796359207
 30
0.0
 10
110.3844501121946
 20
231.9908447119376
 30
0.0
 10
110.5483912020004
 20
232.0210002084158
 30
0.0
 10
110.7819052026552
 20
232.0626907037147
 30
0.0
 10
110.95426625671
 20
232.094360202108
 30
0.0
 10
111.0236193973
 20
232.1071030992
 30
0.0
 11
110.3235132461
 21
231.9796359207
 31
0.0
 11
110.506345423
 21
232.0131437058
 31
0.0
 11
110.8155343906
 21
232.0690150609
 31
0.0
 11
111.0236193973
 21
232.1071030992
 31
0.0
  0
SPLINE
  5
933
330
1B
100
AcDbEntity
  8
0
  6
Continuous
100
AcDbSpline
210
0.0
220
0.0
230
1.0
 70
     8
 71
     3
 72
    10
 73
     6
 74
     4
 42
0.0000000001
 43
0.0000000001
 44
0.0000000001
 40
0.0
 40
0.0
 40
0.0
 40
0.0
 40
0.2033964636772379
 40
0.4862829592755454
 40
0.7065407371639184
 40
0.7065407371639184
 40
0.7065407371639184
 40
0.7065407371639184
 10
111.0235786612
 20
227.2797983862
 30
0.0
 10
110.9564070807589
 20
227.27059733132
 30
0.0
 10
110.795812376576
 20
227.248599327448
 30
0.0
 10
110.5624248666588
 20
227.2170238315543
 30
0.0
 10
110.3962862993389
 20
227.1940839358649
 30
0.0
 10
110.3235570374
 20
227.184041706
 30
0.0
 11
111.0235786612
 21
227.2797983862
 31
0.0
 11
110.8220575641
 21
227.252241738
 31
0.0
 11
110.5417567366
 21
227.2140813463
 31
0.0
 11
110.3235570374
 21
227.184041706
 31
0.0
  0
SPLINE
  5
934
330
1B
100
AcDbEntity
  8
0
  6
Continuous
100
AcDbSpline
210
0.0
220
0.0
230
1.0
 70
     8
 71
     3
 72
    10
 73
     6
 74
     4
 42
0.0000000001
 43
0.0000000001
 44
0.0000000001
 40
0.0
 40
0.0
 40
0.0
 40
0.0
 40
0.1856595307850781
 40
0.499989998244583
 40
0.7116160059897213
 40
0.7116160059897213
 40
0.7116160059897213
 40
0.7116160059897213
 10
111.0236241287
 20
229.2844515001
 30
0.0
 10
110.9627586790482
 20
229.2732557378293
 30
0.0
 10
110.7988451113695
 20
229.2431050144361
 30
0.0
 10
110.5653310496689
 20
229.2014146789129
 30
0.0
 10
110.3928985438949
 20
229.1697321727975
 30
0.0
 10
110.3235178926
 20
229.1569842695
 30
0.0
 11
111.0236241287
 21
229.2844515001
 31
0.0
 11
110.841006238
 21
229.2509825986
 31
0.0
 11
110.5316854413
 21
229.1950872723
 31
0.0
 11
110.3235178926
 21
229.1569842695
 31
0.0
  0
SPLINE
  5
935
330
1B
100
AcDbEntity
  8
0
  6
Continuous
100
AcDbSpline
210
0.0
220
0.0
230
1.0
 70
     8
 71
     3
 72
    11
 73
     7
 74
     5
 42
0.0000000001
 43
0.0000000001
 44
0.0000000001
 40
0.0
 40
0.0
 40
0.0
 40
0.0
 40
0.0787332855447655
 40
0.3756472293001894
 40
0.6751254847254127
 40
0.7130332781158998
 40
0.7130332781158998
 40
0.7130332781158998
 40
0.7130332781158998
 10
111.0236091925
 20
227.5813343899
 30
0.0
 10
110.9978393427265
 20
227.5763659466084
 30
0.0
 10
110.8748878794422
 20
227.5526608269312
 30
0.0
 10
110.6537963097863
 20
227.5106825823752
 30
0.0
 10
110.4461957654219
 20
227.4705939639227
 30
0.0
 10
110.3359133465053
 20
227.4485598650701
 30
0.0
 10
110.3235223091
 20
227.4460841727
 30
0.0
 11
111.0236091925
 21
227.5813343899
 31
0.0
 11
110.9462967301
 21
227.5664443459
 31
0.0
 11
110.6546643684
 21
227.5106908204
 31
0.0
 11
110.3606972004
 21
227.453502276
 31
0.0
 11
110.3235223091
 21
227.4460841727
 31
0.0
  0
SPLINE
  5
936
330
1B
100
AcDbEntity
  8
0
  6
Continuous
100
AcDbSpline
210
0.0
220
0.0
230
1.0
 70
     8
 71
     3
 72
    10
 73
     6
 74
     4
 42
0.0000000001
 43
0.0000000001
 44
0.0000000001
 40
0.0
 40
0.0
 40
0.0
 40
0.0
 40
0.2115421203687581
 40
0.5257385970803105
 40
0.7116159131131381
 40
0.7116159131131381
 40
0.7116159131131381
 40
0.7116159131131381
 10
111.0236193973
 20
232.6844533655
 30
0.0
 10
110.9542662567094
 20
232.6717104683451
 30
0.0
 10
110.7819052026853
 20
232.6400409698014
 30
0.0
 10
110.5483912020489
 20
232.5983504741973
 30
0.0
 10
110.3844501122292
 20
232.5681949776637
 30
0.0
 10
110.3235132461
 20
232.5569861864
 30
0.0
 11
111.0236193973
 21
232.6844533655
 31
0.0
 11
110.8155343906
 21
232.646365327
 31
0.0
 11
110.5063454231
 21
232.5904939716
 31
0.0
 11
110.3235132461
 21
232.5569861864
 31
0.0
  0
SPLINE
  5
937
330
1B
100
AcDbEntity
  8
0
  6
Continuous
100
AcDbSpline
210
0.0
220
0.0
230
1.0
 70
     8
 71
     3
 72
    10
 73
     6
 74
     4
 42
0.0000000001
 43
0.0000000001
 44
0.0000000001
 40
0.0
 40
0.0
 40
0.0
 40
0.0
 40
0.2408394015968802
 40
0.5602977644671109
 40
0.6993792841878446
 40
0.6993792841878446
 40
0.6993792841878446
 40
0.6993792841878446
 10
110.3235300129
 20
226.8828988377
 30
0.0
 10
110.4025350454303
 20
226.8971487640017
 30
0.0
 10
110.586335299105
 20
226.9303003239117
 30
0.0
 10
110.8159505080916
 20
226.9706156721694
 30
0.0
 10
110.9663466826669
 20
226.9978760401842
 30
0.0
 10
111.0119639328
 20
227.0061444887
 30
0.0
 11
110.3235300129
 21
226.8828988377
 31
0.0
 11
110.5605733248
 21
226.925490922
 31
0.0
 11
110.8750985331
 21
226.9814153259
 31
0.0
 11
111.0119639328
 21
227.0061444887
 31
0.0
  0
SPLINE
  5
938
330
1B
100
AcDbEntity
  8
0
  6
Continuous
100
AcDbSpline
210
0.0
220
0.0
230
1.0
 70
     8
 71
     3
 72
     9
 73
     5
 74
     3
 42
0.0000000001
 43
0.0000000001
 44
0.0000000001
 40
0.0
 40
0.0
 40
0.0
 40
0.0
 40
0.3702425044619839
 40
0.706464893640371
 40
0.706464893640371
 40
0.706464893640371
 40
0.706464893640371
 10
111.0235770448
 20
228.9796335857
 30
0.0
 10
110.9012873783039
 20
228.9630114803805
 30
0.0
 10
110.6679447577421
 20
228.9312946090731
 30
0.0
 10
110.4346048062811
 20
228.8995581073434
 30
0.0
 10
110.3235531225
 20
228.8844539988
 30
0.0
 11
111.0235770448
 21
228.9796335857
 31
0.0
 11
110.6567087784
 21
228.9297618781
 31
0.0
 11
110.3235531225
 21
228.8844539988
 31
0.0
  0
SPLINE
  5
939
330
1B
100
AcDbEntity
  8
0
  6
Continuous
100
AcDbSpline
210
0.0
220
0.0
230
1.0
 70
     8
 71
     3
 72
    10
 73
     6
 74
     4
 42
0.0000000001
 43
0.0000000001
 44
0.0000000001
 40
0.0
 40
0.0
 40
0.0
 40
0.0
 40
0.6200841433628782
 40
1.220406676448565
 40
1.801071184559539
 40
1.801071184559539
 40
1.801071184559539
 40
1.801071184559539
 10
107.8235686869
 20
217.2936281403
 30
0.0
 10
107.8247061564552
 20
217.5003227026461
 30
0.0
 10
107.8269448452756
 20
217.9071246287601
 30
0.0
 10
107.8441300120852
 20
218.5073266075038
 30
0.0
 10
107.8663423332982
 20
218.9003751151602
 30
0.0
 10
107.8772636272
 20
219.0936281403
 30
0.0
 11
107.8235686869
 21
217.2936281403
 31
0.0
 11
107.8294093631
 21
217.9136847759
 31
0.0
 11
107.8471453647
 21
218.5137452545
 31
0.0
 11
107.8772636272
 21
219.0936281403
 31
0.0
  0
SPLINE
  5
93A
330
1B
100
AcDbEntity
  8
0
  6
Continuous
100
AcDbSpline
210
0.0
220
0.0
230
1.0
 70
     8
 71
     3
 72
    10
 73
     6
 74
     4
 42
0.0000000001
 43
0.0000000001
 44
0.0000000001
 40
0.0
 40
0.0
 40
0.0
 40
0.0
 40
0.5806645544472167
 40
1.180987180718796
 40
1.801071184561486
 40
1.801071184561486
 40
1.801071184561486
 40
1.801071184561486
 10
113.4698737466
 20
224.0936281403
 30
0.0
 10
113.480795041258
 20
223.9003750997316
 30
0.0
 10
113.5030073648607
 20
223.5073265456252
 30
0.0
 10
113.5201925296793
 20
222.9071245668032
 30
0.0
 10
113.5224312178749
 20
222.5003226561375
 30
0.0
 10
113.5235686869
 20
222.2936281403
 30
0.0
 11
113.4698737466
 21
224.0936281403
 31
0.0
 11
113.499992011
 21
223.5137452082
 31
0.0
 11
113.5177280135
 21
222.9136846364
 31
0.0
 11
113.5235686869
 21
222.2936281403
 31
0.0
  0
SPLINE
  5
93B
330
1B
100
AcDbEntity
  8
0
  6
Continuous
100
AcDbSpline
210
0.0
220
0.0
230
1.0
 70
     8
 71
     3
 72
     9
 73
     5
 74
     3
 42
0.0000000001
 43
0.0000000001
 44
0.0000000001
 40
0.0
 40
0.0
 40
0.0
 40
0.0
 40
0.2999851576533653
 40
0.5932580678892874
 40
0.5932580678892874
 40
0.5932580678892874
 40
0.5932580678892874
 10
107.8626544527
 20
212.2154566089
 30
0.0
 10
107.8512365497631
 20
212.3148843215027
 30
0.0
 10
107.828656222494
 20
212.5115150252839
 30
0.0
 10
107.8279153487639
 20
212.7094320556264
 30
0.0
 10
107.8275491031
 20
212.8072709332
 30
0.0
 11
107.8626544527
 21
212.2154566089
 31
0.0
 11
107.8339848543
 21
212.5140686464
 31
0.0
 11
107.8275491031
 21
212.8072709332
 31
0.0
  0
SPLINE
  5
93C
330
1B
100
AcDbEntity
  8
0
  6
Continuous
100
AcDbSpline
210
0.0
220
0.0
230
1.0
 70
     8
 71
     3
 72
    10
 73
     6
 74
     4
 42
0.0000000001
 43
0.0000000001
 44
0.0000000001
 40
0.0
 40
0.0
 40
0.0
 40
0.0
 40
0.5806645544472167
 40
1.180987180718796
 40
1.801071184561486
 40
1.801071184561486
 40
1.801071184561486
 40
1.801071184561486
 10
113.4698737466
 20
219.0936281403
 30
0.0
 10
113.480795041258
 20
218.9003750997316
 30
0.0
 10
113.5030073648607
 20
218.5073265456252
 30
0.0
 10
113.5201925296793
 20
217.9071245668031
 30
0.0
 10
113.5224312178749
 20
217.5003226561375
 30
0.0
 10
113.5235686869
 20
217.2936281403
 30
0.0
 11
113.4698737466
 21
219.0936281403
 31
0.0
 11
113.499992011
 21
218.5137452082
 31
0.0
 11
113.5177280135
 21
217.9136846364
 31
0.0
 11
113.5235686869
 21
217.2936281403
 31
0.0
  0
SPLINE
  5
93D
330
1B
100
AcDbEntity
  8
0
  6
Continuous
100
AcDbSpline
210
0.0
220
0.0
230
1.0
 70
     8
 71
     3
 72
     9
 73
     5
 74
     3
 42
0.0000000001
 43
0.0000000001
 44
0.0000000001
 40
0.0
 40
0.0
 40
0.0
 40
0.0
 40
0.2932729102359221
 40
0.5932580678892874
 40
0.5932580678892874
 40
0.5932580678892874
 40
0.5932580678892874
 10
113.5195882708
 20
212.8072709332
 30
0.0
 10
113.5192220251361
 20
212.7094320556263
 30
0.0
 10
113.5184811514059
 20
212.511515025284
 30
0.0
 10
113.4959008241369
 20
212.3148843215028
 30
0.0
 10
113.4844829212
 20
212.2154566089
 30
0.0
 11
113.5195882708
 21
212.8072709332
 31
0.0
 11
113.5131525196
 21
212.5140686464
 31
0.0
 11
113.4844829212
 21
212.2154566089
 31
0.0
  0
SPLINE
  5
93E
330
1B
100
AcDbEntity
  8
0
  6
Continuous
100
AcDbSpline
210
0.0
220
0.0
230
1.0
 70
     8
 71
     3
 72
    10
 73
     6
 74
     4
 42
0.0000000001
 43
0.0000000001
 44
0.0000000001
 40
0.0
 40
0.0
 40
0.0
 40
0.0
 40
0.4187895203129879
 40
0.8479170954313551
 40
1.287428002137969
 40
1.287428002137969
 40
1.287428002137969
 40
1.287428002137969
 10
113.4698737466
 20
214.0936281403
 30
0.0
 10
113.4780424963001
 20
213.9542683190297
 30
0.0
 10
113.4945816458803
 20
213.6721085009352
 30
0.0
 10
113.5108509392611
 20
213.2432373114464
 30
0.0
 10
113.5166527096626
 20
212.9537465420842
 30
0.0
 10
113.5195882708
 20
212.8072709332
 30
0.0
 11
113.4698737466
 21
214.0936281403
 31
0.0
 11
113.4929592886
 21
213.675475393
 31
0.0
 11
113.5094566565
 21
213.2466650473
 31
0.0
 11
113.5195882708
 21
212.8072709332
 31
0.0
  0
SPLINE
  5
93F
330
1B
100
AcDbEntity
  8
0
  6
Continuous
100
AcDbSpline
210
0.0
220
0.0
230
1.0
 70
     8
 71
     3
 72
    10
 73
     6
 74
     4
 42
0.0000000001
 43
0.0000000001
 44
0.0000000001
 40
0.0
 40
0.0
 40
0.0
 40
0.0
 40
0.6939641004077333
 40
1.404695209570543
 40
2.13226567204754
 40
2.13226567204754
 40
2.13226567204754
 40
2.13226567204754
 10
110.2195419498
 20
240.0936281403
 30
0.0
 10
110.2706960533947
 20
239.8680329777833
 30
0.0
 10
110.3742402053574
 20
239.4113920018259
 30
0.0
 10
110.5253738107498
 20
238.7168798552574
 30
0.0
 10
110.6237863300115
 20
238.2476543565219
 30
0.0
 10
110.6735686869
 20
238.010294807
 30
0.0
 11
110.2195419498
 21
240.0936281403
 31
0.0
 11
110.3720328068
 21
239.4166253994
 31
0.0
 11
110.5233174708
 21
238.722181982
 31
0.0
 11
110.6735686869
 21
238.010294807
 31
0.0
  0
SPLINE
  5
940
330
1B
100
AcDbEntity
  8
0
  6
Continuous
100
AcDbSpline
210
0.0
220
0.0
230
1.0
 70
     8
 71
     3
 72
    10
 73
     6
 74
     4
 42
0.0000000001
 43
0.0000000001
 44
0.0000000001
 40
0.0
 40
0.0
 40
0.0
 40
0.0
 40
0.4395110882851548
 40
0.8686386402937278
 40
1.287428002133982
 40
1.287428002133982
 40
1.287428002133982
 40
1.287428002133982
 10
107.8275491031
 20
212.8072709332
 30
0.0
 10
107.8304846656412
 20
212.953746602598
 30
0.0
 10
107.8362864374787
 20
213.2432374247713
 30
0.0
 10
107.8525557339404
 20
213.6721086141395
 30
0.0
 10
107.8690948803885
 20
213.9542683717791
 30
0.0
 10
107.8772636272
 20
214.0936281403
 30
0.0
 11
107.8275491031
 21
212.8072709332
 31
0.0
 11
107.8376807229
 21
213.2466652288
 31
0.0
 11
107.8541780927
 21
213.6754755513
 31
0.0
 11
107.8772636272
 21
214.0936281403
 31
0.0
  0
SPLINE
  5
941
330
1B
100
AcDbEntity
  8
0
  6
Continuous
100
AcDbSpline
210
0.0
220
0.0
230
1.0
 70
     8
 71
     3
 72
    10
 73
     6
 74
     4
 42
0.0000000001
 43
0.0000000001
 44
0.0000000001
 40
0.0
 40
0.0
 40
0.0
 40
0.0
 40
0.7275702876047406
 40
1.438301359145709
 40
2.132265672067888
 40
2.132265672067888
 40
2.132265672067888
 40
2.132265672067888
 10
110.6735686869
 20
238.010294807
 30
0.0
 10
110.723351031745
 20
238.2476542994883
 30
0.0
 10
110.8217635363125
 20
238.7168797289324
 30
0.0
 10
110.9728971405015
 20
239.4113918757684
 30
0.0
 10
111.0764413050109
 20
239.8680329086595
 30
0.0
 10
111.1275954241
 20
240.0936281403
 30
0.0
 11
110.6735686869
 21
238.010294807
 31
0.0
 11
110.8238198664
 21
238.722181811
 31
0.0
 11
110.9751045212
 21
239.4166251919
 31
0.0
 11
111.1275954241
 21
240.0936281403
 31
0.0
  0
SPLINE
  5
942
330
1B
100
AcDbEntity
  8
0
  6
Continuous
100
AcDbSpline
210
0.0
220
0.0
230
1.0
 70
     8
 71
     3
 72
    10
 73
     6
 74
     4
 42
0.0000000001
 43
0.0000000001
 44
0.0000000001
 40
0.0
 40
0.0
 40
0.0
 40
0.0
 40
0.677197820742689
 40
1.371745197219094
 40
2.083755924267962
 40
2.083755924267962
 40
2.083755924267962
 40
2.083755924267962
 10
113.4871713103
 20
240.0936281403
 30
0.0
 10
113.4945586216446
 20
239.868014032227
 30
0.0
 10
113.5095225044967
 20
239.4110056667326
 30
0.0
 10
113.5212608137189
 20
238.7164844804874
 30
0.0
 10
113.5227930545779
 20
238.2476317372889
 30
0.0
 10
113.5235686869
 20
238.010294807
 30
0.0
 11
113.4871713103
 21
240.0936281403
 31
0.0
 11
113.5075695916
 21
239.4167376037
 31
0.0
 11
113.5196040562
 21
238.722294496
 31
0.0
 11
113.5235686869
 21
238.010294807
 31
0.0
  0
SPLINE
  5
943
330
1B
100
AcDbEntity
  8
0
  6
Continuous
100
AcDbSpline
210
0.0
220
0.0
230
1.0
 70
     8
 71
     3
 72
    10
 73
     6
 74
     4
 42
0.0000000001
 43
0.0000000001
 44
0.0000000001
 40
0.0
 40
0.0
 40
0.0
 40
0.0
 40
0.7120106945477037
 40
1.406558030407665
 40
2.083755924268402
 40
2.083755924268402
 40
2.083755924268402
 40
2.083755924268402
 10
107.8235686869
 20
238.010294807
 30
0.0
 10
107.824344319176
 20
238.247631726455
 30
0.0
 10
107.825876559934
 20
238.7164844452807
 30
0.0
 10
107.8376148685634
 20
239.4110056315323
 30
0.0
 10
107.852578751561
 20
239.8680140078631
 30
0.0
 10
107.8599660636
 20
240.0936281403
 30
0.0
 11
107.8235686869
 21
238.010294807
 31
0.0
 11
107.8275333173
 21
238.7222944635
 31
0.0
 11
107.8395677806
 21
239.4167375306
 31
0.0
 11
107.8599660636
 21
240.0936281403
 31
0.0
  0
SPLINE
  5
944
330
1B
100
AcDbEntity
  8
0
  6
Continuous
100
AcDbSpline
210
0.0
220
0.0
230
1.0
 70
     8
 71
     3
 72
    10
 73
     6
 74
     4
 42
0.0000000001
 43
0.0000000001
 44
0.0000000001
 40
0.0
 40
0.0
 40
0.0
 40
0.0
 40
0.6200841433628782
 40
1.220406676448565
 40
1.801071184559539
 40
1.801071184559539
 40
1.801071184559539
 40
1.801071184559539
 10
107.8235686869
 20
222.2936281403
 30
0.0
 10
107.8247061564552
 20
222.5003227026461
 30
0.0
 10
107.8269448452756
 20
222.9071246287601
 30
0.0
 10
107.8441300120852
 20
223.5073266075037
 30
0.0
 10
107.8663423332982
 20
223.9003751151602
 30
0.0
 10
107.8772636272
 20
224.0936281403
 30
0.0
 11
107.8235686869
 21
222.2936281403
 31
0.0
 11
107.8294093631
 21
222.9136847759
 31
0.0
 11
107.8471453647
 21
223.5137452545
 31
0.0
 11
107.8772636272
 21
224.0936281403
 31
0.0
  0
SPLINE
  5
945
330
1B
100
AcDbEntity
  8
0
  6
Continuous
100
AcDbSpline
210
0.0
220
0.0
230
1.0
 70
     8
 71
     3
 72
    10
 73
     6
 74
     4
 42
0.0000000001
 43
0.0000000001
 44
0.0000000001
 40
0.0
 40
0.0
 40
0.0
 40
0.0
 40
0.6200841433628782
 40
1.220406676448566
 40
1.801071184559539
 40
1.801071184559539
 40
1.801071184559539
 40
1.801071184559539
 10
150.2499755581
 20
217.2936281403
 30
0.0
 10
150.2511130276552
 20
217.5003227026461
 30
0.0
 10
150.2533517164757
 20
217.9071246287602
 30
0.0
 10
150.2705368832852
 20
218.5073266075038
 30
0.0
 10
150.2927492044982
 20
218.9003751151603
 30
0.0
 10
150.3036704984
 20
219.0936281403
 30
0.0
 11
150.2499755581
 21
217.2936281403
 31
0.0
 11
150.2558162343
 21
217.9136847759
 31
0.0
 11
150.2735522359
 21
218.5137452545
 31
0.0
 11
150.3036704984
 21
219.0936281403
 31
0.0
  0
SPLINE
  5
946
330
1B
100
AcDbEntity
  8
0
  6
Continuous
100
AcDbSpline
210
0.0
220
0.0
230
1.0
 70
     8
 71
     3
 72
    10
 73
     6
 74
     4
 42
0.0000000001
 43
0.0000000001
 44
0.0000000001
 40
0.0
 40
0.0
 40
0.0
 40
0.0
 40
0.5806645544472174
 40
1.180987180718796
 40
1.801071184561487
 40
1.801071184561487
 40
1.801071184561487
 40
1.801071184561487
 10
155.8962806178
 20
224.0936281403
 30
0.0
 10
155.9072019124581
 20
223.9003750997316
 30
0.0
 10
155.9294142360607
 20
223.5073265456252
 30
0.0
 10
155.9465994008793
 20
222.9071245668031
 30
0.0
 10
155.9488380890749
 20
222.5003226561375
 30
0.0
 10
155.9499755581
 20
222.2936281403
 30
0.0
 11
155.8962806178
 21
224.0936281403
 31
0.0
 11
155.9263988822
 21
223.5137452082
 31
0.0
 11
155.9441348847
 21
222.9136846364
 31
0.0
 11
155.9499755581
 21
222.2936281403
 31
0.0
  0
SPLINE
  5
947
330
1B
100
AcDbEntity
  8
0
  6
Continuous
100
AcDbSpline
210
0.0
220
0.0
230
1.0
 70
     8
 71
     3
 72
     9
 73
     5
 74
     3
 42
0.0000000001
 43
0.0000000001
 44
0.0000000001
 40
0.0
 40
0.0
 40
0.0
 40
0.0
 40
0.2999851576533653
 40
0.5932580678892874
 40
0.5932580678892874
 40
0.5932580678892874
 40
0.5932580678892874
 10
150.2890613239
 20
212.2154566089
 30
0.0
 10
150.2776434209631
 20
212.3148843215027
 30
0.0
 10
150.2550630936941
 20
212.5115150252839
 30
0.0
 10
150.2543222199639
 20
212.7094320556264
 30
0.0
 10
150.2539559743
 20
212.8072709332
 30
0.0
 11
150.2890613239
 21
212.2154566089
 31
0.0
 11
150.2603917255
 21
212.5140686464
 31
0.0
 11
150.2539559743
 21
212.8072709332
 31
0.0
  0
SPLINE
  5
948
330
1B
100
AcDbEntity
  8
0
  6
Continuous
100
AcDbSpline
210
0.0
220
0.0
230
1.0
 70
     8
 71
     3
 72
    10
 73
     6
 74
     4
 42
0.0000000001
 43
0.0000000001
 44
0.0000000001
 40
0.0
 40
0.0
 40
0.0
 40
0.0
 40
0.5806645544472174
 40
1.180987180718796
 40
1.801071184561487
 40
1.801071184561487
 40
1.801071184561487
 40
1.801071184561487
 10
155.8962806178
 20
219.0936281403
 30
0.0
 10
155.9072019124581
 20
218.9003750997316
 30
0.0
 10
155.9294142360607
 20
218.5073265456252
 30
0.0
 10
155.9465994008793
 20
217.9071245668031
 30
0.0
 10
155.9488380890749
 20
217.5003226561375
 30
0.0
 10
155.9499755581
 20
217.2936281403
 30
0.0
 11
155.8962806178
 21
219.0936281403
 31
0.0
 11
155.9263988822
 21
218.5137452082
 31
0.0
 11
155.9441348847
 21
217.9136846364
 31
0.0
 11
155.9499755581
 21
217.2936281403
 31
0.0
  0
SPLINE
  5
949
330
1B
100
AcDbEntity
  8
0
  6
Continuous
100
AcDbSpline
210
0.0
220
0.0
230
1.0
 70
     8
 71
     3
 72
     9
 73
     5
 74
     3
 42
0.0000000001
 43
0.0000000001
 44
0.0000000001
 40
0.0
 40
0.0
 40
0.0
 40
0.0
 40
0.2932729102359214
 40
0.5932580678892867
 40
0.5932580678892867
 40
0.5932580678892867
 40
0.5932580678892867
 10
155.945995142
 20
212.8072709332
 30
0.0
 10
155.9456288963361
 20
212.7094320556264
 30
0.0
 10
155.944888022606
 20
212.5115150252839
 30
0.0
 10
155.9223076953369
 20
212.3148843215027
 30
0.0
 10
155.9108897924
 20
212.2154566089
 30
0.0
 11
155.945995142
 21
212.8072709332
 31
0.0
 11
155.9395593908
 21
212.5140686464
 31
0.0
 11
155.9108897924
 21
212.2154566089
 31
0.0
  0
SPLINE
  5
94A
330
1B
100
AcDbEntity
  8
0
  6
Continuous
100
AcDbSpline
210
0.0
220
0.0
230
1.0
 70
     8
 71
     3
 72
    10
 73
     6
 74
     4
 42
0.0000000001
 43
0.0000000001
 44
0.0000000001
 40
0.0
 40
0.0
 40
0.0
 40
0.0
 40
0.4187895203129887
 40
0.8479170954313557
 40
1.28742800213797
 40
1.28742800213797
 40
1.28742800213797
 40
1.28742800213797
 10
155.8962806178
 20
214.0936281403
 30
0.0
 10
155.9044493675002
 20
213.9542683190297
 30
0.0
 10
155.9209885170803
 20
213.6721085009352
 30
0.0
 10
155.9372578104611
 20
213.2432373114464
 30
0.0
 10
155.9430595808626
 20
212.9537465420842
 30
0.0
 10
155.945995142
 20
212.8072709332
 30
0.0
 11
155.8962806178
 21
214.0936281403
 31
0.0
 11
155.9193661598
 21
213.675475393
 31
0.0
 11
155.9358635277
 21
213.2466650473
 31
0.0
 11
155.945995142
 21
212.8072709332
 31
0.0
  0
SPLINE
  5
94B
330
1B
100
AcDbEntity
  8
0
  6
Continuous
100
AcDbSpline
210
0.0
220
0.0
230
1.0
 70
     8
 71
     3
 72
    10
 73
     6
 74
     4
 42
0.0000000001
 43
0.0000000001
 44
0.0000000001
 40
0.0
 40
0.0
 40
0.0
 40
0.0
 40
0.6939641004077364
 40
1.404695209570546
 40
2.132265672047543
 40
2.132265672047543
 40
2.132265672047543
 40
2.132265672047543
 10
152.645948821
 20
240.0936281403
 30
0.0
 10
152.6971029245947
 20
239.8680329777833
 30
0.0
 10
152.8006470765574
 20
239.411392001826
 30
0.0
 10
152.9517806819498
 20
238.7168798552573
 30
0.0
 10
153.0501932012115
 20
238.2476543565219
 30
0.0
 10
153.0999755581
 20
238.010294807
 30
0.0
 11
152.645948821
 21
240.0936281403
 31
0.0
 11
152.798439678
 21
239.4166253994
 31
0.0
 11
152.949724342
 21
238.722181982
 31
0.0
 11
153.0999755581
 21
238.010294807
 31
0.0
  0
SPLINE
  5
94C
330
1B
100
AcDbEntity
  8
0
  6
Continuous
100
AcDbSpline
210
0.0
220
0.0
230
1.0
 70
     8
 71
     3
 72
    10
 73
     6
 74
     4
 42
0.0000000001
 43
0.0000000001
 44
0.0000000001
 40
0.0
 40
0.0
 40
0.0
 40
0.0
 40
0.4395110882851548
 40
0.8686386402898838
 40
1.28742800213565
 40
1.28742800213565
 40
1.28742800213565
 40
1.28742800213565
 10
150.2539559743
 20
212.8072709332
 30
0.0
 10
150.2568915368551
 20
212.9537466025973
 30
0.0
 10
150.2626933087201
 20
213.2432374247682
 30
0.0
 10
150.2789626049809
 20
213.6721086141453
 30
0.0
 10
150.2955017515358
 20
213.95426837178
 30
0.0
 10
150.3036704984
 20
214.0936281403
 30
0.0
 11
150.2539559743
 21
212.8072709332
 31
0.0
 11
150.2640875941
 21
213.2466652288
 31
0.0
 11
150.2805849638
 21
213.6754755513
 31
0.0
 11
150.3036704984
 21
214.0936281403
 31
0.0
  0
SPLINE
  5
94D
330
1B
100
AcDbEntity
  8
0
  6
Continuous
100
AcDbSpline
210
0.0
220
0.0
230
1.0
 70
     8
 71
     3
 72
    10
 73
     6
 74
     4
 42
0.0000000001
 43
0.0000000001
 44
0.0000000001
 40
0.0
 40
0.0
 40
0.0
 40
0.0
 40
0.7275702876047406
 40
1.438301359145711
 40
2.132265672045917
 40
2.132265672045917
 40
2.132265672045917
 40
2.132265672045917
 10
153.0999755581
 20
238.010294807
 30
0.0
 10
153.1497579029427
 20
238.2476542994888
 30
0.0
 10
153.2481704075057
 20
238.7168797289339
 30
0.0
 10
153.399304011726
 20
239.4113918757554
 30
0.0
 10
153.5028481761526
 20
239.8680329086576
 30
0.0
 10
153.5540022952
 20
240.0936281403
 30
0.0
 11
153.0999755581
 21
238.010294807
 31
0.0
 11
153.2502267376
 21
238.722181811
 31
0.0
 11
153.4015113924
 21
239.4166251919
 31
0.0
 11
153.5540022952
 21
240.0936281403
 31
0.0
  0
SPLINE
  5
94E
330
1B
100
AcDbEntity
  8
0
  6
Continuous
100
AcDbSpline
210
0.0
220
0.0
230
1.0
 70
     8
 71
     3
 72
    10
 73
     6
 74
     4
 42
0.0000000001
 43
0.0000000001
 44
0.0000000001
 40
0.0
 40
0.0
 40
0.0
 40
0.0
 40
0.6771978207426916
 40
1.371745197219097
 40
2.083755924267964
 40
2.083755924267964
 40
2.083755924267964
 40
2.083755924267964
 10
155.9135781814999
 20
240.0936281403
 30
0.0
 10
155.9209654928446
 20
239.868014032227
 30
0.0
 10
155.9359293756968
 20
239.4110056667325
 30
0.0
 10
155.9476676849189
 20
238.7164844804874
 30
0.0
 10
155.9491999257779
 20
238.2476317372889
 30
0.0
 10
155.9499755581
 20
238.010294807
 30
0.0
 11
155.9135781814999
 21
240.0936281403
 31
0.0
 11
155.9339764628
 21
239.4167376037
 31
0.0
 11
155.9460109274
 21
238.722294496
 31
0.0
 11
155.9499755581
 21
238.010294807
 31
0.0
  0
SPLINE
  5
94F
330
1B
100
AcDbEntity
  8
0
  6
Continuous
100
AcDbSpline
210
0.0
220
0.0
230
1.0
 70
     8
 71
     3
 72
    10
 73
     6
 74
     4
 42
0.0000000001
 43
0.0000000001
 44
0.0000000001
 40
0.0
 40
0.0
 40
0.0
 40
0.0
 40
0.7120106945477037
 40
1.406558030407665
 40
2.083755924268402
 40
2.083755924268402
 40
2.083755924268402
 40
2.083755924268402
 10
150.2499755581
 20
238.010294807
 30
0.0
 10
150.250751190376
 20
238.247631726455
 30
0.0
 10
150.252283431134
 20
238.7164844452807
 30
0.0
 10
150.2640217397634
 20
239.4110056315323
 30
0.0
 10
150.278985622761
 20
239.8680140078631
 30
0.0
 10
150.2863729348
 20
240.0936281403
 30
0.0
 11
150.2499755581
 21
238.010294807
 31
0.0
 11
150.2539401885
 21
238.7222944635
 31
0.0
 11
150.2659746518
 21
239.4167375306
 31
0.0
 11
150.2863729348
 21
240.0936281403
 31
0.0
  0
SPLINE
  5
950
330
1B
100
AcDbEntity
  8
0
  6
Continuous
100
AcDbSpline
210
0.0
220
0.0
230
1.0
 70
     8
 71
     3
 72
    10
 73
     6
 74
     4
 42
0.0000000001
 43
0.0000000001
 44
0.0000000001
 40
0.0
 40
0.0
 40
0.0
 40
0.0
 40
0.6200841433628782
 40
1.220406676448566
 40
1.801071184559539
 40
1.801071184559539
 40
1.801071184559539
 40
1.801071184559539
 10
150.2499755581
 20
222.2936281403
 30
0.0
 10
150.2511130276552
 20
222.5003227026461
 30
0.0
 10
150.2533517164757
 20
222.9071246287602
 30
0.0
 10
150.2705368832852
 20
223.5073266075038
 30
0.0
 10
150.2927492044982
 20
223.9003751151602
 30
0.0
 10
150.3036704984
 20
224.0936281403
 30
0.0
 11
150.2499755581
 21
222.2936281403
 31
0.0
 11
150.2558162343
 21
222.9136847759
 31
0.0
 11
150.2735522359
 21
223.5137452545
 31
0.0
 11
150.3036704984
 21
224.0936281403
 31
0.0
  0
SPLINE
  5
951
330
1B
100
AcDbEntity
  8
0
  6
Continuous
100
AcDbSpline
210
0.9848076761684081
220
-1.761999540000000E-8
230
0.1736486134692112
 70
     8
 71
     3
 72
     9
 73
     5
 74
     3
 42
0.0000000001
 43
0.0000000001
 44
0.0000000001
 40
0.0
 40
0.0
 40
0.0
 40
0.0
 40
0.255295037350482
 40
0.5106734282605296
 40
0.5106734282605296
 40
0.5106734282605296
 40
0.5106734282605296
 10
145.7462352396
 20
298.686956798
 30
-169.9645695912
 10
145.7610077014206
 20
298.684768957766
 30
-170.048348168781
 10
145.7905574482549
 20
298.6803925629707
 30
-170.21593267756
 10
145.820096459738
 20
298.6740530269758
 30
-170.3834563034935
 10
145.8348683762
 20
298.6708827416
 30
-170.4672317883
 11
145.7462352396
 21
298.686956798
 31
-169.9645695912
 11
145.7905499421
 21
298.6799026522
 31
-170.2158901082
 11
145.8348683762
 21
298.6708827416
 31
-170.4672317883
  0
SPLINE
  5
952
330
1B
100
AcDbEntity
  8
0
  6
Continuous
100
AcDbSpline
210
-0.1736481966686443
220
6.003884000000000E-10
230
0.984807749661693
 70
     8
 71
     3
 72
     9
 73
     5
 74
     3
 42
0.0000000001
 43
0.0000000001
 44
0.0000000001
 40
0.0
 40
0.0
 40
0.0
 40
0.0
 40
1.529365760691198
 40
3.058147489245911
 40
3.058147489245911
 40
3.058147489245911
 40
3.058147489245911
 10
145.8348683762
 20
298.6708827416
 30
-170.4672317883
 10
146.295763645134
 20
298.4683928383367
 30
-170.3859635078132
 10
147.2173781769374
 20
298.0634903583815
 30
-170.2234579814611
 10
148.111719231276
 20
297.5997953716215
 30
-170.0657615055506
 10
148.5588043597
 20
297.3679921555
 30
-169.9869283257
 11
145.8348683762
 21
298.6708827416
 31
-170.4672317883
 11
147.2107332091
 21
298.0487092906
 31
-170.2246296687
 11
148.5588043597
 21
297.3679921555
 31
-169.9869283257
  0
SPLINE
  5
953
330
1B
100
AcDbEntity
  8
0
  6
Continuous
100
AcDbSpline
210
-0.9848077505586083
220
1.574938100000000E-9
230
-0.1736481915819858
 70
     8
 71
     3
 72
     9
 73
     5
 74
     3
 42
0.0000000001
 43
0.0000000001
 44
0.0000000001
 40
0.0
 40
0.0
 40
0.0
 40
0.0
 40
1.239725370873664
 40
2.479639242462459
 40
2.479639242462459
 40
2.479639242462459
 40
2.479639242462459
 10
148.5588043597
 20
297.3679921555
 30
-169.9869283257
 10
148.4870633261934
 20
297.3808244331448
 30
-169.5800647401541
 10
148.3435703509286
 20
297.4064909395871
 30
-168.7662757052991
 10
148.2000614957291
 20
297.3839590853484
 30
-167.9523966113029
 10
148.1283016134
 20
297.3726923018
 30
-167.545426129
 11
148.5588043597
 21
297.3679921555
 31
-169.9869283257
 11
148.3435772898
 21
297.3944412302
 31
-168.7663150577
 11
148.1283016134
 21
297.3726923018
 31
-167.545426129
  0
SPLINE
  5
954
330
1B
100
AcDbEntity
  8
0
  6
Continuous
100
AcDbSpline
210
-0.173646168215111
220
2.916317840000000E-8
230
0.984808107330666
 70
     8
 71
     3
 72
     9
 73
     5
 74
     3
 42
0.0000000001
 43
0.0000000001
 44
0.0000000001
 40
0.0
 40
0.0
 40
0.0
 40
0.0
 40
0.2990101911191508
 40
0.5979384794158807
 40
0.5979384794158807
 40
0.5979384794158807
 40
0.5979384794158807
 10
148.1283016134
 20
297.3726923018
 30
-167.545426129
 10
148.0412633610844
 20
297.4187699305679
 30
-167.5607731394825
 10
147.8672106973748
 20
297.5109125668354
 30
-167.5914629566997
 10
147.6920405923971
 20
297.6008453005339
 30
-167.6223498065455
 10
147.6044675369
 20
297.6458055081
 30
-167.6377911161
 11
148.1283016134
 21
297.3726923018
 31
-167.545426129
 11
147.8669074196
 21
297.5103725611
 31
-167.5915164321
 11
147.6044675369
 21
297.6458055081
 31
-167.6377911161
  0
SPLINE
  5
955
330
1B
100
AcDbEntity
  8
0
  6
Continuous
100
AcDbSpline
210
-0.984807762435388
220
1.365709200000000E-9
230
-0.173648124225413
 70
     8
 71
     3
 72
     9
 73
     5
 74
     3
 42
0.0000000001
 43
0.0000000001
 44
0.0000000001
 40
0.0
 40
0.0
 40
0.0
 40
0.0
 40
1.057561783227548
 40
2.11488444235969
 40
2.11488444235969
 40
2.11488444235969
 40
2.11488444235969
 10
147.6044675369
 20
297.6458055081
 30
-167.6377911161
 10
147.6656676473154
 20
297.6558333499348
 30
-167.984874299717
 10
147.7880540302586
 20
297.6758867662205
 30
-168.678962188366
 10
147.9104632878442
 20
297.6611765297917
 30
-169.3731798058731
 10
147.9716609964
 20
297.6538222432
 30
-169.720249368
 11
147.6044675369
 21
297.6458055081
 31
-167.6377911161
 11
147.7880735881
 21
297.667196155
 31
-168.6790731065
 11
147.9716609964
 21
297.6538222432
 31
-169.720249368
  0
SPLINE
  5
956
330
1B
100
AcDbEntity
  8
0
  6
Continuous
100
AcDbSpline
210
-0.1736482366399303
220
-3.149574300000000E-9
230
0.9848077426136752
 70
     8
 71
     3
 72
     9
 73
     5
 74
     3
 42
0.0000000001
 43
0.0000000001
 44
0.0000000001
 40
0.0
 40
0.0
 40
0.0
 40
0.0
 40
0.9404141320777766
 40
1.88130725606562
 40
1.88130725606562
 40
1.88130725606562
 40
1.88130725606562
 10
147.9716609964
 20
297.6538222432
 30
-169.720249368
 10
147.6949309062362
 20
297.7928358497866
 30
-169.7690443659118
 10
147.1413297757994
 20
298.0709338683536
 30
-169.866659215051
 10
146.5774194444306
 20
298.3267848364633
 30
-169.9660918551717
 10
146.2953924913
 20
298.4547428911
 30
-170.0158208333
 11
147.9716609964
 21
297.6538222432
 31
-169.720249368
 11
147.1388947379
 21
298.0653041321
 31
-169.8670885781
 11
146.2953924913
 21
298.4547428911
 31
-170.0158208333
  0
SPLINE
  5
957
330
1B
100
AcDbEntity
  8
0
  6
Continuous
100
AcDbSpline
210
-0.855380209430557
220
-4.530725000000000E-10
230
0.5180006730830922
 70
     8
 71
     3
 72
     9
 73
     5
 74
     3
 42
0.0000000001
 43
0.0000000001
 44
0.0000000001
 40
0.0
 40
0.0
 40
0.0
 40
0.0
 40
0.2501386379281632
 40
0.5026193266101204
 40
0.5026193266101204
 40
0.5026193266101204
 40
0.5026193266101204
 10
146.2953924913
 20
298.4547428911
 30
-170.0158208333
 10
146.3370929033643
 20
298.4330266785792
 30
-169.9469604841758
 10
146.4208841688991
 20
298.3893909244066
 30
-169.8085950457389
 10
146.5044205587117
 20
298.3439703869587
 30
-169.670650486387
 10
146.5463833805
 20
298.3211542954
 30
-169.6013568172
 11
146.2953924913
 21
298.4547428911
 31
-170.0158208333
 11
146.420430601
 21
298.3891522063
 31
-169.8093440274
 11
146.5463833805
 21
298.3211542954
 31
-169.6013568172
  0
SPLINE
  5
958
330
1B
100
AcDbEntity
  8
0
  6
Continuous
100
AcDbSpline
210
0.9940241464338475
220
-5.956921280000000E-8
230
-0.1091604154740053
 70
     8
 71
     3
 72
     9
 73
     5
 74
     3
 42
0.0000000001
 43
0.0000000001
 44
0.0000000001
 40
0.0
 40
0.0
 40
0.0
 40
0.0
 40
0.1910512974922446
 40
0.3823069012337151
 40
0.3823069012337151
 40
0.3823069012337151
 40
0.3823069012337151
 10
146.5463833805
 20
298.3211542954
 30
-169.6013568172
 10
146.5532927585535
 20
298.3141310255165
 30
-169.5384394216356
 10
146.5671189034043
 20
298.300076975212
 30
-169.412537347964
 10
146.5809312032198
 20
298.2849234563033
 30
-169.2867613477775
 10
146.5878410438
 20
298.2773426478
 30
-169.2238397401
 11
146.5463833805
 21
298.3211542954
 31
-169.6013568172
 11
146.5671080571
 21
298.2998099123
 31
-169.4126361152
 11
146.5878410438
 21
298.2773426478
 31
-169.2238397401
  0
SPLINE
  5
959
330
1B
100
AcDbEntity
  8
0
  6
Continuous
100
AcDbSpline
210
-0.9848078800074215
220
2.092262130000000E-8
230
-0.1736474574397431
 70
     8
 71
     3
 72
     9
 73
     5
 74
     3
 42
0.0000000001
 43
0.0000000001
 44
0.0000000001
 40
0.0
 40
0.0
 40
0.0
 40
0.0
 40
0.2187540028550374
 40
0.4375031127492089
 40
0.4375031127492089
 40
0.4375031127492089
 40
0.4375031127492089
 10
146.5878410438
 20
298.2773426478
 30
-169.2238397401
 10
146.5751790655703
 20
298.2776798147687
 30
-169.1520297860239
 10
146.5498553923265
 20
298.2783541411646
 30
-169.0084114840745
 10
146.5245318158373
 20
298.2775684741927
 30
-168.864793731026
 10
146.5118701692
 20
298.2771756451
 30
-168.7929856576
 11
146.5878410438
 21
298.2773426478
 31
-169.2238397401
 11
146.5498551333
 21
298.2779891422
 31
-169.0084100151
 11
146.5118701692
 21
298.2771756451
 31
-168.7929856576
  0
SPLINE
  5
95A
330
1B
100
AcDbEntity
  8
0
  6
Continuous
100
AcDbSpline
210
0.8967418361686687
220
9.285338749999999E-8
230
0.442554041067118
 70
     8
 71
     3
 72
     9
 73
     5
 74
     3
 42
0.0000000001
 43
0.0000000001
 44
0.0000000001
 40
0.0
 40
0.0
 40
0.0
 40
0.0
 40
0.1912501018174739
 40
0.3822754999068299
 40
0.3822754999068299
 40
0.3822754999068299
 40
0.3822754999068299
 10
146.5118701692
 20
298.2771756451
 30
-168.7929856576
 10
146.4838549461652
 20
298.2847106007937
 30
-168.7362187556763
 10
146.4278574157647
 20
298.2997716592046
 30
-168.6227516484441
 10
146.3718041105703
 20
298.3137332370334
 30
-168.5091715251991
 10
146.3437939322
 20
298.3207099226
 30
-168.4524148451
 11
146.5118701692
 21
298.2771756451
 31
-168.7929856576
 11
146.42781054
 21
298.2995053188
 31
-168.6226566646
 11
146.3437939322
 21
298.3207099226
 31
-168.4524148451
  0
SPLINE
  5
95B
330
1B
100
AcDbEntity
  8
0
  6
Continuous
100
AcDbSpline
210
0.6266281561822634
220
1.471931960000000E-8
230
0.7793183905693594
 70
     8
 71
     3
 72
     9
 73
     5
 74
     3
 42
0.0000000001
 43
0.0000000001
 44
0.0000000001
 40
0.0
 40
0.0
 40
0.0
 40
0.0
 40
0.2526257793141493
 40
0.502546695196016
 40
0.502546695196016
 40
0.502546695196016
 40
0.502546695196016
 10
146.3437939322
 20
298.3207099226
 30
-168.4524148451
 10
146.2806162957618
 20
298.3434962818508
 30
-168.4016154722418
 10
146.1549374656418
 20
298.3888250268747
 30
-168.3005606352521
 10
146.0288759671482
 20
298.4323689531
 30
-168.1991981052752
 10
145.9661844691
 20
298.4540237327
 30
-168.1487896227
 11
146.3437939322
 21
298.3207099226
 31
-168.4524148451
 11
146.1541643232
 21
298.3886179795
 31
-168.299938973
 11
145.9661844691
 21
298.4540237327
 31
-168.1487896227
  0
SPLINE
  5
95C
330
1B
100
AcDbEntity
  8
0
  6
Continuous
100
AcDbSpline
210
0.2958080682609539
220
3.430296560000000E-8
230
0.955247395574425
 70
     8
 71
     3
 72
     9
 73
     5
 74
     3
 42
0.0000000001
 43
0.0000000001
 44
0.0000000001
 40
0.0
 40
0.0
 40
0.0
 40
0.0
 40
0.2569029571096431
 40
0.5099808714785417
 40
0.5099808714785417
 40
0.5099808714785417
 40
0.5099808714785417
 10
145.9661844691
 20
298.4540237327
 30
-168.1487896227
 10
145.8895910342725
 20
298.4840943215108
 30
-168.1250712068517
 10
145.7375445686253
 20
298.5437877764251
 30
-168.0779875199976
 10
145.5848877994394
 20
298.6017490230459
 30
-168.0307148425522
 10
145.5091319056
 20
298.6305122811
 30
-168.007255785
 11
145.9661844691
 21
298.4540237327
 31
-168.1487896227
 11
145.7362492914
 21
298.5437959266
 31
-168.0775864161
 11
145.5091319056
 21
298.6305122811
 31
-168.007255785
  0
SPLINE
  5
95D
330
1B
100
AcDbEntity
  8
0
  6
Continuous
100
AcDbSpline
210
0.0929238211699259
220
-1.613966270000000E-8
230
0.995673221222294
 70
     8
 71
     3
 72
     9
 73
     5
 74
     3
 42
0.0000000001
 43
0.0000000001
 44
0.0000000001
 40
0.0
 40
0.0
 40
0.0
 40
0.0
 40
0.2982751058263664
 40
0.5919573413796407
 40
0.5919573413796407
 40
0.5919573413796407
 40
0.5919573413796407
 10
145.5091319056
 20
298.6305122811
 30
-168.007255785
 10
145.4171186153749
 20
298.6671914791921
 30
-167.9986684021762
 10
145.2345088648818
 20
298.7399850853711
 30
-167.9816258659184
 10
145.0510112598839
 20
298.8104904911064
 30
-167.9645004683417
 10
144.9599743167
 20
298.8454696758
 30
-167.9560042057
 11
145.5091319056
 21
298.6305122811
 31
-168.007255785
 11
145.2328666136
 21
298.739968914
 31
-167.9814725985
 11
144.9599743167
 21
298.8454696758
 31
-167.9560042057
  0
SPLINE
  5
95E
330
1B
100
AcDbEntity
  8
0
  6
Continuous
100
AcDbSpline
210
-0.1736480993962967
220
6.269525000000000E-10
230
0.9848077668134294
 70
     8
 71
     3
 72
     9
 73
     5
 74
     3
 42
0.0000000001
 43
0.0000000001
 44
0.0000000001
 40
0.0
 40
0.0
 40
0.0
 40
0.0
 40
0.2289810286508527
 40
0.4579591609830734
 40
0.4579591609830734
 40
0.4579591609830734
 40
0.4579591609830734
 10
144.9599743167
 20
298.8454696758
 30
-167.9560042057
 10
144.8902619125385
 20
298.8740173438918
 30
-167.968296377749
 10
144.7508379859885
 20
298.9311123189837
 30
-167.9928805663668
 10
144.6108836024869
 20
298.9868530613036
 30
-168.017558288813
 10
144.5409068533
 20
299.0147232562
 30
-168.029897072
 11
144.9599743167
 21
298.8454696758
 31
-167.9560042057
 11
144.7507044883
 21
298.9307741176
 31
-167.9929041056
 11
144.5409068533
 21
299.0147232562
 31
-168.029897072
  0
SPLINE
  5
95F
330
1B
100
AcDbEntity
  8
0
  6
Continuous
100
AcDbSpline
210
-0.4278602483203684
220
-5.932485390000000E-8
230
0.9038449025730185
 70
     8
 71
     3
 72
     9
 73
     5
 74
     3
 42
0.0000000001
 43
0.0000000001
 44
0.0000000001
 40
0.0
 40
0.0
 40
0.0
 40
0.0
 40
0.2961517479245038
 40
0.5895492303636918
 40
0.5895492303636918
 40
0.5895492303636918
 40
0.5895492303636918
 10
144.5409068533
 20
299.0147232562
 30
-168.029897072
 10
144.4576273001433
 20
299.0501586620863
 30
-168.069319773937
 10
144.291842708924
 20
299.1206999180955
 30
-168.1477985394642
 10
144.1252861716133
 20
299.1889789113947
 30
-168.2266427273991
 10
144.0423969637
 20
299.2229589146
 30
-168.2658806486
 11
144.5409068533
 21
299.0147232562
 31
-168.029897072
 11
144.2908733999
 21
299.1204586114
 31
-168.148257389
 11
144.0423969637
 21
299.2229589146
 31
-168.2658806486
  0
SPLINE
  5
960
330
1B
100
AcDbEntity
  8
0
  6
Continuous
100
AcDbSpline
210
-0.6046825466738245
220
-7.340555280000001E-8
230
0.7964665829449801
 70
     8
 71
     3
 72
     9
 73
     5
 74
     3
 42
0.0000000001
 43
0.0000000001
 44
0.0000000001
 40
0.0
 40
0.0
 40
0.0
 40
0.0
 40
0.2545501824871219
 40
0.505230698830452
 40
0.505230698830452
 40
0.505230698830452
 40
0.505230698830452
 10
144.0423969637
 20
299.2229589146
 30
-168.2658806486
 10
143.9785117256037
 20
299.2506332904856
 30
-168.3143827292431
 10
143.8517124313623
 20
299.3055613370175
 30
-168.4106495629912
 10
143.7244558740463
 20
299.3587962109662
 30
-168.5072635539594
 10
143.6613149375
 20
299.3852097795
 30
-168.5552005562
 11
144.0423969637
 21
299.2229589146
 31
-168.2658806486
 11
143.8506251758
 21
299.3055522401
 31
-168.4114750144
 11
143.6613149375
 21
299.3852097795
 31
-168.5552005562
  0
SPLINE
  5
961
330
1B
100
AcDbEntity
  8
0
  6
Continuous
100
AcDbSpline
210
-0.8553802084231833
220
6.866652200000000E-9
230
0.5180006747465792
 70
     8
 71
     3
 72
     9
 73
     5
 74
     3
 42
0.0000000001
 43
0.0000000001
 44
0.0000000001
 40
0.0
 40
0.0
 40
0.0
 40
0.0
 40
0.2520320634491811
 40
0.4993883759431154
 40
0.4993883759431154
 40
0.4993883759431154
 40
0.4993883759431154
 10
143.6613149375
 20
299.3852097795
 30
-168.5552005562
 10
143.6191476506167
 20
299.4059777986016
 30
-168.624831860837
 10
143.5355953730756
 20
299.4471285442203
 30
-168.7628026557493
 10
143.451819693917
 20
299.4865501138024
 30
-168.9011423561856
 10
143.4103240483
 20
299.5060763474
 30
-168.9696645722
 11
143.6613149375
 21
299.3852097795
 31
-168.5552005562
 11
143.5347561757
 21
299.4470734098
 31
-168.7641884316
 11
143.4103240483
 21
299.5060763474
 31
-168.9696645722
  0
SPLINE
  5
962
330
1B
100
AcDbEntity
  8
0
  6
Continuous
100
AcDbSpline
210
-0.9940242532639796
220
7.097049729999999E-8
230
0.1091594426652261
 70
     8
 71
     3
 72
     9
 73
     5
 74
     3
 42
0.0000000001
 43
0.0000000001
 44
0.0000000001
 40
0.0
 40
0.0
 40
0.0
 40
0.0
 40
0.1909093271323597
 40
0.3820143975619572
 40
0.3820143975619572
 40
0.3820143975619572
 40
0.3820143975619572
 10
143.4103240483
 20
299.5060763474
 30
-168.9696645722
 10
143.4034211693344
 20
299.5132009508066
 30
-169.0325233542461
 10
143.3896083337382
 20
299.5274574626235
 30
-169.1583053687528
 10
143.375782954077
 20
299.5406541669543
 30
-169.2842016109361
 10
143.3688667222
 20
299.5472559001001
 30
-169.3471819865
 11
143.4103240483
 21
299.5060763474
 31
-168.9696645722
 11
143.3896122786
 21
299.5271854772
 31
-169.158269446
 11
143.3688667222
 21
299.5472559001001
 31
-169.3471819865
  0
SPLINE
  5
963
330
1B
100
AcDbEntity
  8
0
  6
Continuous
100
AcDbSpline
210
-0.9848078800069414
220
1.402475050000000E-8
230
-0.1736474574424677
 70
     8
 71
     3
 72
     9
 73
     5
 74
     3
 42
0.0000000001
 43
0.0000000001
 44
0.0000000001
 40
0.0
 40
0.0
 40
0.0
 40
0.0
 40
0.2187587250958238
 40
0.4375029320390197
 40
0.4375029320390197
 40
0.4375029320390197
 40
0.4375029320390197
 10
143.3688667222
 20
299.5472559001001
 30
-169.3471819865
 10
143.3815289323972
 20
299.5476340812376
 30
-169.4189932560625
 10
143.4068525124508
 20
299.5483904184144
 30
-169.5626110293571
 10
143.4321761821316
 20
299.5477412272239
 30
-169.7062293110681
 10
143.4448375968
 20
299.5474166424
 30
-169.778036069
 11
143.3688667222
 21
299.5472559001001
 31
-169.3471819865
 11
143.4068533752
 21
299.5480390381
 31
-169.5626159223
 11
143.4448375968
 21
299.5474166424
 31
-169.778036069
  0
SPLINE
  5
964
330
1B
100
AcDbEntity
  8
0
  6
Continuous
100
AcDbSpline
210
0.8967418350400869
220
7.405159720000000E-8
230
0.4425540433539529
 70
     8
 71
     3
 72
     9
 73
     5
 74
     3
 42
0.0000000001
 43
0.0000000001
 44
0.0000000001
 40
0.0
 40
0.0
 40
0.0
 40
0.0
 40
0.1912829440104698
 40
0.3819855857888951
 40
0.3819855857888951
 40
0.3819855857888951
 40
0.3819855857888951
 10
143.4448375968
 20
299.5474166424
 30
-169.778036069
 10
143.4729055033039
 20
299.5408529163076
 30
-169.8349097229096
 10
143.5289561656525
 20
299.5277453767448
 30
-169.9484844909947
 10
143.5849563023849
 20
299.5135780391688
 30
-170.0619568794655
 10
143.6129138338
 20
299.5065051317
 30
-170.1186068816
 11
143.4448375968
 21
299.5474166424
 31
-169.778036069
 11
143.5290286465
 21
299.527459709
 31
-169.948631358
 11
143.6129138338
 21
299.5065051317
 31
-170.1186068816
  0
SPLINE
  5
965
330
1B
100
AcDbEntity
  8
0
  6
Continuous
100
AcDbSpline
210
0.6266281498452698
220
-1.575330820000000E-8
230
0.7793183956647591
 70
     8
 71
     3
 72
     9
 73
     5
 74
     3
 42
0.0000000001
 43
0.0000000001
 44
0.0000000001
 40
0.0
 40
0.0
 40
0.0
 40
0.0
 40
0.2477808261654234
 40
0.4993233130143016
 40
0.4993233130143016
 40
0.4993233130143016
 40
0.4993233130143016
 10
143.6129138338
 20
299.5065051317
 30
-170.1186068816
 10
143.6754580387093
 20
299.4869873117964
 30
-170.1688969298413
 10
143.8014959573346
 20
299.4476553640913
 30
-170.2702404998345
 10
143.9271985229053
 20
299.406594269449
 30
-170.3713144218405
 10
143.9905232969
 20
299.3859090549
 30
-170.4222321039
 11
143.6129138338
 21
299.5065051317
 31
-170.1186068816
 11
143.8004638687
 21
299.447525874
 31
-170.2694106262
 11
143.9905232969
 21
299.3859090549
 31
-170.4222321039
  0
SPLINE
  5
966
330
1B
100
AcDbEntity
  8
0
  6
Continuous
100
AcDbSpline
210
0.2958075986997617
220
-4.240053280000000E-8
230
0.9552475409816448
 70
     8
 71
     3
 72
     9
 73
     5
 74
     3
 42
0.0000000001
 43
0.0000000001
 44
0.0000000001
 40
0.0
 40
0.0
 40
0.0
 40
0.0
 40
0.2505054017062213
 40
0.5051764118225268
 40
0.5051764118225268
 40
0.5051764118225268
 40
0.5051764118225268
 10
143.9905232969
 20
299.3859090549
 30
-170.4222321039
 10
144.066206742231
 20
299.359538590675
 30
-170.4456686880129
 10
144.2188321590335
 20
299.3063591526089
 30
-170.4929315789001
 10
144.3709097322428
 20
299.2514865878306
 30
-170.5400248213779
 10
144.4475755232
 20
299.22382407
 30
-170.5637656045
 11
143.9905232969
 21
299.3859090549
 31
-170.4222321039
 11
144.2174389214
 21
299.3063813324
 31
-170.4925001407
 11
144.4475755232
 21
299.22382407
 31
-170.5637656045
  0
SPLINE
  5
967
330
1B
100
AcDbEntity
  8
0
  6
Continuous
100
AcDbSpline
210
0.1550039185319441
220
5.172642900000000E-9
230
0.987913855171463
 70
     8
 71
     3
 72
     9
 73
     5
 74
     3
 42
0.0000000001
 43
0.0000000001
 44
0.0000000001
 40
0.0
 40
0.0
 40
0.0
 40
0.0
 40
0.2384723297048435
 40
0.4797552650867001
 40
0.4797552650867001
 40
0.4797552650867001
 40
0.4797552650867001
 10
144.4475755232
 20
299.22382407
 30
-170.5637656045
 10
144.5213439458063
 20
299.1965637138677
 30
-170.5753398873861
 10
144.6697502166148
 20
299.1417217143837
 30
-170.5986248662393
 10
144.8176056720414
 20
299.0853758831581
 30
-170.6218234220202
 10
144.8919664991
 20
299.0570379189
 30
-170.6334906532999
 11
144.4475755232
 21
299.22382407
 31
-170.5637656045
 11
144.6687446959
 21
299.1416714358
 31
-170.5984670998
 11
144.8919664991
 21
299.0570379189
 31
-170.6334906532999
  0
SPLINE
  5
968
330
1B
100
AcDbEntity
  8
0
  6
Continuous
100
AcDbSpline
210
0.9848080966356434
220
-9.009543249999999E-8
230
0.1736462288702903
 70
     8
 71
     3
 72
     9
 73
     5
 74
     3
 42
0.0000000001
 43
0.0000000001
 44
0.0000000001
 40
0.0
 40
0.0
 40
0.0
 40
0.0
 40
0.2189051574015326
 40
0.437729162887041
 40
0.437729162887041
 40
0.437729162887041
 40
0.437729162887041
 10
144.8919664991
 20
299.0570379189
 30
-170.6334906532999
 10
144.8793044459083
 20
299.0597439192277
 30
-170.5616797488645
 10
144.8539850335665
 20
299.065154916722
 30
-170.418084561534
 10
144.8286576452821
 20
299.0691401533857
 30
-170.2744441406026
 10
144.8159962989
 20
299.0711324023
 30
-170.2026372451
 11
144.8919664991
 21
299.0570379189
 31
-170.6334906532999
 11
144.8539783448
 21
299.0647993475
 31
-170.4180466274
 11
144.8159962989
 21
299.0711324023
 31
-170.2026372451
  0
SPLINE
  5
969
330
1B
100
AcDbEntity
  8
0
  6
Continuous
100
AcDbSpline
210
0.1550039114688488
220
-1.427763280000000E-8
230
0.9879138562796644
 70
     8
 71
     3
 72
     9
 73
     5
 74
     3
 42
0.0000000001
 43
0.0000000001
 44
0.0000000001
 40
0.0
 40
0.0
 40
0.0
 40
0.0
 40
0.2409445215773649
 40
0.479077055946185
 40
0.479077055946185
 40
0.479077055946185
 40
0.479077055946185
 10
144.8159962989
 20
299.0711324023
 30
-170.2026372451
 10
144.7416329663201
 20
299.0991417863805
 30
-170.1909696206949
 10
144.5937741720655
 20
299.1548336658901
 30
-170.1677705410343
 10
144.4453712511195
 20
299.2090222999009
 30
-170.1444860877922
 10
144.371605323
 20
299.2359575843
 30
-170.1329121963
 11
144.8159962989
 21
299.0711324023
 31
-170.2026372451
 11
144.5927686679
 21
299.1547803185
 31
-170.1676127772
 11
144.371605323
 21
299.2359575843
 31
-170.1329121963
  0
SPLINE
  5
96A
330
1B
100
AcDbEntity
  8
0
  6
Continuous
100
AcDbSpline
210
0.584877786034288
220
-3.750007030000000E-8
230
0.81112143073872
 70
     8
 71
     3
 72
     9
 73
     5
 74
     3
 42
0.0000000001
 43
0.0000000001
 44
0.0000000001
 40
0.0
 40
0.0
 40
0.0
 40
0.0
 40
0.158890665794477
 40
0.3160690646479473
 40
0.3160690646479473
 40
0.3160690646479473
 40
0.3160690646479473
 10
144.371605323
 20
299.2359575843
 30
-170.1329121963
 10
144.3301664026218
 20
299.2499264239465
 30
-170.1030317078654
 10
144.2477351236134
 20
299.2777135696496
 30
-170.0435927346348
 10
144.1651530137858
 20
299.3048114375861
 30
-169.9840450014005
 10
144.1240856483
 20
299.3182869718
 30
-169.9544324312
 11
144.371605323
 21
299.2359575843
 31
-170.1329121963
 11
144.2472504445
 21
299.2776899117
 31
-170.0432432456
 11
144.1240856483
 21
299.3182869718
 31
-169.9544324312
  0
SPLINE
  5
96B
330
1B
100
AcDbEntity
  8
0
  6
Continuous
100
AcDbSpline
210
0.8656852235657433
220
-1.135660010000000E-8
230
0.5005887470768088
 70
     8
 71
     3
 72
     9
 73
     5
 74
     3
 42
0.0000000001
 43
0.0000000001
 44
0.0000000001
 40
0.0
 40
0.0
 40
0.0
 40
0.0
 40
0.1565420708605043
 40
0.3132457495285309
 40
0.3132457495285309
 40
0.3132457495285309
 40
0.3132457495285309
 10
144.1240856483
 20
299.3182869718
 30
-169.9544324312
 10
144.0982086373459
 20
299.3254045697121
 30
-169.909682431875
 10
144.046427901041
 20
299.3396471134614
 30
-169.8201362351056
 10
143.994599328839
 20
299.3531775152468
 30
-169.7305073141012
 10
143.9686716732
 20
299.3599462064
 30
-169.6856697332
 11
144.1240856483
 21
299.3182869718
 31
-169.9544324312
 11
144.0464426688
 21
299.3394619137
 31
-169.8201617735
 11
143.9686716732
 21
299.3599462064
 31
-169.6856697332
  0
SPLINE
  5
96C
330
1B
100
AcDbEntity
  8
0
  6
Continuous
100
AcDbSpline
210
-0.9848076785246069
220
-1.114250110000000E-8
230
-0.1736486001065781
 70
     8
 71
     3
 72
     9
 73
     5
 74
     3
 42
0.0000000001
 43
0.0000000001
 44
0.0000000001
 40
0.0
 40
0.0
 40
0.0
 40
0.0
 40
0.218743734067108
 40
0.4375020197598056
 40
0.4375020197598056
 40
0.4375020197598056
 40
0.4375020197598056
 10
143.9686716732
 20
299.3599462064
 30
-169.6856697332
 10
143.9560102030875
 20
299.3602726171515
 30
-169.6138631480798
 10
143.9306864205756
 20
299.3609254603685
 30
-169.4702452010052
 10
143.9053627286199
 20
299.360164998954
 30
-169.3266277674074
 10
143.8927004615
 20
299.3597847556
 30
-169.2548166622
 11
143.9686716732
 21
299.3599462064
 31
-169.6856697332
 11
143.9306872855
 21
299.360572136
 31
-169.4702501062
 11
143.8927004615
 21
299.3597847556
 31
-169.2548166622
  0
SPLINE
  5
96D
330
1B
100
AcDbEntity
  8
0
  6
Continuous
100
AcDbSpline
210
-0.9846892120796956
220
3.893957920000000E-8
230
0.1743191200467312
 70
     8
 71
     3
 72
     9
 73
     5
 74
     3
 42
0.0000000001
 43
0.0000000001
 44
0.0000000001
 40
0.0
 40
0.0
 40
0.0
 40
0.0
 40
0.1565923549066402
 40
0.3132748929792527
 40
0.3132748929792527
 40
0.3132748929792527
 40
0.3132748929792527
 10
143.8927004615
 20
299.3597847556
 30
-169.2548166622
 10
143.9017219814744
 20
299.3529855596564
 30
-169.2038561384333
 10
143.9197702170105
 20
299.3393832520416
 30
-169.1019057422041
 10
143.9378017084145
 20
299.3250687949924
 30
-169.0000499296239
 10
143.9468200495
 20
299.3179095061
 30
-168.9491073625999
 11
143.8927004615
 21
299.3597847556
 31
-169.2548166622
 11
143.9197608378
 21
299.3392092328999
 31
-169.1019587232
 11
143.9468200495
 21
299.3179095061
 31
-168.9491073625999
  0
SPLINE
  5
96E
330
1B
100
AcDbEntity
  8
0
  6
Continuous
100
AcDbSpline
210
-0.8270264303511149
220
1.261252575000000E-7
230
0.5621630399632092
 70
     8
 71
     3
 72
     9
 73
     5
 74
     3
 42
0.0000000001
 43
0.0000000001
 44
0.0000000001
 40
0.0
 40
0.0
 40
0.0
 40
0.0
 40
0.1573441664286732
 40
0.3161108025335193
 40
0.3161108025335193
 40
0.3161108025335193
 40
0.3161108025335193
 10
143.9468200495
 20
299.3179095061
 30
-168.9491073625999
 10
143.9753087968504
 20
299.3043944992458
 30
-168.9071961250122
 10
144.0325438440245
 20
299.27724230314
 30
-168.8229947513627
 10
144.089674146431
 20
299.2494008234168
 30
-168.7389474728742
 10
144.1183678382
 20
299.2354174415
 30
-168.6967347311
 11
143.9468200495
 21
299.3179095061
 31
-168.9491073625999
 11
144.0322603405
 21
299.277193712
 31
-168.8234118277
 11
144.1183678382
 21
299.2354174415
 31
-168.6967347311
  0
SPLINE
  5
96F
330
1B
100
AcDbEntity
  8
0
  6
Continuous
100
AcDbSpline
210
-0.5672379303576403
220
-1.697019450000000E-8
230
0.8235539632371279
 70
     8
 71
     3
 72
     9
 73
     5
 74
     3
 42
0.0000000001
 43
0.0000000001
 44
0.0000000001
 40
0.0
 40
0.0
 40
0.0
 40
0.0
 40
0.185021902784091
 40
0.3721583136041589
 40
0.3721583136041589
 40
0.3721583136041589
 40
0.3721583136041589
 10
144.1183678382
 20
299.2354174415
 30
-168.6967347311
 10
144.166323226872
 20
299.2150950428579
 30
-168.6637045760777
 10
144.2627820585447
 20
299.1742179926642
 30
-168.5972667835449
 10
144.3589748398819
 20
299.1324267792049
 30
-168.5310122380901
 10
144.4073445019
 20
299.111412449
 30
-168.4976967447
 11
144.1183678382
 21
299.2354174415
 31
-168.6967347311
 11
144.2621682452999
 21
299.1742242944
 31
-168.5976895587
 11
144.4073445019
 21
299.111412449
 31
-168.4976967447
  0
SPLINE
  5
970
330
1B
100
AcDbEntity
  8
0
  6
Continuous
100
AcDbSpline
210
-0.388634631929857
220
3.090127340000000E-8
230
0.9213919485565
 70
     8
 71
     3
 72
     9
 73
     5
 74
     3
 42
0.0000000001
 43
0.0000000001
 44
0.0000000001
 40
0.0
 40
0.0
 40
0.0
 40
0.0
 40
0.174815845961163
 40
0.3507740797014346
 40
0.3507740797014346
 40
0.3507740797014346
 40
0.3507740797014346
 10
144.4073445019
 20
299.111412449
 30
-168.4976967447
 10
144.4575245663212
 20
299.0906849706425
 30
-168.4765312553145
 10
144.5582126121898
 20
299.049094563861
 30
-168.4340619641596
 10
144.6586174907907
 20
299.0067054586995
 30
-168.3917121103216
 10
144.7089834275
 20
298.9854418805
 30
-168.3704682217
 11
144.4073445019
 21
299.111412449
 31
-168.4976967447
 11
144.5578143637
 21
299.0490316378
 31
-168.4342299417
 11
144.7089834275
 21
298.9854418805
 31
-168.3704682217
  0
SPLINE
  5
971
330
1B
100
AcDbEntity
  8
0
  6
Continuous
100
AcDbSpline
210
-0.173648981057917
220
5.719134570000000E-8
230
0.9848076113523614
 70
     8
 71
     3
 72
     9
 73
     5
 74
     3
 42
0.0000000001
 43
0.0000000001
 44
0.0000000001
 40
0.0
 40
0.0
 40
0.0
 40
0.0
 40
0.1144840053715009
 40
0.2289663644934446
 40
0.2289663644934446
 40
0.2289663644934446
 40
0.2289663644934446
 10
144.7089834275
 20
298.9854418805
 30
-168.3704682217
 10
144.7439390671564
 20
298.9714274327158
 30
-168.364304569084
 10
144.8138498438163
 20
298.9433987386712
 30
-168.3519773524835
 10
144.8836281089054
 20
298.9150316165046
 30
-168.3396735013399
 10
144.9185169906
 20
298.9008481574
 30
-168.33352162
 11
144.7089834275
 21
298.9854418805
 31
-168.3704682217
 11
144.8138172181
 21
298.9433139289
 31
-168.3519831053
 11
144.9185169906
 21
298.9008481574
 31
-168.33352162
  0
SPLINE
  5
972
330
1B
100
AcDbEntity
  8
0
  6
Continuous
100
AcDbSpline
210
-0.0500623860280417
220
1.272215660000000E-8
230
-0.9987460926107191
 70
     8
 71
     3
 72
     9
 73
     5
 74
     3
 42
0.0000000001
 43
0.0000000001
 44
0.0000000001
 40
0.0
 40
0.0
 40
0.0
 40
0.0
 40
0.1749471660102124
 40
0.351442066403947
 40
0.351442066403947
 40
0.351442066403947
 40
0.351442066403947
 10
144.9185169906
 20
298.9008481574
 30
-168.33352162
 10
144.972848810879
 20
298.879838984583
 30
-168.3362450157137
 10
145.0819931178478
 20
298.8376347735824
 30
-168.3417159006619
 10
145.1908240049745
 20
298.7946267984962
 30
-168.3471710753761
 10
145.2454790916
 20
298.7730281084
 30
-168.3499106749
 11
144.9185169906
 21
298.9008481574
 31
-168.33352162
 11
145.0814347851
 21
298.8376214639
 31
-168.3416879141
 11
145.2454790916
 21
298.7730281084
 31
-168.3499106749
  0
SPLINE
  5
973
330
1B
100
AcDbEntity
  8
0
  6
Continuous
100
AcDbSpline
210
0.2513560522535537
220
2.318984400000000E-8
230
0.96789469210008
 70
     8
 71
     3
 72
     9
 73
     5
 74
     3
 42
0.0000000001
 43
0.0000000001
 44
0.0000000001
 40
0.0
 40
0.0
 40
0.0
 40
0.0
 40
0.1859102050419256
 40
0.3741409516533345
 40
0.3741409516533345
 40
0.3741409516533345
 40
0.3741409516533345
 10
145.2454790916
 20
298.7730281084
 30
-168.3499106749
 10
145.3018146670752
 20
298.7517539686725
 30
-168.3645406625165
 10
145.4151890018272
 20
298.7089401442165
 30
-168.3939832500727
 10
145.5282313705283
 20
298.6651993477978
 30
-168.4233396281494
 10
145.5851031173
 20
298.6431933024
 30
-168.438108856
 11
145.2454790916
 21
298.7730281084
 31
-168.3499106749
 11
145.4144038528
 21
298.708976812
 31
-168.3937793519
 11
145.5851031173
 21
298.6431933024
 31
-168.438108856
  0
SPLINE
  5
974
330
1B
100
AcDbEntity
  8
0
  6
Continuous
100
AcDbSpline
210
0.5848802531238758
220
-1.882143314000000E-7
230
0.8111196517812374
 70
     8
 71
     3
 72
     9
 73
     5
 74
     3
 42
0.0000000001
 43
0.0000000001
 44
0.0000000001
 40
0.0
 40
0.0
 40
0.0
 40
0.0
 40
0.1578979094798331
 40
0.3172527601314156
 40
0.3172527601314156
 40
0.3172527601314156
 40
0.3172527601314156
 10
145.5851031173
 20
298.6431933024
 30
-168.438108856
 10
145.6262072617957
 20
298.6289744798938
 30
-168.4677481392556
 10
145.7087948231958
 20
298.6004056362608
 30
-168.5273001906546
 10
145.7912201770346
 20
298.571133410357
 30
-168.5867352779696
 10
145.8326221177
 20
298.556430083
 30
-168.6165892955
 11
145.5851031173
 21
298.6431933024
 31
-168.438108856
 11
145.7083753705
 21
298.6003626007
 31
-168.5269977327
 11
145.8326221177
 21
298.556430083
 31
-168.6165892955
  0
SPLINE
  5
975
330
1B
100
AcDbEntity
  8
0
  6
Continuous
100
AcDbSpline
210
0.8656852307105927
220
9.376967930000000E-8
230
0.5005887347209674
 70
     8
 71
     3
 72
     9
 73
     5
 74
     3
 42
0.0000000001
 43
0.0000000001
 44
0.0000000001
 40
0.0
 40
0.0
 40
0.0
 40
0.0
 40
0.156578988604265
 40
0.3133919776451187
 40
0.3133919776451187
 40
0.3133919776451187
 40
0.3133919776451187
 10
145.8326221177
 20
298.556430083
 30
-168.6165892955
 10
145.8585176690545
 20
298.5494935861971
 30
-168.6613713573871
 10
145.9103474715302
 20
298.5356102263007
 30
-168.7510024059904
 10
145.962126998301
 20
298.5209973898898
 30
-168.8405465109599
 10
145.9880360928
 20
298.5136855162
 30
-168.8853519934
 11
145.8326221177
 21
298.556430083
 31
-168.6165892955
 11
145.9102962216
 21
298.5354384957
 31
-168.7509137777
 11
145.9880360928
 21
298.5136855162
 31
-168.8853519934
  0
SPLINE
  5
976
330
1B
100
AcDbEntity
  8
0
  6
Continuous
100
AcDbSpline
210
-0.984807569962054
220
1.750810270000000E-8
230
-0.1736492157927409
 70
     8
 71
     3
 72
     9
 73
     5
 74
     3
 42
0.0000000001
 43
0.0000000001
 44
0.0000000001
 40
0.0
 40
0.0
 40
0.0
 40
0.0
 40
0.2187607045021788
 40
0.4375025304094422
 40
0.4375025304094422
 40
0.4375025304094422
 40
0.4375025304094422
 10
145.9880360928
 20
298.5136855162
 30
-168.8853519934
 10
146.0006985402048
 20
298.5140754871886
 30
-168.9571638584562
 10
146.0260223422713
 20
298.5148553955119
 30
-169.1007813913535
 10
146.0513462394727
 20
298.5141857738723
 30
-169.2443994639305
 10
146.0640076417
 20
298.5138509775
 30
-169.3162054016
 11
145.9880360928
 21
298.5136855162
 31
-168.8853519934
 11
146.0260234588
 21
298.5144930154
 31
-169.1007877235
 11
146.0640076417
 21
298.5138509775
 31
-169.3162054016
  0
SPLINE
  5
977
330
1B
100
AcDbEntity
  8
0
  6
Continuous
100
AcDbSpline
210
-0.9846889959917787
220
-1.005053068000000E-7
230
0.1743203406739806
 70
     8
 71
     3
 72
     9
 73
     5
 74
     3
 42
0.0000000001
 43
0.0000000001
 44
0.0000000001
 40
0.0
 40
0.0
 40
0.0
 40
0.0
 40
0.1568366222171497
 40
0.3134222310613526
 40
0.3134222310613526
 40
0.3134222310613526
 40
0.3134222310613526
 10
146.0640076417
 20
298.5138509775
 30
-169.3162054016
 10
146.0549848320281
 20
298.5212000599714
 30
-169.3671728367478
 10
146.0369536534817
 20
298.5358864628783
 30
-169.4690261348465
 10
146.0189048771969
 20
298.549843395032
 30
-169.570978838285
 10
146.0098877165
 20
298.5568162722
 30
-169.6219143641
 11
146.0640076417
 21
298.5138509775
 31
-169.3162054016
 11
146.0369348062
 21
298.535715565
 31
-169.4691325982
 11
146.0098877165
 21
298.5568162722
 31
-169.6219143641
  0
SPLINE
  5
978
330
1B
100
AcDbEntity
  8
0
  6
Continuous
100
AcDbSpline
210
-0.7925440331815051
220
-4.993377500000000E-8
230
0.6098146894495011
 70
     8
 71
     3
 72
     9
 73
     5
 74
     3
 42
0.0000000001
 43
0.0000000001
 44
0.0000000001
 40
0.0
 40
0.0
 40
0.0
 40
0.0
 40
0.2275535495213299
 40
0.4515129685642653
 40
0.4515129685642653
 40
0.4515129685642653
 40
0.4515129685642653
 10
146.0098877165
 20
298.5568162722
 30
-169.6219143641
 10
145.9656609355304
 20
298.5790336277918
 30
-169.6793935801001
 10
145.8779059204686
 20
298.6231174234434
 30
-169.7934441475447
 10
145.7898919304335
 20
298.6657902344215
 30
-169.9078312912374
 10
145.7462352396
 20
298.686956798
 30
-169.9645695912
 11
146.0098877165
 21
298.5568162722
 31
-169.6219143641
 11
145.877141595
 21
298.6231099546
 31
-169.7944375011
 11
145.7462352396
 21
298.686956798
 31
-169.9645695912
  0
SPLINE
  5
979
330
1B
100
AcDbEntity
  8
0
  6
Continuous
100
AcDbSpline
210
-0.1736475710068247
220
1.865343000000000E-9
230
-0.9848078599825602
 70
     8
 71
     3
 72
     9
 73
     5
 74
     3
 42
0.0000000001
 43
0.0000000001
 44
0.0000000001
 40
0.0
 40
0.0
 40
0.0
 40
0.0
 40
0.6197306062178043
 40
1.239653768979972
 40
1.239653768979972
 40
1.239653768979972
 40
1.239653768979972
 10
135.0655080049
 20
298.7314260736
 30
-158.1261257476
 10
134.8620955221292
 20
298.7353707949371
 30
-158.0902587678689
 10
134.4552073542792
 20
298.7432614632761
 30
-158.0185136641748
 10
134.048261010008
 20
298.7395938271245
 30
-157.9467583024668
 10
133.8447562322
 20
298.7377597242
 30
-157.9108750487
 11
135.0655080049
 21
298.7314260736
 31
-158.1261257476
 11
134.455256017
 21
298.7403715591
 31
-158.0185222447
 11
133.8447562322
 21
298.7377597242
 31
-157.9108750487
  0
SPLINE
  5
97A
330
1B
100
AcDbEntity
  8
0
  6
Continuous
100
AcDbSpline
210
0.9848077716552665
220
-1.928534200000000E-9
230
-0.1736480719368588
 70
     8
 71
     3
 72
     9
 73
     5
 74
     3
 42
0.0000000001
 43
0.0000000001
 44
0.0000000001
 40
0.0
 40
0.0
 40
0.0
 40
0.0
 40
1.109796472041546
 40
2.219005256316674
 40
2.219005256316674
 40
2.219005256316674
 40
2.219005256316674
 10
133.8447562322
 20
298.7377597242
 30
-157.9108750487
 10
133.9038825532579
 20
298.5930064404128
 30
-157.5755528068987
 10
134.0221038852944
 20
298.3035765262935
 30
-156.9050858916918
 10
134.1378762451936
 20
297.9829931445547
 30
-156.248507796017
 10
134.1957470944
 20
297.8227439058
 30
-155.9203056932
 11
133.8447562322
 21
298.7377597242
 31
-157.9108750487
 11
134.021522628
 21
298.29570738
 31
-156.9083823676
 11
134.1957470944
 21
297.8227439058
 31
-155.9203056932
  0
SPLINE
  5
97B
330
1B
100
AcDbEntity
  8
0
  6
Continuous
100
AcDbSpline
210
0.9302930739619593
220
-4.708356000000000E-10
230
0.3668171159289166
 70
     8
 71
     3
 72
     9
 73
     5
 74
     3
 42
0.0000000001
 43
0.0000000001
 44
0.0000000001
 40
0.0
 40
0.0
 40
0.0
 40
0.0
 40
1.317313382720057
 40
2.539672084787607
 40
2.539672084787607
 40
2.539672084787607
 40
2.539672084787607
 10
134.1957470944
 20
297.8227439058
 30
-155.9203056932
 10
134.3445863249864
 20
297.9908359520874
 30
-156.2977801873184
 10
134.6315361457353
 20
298.3149036213533
 30
-157.0255200311605
 10
134.9245019077793
 20
298.5960896361925
 30
-157.7685170380339
 10
135.0655080049
 20
298.7314260736
 30
-158.1261257476
 11
134.1957470944
 21
297.8227439058
 31
-155.9203056932
 11
134.6438833376
 21
298.3154830033
 31
-157.05683402
 11
135.0655080049
 21
298.7314260736
 31
-158.1261257476
  0
SPLINE
  5
97C
330
1B
100
AcDbEntity
  8
0
  6
Continuous
100
AcDbSpline
210
-0.1736474561803444
220
-5.061982010000000E-8
230
-0.9848078802294855
 70
     8
 71
     3
 72
     9
 73
     5
 74
     3
 42
0.0000000001
 43
0.0000000001
 44
0.0000000001
 40
0.0
 40
0.0
 40
0.0
 40
0.0
 40
0.218879014377726
 40
0.4375994373837646
 40
0.4375994373837646
 40
0.4375994373837646
 40
0.4375994373837646
 10
134.3435335014
 20
297.3913237674
 30
-155.0821714406
 10
134.2716907111829
 20
297.3901691524671
 30
-155.0695036725257
 10
134.1280571852897
 20
297.3878607591912
 30
-155.0441773149577
 10
133.9844546599279
 20
297.3840515963013
 30
-155.0188564235193
 10
133.9126794189
 20
297.3821477051
 30
-155.0062005661
 11
134.3435335014
 21
297.3913237674
 31
-155.0821714406
 11
134.1280128865
 21
297.3874844582
 31
-155.0441695039
 11
133.9126794189
 21
297.3821477051
 31
-155.0062005661
  0
SPLINE
  5
97D
330
1B
100
AcDbEntity
  8
0
  6
Continuous
100
AcDbSpline
210
0.9848077560435125
220
-1.320353800000000E-9
230
-0.1736481604755491
 70
     8
 71
     3
 72
     9
 73
     5
 74
     3
 42
0.0000000001
 43
0.0000000001
 44
0.0000000001
 40
0.0
 40
0.0
 40
0.0
 40
0.0
 40
1.586255854718771
 40
3.173187844908033
 40
3.173187844908033
 40
3.173187844908033
 40
3.173187844908033
 10
133.9126794189
 20
297.3821477051
 30
-155.0062005661
 10
133.8308566290471
 20
297.6223978998632
 30
-155.470240715819
 10
133.667176172691
 20
298.1030006951131
 30
-156.3985188105898
 10
133.4983392653552
 20
298.5202740338941
 30
-157.3560405945599
 10
133.413902824
 20
298.7289551591
 30
-157.8349034998
 11
133.9126794189
 21
297.3821477051
 31
-155.0062005661
 11
133.6659224859
 21
298.0870726716
 31
-156.4056288223
 11
133.413902824
 21
298.7289551591
 31
-157.8349034998
  0
SPLINE
  5
97E
330
1B
100
AcDbEntity
  8
0
  6
Continuous
100
AcDbSpline
210
-0.173647526967657
220
-1.247617370000000E-8
230
-0.9848078677478245
 70
     8
 71
     3
 72
     9
 73
     5
 74
     3
 42
0.0000000001
 43
0.0000000001
 44
0.0000000001
 40
0.0
 40
0.0
 40
0.0
 40
0.0
 40
0.3647635761847853
 40
0.7296950946616534
 40
0.7296950946616534
 40
0.7296950946616534
 40
0.7296950946616534
 10
133.413902824
 20
298.7289551591
 30
-157.8349034998
 10
133.2942118047809
 20
298.7253751446758
 30
-157.813798825261
 10
133.0547746589103
 20
298.7182134675383
 30
-157.7715797592933
 10
132.8154860840495
 20
298.7070498235654
 30
-157.7293868902512
 10
132.69581426
 20
298.7014667169
 30
-157.7082856003
 11
133.413902824
 21
298.7289551591
 31
-157.8349034998
 11
133.054866892
 21
298.7172150846
 31
-157.7715960224
 11
132.69581426
 21
298.7014667169
 31
-157.7082856003
  0
SPLINE
  5
97F
330
1B
100
AcDbEntity
  8
0
  6
Continuous
100
AcDbSpline
210
0.9848076479301887
220
-2.815939240000000E-8
230
-0.1736487736156195
 70
     8
 71
     3
 72
     9
 73
     5
 74
     3
 42
0.0000000001
 43
0.0000000001
 44
0.0000000001
 40
0.0
 40
0.0
 40
0.0
 40
0.0
 40
0.3444364679605176
 40
0.6887416845106407
 40
0.6887416845106407
 40
0.6887416845106407
 40
0.6887416845106407
 10
132.69581426
 20
298.7014667169
 30
-157.7082856003
 10
132.6773912745696
 20
298.7453575138458
 30
-157.8127671800299
 10
132.6405523239956
 20
298.8331223826529
 30
-158.0216905256025
 10
132.6034982821732
 20
298.9178312037853
 30
-158.2318337094502
 10
132.5849747919
 20
298.960177543
 30
-158.3368852781999
 11
132.69581426
 21
298.7014667169
 31
-157.7082856003
 11
132.6404915104
 21
298.8323748046
 31
-158.0220354153
 11
132.5849747919
 21
298.960177543
 31
-158.3368852781999
  0
SPLINE
  5
980
330
1B
100
AcDbEntity
  8
0
  6
Continuous
100
AcDbSpline
210
-0.1736482654557942
220
-1.843931620000000E-8
230
-0.9848077375326585
 70
     8
 71
     3
 72
     9
 73
     5
 74
     3
 42
0.0000000001
 43
0.0000000001
 44
0.0000000001
 40
0.0
 40
0.0
 40
0.0
 40
0.0
 40
0.3647885592872899
 40
0.729687745791056
 40
0.729687745791056
 40
0.729687745791056
 40
0.729687745791056
 10
132.5849747919
 20
298.960177543
 30
-158.3368852781999
 10
132.7046016170775
 20
298.965715570535
 30
-158.3579787261944
 10
132.9438915459353
 20
298.9767933050894
 30
-158.4001720190656
 10
133.1833277686178
 20
298.9838999824178
 30
-158.4423911074243
 10
133.3030640303
 20
298.9874538598
 30
-158.463503852
 11
132.5849747919
 21
298.960177543
 31
-158.3368852781999
 11
132.9438918298
 21
298.9757991623
 31
-158.4001720691
 11
133.3030640303
 21
298.9874538598
 31
-158.463503852
  0
SPLINE
  5
981
330
1B
100
AcDbEntity
  8
0
  6
Continuous
100
AcDbSpline
210
0.9848076987574724
220
4.780080600000000E-9
230
-0.1736484853605448
 70
     8
 71
     3
 72
     9
 73
     5
 74
     3
 42
0.0000000001
 43
0.0000000001
 44
0.0000000001
 40
0.0
 40
0.0
 40
0.0
 40
0.0
 40
0.7934523038684284
 40
1.587427997837405
 40
1.587427997837405
 40
1.587427997837405
 40
1.587427997837405
 10
133.3030640303
 20
298.9874538598
 30
-158.463503852
 10
133.2602367682619
 20
299.0830318793862
 30
-158.7063888781916
 10
133.1745539937605
 20
299.274250965309
 30
-159.1923191464034
 10
133.0878198585431
 20
299.4490456410143
 30
-159.6842119670882
 10
133.0444384924
 20
299.5364717946
 30
-159.9302394683
 11
133.3030640303
 21
298.9874538598
 31
-158.463503852
 11
133.1743195773
 21
299.2700845232
 31
-159.1936485859
 11
133.0444384924
 21
299.5364717946
 31
-159.9302394683
  0
SPLINE
  5
982
330
1B
100
AcDbEntity
  8
0
  6
Continuous
100
AcDbSpline
210
-0.1736474581497172
220
3.628830630000000E-8
230
-0.9848078798822342
 70
     8
 71
     3
 72
     9
 73
     5
 74
     3
 42
0.0000000001
 43
0.0000000001
 44
0.0000000001
 40
0.0
 40
0.0
 40
0.0
 40
0.0
 40
0.2187933698177096
 40
0.4375873313777099
 40
0.4375873313777099
 40
0.4375873313777099
 40
0.4375873313777099
 10
133.0444384924
 20
299.5364717946
 30
-159.9302394683
 10
133.1162406091342
 20
299.5382558132268
 30
-159.9429000645956
 10
133.2598450367966
 20
299.5418238553053
 30
-159.9682212914283
 10
133.403476664122
 20
299.5439860980605
 30
-159.9935473143268
 10
133.4752925749
 20
299.5450672209
 30
-160.0062103429
 11
133.0444384924
 21
299.5364717946
 31
-159.9302394683
 11
133.2598516425
 21
299.5414724016
 31
-159.9682224562
 11
133.4752925749
 21
299.5450672209
 31
-160.0062103429
  0
SPLINE
  5
983
330
1B
100
AcDbEntity
  8
0
  6
Continuous
100
AcDbSpline
210
0.9848077626519805
220
6.696515600000000E-9
230
-0.1736481229970558
 70
     8
 71
     3
 72
     9
 73
     5
 74
     3
 42
0.0000000001
 43
0.0000000001
 44
0.0000000001
 40
0.0
 40
0.0
 40
0.0
 40
0.0
 40
0.7939566360963638
 40
1.587378389594947
 40
1.587378389594947
 40
1.587378389594947
 40
1.587378389594947
 10
133.4752925749
 20
299.5450672209
 30
-160.0062103429
 10
133.5186740067367
 20
299.4576629023645
 30
-159.7601819407205
 10
133.6054076446667
 20
299.2829131489236
 30
-159.2682908838404
 10
133.6910904644422
 20
299.0917432168515
 30
-158.782359315423
 10
133.7339174385
 20
298.9961904591
 30
-158.5394754009
 11
133.4752925749
 21
299.5450672209
 31
-160.0062103429
 11
133.6051739888
 21
299.2787464537
 31
-159.2696160127
 11
133.7339174385
 21
298.9961904591
 31
-158.5394754009
  0
SPLINE
  5
984
330
1B
100
AcDbEntity
  8
0
  6
Continuous
100
AcDbSpline
210
-0.1736483144686172
220
2.795369800000000E-9
230
-0.9848077288903699
 70
     8
 71
     3
 72
     9
 73
     5
 74
     3
 42
0.0000000001
 43
0.0000000001
 44
0.0000000001
 40
0.0
 40
0.0
 40
0.0
 40
0.0
 40
0.8749776481765818
 40
1.75029007972876
 40
1.75029007972876
 40
1.75029007972876
 40
1.75029007972876
 10
133.7339174385
 20
298.9961904591
 30
-158.5394754009
 10
134.0211694701906
 20
298.9982038852544
 30
-158.590125725488
 10
134.5957834417563
 20
299.002231507939
 30
-158.6914457544583
 10
135.1701116853413
 20
298.9833967849048
 30
-158.7927154019003
 10
135.4573307339
 20
298.9739776221
 30
-158.8433599107
 11
133.7339174385
 21
298.9961904591
 31
-158.5394754009
 11
134.5956021289
 21
298.9965173374
 31
-158.6914137841
 11
135.4573307339
 21
298.9739776221
 31
-158.8433599107
  0
SPLINE
  5
985
330
1B
100
AcDbEntity
  8
0
  6
Continuous
100
AcDbSpline
210
0.9848077135719506
220
-7.692680000000000E-10
230
-0.1736484013435973
 70
     8
 71
     3
 72
     9
 73
     5
 74
     3
 42
0.0000000001
 43
0.0000000001
 44
0.0000000001
 40
0.0
 40
0.0
 40
0.0
 40
0.0
 40
0.3442906971448017
 40
0.6887027482832528
 40
0.6887027482832528
 40
0.6887027482832528
 40
0.6887027482832528
 10
135.4573307339
 20
298.9739776221
 30
-158.8433599107
 10
135.4758544454021
 20
298.9316481757433
 30
-158.7383068617654
 10
135.5129083975585
 20
298.8469743629422
 30
-158.528163735283
 10
135.5497474367585
 20
298.7592457595681
 30
-158.3192394391101
 10
135.568170202
 20
298.7153737287
 30
-158.2147588841
 11
135.4573307339
 21
298.9739776221
 31
-158.8433599107
 11
135.5128481591
 21
298.8462258545
 31
-158.5285053641
 11
135.568170202
 21
298.7153737287
 31
-158.2147588841
  0
SPLINE
  5
986
330
1B
100
AcDbEntity
  8
0
  6
Continuous
100
AcDbSpline
210
0.9313596030208675
220
8.588291000000000E-10
230
0.3641006589678354
 70
     8
 71
     3
 72
     9
 73
     5
 74
     3
 42
0.0000000001
 43
0.0000000001
 44
0.0000000001
 40
0.0
 40
0.0
 40
0.0
 40
0.0
 40
1.707635737892771
 40
3.615885498646426
 40
3.615885498646426
 40
3.615885498646426
 40
3.615885498646426
 10
135.568170202
 20
298.7153737287
 30
-158.2147588841
 10
135.3724060541
 20
298.5278355346652
 30
-157.7139995068668
 10
134.9578792742728
 20
298.1307270523321
 30
-156.6536512544444
 10
134.5557522685111
 20
297.6467422311625
 30
-155.625021287315
 10
134.3435335014
 20
297.3913237674
 30
-155.0821714406
 11
135.568170202
 21
298.7153737287
 31
-158.2147588841
 11
134.9836432662
 21
298.1333832128001
 31
-156.7195548465
 11
134.3435335014
 21
297.3913237674
 31
-155.0821714406
  0
SPLINE
  5
987
330
1B
100
AcDbEntity
  8
0
  6
Continuous
100
AcDbSpline
210
0.7071067811869347
220
4.562866000000000E-10
230
-0.7071067811861606
 70
     8
 71
     3
 72
     9
 73
     5
 74
     3
 42
0.0000000001
 43
0.0000000001
 44
0.0000000001
 40
0.0
 40
0.0
 40
0.0
 40
0.0
 40
0.0302100624182154
 40
0.0604166988526978
 40
0.0604166988526978
 40
0.0604166988526978
 40
0.0604166988526978
 10
120.0780883372
 20
297.3944983731
 30
-159.7979189317
 10
120.0852089179973
 20
297.3944959883492
 30
-159.7907983509028
 10
120.0994492720796
 20
297.394491219118
 30
-159.7765579968204
 10
120.1136896069969
 20
297.3944578365417
 30
-159.7623176619031
 10
120.1208093707
 20
297.3944411462
 30
-159.7551978982
 11
120.0780883372
 21
297.3944983731
 31
-159.7979189317
 11
120.0994500748
 21
297.3944840647
 31
-159.7765571941
 11
120.1208093707
 21
297.3944411462
 31
-159.7551978982
  0
SPLINE
  5
988
330
1B
100
AcDbEntity
  8
0
  6
Continuous
100
AcDbSpline
210
-0.5479516926008566
220
-2.549458370000000E-8
230
0.8365099775710124
 70
     8
 71
     3
 72
     9
 73
     5
 74
     3
 42
0.0000000001
 43
0.0000000001
 44
0.0000000001
 40
0.0
 40
0.0
 40
0.0
 40
0.0
 40
0.2619224018861888
 40
0.5238238149783718
 40
0.5238238149783718
 40
0.5238238149783718
 40
0.5238238149783718
 10
120.1208093707
 20
297.3944411462
 30
-159.7551978982
 10
120.193459893632
 20
297.4033802051459
 30
-159.7076085348879
 10
120.3387551177456
 20
297.4212576067183
 30
-159.6124336217723
 10
120.4842226464667
 20
297.4370057707742
 30
-159.5171458414471
 10
120.5569534965
 20
297.4448795373
 30
-159.4695038603
 11
120.1208093707
 21
297.3944411462
 31
-159.7551978982
 11
120.3388040191
 21
297.420725971
 31
-159.6124015892
 11
120.5569534965
 21
297.4448795373
 31
-159.4695038603
  0
SPLINE
  5
989
330
1B
100
AcDbEntity
  8
0
  6
Continuous
100
AcDbSpline
210
-0.1545385200947843
220
4.956938780000000E-8
230
0.9879867639836636
 70
     8
 71
     3
 72
     9
 73
     5
 74
     3
 42
0.0000000001
 43
0.0000000001
 44
0.0000000001
 40
0.0
 40
0.0
 40
0.0
 40
0.0
 40
0.1882055641323097
 40
0.3754608441909079
 40
0.3754608441909079
 40
0.3754608441909079
 40
0.3754608441909079
 10
120.5569534965
 20
297.4448795373
 30
-159.4695038603
 10
120.6164798083357
 20
297.4623628800279
 30
-159.4601928982441
 10
120.7352318728481
 20
297.4972412889111
 30
-159.4416179868708
 10
120.8542713056436
 20
297.5311012481358
 30
-159.4229981259887
 10
120.9136403788
 20
297.5479883783
 30
-159.4137117588
 11
120.5569534965
 21
297.4448795373
 31
-159.4695038603
 11
120.7356046382
 21
297.4970736626
 31
-159.4415596798
 11
120.9136403788
 21
297.5479883783
 31
-159.4137117588
  0
SPLINE
  5
98A
330
1B
100
AcDbEntity
  8
0
  6
Continuous
100
AcDbSpline
210
0.1834818845389931
220
1.386346600000000E-9
230
0.9830230913086525
 70
     8
 71
     3
 72
     9
 73
     5
 74
     3
 42
0.0000000001
 43
0.0000000001
 44
0.0000000001
 40
0.0
 40
0.0
 40
0.0
 40
0.0
 40
0.2798083085329889
 40
0.5550864360855139
 40
0.5550864360855139
 40
0.5550864360855139
 40
0.5550864360855139
 10
120.9136403788
 20
297.5479883783
 30
-159.4137117588
 10
120.9986498465385
 20
297.5829310584463
 30
-159.4295788300119
 10
121.1672924530711
 20
297.6522506861992
 30
-159.4610560797631
 10
121.3367429080808
 20
297.7195006228467
 30
-159.4926841149428
 10
121.4207766746
 20
297.7528511705
 30
-159.5083690709
 11
120.9136403788
 21
297.5479883783
 31
-159.4137117588
 11
121.1688740541
 21
297.6522905159
 31
-159.4613512866
 11
121.4207766746
 21
297.7528511705
 31
-159.5083690709
  0
SPLINE
  5
98B
330
1B
100
AcDbEntity
  8
0
  6
Continuous
100
AcDbSpline
210
0.5775239438681238
220
-7.709496999999999E-9
230
0.8163737466742841
 70
     8
 71
     3
 72
     9
 73
     5
 74
     3
 42
0.0000000001
 43
0.0000000001
 44
0.0000000001
 40
0.0
 40
0.0
 40
0.0
 40
0.0
 40
0.2400705913641548
 40
0.4776684155772952
 40
0.4776684155772952
 40
0.4776684155772952
 40
0.4776684155772952
 10
121.4207766746
 20
297.7528511705
 30
-159.5083690709
 10
121.4796839150678
 20
297.7874516641137
 30
-159.5500415789996
 10
121.5968916415969
 20
297.8562962604831
 30
-159.6329573614117
 10
121.7146559724004
 20
297.92370052851
 30
-159.7162669001248
 10
121.7732333199
 20
297.9572281952
 30
-159.7577060334
 11
121.4207766746
 21
297.7528511705
 31
-159.5083690709
 11
121.5976389915
 21
297.8562888315
 31
-159.6334860561
 11
121.7732333199
 21
297.9572281952
 31
-159.7577060334
  0
SPLINE
  5
98C
330
1B
100
AcDbEntity
  8
0
  6
Continuous
100
AcDbSpline
210
-0.7071067797536346
220
6.898641790000001E-8
230
0.7071067826194573
 70
     8
 71
     3
 72
     9
 73
     5
 74
     3
 42
0.0000000001
 43
0.0000000001
 44
0.0000000001
 40
0.0
 40
0.0
 40
0.0
 40
0.0
 40
0.1823136525777098
 40
0.3647735489705886
 40
0.3647735489705886
 40
0.3647735489705886
 40
0.3647735489705886
 10
121.7732333199
 20
297.9572281952
 30
-159.7577060334
 10
121.7302898136552
 20
297.959439031499
 30
-159.8006495396865
 10
121.6443683538155
 20
297.9638624775303
 30
-159.8865709996094
 10
121.5584235946355
 20
297.9672622265047
 30
-159.9725157587728
 10
121.5154339867
 20
297.9689627825
 30
-160.0155053667
 11
121.7732333199
 21
297.9572281952
 31
-159.7577060334
 11
121.644396981
 21
297.963604985
 31
-159.8865423724
 11
121.5154339867
 21
297.9689627825
 31
-160.0155053667
  0
SPLINE
  5
98D
330
1B
100
AcDbEntity
  8
0
  6
Continuous
100
AcDbSpline
210
0.3492628202116992
220
-1.672843770000000E-8
230
0.9370248035232419
 70
     8
 71
     3
 72
     9
 73
     5
 74
     3
 42
0.0000000001
 43
0.0000000001
 44
0.0000000001
 40
0.0
 40
0.0
 40
0.0
 40
0.0
 40
0.1900056553708992
 40
0.3820146954626127
 40
0.3820146954626127
 40
0.3820146954626127
 40
0.3820146954626127
 10
121.5154339867
 20
297.9689627825
 30
-160.0155053667
 10
121.4608271873513
 20
297.9441595165534
 30
-159.9951514504999
 10
121.3510378245945
 20
297.8942914635812
 30
-159.9542290101469
 10
121.2416317164556
 20
297.8434731242033
 30
-159.9134494225808
 10
121.1866417853
 20
297.8179307022
 30
-159.8929526994
 11
121.5154339867
 21
297.9689627825
 31
-160.0155053667
 11
121.3517084
 21
297.8943178983
 31
-159.9544789577
 11
121.1866417853
 21
297.8179307022
 31
-159.8929526994
  0
SPLINE
  5
98E
330
1B
100
AcDbEntity
  8
0
  6
Continuous
100
AcDbSpline
210
0.0138644254146328
220
1.238815453000000E-7
230
-0.9999038842348332
 70
     8
 71
     3
 72
     9
 73
     5
 74
     3
 42
0.0000000001
 43
0.0000000001
 44
0.0000000001
 40
0.0
 40
0.0
 40
0.0
 40
0.0
 40
0.1601074863145394
 40
0.3214692427394792
 40
0.3214692427394792
 40
0.3214692427394792
 40
0.3214692427394792
 10
121.1866417853
 20
297.8179307022
 30
-159.8929526994
 10
121.135925886285
 20
297.8013267764985
 30
-159.8936559158464
 10
121.0340967836833
 20
297.7679888511796
 30
-159.8950678576842
 10
120.9325066911048
 20
297.7339293944934
 30
-159.8964764855564
 10
120.8815134588
 20
297.7168332216
 30
-159.8971835475
 11
121.1866417853
 21
297.8179307022
 31
-159.8929526994
 11
121.0345533754
 21
297.7679399471
 31
-159.8950615267
 11
120.8815134588
 21
297.7168332216
 31
-159.8971835475
  0
SPLINE
  5
98F
330
1B
100
AcDbEntity
  8
0
  6
Continuous
100
AcDbSpline
210
-0.4807316293344485
220
9.643957270000000E-8
230
0.8768677782638823
 70
     8
 71
     3
 72
     9
 73
     5
 74
     3
 42
0.0000000001
 43
0.0000000001
 44
0.0000000001
 40
0.0
 40
0.0
 40
0.0
 40
0.0
 40
0.1914668315013834
 40
0.3830246193594273
 40
0.3830246193594273
 40
0.3830246193594273
 40
0.3830246193594273
 10
120.8815134588
 20
297.7168332216
 30
-159.8971835475
 10
120.8259906799389
 20
297.7088347465841
 30
-159.9276232053792
 10
120.7149187461096
 20
297.6928339968753
 30
-159.9885169815033
 10
120.6039753104342
 20
297.6757130349893
 30
-160.0493403100223
 10
120.5484904198
 20
297.6671505212
 30
-160.0797591961
 11
120.8815134588
 21
297.7168332216
 31
-159.8971835475
 11
120.7149772315
 21
297.6925578765
 31
-159.9884849176
 11
120.5484904198
 21
297.6671505212
 31
-160.0797591961
  0
SPLINE
  5
990
330
1B
100
AcDbEntity
  8
0
  6
Continuous
100
AcDbSpline
210
0.7071067811866419
220
1.816756000000000E-10
230
-0.7071067811864534
 70
     8
 71
     3
 72
     9
 73
     5
 74
     3
 42
0.0000000001
 43
0.0000000001
 44
0.0000000001
 40
0.0
 40
0.0
 40
0.0
 40
0.0
 40
0.0666573924424449
 40
0.1333336983114789
 40
0.1333336983114789
 40
0.1333336983114789
 40
0.1333336983114789
 10
120.5484904198
 20
297.6671505212
 30
-160.0797591961
 10
120.5327792145389
 20
297.6672311144089
 30
-160.0954704013612
 10
120.5013523461055
 20
297.667392323694
 30
-160.1268972697945
 10
120.4699252751484
 20
297.6674153564756
 30
-160.1583243407516
 10
120.4542095107
 20
297.6674268745
 30
-160.1740401052
 11
120.5484904198
 21
297.6671505212
 31
-160.0797591961
 11
120.5013567534
 21
297.6673577665
 31
-160.1268928625
 11
120.4542095107
 21
297.6674268745
 31
-160.1740401052
  0
SPLINE
  5
991
330
1B
100
AcDbEntity
  8
0
  6
Continuous
100
AcDbSpline
210
0.7071067815621586
220
5.249519296000000E-7
230
-0.7071067808107419
 70
     8
 71
     3
 72
     9
 73
     5
 74
     3
 42
0.0000000001
 43
0.0000000001
 44
0.0000000001
 40
0.0
 40
0.0
 40
0.0
 40
0.0
 40
0.0666871260123008
 40
0.1333336810639304
 40
0.1333336810639304
 40
0.1333336810639304
 40
0.1333336810639304
 10
121.6577953778
 20
298.4680169028
 30
-161.3776259722
 10
121.6735136921741
 20
298.4680056608349
 30
-161.3619076578175
 10
121.7049407582503
 20
298.4679831837441
 30
-161.3304805917247
 10
121.7363676315546
 20
298.4678258858938
 30
-161.2990537185038
 10
121.7520762869
 20
298.4677472609
 30
-161.2833450632
 11
121.6577953778
 21
298.4680169028
 31
-161.3776259722
 11
121.7049502727
 21
298.4679494512
 31
-161.3304710773
 11
121.7520762869
 21
298.4677472609
 31
-161.2833450632
  0
SPLINE
  5
992
330
1B
100
AcDbEntity
  8
0
  6
Continuous
100
AcDbSpline
210
0.7071067811820413
220
1.479360000000000E-11
230
0.7071067811910539
 70
     8
 71
     3
 72
     9
 73
     5
 74
     3
 42
0.0000000001
 43
0.0000000001
 44
0.0000000001
 40
0.0
 40
0.0
 40
0.0
 40
0.0
 40
0.2317112169199536
 40
0.4634041926769971
 40
0.4634041926769971
 40
0.4634041926769971
 40
0.4634041926769971
 10
121.7520762869
 20
298.4677472609
 30
-161.2833450632
 10
121.8021233480258
 20
298.4986701636312
 30
-161.3333921243258
 10
121.9022135303878
 20
298.5605135347286
 30
-161.4334823066878
 10
122.0027212227707
 20
298.6209874900629
 30
-161.5339899990707
 10
122.0529730908
 20
298.6512232775
 30
-161.5842418671
 11
121.7520762869
 21
298.4677472609
 31
-161.2833450632
 11
121.902321856
 21
298.5601735882
 31
-161.4335906323
 11
122.0529730908
 21
298.6512232775
 31
-161.5842418671
  0
SPLINE
  5
993
330
1B
100
AcDbEntity
  8
0
  6
Continuous
100
AcDbSpline
210
0.7071067811864702
220
-2.834200000000000E-11
230
-0.707106781186625
 70
     8
 71
     3
 72
     9
 73
     5
 74
     3
 42
0.0000000001
 43
0.0000000001
 44
0.0000000001
 40
0.0
 40
0.0
 40
0.0
 40
0.0
 40
0.0666452242122732
 40
0.1333336773722309
 40
0.1333336773722309
 40
0.1333336773722309
 40
0.1333336773722309
 10
122.0529730908
 20
298.6512232775
 30
-161.5842418671
 10
122.037264748181
 20
298.651301465969
 30
-161.599950209719
 10
122.0058378738389
 20
298.6514578936235
 30
-161.6313770840611
 10
121.9744108088016
 20
298.6514802467254
 30
-161.6628041490985
 10
121.9586921817
 20
298.6514914269
 30
-161.6785227762
 11
122.0529730908
 21
298.6512232775
 31
-161.5842418671
 11
122.0058480153
 21
298.651424346
 31
-161.6313669426
 11
121.9586921817
 21
298.6514914269
 31
-161.6785227762
  0
SPLINE
  5
994
330
1B
100
AcDbEntity
  8
0
  6
Continuous
100
AcDbSpline
210
0.7071067811866035
220
3.695320000000000E-11
230
-0.707106781186492
 70
     8
 71
     3
 72
     9
 73
     5
 74
     3
 42
0.0000000001
 43
0.0000000001
 44
0.0000000001
 40
0.0
 40
0.0
 40
0.0
 40
0.0
 40
0.10322345004051
 40
0.2062511928622494
 40
0.2062511928622494
 40
0.2062511928622494
 40
0.2062511928622494
 10
123.2375024184
 20
299.3605745297
 30
-162.9573330128
 10
123.2618324471405
 20
299.3605483048528
 30
-162.9330029840594
 10
123.3104463759343
 20
299.3604959048797
 30
-162.8843890552658
 10
123.3590596279265
 20
299.3601294058389
 30
-162.8357758032735
 10
123.3833431899
 20
299.3599463302
 30
-162.8114922413
 11
123.2375024184
 21
299.3605745297
 31
-162.9573330128
 11
123.3104923351
 21
299.3604171813
 31
-162.8843430961
 11
123.3833431899
 21
299.3599463302
 31
-162.8114922413
  0
SPLINE
  5
995
330
1B
100
AcDbEntity
  8
0
  6
Continuous
100
AcDbSpline
210
-0.8768689401055841
220
5.785595090000000E-8
230
0.480729510097005
 70
     8
 71
     3
 72
     9
 73
     5
 74
     3
 42
0.0000000001
 43
0.0000000001
 44
0.0000000001
 40
0.0
 40
0.0
 40
0.0
 40
0.0
 40
0.1912664899067864
 40
0.3821942029990552
 40
0.3821942029990552
 40
0.3821942029990552
 40
0.3821942029990552
 10
123.3833431899
 20
299.3599463302
 30
-162.8114922413
 10
123.4138137712565
 20
299.3530713009041
 30
-162.7559127392827
 10
123.4747009635824
 20
299.3393334195657
 30
-162.6448521792917
 10
123.5355304036593
 20
299.3245298362915
 30
-162.5338969614745
 10
123.5659181641
 20
299.3171346056
 30
-162.4784685279
 11
123.3833431899
 21
299.3599463302
 31
-162.8114922413
 11
123.4747404703
 21
299.3390543443
 31
-162.6447801175
 11
123.5659181641
 21
299.3171346056
 31
-162.4784685279
  0
SPLINE
  5
996
330
1B
100
AcDbEntity
  8
0
  6
Continuous
100
AcDbSpline
210
0.9879874366803175
220
-1.156457110000000E-7
230
-0.1545342193879479
 70
     8
 71
     3
 72
     9
 73
     5
 74
     3
 42
0.0000000001
 43
0.0000000001
 44
0.0000000001
 40
0.0
 40
0.0
 40
0.0
 40
0.0
 40
0.0924677220828343
 40
0.1852860957438392
 40
0.1852860957438392
 40
0.1852860957438392
 40
0.1852860957438392
 10
123.5659181641
 20
299.3171346056
 30
-162.4784685279
 10
123.570560744444
 20
299.3102435613396
 30
-162.4487869993119
 10
123.5798635104985
 20
299.2964353409374
 30
-162.3893113852931
 10
123.5891576534171
 20
299.2823860657373
 30
-162.3298909016008
 10
123.5938135194
 20
299.2753481341
 30
-162.3001244335
 11
123.5659181641
 21
299.3171346056
 31
-162.4784685279
 11
123.5798437575
 21
299.296401437
 31
-162.3894376726
 11
123.5938135194
 21
299.2753481341
 31
-162.3001244335
  0
SPLINE
  5
997
330
1B
100
AcDbEntity
  8
0
  6
Continuous
100
AcDbSpline
210
0.9830232986043375
220
3.171970640000000E-8
230
0.1834807739275333
 70
     8
 71
     3
 72
     9
 73
     5
 74
     3
 42
0.0000000001
 43
0.0000000001
 44
0.0000000001
 40
0.0
 40
0.0
 40
0.0
 40
0.0
 40
0.1347598057072789
 40
0.2708439132132033
 40
0.2708439132132033
 40
0.2708439132132033
 40
0.2708439132132033
 10
123.5938135194
 20
299.2753481341
 30
-162.3001244335
 10
123.5859568208942
 20
299.2617748888678
 30
-162.2580310961623
 10
123.5701662151041
 20
299.2344950123913
 30
-162.1734307648922
 10
123.554404575151
 20
299.2067220053283
 30
-162.0889856219626
 10
123.5464852216
 20
299.1927676032
 30
-162.0465566016
 11
123.5938135194
 21
299.2753481341
 31
-162.3001244335
 11
123.5702505947
 21
299.2345063184
 31
-162.1738828401
 11
123.5464852216
 21
299.1927676032
 31
-162.0465566016
  0
SPLINE
  5
998
330
1B
100
AcDbEntity
  8
0
  6
Continuous
100
AcDbSpline
210
0.8981582596188966
220
9.923001900000000E-8
230
0.4396723105658859
 70
     8
 71
     3
 72
     9
 73
     5
 74
     3
 42
0.0000000001
 43
0.0000000001
 44
0.0000000001
 40
0.0
 40
0.0
 40
0.0
 40
0.0
 40
0.1194445376452147
 40
0.2396205802486594
 40
0.2396205802486594
 40
0.2396205802486594
 40
0.2396205802486594
 10
123.5464852216
 20
299.1927676032
 30
-162.0465566016
 10
123.5300390143227
 20
299.1791276534758
 30
-162.0129604485013
 10
123.4970458795307
 20
299.1517642199364
 30
-161.9455623919777
 10
123.4641134702624
 20
299.1240249515207
 30
-161.8782883848701
 10
123.4475969982
 20
299.1101129766
 30
-161.8445486955
 11
123.5464852216
 21
299.1927676032
 31
-162.0465566016
 11
123.4971616886
 21
299.1517543681
 31
-161.9457989656
 11
123.4475969982
 21
299.1101129766
 31
-161.8445486955
  0
SPLINE
  5
999
330
1B
100
AcDbEntity
  8
0
  6
Continuous
100
AcDbSpline
210
-0.7071067845474442
220
-1.428925719000000E-7
230
0.7071067778256365
 70
     8
 71
     3
 72
     9
 73
     5
 74
     3
 42
0.0000000001
 43
0.0000000001
 44
0.0000000001
 40
0.0
 40
0.0
 40
0.0
 40
0.0
 40
0.1826334996005486
 40
0.3647862974387126
 40
0.3647862974387126
 40
0.3647862974387126
 40
0.3647862974387126
 10
123.4475969982
 20
299.1101129766
 30
-161.8445486955
 10
123.4906259943296
 20
299.1083365491748
 30
-161.8015196993204
 10
123.5765707318228
 20
299.1047883699825
 30
-161.7155749617272
 10
123.6624922063113
 20
299.1002512531799
 30
-161.6296534873389
 10
123.7053963315
 20
299.0979856842
 30
-161.5867493622
 11
123.4475969982
 21
299.1101129766
 31
-161.8445486955
 11
123.5766781555
 21
299.1045358079
 31
-161.7154675381
 11
123.7053963315
 21
299.0979856842
 31
-161.5867493622
  0
SPLINE
  5
99A
330
1B
100
AcDbEntity
  8
0
  6
Continuous
100
AcDbSpline
210
0.8468397507408344
220
2.784196090000000E-8
230
0.5318481329902367
 70
     8
 71
     3
 72
     9
 73
     5
 74
     3
 42
0.0000000001
 43
0.0000000001
 44
0.0000000001
 40
0.0
 40
0.0
 40
0.0
 40
0.0
 40
0.1748963717603191
 40
0.349810794762949
 40
0.349810794762949
 40
0.349810794762949
 40
0.349810794762949
 10
123.7053963315
 20
299.0979856842
 30
-161.5867493622
 10
123.7343737476468
 20
299.118727580534
 30
-161.6328889026481
 10
123.7923315707306
 20
299.1602135139953
 30
-161.7251727456558
 10
123.8504488069048
 20
299.2009033916935
 30
-161.817710415482
 10
123.8795089245
 20
299.2212493804
 30
-161.863981638
 11
123.7053963315
 21
299.0979856842
 31
-161.5867493622
 11
123.7923684291
 21
299.1600123798
 31
-161.7252314337
 11
123.8795089245
 21
299.2212493804
 31
-161.863981638
  0
SPLINE
  5
99B
330
1B
100
AcDbEntity
  8
0
  6
Continuous
100
AcDbSpline
210
0.9370247968761674
220
7.512645599999999E-8
230
0.3492628380448911
 70
     8
 71
     3
 72
     9
 73
     5
 74
     3
 42
0.0000000001
 43
0.0000000001
 44
0.0000000001
 40
0.0
 40
0.0
 40
0.0
 40
0.0
 40
0.1867140013598273
 40
0.371513241099071
 40
0.371513241099071
 40
0.371513241099071
 40
0.371513241099071
 10
123.8795089245
 20
299.2212493804
 30
-161.863981638
 10
123.9000118712091
 20
299.2419254922268
 30
-161.9189882660638
 10
123.9408075058618
 20
299.2830656812976
 30
-162.028437426411
 10
123.9817138395884
 20
299.3232946549732
 30
-162.1381835771552
 10
124.0020615918
 20
299.3433054727
 30
-162.1927738393
 11
123.8795089245
 21
299.2212493804
 31
-161.863981638
 11
123.9410457254
 21
299.2830475578
 31
-162.0290765371
 11
124.0020615918
 21
299.3433054727
 31
-162.1927738393
  0
SPLINE
  5
99C
330
1B
100
AcDbEntity
  8
0
  6
Continuous
100
AcDbSpline
210
0.9999038537149536
220
4.502848480000000E-8
230
-0.0138666263374604
 70
     8
 71
     3
 72
     9
 73
     5
 74
     3
 42
0.0000000001
 43
0.0000000001
 44
0.0000000001
 40
0.0
 40
0.0
 40
0.0
 40
0.0
 40
0.1590512738844893
 40
0.3160917242688703
 40
0.3160917242688703
 40
0.3160917242688703
 40
0.3160917242688703
 10
124.0020615918
 20
299.3433054727
 30
-162.1927738393
 10
124.0013525010935
 20
299.3573016565891
 30
-162.2439053750159
 10
123.999943284439
 20
299.3851170760486
 30
-162.3455220102947
 10
123.9985314947039
 20
299.4122454037399
 30
-162.4473241891956
 10
123.9978300904
 20
299.4257232789
 30
-162.4979014704
 11
124.0020615918
 21
299.3433054727
 31
-162.1927738393
 11
123.9999336682
 21
299.385120059
 31
-162.3462154244
 11
123.9978300904
 21
299.4257232789
 31
-162.4979014704
  0
SPLINE
  5
99D
330
1B
100
AcDbEntity
  8
0
  6
Continuous
100
AcDbSpline
210
0.9879870958115844
220
-5.278000400000000E-9
230
-0.1545363986567281
 70
     8
 71
     3
 72
     9
 73
     5
 74
     3
 42
0.0000000001
 43
0.0000000001
 44
0.0000000001
 40
0.0
 40
0.0
 40
0.0
 40
0.0
 40
0.185890733163252
 40
0.369953193180092
 40
0.369953193180092
 40
0.369953193180092
 40
0.369953193180092
 10
123.9978300904
 20
299.4257232789
 30
-162.4979014704
 10
123.988493886922
 20
299.4394940873425
 30
-162.5575899885292
 10
123.9699133034249
 20
299.4669002655272
 30
-162.676379976079
 10
123.9512995475437
 20
299.4933470526697
 30
-162.7953820423535
 10
123.9420386633
 20
299.5065050975
 30
-162.8545890271
 11
123.9978300904
 21
299.4257232789
 31
-162.4979014704
 11
123.9698131047
 21
299.46679348
 31
-162.6770205698
 11
123.9420386633
 21
299.5065050975
 31
-162.8545890271
  0
SPLINE
  5
99E
330
1B
100
AcDbEntity
  8
0
  6
Continuous
100
AcDbSpline
210
-0.9065958306153461
220
-9.821677120000001E-8
230
0.4219999998943849
 70
     8
 71
     3
 72
     9
 73
     5
 74
     3
 42
0.0000000001
 43
0.0000000001
 44
0.0000000001
 40
0.0
 40
0.0
 40
0.0
 40
0.0
 40
0.1565807897898918
 40
0.3130796219576355
 40
0.3130796219576355
 40
0.3130796219576355
 40
0.3130796219576355
 10
123.9420386633
 20
299.5065050975
 30
-162.8545890271
 10
123.9202068193371
 20
299.5134158945414
 30
-162.9014910603646
 10
123.8765545586496
 20
299.5272338713701
 30
-162.9952705773999
 10
123.8328634150775
 20
299.5403436325427
 30
-163.0891336279203
 10
123.811023562
 20
299.5468967972
 30
-163.1360528675
 11
123.9420386633
 21
299.5065050975
 31
-162.8545890271
 11
123.8765334056
 21
299.527060342
 31
-162.9953160212
 11
123.811023562
 21
299.5468967972
 31
-163.1360528675
  0
SPLINE
  5
99F
330
1B
100
AcDbEntity
  8
0
  6
Continuous
100
AcDbSpline
210
0.7071067806495727
220
-1.234326877000000E-7
230
-0.7071067817235118
 70
     8
 71
     3
 72
     9
 73
     5
 74
     3
 42
0.0000000001
 43
0.0000000001
 44
0.0000000001
 40
0.0
 40
0.0
 40
0.0
 40
0.0
 40
0.139474114410325
 40
0.2791696015144268
 40
0.2791696015144268
 40
0.2791696015144268
 40
0.2791696015144268
 10
123.811023562
 20
299.5468967972
 30
-163.1360528675
 10
123.7781499580651
 20
299.5472304023853
 30
-163.1689264714432
 10
123.7123505733574
 20
299.5478981422525
 30
-163.2347258561676
 10
123.6465495288371
 20
299.5479935998525
 30
-163.3005269006045
 10
123.6136229175
 20
299.5480413665
 30
-163.3334535119
 11
123.811023562
 21
299.5468967972
 31
-163.1360528675
 11
123.7124023359
 21
299.547754769
 31
-163.2346740936
 11
123.6136229175
 21
299.5480413665
 31
-163.3334535119
  0
SPLINE
  5
9A0
330
1B
100
AcDbEntity
  8
0
  6
Continuous
100
AcDbSpline
210
-0.7071067811615347
220
2.245095300000000E-9
230
0.7071067812115605
 70
     8
 71
     3
 72
     9
 73
     5
 74
     3
 42
0.0000000001
 43
0.0000000001
 44
0.0000000001
 40
0.0
 40
0.0
 40
0.0
 40
0.0
 40
0.9997260707956156
 40
2.001240369242985
 40
2.001240369242985
 40
2.001240369242985
 40
2.001240369242985
 10
121.3333790212
 20
297.2127889696
 30
-158.2247824909
 10
121.0980627568315
 20
297.2311502957403
 30
-158.4600987553101
 10
120.6270093137429
 20
297.2679057912489
 30
-158.9311521984822
 10
120.1552539243751
 20
297.2731650695234
 30
-159.4029075878332
 10
119.9191654589
 20
297.2757970584
 30
-159.6389960533
 11
121.3333790212
 21
297.2127889696
 31
-158.2247824909
 11
120.627255055
 21
297.2600129593
 31
-158.9309064572
 11
119.9191654589
 21
297.2757970584
 31
-159.6389960533
  0
SPLINE
  5
9A1
330
1B
100
AcDbEntity
  8
0
  6
Continuous
100
AcDbSpline
210
0.7071067811865055
220
1.420000000000000E-13
230
0.7071067811865898
 70
     8
 71
     3
 72
    10
 73
     6
 74
     4
 42
0.0000000001
 43
0.0000000001
 44
0.0000000001
 40
0.0
 40
0.0
 40
0.0
 40
0.0
 40
1.911504224085793
 40
3.970237669048451
 40
6.100433473034354
 40
6.100433473034354
 40
6.100433473034354
 40
6.100433473034354
 10
125.2931769959
 20
299.6161169329
 30
-162.1845804656
 10
124.8678547480274
 20
299.4056494386055
 30
-161.7592582177274
 10
123.9844507833849
 20
298.9685036748507
 30
-160.8758542530848
 10
122.6598354580498
 20
298.1717499252612
 30
-159.5512389277498
 10
121.7805314216158
 20
297.5360575529599
 30
-158.6719348913158
 10
121.3333790212
 20
297.2127889696
 30
-158.2247824909
 11
125.2931769959
 21
299.6161169329
 31
-162.1845804656
 11
124.0221541067
 21
298.9658477356
 31
-160.9135575764
 11
122.6826609027
 21
298.1596844083
 31
-159.5740643724
 11
121.3333790212
 21
297.2127889696
 31
-158.2247824909
  0
SPLINE
  5
9A2
330
1B
100
AcDbEntity
  8
0
  6
Continuous
100
AcDbSpline
210
0.3492631404294961
220
-1.146384890000000E-7
230
0.9370246841664915
 70
     8
 71
     3
 72
     9
 73
     5
 74
     3
 42
0.0000000001
 43
0.0000000001
 44
0.0000000001
 40
0.0
 40
0.0
 40
0.0
 40
0.0
 40
0.1847476402455293
 40
0.3715496929860301
 40
0.3715496929860301
 40
0.3715496929860301
 40
0.3715496929860301
 10
122.455265508
 20
299.3424974527
 30
-163.7395699232
 10
122.4006957784814
 20
299.3224758135331
 30
-163.7192298050251
 10
122.290949498518
 20
299.2822098925415
 30
-163.6783233844984
 10
122.181500485854
 20
299.241032732773
 30
-163.6375277664048
 10
122.1264733909
 20
299.2203303123
 30
-163.6170171716
 11
122.455265508
 21
299.3424974527
 31
-163.7395699232
 11
122.2916298167
 21
299.2822072378
 31
-163.6785769638
 11
122.1264733909
 21
299.2203303123
 31
-163.6170171716
  0
SPLINE
  5
9A3
330
1B
100
AcDbEntity
  8
0
  6
Continuous
100
AcDbSpline
210
0.5318478182987898
220
1.689351490000000E-8
230
0.8468399483791596
 70
     8
 71
     3
 72
     9
 73
     5
 74
     3
 42
0.0000000001
 43
0.0000000001
 44
0.0000000001
 40
0.0
 40
0.0
 40
0.0
 40
0.0
 40
0.1747909774132459
 40
0.3498311343254418
 40
0.3498311343254418
 40
0.3498311343254418
 40
0.3498311343254418
 10
122.1264733909
 20
299.2203303123
 30
-163.6170171716
 10
122.0802374512449
 20
299.1999903216325
 30
-163.5879792358918
 10
121.9876996586454
 20
299.1592813438999
 30
-163.5298619684127
 10
121.8954158175497
 20
299.1177762873109
 30
-163.4719041921574
 10
121.8492410308
 20
299.0970089773
 30
-163.4429046628
 11
122.1264733909
 21
299.2203303123
 31
-163.6170171716
 11
121.9878289694
 21
299.159111604
 31
-163.5299431805
 11
121.8492410308
 21
299.0970089773
 31
-163.4429046628
  0
SPLINE
  5
9A4
330
1B
100
AcDbEntity
  8
0
  6
Continuous
100
AcDbSpline
210
0.7071067811865808
220
-1.101000000000000E-13
230
0.7071067811865143
 70
     8
 71
     3
 72
    10
 73
     6
 74
     4
 42
0.0000000001
 43
0.0000000001
 44
0.0000000001
 40
0.0
 40
0.0
 40
0.0
 40
0.0
 40
2.066862147268409
 40
4.128274403694686
 40
6.100437232964408
 40
6.100437232964408
 40
6.100437232964408
 40
6.100437232964408
 10
118.5049518965
 20
297.2127889696
 30
-161.0532096157
 10
118.9386979758361
 20
297.5267272429153
 30
-161.4869556950361
 10
119.8050464352108
 20
298.1537759988182
 30
-162.3533041544108
 10
121.1286249320847
 20
298.9539810334949
 30
-163.6768826512847
 10
122.0259934722535
 20
299.398684899198
 30
-164.5742511914535
 10
122.4647498711
 20
299.6161169329
 30
-165.0130075903
 11
118.5049518965
 21
297.2127889696
 31
-161.0532096157
 11
119.8135446782
 21
298.1331633495
 31
-162.3618023974
 11
121.1537939581
 21
298.9436472953
 31
-163.7020516773
 11
122.4647498711
 21
299.6161169329
 31
-165.0130075903
  0
SPLINE
  5
9A5
330
1B
100
AcDbEntity
  8
0
  6
Continuous
100
AcDbSpline
210
-0.7071067810866217
220
-4.485700400000000E-9
230
0.7071067812864733
 70
     8
 71
     3
 72
     9
 73
     5
 74
     3
 42
0.0000000001
 43
0.0000000001
 44
0.0000000001
 40
0.0
 40
0.0
 40
0.0
 40
0.0
 40
1.001558352129665
 40
2.001240369294351
 40
2.001240369294351
 40
2.001240369294351
 40
2.001240369294351
 10
119.9191654589
 20
297.2757970584
 30
-159.6389960533
 10
119.683066607276
 20
297.273164837925
 30
-159.875094904874
 10
119.2113112152819
 20
297.2679053282179
 30
-160.3468502967681
 10
118.7402577850592
 20
297.2311496019212
 30
-160.8179037270909
 10
118.5049518965
 20
297.2127889696
 30
-161.0532096157
 11
119.9191654589
 21
297.2757970584
 31
-159.6389960533
 11
119.2110447237
 21
297.2600115707
 31
-160.3471167884
 11
118.5049518965
 21
297.2127889696
 31
-161.0532096157
  0
SPLINE
  5
9A6
330
1B
100
AcDbEntity
  8
0
  6
Continuous
100
AcDbSpline
210
0.0138669256042754
220
-5.445162310000000E-8
230
-0.9999038495646883
 70
     8
 71
     3
 72
     9
 73
     5
 74
     3
 42
0.0000000001
 43
0.0000000001
 44
0.0000000001
 40
0.0
 40
0.0
 40
0.0
 40
0.0
 40
0.1571889566337066
 40
0.3161343935197983
 40
0.3161343935197983
 40
0.3161343935197983
 40
0.3161343935197983
 10
122.7603932233
 20
299.425078438
 30
-163.7353383375
 10
122.7097748519606
 20
299.4115625506721
 30
-163.7360403254501
 10
122.6079724832252
 20
299.3843797451189
 30
-163.7374521455906
 10
122.5063560307696
 20
299.3565098330206
 30
-163.7388613873586
 10
122.455265508
 20
299.3424974527
 30
-163.7395699232
 11
122.7603932233
 21
299.425078438
 31
-163.7353383375
 11
122.6085840733
 21
299.3843609029
 31
-163.7374436639
 11
122.455265508
 21
299.3424974527
 31
-163.7395699232
  0
SPLINE
  5
9A7
330
1B
100
AcDbEntity
  8
0
  6
Continuous
100
AcDbSpline
210
-0.1545362902727523
220
-5.069095470000000E-8
230
0.9879871127645001
 70
     8
 71
     3
 72
     9
 73
     5
 74
     3
 42
0.0000000001
 43
0.0000000001
 44
0.0000000001
 40
0.0
 40
0.0
 40
0.0
 40
0.0
 40
0.184333770468392
 40
0.3700003647901226
 40
0.3700003647901226
 40
0.3700003647901226
 40
0.3700003647901226
 10
123.1170807378
 20
299.5060762252
 30
-163.6795469525
 10
123.057793928169
 20
299.4928644969348
 30
-163.6888203166703
 10
122.938791636104
 20
299.4663455131088
 30
-163.7074340959963
 10
122.8200019964951
 20
299.4388671241319
 30
-163.7260146132761
 10
122.7603932233
 20
299.425078438
 30
-163.7353383375
 11
123.1170807378
 21
299.5060762252
 31
-163.6795469525
 11
122.9392730897
 21
299.466202914
 31
-163.7073587893
 11
122.7603932233
 21
299.425078438
 31
-163.7353383375
  0
SPLINE
  5
9A8
330
1B
100
AcDbEntity
  8
0
  6
Continuous
100
AcDbSpline
210
-0.4220000280204169
220
-1.100750420000000E-7
230
0.9065958175233081
 70
     8
 71
     3
 72
     9
 73
     5
 74
     3
 42
0.0000000001
 43
0.0000000001
 44
0.0000000001
 40
0.0
 40
0.0
 40
0.0
 40
0.0
 40
0.1566613421704829
 40
0.3131074204923688
 40
0.3131074204923688
 40
0.3131074204923688
 40
0.3131074204923688
 10
123.3985445993
 20
299.5466826164
 30
-163.5485318302
 10
123.3515806997331
 20
299.5400873683753
 30
-163.5703924733622
 10
123.257717432344
 20
299.5269059346668
 30
-163.6140837216048
 10
123.1639381446453
 20
299.5130162786059
 30
-163.6577358792704
 10
123.1170807378
 20
299.5060762252
 30
-163.6795469525
 11
123.3985445993
 21
299.5466826164
 31
-163.5485318302
 11
123.2576739244
 21
299.5267195732
 31
-163.6141039736
 11
123.1170807378
 21
299.5060762252
 31
-163.6795469525
  0
SPLINE
  5
9A9
330
1B
100
AcDbEntity
  8
0
  6
Continuous
100
AcDbSpline
210
0.7071067810220897
220
1.041158920000000E-7
230
-0.7071067813509978
 70
     8
 71
     3
 72
     9
 73
     5
 74
     3
 42
0.0000000001
 43
0.0000000001
 44
0.0000000001
 40
0.0
 40
0.0
 40
0.0
 40
0.0
 40
0.1522165756354792
 40
0.3041704681901628
 40
0.3041704681901628
 40
0.3041704681901628
 40
0.3041704681901628
 10
123.6136229175
 20
299.5480413665
 30
-163.3334535119
 10
123.57774503698
 20
299.5479846532295
 30
-163.3693313924117
 10
123.5060511910904
 20
299.5478713245596
 30
-163.4410252382845
 10
123.4343594921313
 20
299.5470786242599
 30
-163.512716937327
 10
123.3985445993
 20
299.5466826164
 30
-163.5485318302
 11
123.6136229175
 21
299.5480413665
 31
-163.3334535119
 11
123.5059898136
 21
299.5477010903
 31
-163.4410866158
 11
123.3985445993
 21
299.5466826164
 31
-163.5485318302
  0
SPLINE
  5
9AA
330
1B
100
AcDbEntity
  8
0
  6
Continuous
100
AcDbSpline
210
0.707106780538066
220
1.789843507000000E-7
230
-0.7071067818350066
 70
     8
 71
     3
 72
     9
 73
     5
 74
     3
 42
0.0000000001
 43
0.0000000001
 44
0.0000000001
 40
0.0
 40
0.0
 40
0.0
 40
0.0
 40
0.1155103432780335
 40
0.2312516885355216
 40
0.2312516885355216
 40
0.2312516885355216
 40
0.2312516885355216
 10
123.0739839731
 20
299.3597848078
 30
-163.120851458
 10
123.1012095853233
 20
299.3600149458075
 30
-163.0936258457684
 10
123.1557152565851
 20
299.3604756820613
 30
-163.0391201744899
 10
123.2102218818723
 20
299.360541558552
 30
-162.9846135492861
 10
123.2375024184
 20
299.3605745297
 30
-162.9573330128
 11
123.0739839731
 21
299.3597848078
 31
-163.120851458
 11
123.1556610478
 21
299.360376704
 31
-163.0391743833
 11
123.2375024184
 21
299.3605745297
 31
-162.9573330128
  0
SPLINE
  5
9AB
330
1B
100
AcDbEntity
  8
0
  6
Continuous
100
AcDbSpline
210
-0.4807295371948661
220
1.347880660000000E-7
230
0.8768689252496018
 70
     8
 71
     3
 72
     9
 73
     5
 74
     3
 42
0.0000000001
 43
0.0000000001
 44
0.0000000001
 40
0.0
 40
0.0
 40
0.0
 40
0.0
 40
0.1910939965621042
 40
0.3822245420524799
 40
0.3822245420524799
 40
0.3822245420524799
 40
0.3822245420524799
 10
122.7409602387
 20
299.3167033314
 30
-163.3034264533
 10
122.7964323875615
 20
299.3241493018275
 30
-163.2730147250726
 10
122.9073872949721
 20
299.33904266681
 30
-163.2121854520243
 10
123.0184482071161
 20
299.3528703200625
 30
-163.1512980633916
 10
123.0739839731
 20
299.3597848078
 30
-163.120851458
 11
122.7409602387
 21
299.3167033314
 31
-163.3034264533
 11
122.9074031814
 21
299.3387748657
 31
-163.2121767425
 11
123.0739839731
 21
299.3597848078
 31
-163.120851458
  0
SPLINE
  5
9AC
330
1B
100
AcDbEntity
  8
0
  6
Continuous
100
AcDbSpline
210
-0.1545342740744424
220
3.542076620000000E-7
230
0.9879874281265726
 70
     8
 71
     3
 72
     9
 73
     5
 74
     3
 42
0.0000000001
 43
0.0000000001
 44
0.0000000001
 40
0.0
 40
0.0
 40
0.0
 40
0.0
 40
0.0928842350924619
 40
0.185310592298548
 40
0.185310592298548
 40
0.185310592298548
 40
0.185310592298548
 10
122.5626161442
 20
299.2748083736
 30
-163.3313218086
 10
122.5923997628067
 20
299.2818684830756
 30
-163.326663260071
 10
122.6518201800532
 20
299.2959538988332
 30
-163.3173691275812
 10
122.7112958713317
 20
299.3097982564013
 30
-163.3080663494169
 10
122.7409602387
 20
299.3167033314
 30
-163.3034264533
 11
122.5626161442
 21
299.2748083736
 31
-163.3313218086
 11
122.6519808869
 21
299.2959281393
 31
-163.3173439909
 11
122.7409602387
 21
299.3167033314
 31
-163.3034264533
  0
SPLINE
  5
9AD
330
1B
100
AcDbEntity
  8
0
  6
Continuous
100
AcDbSpline
210
0.1834809682461802
220
-5.396608900000000E-8
230
0.9830232623348451
 70
     8
 71
     3
 72
     9
 73
     5
 74
     3
 42
0.0000000001
 43
0.0000000001
 44
0.0000000001
 40
0.0
 40
0.0
 40
0.0
 40
0.0
 40
0.1360700242448936
 40
0.2708772998237916
 40
0.2708772998237916
 40
0.2708772998237916
 40
0.2708772998237916
 10
122.3090483546
 20
299.1921183034
 30
-163.2839934687
 10
122.3514676926243
 20
299.2060878948232
 30
-163.2919110234084
 10
122.4359127113425
 20
299.2338974379269
 30
-163.3076726568212
 10
122.5205131271626
 20
299.2612138420012
 30
-163.3234632950791
 10
122.5626161442
 20
299.2748083736
 30
-163.3313218086
 11
122.3090483546
 21
299.1921183034
 31
-163.2839934687
 11
122.436345581
 21
299.2339026408
 31
-163.3077534518
 11
122.5626161442
 21
299.2748083736
 31
-163.3313218086
  0
SPLINE
  5
9AE
330
1B
100
AcDbEntity
  8
0
  6
Continuous
100
AcDbSpline
210
0.4396720800759405
220
-8.335058880000000E-8
230
0.8981583724498085
 70
     8
 71
     3
 72
     9
 73
     5
 74
     3
 42
0.0000000001
 43
0.0000000001
 44
0.0000000001
 40
0.0
 40
0.0
 40
0.0
 40
0.0
 40
0.1201628137806648
 40
0.2396398659669487
 40
0.2396398659669487
 40
0.2396398659669487
 40
0.2396398659669487
 10
122.1070404062
 20
299.1094078362
 30
-163.1851052874
 10
122.1407736499905
 20
299.1233265015096
 30
-163.2016185936942
 10
122.2080476240781
 20
299.1510843991844
 30
-163.2345509658857
 10
122.2754457340009
 20
299.1784664544684
 30
-163.2675441058592
 10
122.3090483546
 20
299.1921183034
 30
-163.2839934687
 11
122.1070404062
 21
299.1094078362
 31
-163.1851052874
 11
122.2082713494
 21
299.151069333
 31
-163.2346604853
 11
122.3090483546
 21
299.1921183034
 31
-163.2839934687
  0
SPLINE
  5
9AF
330
1B
100
AcDbEntity
  8
0
  6
Continuous
100
AcDbSpline
210
0.7071067811854257
220
4.093800000000000E-12
230
0.7071067811876695
 70
     8
 71
     3
 72
     9
 73
     5
 74
     3
 42
0.0000000001
 43
0.0000000001
 44
0.0000000001
 40
0.0
 40
0.0
 40
0.0
 40
0.0
 40
0.228387639000686
 40
0.4567910521189895
 40
0.4567910521189895
 40
0.4567910521189895
 40
0.4567910521189895
 10
121.8061436023
 20
298.9433410094
 30
-162.8842084835
 10
121.8561981820284
 20
298.9713554363365
 30
-162.9342630632284
 10
121.9563107986199
 20
299.0273862250902
 30
-163.03437567982
 10
122.0567960470058
 20
299.0820666697467
 30
-163.1348609282058
 10
122.1070404062
 20
299.1094078362
 30
-163.1851052874
 11
121.8061436023
 21
298.9433410094
 31
-162.8842084835
 11
121.956400493
 21
299.0270467275
 31
-163.0344653742
 11
122.1070404062
 21
299.1094078362
 31
-163.1851052874
  0
SPLINE
  5
9B0
330
1B
100
AcDbEntity
  8
0
  6
Continuous
100
AcDbSpline
210
0.8981583216387694
220
5.557782310000000E-8
230
0.4396721838722867
 70
     8
 71
     3
 72
     9
 73
     5
 74
     3
 42
0.0000000001
 43
0.0000000001
 44
0.0000000001
 40
0.0
 40
0.0
 40
0.0
 40
0.0
 40
0.2417877857016506
 40
0.4803347983906855
 40
0.4803347983906855
 40
0.4803347983906855
 40
0.4803347983906855
 10
121.6083671976
 20
298.7748934524
 30
-162.480192629
 10
121.6414896311896
 20
298.8035382891832
 30
-162.5478548374467
 10
121.7072905458813
 20
298.8604440251833
 30
-162.6822723522051
 10
121.7733411291529
 20
298.915833249931
 30
-162.8171998874666
 10
121.8061436023
 20
298.9433410094
 30
-162.8842084835
 11
121.6083671976
 21
298.7748934524
 31
-162.480192629
 11
121.7077977606
 21
298.8604437018
 31
-162.6833084858
 11
121.8061436023
 21
298.9433410094
 31
-162.8842084835
  0
SPLINE
  5
9B1
330
1B
100
AcDbEntity
  8
0
  6
Continuous
100
AcDbSpline
210
0.9999038822774821
220
-1.162246326000000E-7
230
-0.0138645665783677
 70
     8
 71
     3
 72
     9
 73
     5
 74
     3
 42
0.0000000001
 43
0.0000000001
 44
0.0000000001
 40
0.0
 40
0.0
 40
0.0
 40
0.0
 40
0.1588286533718383
 40
0.3164801660461423
 40
0.3164801660461423
 40
0.3164801660461423
 40
0.3164801660461423
 10
121.6125980668
 20
298.6910009085
 30
-162.1750642815
 10
121.6118909683799
 20
298.7052105801978
 30
-162.2260598970477
 10
121.61048201212
 20
298.7335246102105
 30
-162.327673179875
 10
121.6090703856025
 20
298.7611380742181
 30
-162.429479034136
 10
121.6083671976
 20
298.7748934524
 30
-162.480192629
 11
121.6125980668
 21
298.6910009085
 31
-162.1750642815
 11
121.610476099
 21
298.7334534768
 31
-162.3280996298
 11
121.6083671976
 21
298.7748934524
 31
-162.480192629
  0
SPLINE
  5
9B2
330
1B
100
AcDbEntity
  8
0
  6
Continuous
100
AcDbSpline
210
-0.8541575361297467
220
-4.920445490000000E-8
230
0.5200143300648148
 70
     8
 71
     3
 72
     9
 73
     5
 74
     3
 42
0.0000000001
 43
0.0000000001
 44
0.0000000001
 40
0.0
 40
0.0
 40
0.0
 40
0.0
 40
0.2260024324093054
 40
0.4520142249540673
 40
0.4520142249540673
 40
0.4520142249540673
 40
0.4520142249540673
 10
121.8467336095
 20
298.6511132938
 30
-161.7904813484
 10
121.8077294243997
 20
298.6581430752165
 30
-161.8545482718902
 10
121.7297194387986
 20
298.6722029291956
 30
-161.9826847722717
 10
121.6516390630856
 20
298.6847348288965
 30
-162.1109368931588
 10
121.6125980668
 20
298.6910009085
 30
-162.1750642815
 11
121.8467336095
 21
298.6511132938
 31
-161.7904813484
 11
121.7297034574
 21
298.6718206653
 31
-161.9827110228
 11
121.6125980668
 21
298.6910009085
 31
-162.1750642815
  0
SPLINE
  5
9B3
330
1B
100
AcDbEntity
  8
0
  6
Continuous
100
AcDbSpline
210
0.7071067811872328
220
-4.303315000000000E-10
230
-0.7071067811858623
 70
     8
 71
     3
 72
     9
 73
     5
 74
     3
 42
0.0000000001
 43
0.0000000001
 44
0.0000000001
 40
0.0
 40
0.0
 40
0.0
 40
0.0
 40
0.0792018459628728
 40
0.1583338956414534
 40
0.1583338956414534
 40
0.1583338956414534
 40
0.1583338956414534
 10
121.9586921817
 20
298.6514914269
 30
-161.6785227762
 10
121.940024114264
 20
298.651475657379
 30
-161.697190843636
 10
121.9027044305458
 20
298.6514441322339
 30
-161.7345105273542
 10
121.8653850661776
 20
298.6512235408645
 30
-161.7718298917224
 10
121.8467336095
 20
298.6511132938
 30
-161.7904813484
 11
121.9586921817
 21
298.6514914269
 31
-161.6785227762
 11
121.9026880593
 21
298.6513968101
 31
-161.7345268986
 11
121.8467336095
 21
298.6511132938
 31
-161.7904813484
  0
SPLINE
  5
9B4
330
1B
100
AcDbEntity
  8
0
  6
Continuous
100
AcDbSpline
210
0.7071067811864764
220
-1.293900000000000E-11
230
-0.7071067811866189
 70
     8
 71
     3
 72
     9
 73
     5
 74
     3
 42
0.0000000001
 43
0.0000000001
 44
0.0000000001
 40
0.0
 40
0.0
 40
0.0
 40
0.0
 40
0.0791427553109659
 40
0.1583339020831392
 40
0.1583339020831392
 40
0.1583339020831392
 40
0.1583339020831392
 10
121.5458368055
 20
298.4676366651
 30
-161.4895845445
 10
121.5644907838754
 20
298.467747538628
 30
-161.4709305661247
 10
121.6018101465124
 20
298.467969353477
 30
-161.4336112034876
 10
121.6391298320425
 20
298.4680010497966
 30
-161.3962915179575
 10
121.6577953778
 20
298.4680169028
 30
-161.3776259722
 11
121.5458368055
 21
298.4676366651
 31
-161.4895845445
 11
121.6017988213
 21
298.4679217851
 31
-161.4336225287
 11
121.6577953778
 21
298.4680169028
 31
-161.3776259722
  0
SPLINE
  5
9B5
330
1B
100
AcDbEntity
  8
0
  6
Continuous
100
AcDbSpline
210
-0.326646308812616
220
-4.691192380000000E-8
230
0.9451466494354676
 70
     8
 71
     3
 72
     9
 73
     5
 74
     3
 42
0.0000000001
 43
0.0000000001
 44
0.0000000001
 40
0.0
 40
0.0
 40
0.0
 40
0.0
 40
0.2489134873487325
 40
0.4965087255845515
 40
0.4965087255845515
 40
0.4965087255845515
 40
0.4965087255845515
 10
121.0860295029
 20
298.3684296465
 30
-161.6484957176
 10
121.162780757735
 20
298.3854582355867
 30
-161.6219701885698
 10
121.315876791747
 20
298.4194252301278
 30
-161.569059610061
 10
121.4693192660724
 20
298.4515946571172
 30
-161.5160293005397
 10
121.5458368055
 20
298.4676366651
 30
-161.4895845445
 11
121.0860295029
 21
298.3684296465
 31
-161.6484957176
 11
121.316370338
 21
298.4190636324001
 31
-161.5688890386
 11
121.5458368055
 21
298.4676366651
 31
-161.4895845445
  0
SPLINE
  5
9B6
330
1B
100
AcDbEntity
  8
0
  6
Continuous
100
AcDbSpline
210
0.1834809635003369
220
-3.174308910000000E-8
230
0.9830232632206559
 70
     8
 71
     3
 72
     9
 73
     5
 74
     3
 42
0.0000000001
 43
0.0000000001
 44
0.0000000001
 40
0.0
 40
0.0
 40
0.0
 40
0.0
 40
0.1387081129582791
 40
0.2762324430168649
 40
0.2762324430168649
 40
0.2762324430168649
 40
0.2762324430168649
 10
120.8324617132
 20
298.2695991239
 30
-161.6011673776
 10
120.8748562580333
 20
298.2862685480887
 30
-161.6090803046843
 10
120.9592835380253
 20
298.3194651338481
 30
-161.6248386272027
 10
121.0439017238731
 20
298.3521548390834
 30
-161.6406325822516
 10
121.0860295029
 20
298.3684296465
 30
-161.6484957176
 11
120.8324617132
 21
298.2695991239
 31
-161.6011673776
 11
120.9596934841
 21
298.3194795879
 31
-161.6249151435
 11
121.0860295029
 21
298.3684296465
 31
-161.6484957176
  0
SPLINE
  5
9B7
330
1B
100
AcDbEntity
  8
0
  6
Continuous
100
AcDbSpline
210
0.4396727988526886
220
-4.095841880000000E-8
230
0.8981580205893847
 70
     8
 71
     3
 72
     9
 73
     5
 74
     3
 42
0.0000000001
 43
0.0000000001
 44
0.0000000001
 40
0.0
 40
0.0
 40
0.0
 40
0.0
 40
0.2475971659628293
 40
0.4924469685361348
 40
0.4924469685361348
 40
0.4924469685361348
 40
0.4924469685361348
 10
120.4284451844
 20
298.069209467
 30
-161.4033902985999
 10
120.4960014773978
 20
298.1031826419883
 30
-161.4364609413489
 10
120.6303644518807
 20
298.1707520221523
 30
-161.502235271624
 10
120.765346982099
 20
298.2367728668265
 30
-161.5683128913666
 10
120.8324617132
 20
298.2695991239
 30
-161.6011673776
 11
120.4284451844
 21
298.069209467
 31
-161.4033902985999
 11
120.6312706854
 21
298.1707375264
 31
-161.5026788976
 11
120.8324617132
 21
298.2695991239
 31
-161.6011673776
  0
SPLINE
  5
9B8
330
1B
100
AcDbEntity
  8
0
  6
Continuous
100
AcDbSpline
210
0.7071067811750577
220
3.398180000000000E-11
230
0.7071067811980375
 70
     8
 71
     3
 72
     9
 73
     5
 74
     3
 42
0.0000000001
 43
0.0000000001
 44
0.0000000001
 40
0.0
 40
0.0
 40
0.0
 40
0.0
 40
0.1177412719183777
 40
0.2354874263348209
 40
0.2354874263348209
 40
0.2354874263348209
 40
0.2354874263348209
 10
120.2779971196
 20
297.9682890074
 30
-161.2529422338
 10
120.303042093764
 20
297.9851957461175
 30
-161.277987207964
 10
120.3531330806576
 20
298.0190099246417
 30
-161.3280781948576
 10
120.4033408028239
 20
298.052476054923
 30
-161.3782859170239
 10
120.4284451844
 20
298.069209467
 30
-161.4033902985999
 11
120.2779971196
 21
297.9682890074
 31
-161.2529422338
 11
120.3531612247
 21
298.0189222151
 31
-161.3281063389
 11
120.4284451844
 21
298.069209467
 31
-161.4033902985999
  0
SPLINE
  5
9B9
330
1B
100
AcDbEntity
  8
0
  6
Continuous
100
AcDbSpline
210
0.9370247483519767
220
2.457116480000000E-8
230
0.3492629682286894
 70
     8
 71
     3
 72
     9
 73
     5
 74
     3
 42
0.0000000001
 43
0.0000000001
 44
0.0000000001
 40
0.0
 40
0.0
 40
0.0
 40
0.0
 40
0.1919559848215911
 40
0.3819713264976257
 40
0.3819713264976257
 40
0.3819713264976257
 40
0.3819713264976257
 10
120.1554444101
 20
297.8173665984
 30
-160.9241500745
 10
120.175937826652
 20
297.8428865079371
 30
-160.9791311084527
 10
120.2167174747162
 20
297.8936683249616
 30
-161.0885373272305
 10
120.2576398747405
 20
297.943499837899
 30
-161.1983265299152
 10
120.2779971196
 20
297.9682890074
 30
-161.2529422338
 11
120.1554444101
 21
297.8173665984
 31
-160.9241500745
 11
120.2169607113
 21
297.8936863308
 31
-161.0891898977
 11
120.2779971196
 21
297.9682890074
 31
-161.2529422338
  0
SPLINE
  5
9BA
330
1B
100
AcDbEntity
  8
0
  6
Continuous
100
AcDbSpline
210
0.9999038829490752
220
5.083962100000000E-8
230
-0.0138645181437834
 70
     8
 71
     3
 72
     9
 73
     5
 74
     3
 42
0.0000000001
 43
0.0000000001
 44
0.0000000001
 40
0.0
 40
0.0
 40
0.0
 40
0.0
 40
0.1613346420055122
 40
0.3214164707235651
 40
0.3214164707235651
 40
0.3214164707235651
 40
0.3214164707235651
 10
120.1596752794
 20
297.7164371112
 30
-160.619021727
 10
120.1589682153021
 20
297.733505112684
 30
-160.6700148637219
 10
120.1575595776771
 20
297.7675085773529
 30
-160.7716051597211
 10
120.15614763147
 20
297.8007905000114
 30
-160.8734340720806
 10
120.1554444101
 20
297.8173665984
 30
-160.9241500745
 11
120.1596752794
 21
297.7164371112
 31
-160.619021727
 11
120.1575532535
 21
297.7674593212
 31
-160.7720612572
 11
120.1554444101
 21
297.8173665984
 31
-160.9241500745
  0
SPLINE
  5
9BB
330
1B
100
AcDbEntity
  8
0
  6
Continuous
100
AcDbSpline
210
-0.8768677857096459
220
-1.062817564000000E-7
230
0.4807316157531675
 70
     8
 71
     3
 72
     9
 73
     5
 74
     3
 42
0.0000000001
 43
0.0000000001
 44
0.0000000001
 40
0.0
 40
0.0
 40
0.0
 40
0.0
 40
0.1915251825015932
 40
0.3829880583700292
 40
0.3829880583700292
 40
0.3829880583700292
 40
0.3829880583700292
 10
120.3422509385
 20
297.6670371726
 30
-160.2859986775
 10
120.3118342252601
 20
297.6755519207575
 30
-160.3414796032562
 10
120.2510106938917
 20
297.6925786470696
 30
-160.4524234058121
 10
120.1901171153949
 20
297.7084851524095
 30
-160.5634949765182
 10
120.1596752794
 20
297.7164371112
 30
-160.619021727
 11
120.3422509385
 21
297.6670371726
 31
-160.2859986775
 11
120.2509832813
 21
297.6923012707
 31
-160.4524734072
 11
120.1596752794
 21
297.7164371112
 31
-160.619021727
  0
SPLINE
  5
9BC
330
1B
100
AcDbEntity
  8
0
  6
Continuous
100
AcDbSpline
210
0.7071067808712668
220
3.626367779000000E-7
230
-0.7071067815017355
 70
     8
 71
     3
 72
     9
 73
     5
 74
     3
 42
0.0000000001
 43
0.0000000001
 44
0.0000000001
 40
0.0
 40
0.0
 40
0.0
 40
0.0
 40
0.0791819300891907
 40
0.1583339307762652
 40
0.1583339307762652
 40
0.1583339307762652
 40
0.1583339307762652
 10
120.4542095107
 20
297.6674268745
 30
-160.1740401052
 10
120.4355461366562
 20
297.6674106306869
 30
-160.1927034792354
 10
120.3982264430018
 20
297.6673781492005
 30
-160.2300231728733
 10
120.3609070885443
 20
297.6671508171428
 30
-160.2673425274141
 10
120.3422509385
 20
297.6670371726
 30
-160.2859986775
 11
120.4542095107
 21
297.6674268745
 31
-160.1740401052
 11
120.3982194734
 21
297.667329412
 31
-160.2300301425
 11
120.3422509385
 21
297.6670371726
 31
-160.2859986775
  0
SPLINE
  5
9BD
330
1B
100
AcDbEntity
  8
0
  6
Continuous
100
AcDbSpline
210
0.7071067835247427
220
-2.471421467800000E-6
230
-0.7071067788440335
 70
     8
 71
     3
 72
     9
 73
     5
 74
     3
 42
0.0000000001
 43
0.0000000001
 44
0.0000000001
 40
0.0
 40
0.0
 40
0.0
 40
0.0
 40
0.0427051480466294
 40
0.0854167627910313
 40
0.0854167627910313
 40
0.0854167627910313
 40
0.0854167627910313
 10
120.0176896327
 20
297.3943839873
 30
-159.8583176362
 10
120.0277553078291
 20
297.3944173476501
 30
-159.8482519611209
 10
120.0478881822987
 20
297.3944840734018
 30
-159.8281190867512
 10
120.0680211108277
 20
297.3944936062933
 30
-159.8079861581223
 10
120.0780883372
 20
297.3944983731
 30
-159.7979189317
 11
120.0176896327
 21
297.3943839873
 31
-159.8583176362
 11
120.0478866716
 21
297.3944697723
 31
-159.8281205974
 11
120.0780883372
 21
297.3944983731
 31
-159.7979189317
  0
SPLINE
  5
9BE
330
1B
100
AcDbEntity
  8
0
  6
Continuous
100
AcDbSpline
210
-0.836509967072317
220
3.559900860000000E-8
230
0.5479517086282968
 70
     8
 71
     3
 72
     9
 73
     5
 74
     3
 42
0.0000000001
 43
0.0000000001
 44
0.0000000001
 40
0.0
 40
0.0
 40
0.0
 40
0.0
 40
0.2618759974729501
 40
0.5237855407992549
 40
0.5237855407992549
 40
0.5237855407992549
 40
0.5237855407992549
 10
119.731995571
 20
297.4444229844
 30
-160.2944617857
 10
119.7796361908032
 20
297.436615976686
 30
-160.2217330160779
 10
119.8749235330891
 20
297.4210009611942
 30
-160.0762661604067
 10
119.9700989009937
 20
297.4032566907422
 30
-159.9309702460953
 10
120.0176896327
 20
297.3943839873
 30
-159.8583176362
 11
119.731995571
 21
297.4444229844
 31
-160.2944617857
 11
119.8748894404
 21
297.4204697157
 31
-160.0763182067
 11
120.0176896327
 21
297.3943839873
 31
-159.8583176362
  0
SPLINE
  5
9BF
330
1B
100
AcDbEntity
  8
0
  6
Continuous
100
AcDbSpline
210
0.9879867756333836
220
-1.271598196000000E-7
230
-0.154538445616404
 70
     8
 71
     3
 72
     9
 73
     5
 74
     3
 42
0.0000000001
 43
0.0000000001
 44
0.0000000001
 40
0.0
 40
0.0
 40
0.0
 40
0.0
 40
0.1872235306399425
 40
0.3753987762143812
 40
0.3753987762143812
 40
0.3753987762143812
 40
0.3753987762143812
 10
119.6762035117
 20
297.5473057518
 30
-160.6511486259
 10
119.685489808123
 20
297.530456281513
 30
-160.5917799673988
 10
119.704109606077
 20
297.4966716898862
 30
-160.4727408611997
 10
119.7226845522259
 20
297.4618686305896
 30
-160.3539884982806
 10
119.731995571
 20
297.4444229844
 30
-160.2944617857
 11
119.6762035117
 21
297.5473057518
 31
-160.6511486259
 11
119.7040512448
 21
297.4965040134
 31
-160.4731139732
 11
119.731995571
 21
297.4444229844
 31
-160.2944617857
  0
SPLINE
  5
9C0
330
1B
100
AcDbEntity
  8
0
  6
Continuous
100
AcDbSpline
210
0.9830230906612197
220
7.507699600000000E-9
230
0.1834818880076821
 70
     8
 71
     3
 72
     9
 73
     5
 74
     3
 42
0.0000000001
 43
0.0000000001
 44
0.0000000001
 40
0.0
 40
0.0
 40
0.0
 40
0.0
 40
0.2753537236727363
 40
0.5550046281429311
 40
0.5550046281429311
 40
0.5550046281429311
 40
0.5550046281429311
 10
119.7708608238
 20
297.7519467803
 30
-161.1582849217
 10
119.7551692926071
 20
297.7186187719448
 30
-161.0742159277072
 10
119.7235413475821
 20
297.6514426370545
 30
-160.9047659557693
 10
119.6920640291264
 20
297.582196761339
 30
-160.7361229810873
 10
119.6762035117
 20
297.5473057518
 30
-160.6511486259
 11
119.7708608238
 21
297.7519467803
 31
-161.1582849217
 11
119.723823306
 21
297.6514533016
 31
-160.906276577
 11
119.6762035117
 21
297.5473057518
 31
-160.6511486259
  0
SPLINE
  5
9C1
330
1B
100
AcDbEntity
  8
0
  6
Continuous
100
AcDbSpline
210
0.8163737404458892
220
3.049907570000000E-8
230
0.57752395267243
 70
     8
 71
     3
 72
     9
 73
     5
 74
     3
 42
0.0000000001
 43
0.0000000001
 44
0.0000000001
 40
0.0
 40
0.0
 40
0.0
 40
0.0
 40
0.2375369616024036
 40
0.4776468217075382
 40
0.4776468217075382
 40
0.4776468217075382
 40
0.4776468217075382
 10
120.0201977863
 20
297.9562733311
 30
-161.510741567
 10
119.9787674097554
 20
297.922761139911
 30
-161.4521765978184
 10
119.8954579005945
 20
297.8553737678493
 30
-161.3344123088241
 10
119.8125420612398
 20
297.7865460256164
 30
-161.2172045017675
 10
119.7708608238
 20
297.7519467803
 30
-161.1582849217
 11
120.0201977863
 21
297.9562733311
 31
-161.510741567
 11
119.8960040167
 21
297.8553805339
 31
-161.3351842852
 11
119.7708608238
 21
297.7519467803
 31
-161.1582849217
  0
SPLINE
  5
9C2
330
1B
100
AcDbEntity
  8
0
  6
Continuous
100
AcDbSpline
210
0.7071067811351006
220
1.534258000000000E-10
230
0.7071067812379946
 70
     8
 71
     3
 72
     9
 73
     5
 74
     3
 42
0.0000000001
 43
0.0000000001
 44
0.0000000001
 40
0.0
 40
0.0
 40
0.0
 40
0.0
 40
0.1177524597265255
 40
0.2355033923555621
 40
0.2355033923555621
 40
0.2355033923555621
 40
0.2355033923555621
 10
120.1706458511
 20
298.0572310395
 30
-161.6611896318
 10
120.1455418055542
 20
298.0404916901971
 30
-161.6360855862542
 10
120.0953340400296
 20
298.0070132086791
 30
-161.5858778207296
 10
120.04524309594
 20
297.9731865505112
 30
-161.53578687664
 10
120.0201977863
 20
297.9562733311
 30
-161.510741567
 11
120.1706458511
 21
298.0572310395
 31
-161.6611896318
 11
120.0953629202
 21
298.0069259463
 31
-161.5859067009
 11
120.0201977863
 21
297.9562733311
 31
-161.510741567
  0
SPLINE
  5
9C3
330
1B
100
AcDbEntity
  8
0
  6
Continuous
100
AcDbSpline
210
0.5775239535738703
220
-3.321026150000000E-8
230
0.816373739808187
 70
     8
 71
     3
 72
     9
 73
     5
 74
     3
 42
0.0000000001
 43
0.0000000001
 44
0.0000000001
 40
0.0
 40
0.0
 40
0.0
 40
0.0
 40
0.2378436023114625
 40
0.4756198317411756
 40
0.4756198317411756
 40
0.4756198317411756
 40
0.4756198317411756
 10
120.5231024964
 20
298.2567733791
 30
-161.9105265944
 10
120.4642167802841
 20
298.2238683946722
 30
-161.8688693131461
 10
120.3464620283427
 20
298.1580677466625
 30
-161.7855665507079
 10
120.2292457088409
 20
298.0908401008927
 30
-161.702644689398
 10
120.1706458511
 20
298.0572310395
 30
-161.6611896318
 11
120.5231024964
 21
298.2567733791
 31
-161.9105265944
 11
120.3465799943
 21
298.1577015753
 31
-161.7856500029
 11
120.1706458511
 21
298.0572310395
 31
-161.6611896318
  0
SPLINE
  5
9C4
330
1B
100
AcDbEntity
  8
0
  6
Continuous
100
AcDbSpline
210
0.3492628525405625
220
-9.814868780000000E-8
230
0.937024791473107
 70
     8
 71
     3
 72
     9
 73
     5
 74
     3
 42
0.0000000001
 43
0.0000000001
 44
0.0000000001
 40
0.0
 40
0.0
 40
0.0
 40
0.0
 40
0.1894734422851223
 40
0.3808780191935462
 40
0.3808780191935462
 40
0.3808780191935462
 40
0.3808780191935462
 10
120.8518946978
 20
298.4049069733
 30
-162.0330792618
 10
120.7972814302638
 20
298.3805768310878
 30
-162.0127229346335
 10
120.6874982706292
 20
298.3316685711187
 30
-161.9718028063258
 10
120.5780860024969
 20
298.2818226862754
 30
-161.9310209227233
 10
120.5231024964
 20
298.2567733791
 30
-161.9105265944
 11
120.8518946978
 21
298.4049069733
 31
-162.0330792618
 11
120.6881466802
 21
298.3316845114
 31
-161.9720444919
 11
120.5231024964
 21
298.2567733791
 31
-161.9105265944
  0
SPLINE
  5
9C5
330
1B
100
AcDbEntity
  8
0
  6
Continuous
100
AcDbSpline
210
-0.0449460059394619
220
7.839778429999999E-8
230
-0.9989894176366853
 70
     8
 71
     3
 72
     9
 73
     5
 74
     3
 42
0.0000000001
 43
0.0000000001
 44
0.0000000001
 40
0.0
 40
0.0
 40
0.0
 40
0.0
 40
0.2266626812131929
 40
0.4567665714845948
 40
0.4567665714845948
 40
0.4567665714845948
 40
0.4567665714845948
 10
121.2838059076
 20
298.5522451955
 30
-162.052511572
 10
121.2122430379162
 20
298.5282263216936
 30
-162.0492918549278
 10
121.0680308259363
 20
298.4798239178186
 30
-162.0428035388085
 10
120.9243010199255
 20
298.4300043990023
 30
-162.0363369269557
 10
120.8518946978
 20
298.4049069733
 30
-162.0330792618
 11
121.2838059076
 21
298.5522451955
 31
-162.052511572
 11
121.0692360897
 21
298.4798396134
 31
-162.0428577654
 11
120.8518946978
 21
298.4049069733
 31
-162.0330792618
  0
SPLINE
  5
9C6
330
1B
100
AcDbEntity
  8
0
  6
Continuous
100
AcDbSpline
210
-0.9671229581978211
220
-2.303881510000000E-8
230
0.2543092285519642
 70
     8
 71
     3
 72
     9
 73
     5
 74
     3
 42
0.0000000001
 43
0.0000000001
 44
0.0000000001
 40
0.0
 40
0.0
 40
0.0
 40
0.0
 40
0.2146715917890705
 40
0.4297887090533317
 40
0.4297887090533317
 40
0.4297887090533317
 40
0.4297887090533317
 10
121.1764552713
 20
298.6330274555
 30
-162.4607596866
 10
121.1943448648254
 20
298.6199140276609
 30
-162.3927266214707
 10
121.2301611796095
 20
298.5936599566156
 30
-162.2565192966395
 10
121.2659119783303
 20
298.566059652836
 30
-162.1205611256452
 10
121.2838059076
 20
298.5522451955
 30
-162.052511572
 11
121.1764552713
 21
298.6330274555
 31
-162.4607596866
 11
121.2301077068
 21
298.5933513112
 31
-162.2567226506
 11
121.2838059076
 21
298.5522451955
 31
-162.052511572
  0
SPLINE
  5
9C7
330
1B
100
AcDbEntity
  8
0
  6
Continuous
100
AcDbSpline
210
0.9370247000947443
220
-1.630115780000000E-8
230
0.3492630976962126
 70
     8
 71
     3
 72
     9
 73
     5
 74
     3
 42
0.0000000001
 43
0.0000000001
 44
0.0000000001
 40
0.0
 40
0.0
 40
0.0
 40
0.0
 40
0.1856714836805022
 40
0.3736029004139008
 40
0.3736029004139008
 40
0.3736029004139008
 40
0.3736029004139008
 10
121.299008023
 20
298.7613034052
 30
-162.7895518037
 10
121.2786766406453
 20
298.7402842860468
 30
-162.7350055111302
 10
121.237766408947
 20
298.6979902098424
 30
-162.6252490062165
 10
121.1969745674636
 20
298.6547688559552
 30
-162.5158101259571
 10
121.1764552713
 20
298.6330274555
 30
-162.4607596866
 11
121.299008023
 21
298.7613034052
 31
-162.7895518037
 11
121.2380431165
 21
298.6980170244
 31
-162.6259913744
 11
121.1764552713
 21
298.6330274555
 31
-162.4607596866
  0
SPLINE
  5
9C8
330
1B
100
AcDbEntity
  8
0
  6
Continuous
100
AcDbSpline
210
0.8163741166242411
220
2.075868700000000E-8
230
0.5775234209155414
 70
     8
 71
     3
 72
     9
 73
     5
 74
     3
 42
0.0000000001
 43
0.0000000001
 44
0.0000000001
 40
0.0
 40
0.0
 40
0.0
 40
0.0
 40
0.2306428743347075
 40
0.4638453163225494
 40
0.4638453163225494
 40
0.4638453163225494
 40
0.4638453163225494
 10
121.5483442269
 20
298.9308805552
 30
-163.1420078589
 10
121.5069385486241
 20
298.9031217446948
 30
-163.0834777224973
 10
121.4236676910577
 20
298.8472960692794
 30
-162.9657679093828
 10
121.3407138296135
 20
298.7900728819213
 30
-162.8485061948057
 10
121.299008023
 20
298.7613034052
 30
-162.7895518037
 11
121.5483442269
 21
298.9308805552
 31
-163.1420078589
 11
121.4242055689
 21
298.8472585909
 31
-162.9665282414
 11
121.299008023
 21
298.7613034052
 31
-162.7895518037
  0
SPLINE
  5
9C9
330
1B
100
AcDbEntity
  8
0
  6
Continuous
100
AcDbSpline
210
0.707106781173734
220
4.641610000000000E-11
230
0.7071067811993612
 70
     8
 71
     3
 72
     9
 73
     5
 74
     3
 42
0.0000000001
 43
0.0000000001
 44
0.0000000001
 40
0.0
 40
0.0
 40
0.0
 40
0.0
 40
0.2284139174153058
 40
0.4568134506854285
 40
0.4568134506854285
 40
0.4568134506854285
 40
0.4568134506854285
 10
121.8492410308
 20
299.0970089773
 30
-163.4429046628
 10
121.7989967553546
 20
299.0696577534355
 30
-163.3926603873546
 10
121.6985113685485
 20
299.0149570281234
 30
-163.2921750005485
 10
121.598398890002
 20
298.958905457857
 30
-163.192062522002
 10
121.5483442269
 20
298.9308805552
 30
-163.1420078589
 11
121.8492410308
 21
299.0970089773
 31
-163.4429046628
 11
121.6986014374
 21
299.0146175732
 31
-163.2922650694
 11
121.5483442269
 21
298.9308805552
 31
-163.1420078589
  0
SPLINE
  5
9CA
330
1B
100
AcDbEntity
  8
0
  6
Continuous
100
AcDbSpline
210
0.0
220
0.0
230
1.0
 70
     8
 71
     3
 72
    13
 73
     9
 74
     7
 42
0.0000000001
 43
0.0000000001
 44
0.0000000001
 40
0.0
 40
0.0
 40
0.0
 40
0.0
 40
0.0564000309984658
 40
0.1647239981585083
 40
0.3276611560448457
 40
0.5365983574413973
 40
0.7784023890014236
 40
1.037289059238169
 40
1.037289059238169
 40
1.037289059238169
 40
1.037289059238169
 10
198.1367721225
 20
321.424568248
 30
0.0
 10
198.1204802564801
 20
321.4142747969033
 30
0.0
 10
198.072897635323
 20
321.3842113662727
 30
0.0
 10
198.0449679879282
 20
321.2702188094731
 30
0.0
 10
198.0076422850457
 20
321.1184231359432
 30
0.0
 10
197.9837217280501
 20
320.9133510749913
 30
0.0
 10
197.9662130571346
 20
320.6779310208408
 30
0.0
 10
197.9641768066753
 20
320.510921853357
 30
0.0
 10
197.9631239449
 20
320.424568248
 30
0.0
 11
198.1367721225
 21
321.424568248
 31
0.0
 11
198.0918286671
 21
321.3904940743
 31
0.0
 11
198.0499480338
 21
321.2905936518
 31
0.0
 11
198.0139843186
 21
321.1316750292
 31
0.0
 11
197.9863883894
 21
320.924568248
 31
0.0
 11
197.969040863
 21
320.6833872931
 31
0.0
 11
197.9631239449
 21
320.424568248
 31
0.0
  0
SPLINE
  5
9CB
330
1B
100
AcDbEntity
  8
0
  6
Continuous
100
AcDbSpline
210
0.0
220
0.0
230
1.0
 70
     8
 71
     3
 72
    13
 73
     9
 74
     7
 42
0.0000000001
 43
0.0000000001
 44
0.0000000001
 40
0.0
 40
0.0
 40
0.0
 40
0.0
 40
0.0564001455492297
 40
0.1647243535835768
 40
0.3276617618809619
 40
0.5365990623912884
 40
0.7784029080352282
 40
1.037289058322017
 40
1.037289058322017
 40
1.037289058322017
 40
1.037289058322017
 10
198.1367721225
 20
309.924568248
 30
0.0
 10
198.1204802305297
 20
309.9348617308006
 30
0.0
 10
198.0728975275537
 20
309.9649252578344
 30
0.0
 10
198.0449678880308
 20
310.0789180373349
 30
0.0
 10
198.0076421814882
 20
310.2307139096938
 30
0.0
 10
197.9837216622883
 20
310.4357860284766
 30
0.0
 10
197.966213040251
 20
310.671205884405
 30
0.0
 10
197.9641768005054
 20
310.8382148162008
 30
0.0
 10
197.9631239449
 20
310.924568248
 30
0.0
 11
198.1367721225
 21
309.924568248
 31
0.0
 11
198.0918285978
 21
309.9586425199
 31
0.0
 11
198.0499479216
 21
310.0585431856
 31
0.0
 11
198.013984204
 21
310.2174620644
 31
0.0
 11
197.9863883094
 21
310.4245689502
 31
0.0
 11
197.969040833
 21
310.6657497223
 31
0.0
 11
197.9631239449
 21
310.924568248
 31
0.0
  0
SPLINE
  5
9CC
330
1B
100
AcDbEntity
  8
0
  6
Continuous
100
AcDbSpline
210
0.0
220
0.0
230
1.0
 70
     8
 71
     3
 72
    25
 73
    21
 74
    19
 42
0.0000000001
 43
0.0000000001
 44
0.0000000001
 40
0.0
 40
0.0
 40
0.0
 40
0.0
 40
0.8299406019819703
 40
1.661403510627701
 40
2.493033394701345
 40
3.32337122741251
 40
4.151883365402815
 40
4.978678008030536
 40
5.803992000094318
 40
6.628181993096955
 40
7.451794659419539
 40
8.275408398409365
 40
9.099599709486602
 40
9.924914800374415
 40
10.75171033867036
 40
11.58022401901198
 40
12.41056324703325
 40
13.24218923228932
 40
14.07364102146164
 40
14.90363097762696
 40
14.90363097762696
 40
14.90363097762696
 40
14.90363097762696
 10
197.9631239449
 20
310.924568248
 30
0.0
 10
197.6861254893963
 20
310.9385935994857
 30
0.0
 10
197.1316204979388
 20
310.9666700282572
 30
0.0
 10
196.3249757866466
 20
311.1917665993593
 30
0.0
 10
195.5683766801818
 20
311.5437675502126
 30
0.0
 10
194.8859103021681
 20
312.024443805294
 30
0.0
 10
194.2985126156111
 20
312.6145995153066
 30
0.0
 10
193.8234715040806
 20
313.2965608482422
 30
0.0
 10
193.4743699252792
 20
314.0491289072778
 30
0.0
 10
193.2609866708258
 20
314.8497120119977
 30
0.0
 10
193.189202756657
 20
315.6745476404565
 30
0.0
 10
193.2609795294512
 20
316.4993843470514
 30
0.0
 10
193.4743563283466
 20
317.2999703943876
 30
0.0
 10
193.8234522047393
 20
318.0525423387157
 30
0.0
 10
194.2984885822998
 20
318.734508413976
 30
0.0
 10
194.8858825726665
 20
319.3246696577289
 30
0.0
 10
195.5683452553529
 20
319.805350597307
 30
0.0
 10
196.3249373019701
 20
320.1573558252015
 30
0.0
 10
197.1315911532234
 20
320.3824623657052
 30
0.0
 10
197.6861089800116
 20
320.4105411890286
 30
0.0
 10
197.9631239449
 20
320.424568248
 30
0.0
 11
197.9631239449
 21
310.924568248
 31
0.0
 11
197.1363563336
 21
310.9970714874
 31
0.0
 11
196.3333945419
 21
311.2129022765
 31
0.0
 11
195.5802219692
 21
311.5655201147
 31
0.0
 11
194.9010849348
 21
312.0432583327
 31
0.0
 11
194.316690949
 21
312.6305538564
 31
0.0
 11
193.8440930507
 21
313.3089642098
 31
0.0
 11
193.4967975592
 21
314.0576490748
 31
0.0
 11
193.2845315666
 21
314.8540360994
 31
0.0
 11
193.2131239473
 21
315.6745473888
 31
0.0
 11
193.2845245182
 21
316.4950603683
 31
0.0
 11
193.4967841224
 21
317.2914504597
 31
0.0
 11
193.8440739418
 21
318.0401391671
 31
0.0
 11
194.3166669447
 21
318.7185540223
 31
0.0
 11
194.9010574698
 21
319.3058551654
 31
0.0
 11
195.5801921411
 21
319.7835991678
 31
0.0
 11
196.3333584046
 21
320.1362212869
 31
0.0
 11
197.1363075571
 21
320.3520562614
 31
0.0
 11
197.9631239449
 21
320.424568248
 31
0.0
  0
SPLINE
  5
9CD
330
1B
100
AcDbEntity
  8
0
  6
Continuous
100
AcDbSpline
210
0.0
220
0.0
230
1.0
 70
    24
 71
     3
 72
     8
 73
     4
 74
     2
 42
0.0000000001
 43
0.0000000001
 44
0.0000000001
 40
0.0
 40
0.0
 40
0.0
 40
0.0
 40
0.5062234289604045
 40
0.5062234289604045
 40
0.5062234289604045
 40
0.5062234289604045
 10
201.8221121563
 20
321.924568248
 30
0.0
 10
201.8558528520333
 20
321.7592348309667
 30
0.0
 10
201.8895935477666
 20
321.5939014139333
 30
0.0
 10
201.9233342435
 20
321.4285679969
 30
0.0
 11
201.8221121563
 21
321.924568248
 31
0.0
 11
201.9233342435
 21
321.4285679969
 31
0.0
  0
SPLINE
  5
9CE
330
1B
100
AcDbEntity
  8
0
  6
Continuous
100
AcDbSpline
210
0.0
220
0.0
230
1.0
 70
    24
 71
     3
 72
     8
 73
     4
 74
     2
 42
0.0000000001
 43
0.0000000001
 44
0.0000000001
 40
0.0
 40
0.0
 40
0.0
 40
0.0
 40
0.5062234289804032
 40
0.5062234289804032
 40
0.5062234289804032
 40
0.5062234289804032
 10
228.8502100015
 20
321.4285679969
 30
0.0
 10
228.8839506972667
 20
321.5939014139333
 30
0.0
 10
228.9176913930334
 20
321.7592348309667
 30
0.0
 10
228.9514320888
 20
321.924568248
 30
0.0
 11
228.8502100015
 21
321.4285679969
 31
0.0
 11
228.9514320888
 21
321.924568248
 31
0.0
  0
SPLINE
  5
9CF
330
1B
100
AcDbEntity
  8
0
  6
Continuous
100
AcDbSpline
210
0.0
220
0.0
230
1.0
 70
     8
 71
     3
 72
    10
 73
     6
 74
     4
 42
0.0000000001
 43
0.0000000001
 44
0.0000000001
 40
0.0
 40
0.0
 40
0.0
 40
0.0
 40
1.196692055688373
 40
2.36859787767462
 40
3.515655957999825
 40
3.515655957999825
 40
3.515655957999825
 40
3.515655957999825
 10
228.1905801498
 20
321.924568248
 30
0.0
 10
227.9887877552234
 20
322.2686597066621
 30
0.0
 10
227.589382548802
 20
322.9497157016767
 30
0.0
 10
226.9957391113635
 20
323.9601132459079
 30
0.0
 10
226.6034960499371
 20
324.6261881912757
 30
0.0
 10
226.4094759651
 20
324.9556571612
 30
0.0
 11
228.1905801498
 21
321.924568248
 31
0.0
 11
227.5850627416
 21
322.9567603544
 31
0.0
 11
226.9913723968
 21
323.9671538570001
 31
0.0
 11
226.4094759651
 21
324.9556571612
 31
0.0
  0
SPLINE
  5
9D0
330
1B
100
AcDbEntity
  8
0
  6
Continuous
100
AcDbSpline
210
0.0
220
0.0
230
1.0
 70
     8
 71
     3
 72
    10
 73
     6
 74
     4
 42
0.0000000001
 43
0.0000000001
 44
0.0000000001
 40
0.0
 40
0.0
 40
0.0
 40
0.0
 40
1.146472526150235
 40
2.31837401338114
 40
3.515655958063521
 40
3.515655958063521
 40
3.515655958063521
 40
3.515655958063521
 10
204.36406828
 20
324.9556571612
 30
0.0
 10
204.170147198024
 20
324.626356404012
 30
0.0
 10
203.7780038305684
 20
323.9604509412662
 30
0.0
 10
203.1843599877313
 20
322.9500536351836
 30
0.0
 10
202.7848559875086
 20
322.2688293045261
 30
0.0
 10
202.5829640952
 20
321.924568248
 30
0.0
 11
204.36406828
 21
324.9556571612
 31
0.0
 11
203.7824686863
 21
323.9676585955
 31
0.0
 11
203.188780156
 21
322.9572690544
 31
0.0
 11
202.5829640952
 21
321.924568248
 31
0.0
  0
SPLINE
  5
9D1
330
1B
100
AcDbEntity
  8
0
  6
Continuous
100
AcDbSpline
210
0.0
220
0.0
230
1.0
 70
    24
 71
     3
 72
     8
 73
     4
 74
     2
 42
0.0000000001
 43
0.0000000001
 44
0.0000000001
 40
0.0
 40
0.0
 40
0.0
 40
0.0
 40
0.6910577241723037
 40
0.6910577241723037
 40
0.6910577241723037
 40
0.6910577241723037
 10
122.7092537188
 20
278.4729420314
 30
0.0
 10
122.9388887056
 20
278.4911101771334
 30
0.0
 10
123.1685236924
 20
278.5092783228666
 30
0.0
 10
123.3981586792
 20
278.5274464686
 30
0.0
 11
122.7092537188
 21
278.4729420314
 31
0.0
 11
123.3981586792
 21
278.5274464686
 31
0.0
  0
SPLINE
  5
9D2
330
1B
100
AcDbEntity
  8
0
  6
Continuous
100
AcDbSpline
210
0.0
220
0.0
230
1.0
 70
    24
 71
     3
 72
     8
 73
     4
 74
     2
 42
0.0000000001
 43
0.0000000001
 44
0.0000000001
 40
0.0
 40
0.0
 40
0.0
 40
0.0
 40
0.5883445129634423
 40
0.5883445129634423
 40
0.5883445129634423
 40
0.5883445129634423
 10
122.7091422217
 20
270.4728925851
 30
0.0
 10
122.9046419929333
 20
270.4884125398666
 30
0.0
 10
123.1001417641666
 20
270.5039324946333
 30
0.0
 10
123.2956415354
 20
270.5194524494
 30
0.0
 11
122.7091422217
 21
270.4728925851
 31
0.0
 11
123.2956415354
 21
270.5194524494
 31
0.0
  0
SPLINE
  5
9D3
330
1B
100
AcDbEntity
  8
0
  6
Continuous
100
AcDbSpline
210
0.0
220
0.0
230
1.0
 70
     8
 71
     3
 72
     9
 73
     5
 74
     3
 42
0.0000000001
 43
0.0000000001
 44
0.0000000001
 40
0.0
 40
0.0
 40
0.0
 40
0.0
 40
1.02857704101532
 40
1.69276133828504
 40
1.69276133828504
 40
1.69276133828504
 40
1.69276133828504
 10
129.2787287661
 20
270.9581512798
 30
0.0
 10
129.6207523981644
 20
270.9820707780207
 30
0.0
 10
130.1836313640091
 20
271.0214358427699
 30
0.0
 10
130.7465276413525
 20
271.0605525274165
 30
0.0
 10
130.9673897676
 20
271.0759006377
 30
0.0
 11
129.2787287661
 21
270.9581512798
 31
0.0
 11
130.304806054
 21
271.0298180682
 31
0.0
 11
130.9673897676
 21
271.0759006377
 31
0.0
  0
SPLINE
  5
9D4
330
1B
100
AcDbEntity
  8
0
  6
Continuous
100
AcDbSpline
210
0.0
220
0.0
230
1.0
 70
    24
 71
     3
 72
     8
 73
     4
 74
     2
 42
0.0000000001
 43
0.0000000001
 44
0.0000000001
 40
0.0
 40
0.0
 40
0.0
 40
0.0
 40
0.4854203005726304
 40
0.4854203005726304
 40
0.4854203005726304
 40
0.4854203005726304
 10
122.7094071636
 20
262.4728323706
 30
0.0
 10
122.8707049902667
 20
262.4856558223
 30
0.0
 10
123.0320028169333
 20
262.498479274
 30
0.0
 10
123.1933006436
 20
262.5113027257
 30
0.0
 11
122.7094071636
 21
262.4728323706
 31
0.0
 11
123.1933006436
 21
262.5113027257
 31
0.0
  0
SPLINE
  5
9D5
330
1B
100
AcDbEntity
  8
0
  6
Continuous
100
AcDbSpline
210
0.0
220
0.0
230
1.0
 70
    24
 71
     3
 72
     8
 73
     4
 74
     2
 42
0.0000000001
 43
0.0000000001
 44
0.0000000001
 40
0.0
 40
0.0
 40
0.0
 40
0.0
 40
1.685432124103051
 40
1.685432124103051
 40
1.685432124103051
 40
1.685432124103051
 10
129.278722292
 20
262.9581405406
 30
0.0
 10
129.8391719386333
 20
262.9972233405334
 30
0.0
 10
130.3996215852667
 20
263.0363061404667
 30
0.0
 10
130.9600712319
 20
263.0753889404
 30
0.0
 11
129.278722292
 21
262.9581405406
 31
0.0
 11
130.9600712319
 21
263.0753889404
 31
0.0
  0
SPLINE
  5
9D6
330
1B
100
AcDbEntity
  8
0
  6
Continuous
100
AcDbSpline
210
0.0
220
0.0
230
1.0
 70
    24
 71
     3
 72
     8
 73
     4
 74
     2
 42
0.0000000001
 43
0.0000000001
 44
0.0000000001
 40
0.0
 40
0.0
 40
0.0
 40
0.0
 40
1.205723230295877
 40
1.205723230295877
 40
1.205723230295877
 40
1.205723230295877
 10
136.6682339018
 20
277.3253596166
 30
0.0
 10
137.0690866128
 20
277.3544618212334
 30
0.0
 10
137.4699393238
 20
277.3835640258667
 30
0.0
 10
137.8707920348
 20
277.4126662305
 30
0.0
 11
136.6682339018
 21
277.3253596166
 31
0.0
 11
137.8707920348
 21
277.4126662305
 31
0.0
  0
SPLINE
  5
9D7
330
1B
100
AcDbEntity
  8
0
  6
Continuous
100
AcDbSpline
210
0.0
220
0.0
230
1.0
 70
    24
 71
     3
 72
     8
 73
     4
 74
     2
 42
0.0000000001
 43
0.0000000001
 44
0.0000000001
 40
0.0
 40
0.0
 40
0.0
 40
0.0
 40
0.1336311293160557
 40
0.1336311293160557
 40
0.1336311293160557
 40
0.1336311293160557
 10
143.8445555197
 20
277.8933543304
 30
0.0
 10
143.8889125493
 20
277.8974281499
 30
0.0
 10
143.9332695789
 20
277.9015019694
 30
0.0
 10
143.9776266085
 20
277.9055757889
 30
0.0
 11
143.8445555197
 21
277.8933543304
 31
0.0
 11
143.9776266085
 21
277.9055757889
 31
0.0
  0
SPLINE
  5
9D8
330
1B
100
AcDbEntity
  8
0
  6
Continuous
100
AcDbSpline
210
0.0
220
0.0
230
1.0
 70
     8
 71
     3
 72
     9
 73
     5
 74
     3
 42
0.0000000001
 43
0.0000000001
 44
0.0000000001
 40
0.0
 40
0.0
 40
0.0
 40
0.0
 40
0.5231818318348035
 40
0.6396281126922327
 40
0.6396281126922327
 40
0.6396281126922327
 40
0.6396281126922327
 10
122.7094025645
 20
274.4728390323
 30
0.0
 10
122.8832439600652
 20
274.4867109322939
 30
0.0
 10
123.095777800094
 20
274.5036703461585
 30
0.0
 10
123.3083331166653
 20
274.5203579618326
 30
0.0
 10
123.347029471
 20
274.523395994
 30
0.0
 11
122.7094025645
 21
274.4728390323
 31
0.0
 11
123.2309411198
 21
274.5142728892
 31
0.0
 11
123.347029471
 21
274.523395994
 31
0.0
  0
SPLINE
  5
9D9
330
1B
100
AcDbEntity
  8
0
  6
Continuous
100
AcDbSpline
210
0.0
220
0.0
230
1.0
 70
    24
 71
     3
 72
     8
 73
     4
 74
     2
 42
0.0000000001
 43
0.0000000001
 44
0.0000000001
 40
0.0
 40
0.0
 40
0.0
 40
0.0
 40
1.696429643243364
 40
1.696429643243364
 40
1.696429643243364
 40
1.696429643243364
 10
129.2787221345
 20
274.9581455389
 30
0.0
 10
129.8428288034
 20
274.9974824446667
 30
0.0
 10
130.4069354723
 20
275.0368193504334
 30
0.0
 10
130.9710421412
 20
275.0761562562
 30
0.0
 11
129.2787221345
 21
274.9581455389
 31
0.0
 11
130.9710421412
 21
275.0761562562
 31
0.0
  0
SPLINE
  5
9DA
330
1B
100
AcDbEntity
  8
0
  6
Continuous
100
AcDbSpline
210
0.0
220
0.0
230
1.0
 70
    24
 71
     3
 72
     8
 73
     4
 74
     2
 42
0.0000000001
 43
0.0000000001
 44
0.0000000001
 40
0.0
 40
0.0
 40
0.0
 40
0.0
 40
0.5368105126299859
 40
0.5368105126299859
 40
0.5368105126299859
 40
0.5368105126299859
 10
122.7092579844
 20
266.4729409613
 30
0.0
 10
122.8876344318666
 20
266.4870913966
 30
0.0
 10
123.0660108793333
 20
266.5012418319
 30
0.0
 10
123.2443873268
 20
266.5153922672
 30
0.0
 11
122.7092579844
 21
266.4729409613
 31
0.0
 11
123.2443873268
 21
266.5153922672
 31
0.0
  0
SPLINE
  5
9DB
330
1B
100
AcDbEntity
  8
0
  6
Continuous
100
AcDbSpline
210
0.0
220
0.0
230
1.0
 70
     8
 71
     3
 72
     9
 73
     5
 74
     3
 42
0.0000000001
 43
0.0000000001
 44
0.0000000001
 40
0.0
 40
0.0
 40
0.0
 40
0.0
 40
0.0926476700802708
 40
1.689044383997384
 40
1.689044383997384
 40
1.689044383997384
 40
1.689044383997384
 10
129.2787715503
 20
266.9581451858
 30
0.0
 10
129.3095785589831
 20
266.9603040112202
 30
0.0
 10
129.871216050341
 20
266.9996612011939
 30
0.0
 10
130.4328740985557
 20
267.0387242627222
 30
0.0
 10
130.9637240105
 20
267.0756446324
 30
0.0
 11
129.2787715503
 21
266.9581451858
 31
0.0
 11
129.3711926382
 21
266.9646207771
 31
0.0
 11
130.9637240105
 21
267.0756446324
 31
0.0
  0
SPLINE
  5
9DC
330
1B
100
AcDbEntity
  8
0
  6
Continuous
100
AcDbSpline
210
0.0
220
0.0
230
1.0
 70
    24
 71
     3
 72
     8
 73
     4
 74
     2
 42
0.0000000001
 43
0.0000000001
 44
0.0000000001
 40
0.0
 40
0.0
 40
0.0
 40
0.0
 40
0.1476148457797334
 40
0.1476148457797334
 40
0.1476148457797334
 40
0.1476148457797334
 10
143.9852661503
 20
278.2229155306
 30
0.0
 10
143.9362662012333
 20
278.2274023956
 30
0.0
 10
143.8872662521667
 20
278.2318892606
 30
0.0
 10
143.8382663031
 20
278.2363761256
 30
0.0
 11
143.9852661503
 21
278.2229155306
 31
0.0
 11
143.8382663031
 21
278.2363761256
 31
0.0
  0
SPLINE
  5
9DD
330
1B
100
AcDbEntity
  8
0
  6
Continuous
100
AcDbSpline
210
0.0
220
0.0
230
1.0
 70
    24
 71
     3
 72
     8
 73
     4
 74
     2
 42
0.0000000001
 43
0.0000000001
 44
0.0000000001
 40
0.0
 40
0.0
 40
0.0
 40
0.0
 40
0.0632951908665826
 40
0.0632951908665826
 40
0.0632951908665826
 40
0.0632951908665826
 10
137.8689843647
 20
278.7169014996
 30
0.0
 10
137.8479425135333
 20
278.7184451490333
 30
0.0
 10
137.8269006623667
 20
278.7199887984667
 30
0.0
 10
137.8058588112
 20
278.7215324479
 30
0.0
 11
137.8689843647
 21
278.7169014996
 31
0.0
 11
137.8058588112
 21
278.7215324479
 31
0.0
  0
SPLINE
  5
9DE
330
1B
100
AcDbEntity
  8
0
  6
Continuous
100
AcDbSpline
210
0.0
220
0.0
230
1.0
 70
    24
 71
     3
 72
     8
 73
     4
 74
     2
 42
0.0000000001
 43
0.0000000001
 44
0.0000000001
 40
0.0
 40
0.0
 40
0.0
 40
0.0
 40
0.1694758375042464
 40
0.1694758375042464
 40
0.1694758375042464
 40
0.1694758375042464
 10
137.8058588112
 20
278.7215324479
 30
0.0
 10
137.7495175826001
 20
278.7256562694334
 30
0.0
 10
137.693176354
 20
278.7297800909668
 30
0.0
 10
137.6368351254
 20
278.7339039125
 30
0.0
 11
137.8058588112
 21
278.7215324479
 31
0.0
 11
137.6368351254
 21
278.7339039125
 31
0.0
  0
SPLINE
  5
9DF
330
1B
100
AcDbEntity
  8
0
  6
Continuous
100
AcDbSpline
210
0.0
220
0.0
230
1.0
 70
    24
 71
     3
 72
     8
 73
     4
 74
     2
 42
0.0000000001
 43
0.0000000001
 44
0.0000000001
 40
0.0
 40
0.0
 40
0.0
 40
0.0
 40
0.7195776040183679
 40
0.7195776040183679
 40
0.7195776040183679
 40
0.7195776040183679
 10
122.7049027122
 20
280.3774380968
 30
0.0
 10
122.9441492090333
 20
280.3945714041333
 30
0.0
 10
123.1833957058666
 20
280.4117047114666
 30
0.0
 10
123.4226422027
 20
280.4288380188
 30
0.0
 11
122.7049027122
 21
280.3774380968
 31
0.0
 11
123.4226422027
 21
280.4288380188
 31
0.0
  0
SPLINE
  5
9E0
330
1B
100
AcDbEntity
  8
0
  6
Continuous
100
AcDbSpline
210
0.0
220
0.0
230
1.0
 70
    24
 71
     3
 72
     8
 73
     4
 74
     2
 42
0.0000000001
 43
0.0000000001
 44
0.0000000001
 40
0.0
 40
0.0
 40
0.0
 40
0.0
 40
0.6168229289546561
 40
0.6168229289546561
 40
0.6168229289546561
 40
0.6168229289546561
 10
122.7049027814
 20
272.3774412225
 30
0.0
 10
122.9099837374
 20
272.3921485111667
 30
0.0
 10
123.1150646934
 20
272.4068557998334
 30
0.0
 10
123.3201456494
 20
272.4215630885
 30
0.0
 11
122.7049027814
 21
272.3774412225
 31
0.0
 11
123.3201456494
 21
272.4215630885
 31
0.0
  0
SPLINE
  5
9E1
330
1B
100
AcDbEntity
  8
0
  6
Continuous
100
AcDbSpline
210
0.0
220
0.0
230
1.0
 70
    24
 71
     3
 72
     8
 73
     4
 74
     2
 42
0.0000000001
 43
0.0000000001
 44
0.0000000001
 40
0.0
 40
0.0
 40
0.0
 40
0.0
 40
0.5140682078546031
 40
0.5140682078546031
 40
0.5140682078546031
 40
0.5140682078546031
 10
122.7049027566
 20
264.3774358137
 30
0.0
 10
122.8758186311667
 20
264.3897104339334
 30
0.0
 10
123.0467345057334
 20
264.4019850541667
 30
0.0
 10
123.2176503803
 20
264.4142596744
 30
0.0
 11
122.7049027566
 21
264.3774358137
 31
0.0
 11
123.2176503803
 21
264.4142596744
 31
0.0
  0
SPLINE
  5
9E2
330
1B
100
AcDbEntity
  8
0
  6
Continuous
100
AcDbSpline
210
0.0
220
0.0
230
1.0
 70
     8
 71
     3
 72
     9
 73
     5
 74
     3
 42
0.0000000001
 43
0.0000000001
 44
0.0000000001
 40
0.0
 40
0.0
 40
0.0
 40
0.0
 40
0.8807970990981849
 40
1.694832401743848
 40
1.694832401743848
 40
1.694832401743848
 40
1.694832401743848
 10
129.2777619977
 20
272.8218858338
 30
0.0
 10
129.5707503510612
 20
272.8408124992302
 30
0.0
 10
130.1345194133327
 20
272.8772312452285
 30
0.0
 10
130.698301734152
 20
272.913444154634
 30
0.0
 10
130.9690888112
 20
272.930837371
 30
0.0
 11
129.2777619977
 21
272.8218858338
 31
0.0
 11
130.1567306387
 21
272.878610237
 31
0.0
 11
130.9690888112
 21
272.930837371
 31
0.0
  0
SPLINE
  5
9E3
330
1B
100
AcDbEntity
  8
0
  6
Continuous
100
AcDbSpline
210
0.0
220
0.0
230
1.0
 70
     8
 71
     3
 72
     9
 73
     5
 74
     3
 42
0.0000000001
 43
0.0000000001
 44
0.0000000001
 40
0.0
 40
0.0
 40
0.0
 40
0.0
 40
0.8807971081603685
 40
1.687503152096939
 40
1.687503152096939
 40
1.687503152096939
 40
1.687503152096939
 10
129.277761991
 20
264.8218805677
 30
0.0
 10
129.570750345238
 20
264.840807266388
 30
0.0
 10
130.1320814017591
 20
264.8770685840045
 30
0.0
 10
130.6934256210111
 20
264.9131255537739
 30
0.0
 10
130.9617746157
 20
264.9303624848
 30
0.0
 11
129.277761991
 21
264.8218805677
 31
0.0
 11
130.1567306397
 21
264.8786049923
 31
0.0
 11
130.9617746157
 21
264.9303624848
 31
0.0
  0
SPLINE
  5
9E4
330
1B
100
AcDbEntity
  8
0
  6
Continuous
100
AcDbSpline
210
0.0
220
0.0
230
1.0
 70
    24
 71
     3
 72
     8
 73
     4
 74
     2
 42
0.0000000001
 43
0.0000000001
 44
0.0000000001
 40
0.0
 40
0.0
 40
0.0
 40
0.0
 40
0.0328580130865182
 40
0.0328580130865182
 40
0.0328580130865182
 40
0.0328580130865182
 10
143.9523868679
 20
271.9715760512
 30
0.0
 10
143.9633039221666
 20
271.9724586206332
 30
0.0
 10
143.9742209764333
 20
271.9733411900666
 30
0.0
 10
143.9851380307
 20
271.9742237595
 30
0.0
 11
143.9523868679
 21
271.9715760512
 31
0.0
 11
143.9851380307
 21
271.9742237595
 31
0.0
  0
SPLINE
  5
9E5
330
1B
100
AcDbEntity
  8
0
  6
Continuous
100
AcDbSpline
210
0.0
220
0.0
230
1.0
 70
     8
 71
     3
 72
     9
 73
     5
 74
     3
 42
0.0000000001
 43
0.0000000001
 44
0.0000000001
 40
0.0
 40
0.0
 40
0.0
 40
0.0
 40
0.3159534142668806
 40
1.166675083016196
 40
1.166675083016196
 40
1.166675083016196
 40
1.166675083016196
 10
136.7090680806
 20
271.4521645483
 30
0.0
 10
136.814155959997
 20
271.4591199878352
 30
0.0
 10
137.2021986425043
 20
271.4848033247789
 30
0.0
 10
137.5902195951056
 20
271.5108132065707
 30
0.0
 10
137.8731585531
 20
271.5297792155
 30
0.0
 11
136.7090680806
 21
271.4521645483
 31
0.0
 11
137.0243301251
 21
271.473054816
 31
0.0
 11
137.8731585531
 21
271.5297792155
 31
0.0
  0
SPLINE
  5
9E6
330
1B
100
AcDbEntity
  8
0
  6
Continuous
100
AcDbSpline
210
0.0
220
0.0
230
1.0
 70
     8
 71
     3
 72
     9
 73
     5
 74
     3
 42
0.0000000001
 43
0.0000000001
 44
0.0000000001
 40
0.0
 40
0.0
 40
0.0
 40
0.0
 40
0.2601551876685576
 40
1.11087684679684
 40
1.11087684679684
 40
1.11087684679684
 40
1.11087684679684
 10
136.7647446469
 20
263.455842383
 30
0.0
 10
136.8512735061604
 20
263.4615727393439
 30
0.0
 10
137.2207564566777
 20
263.4860416736113
 30
0.0
 10
137.5902196188639
 20
263.5108079205646
 30
0.0
 10
137.873158556
 20
263.5297741838
 30
0.0
 11
136.7647446469
 21
263.455842383
 31
0.0
 11
137.0243301394
 21
263.473049758
 31
0.0
 11
137.873158556
 21
263.5297741838
 31
0.0
  0
SPLINE
  5
9E7
330
1B
100
AcDbEntity
  8
0
  6
Continuous
100
AcDbSpline
210
0.0
220
0.0
230
1.0
 70
    24
 71
     3
 72
     8
 73
     4
 74
     2
 42
0.0000000001
 43
0.0000000001
 44
0.0000000001
 40
0.0
 40
0.0
 40
0.0
 40
0.0
 40
0.6682002782864887
 40
0.6682002782864887
 40
0.6682002782864887
 40
0.6682002782864887
 10
122.7049027633
 20
276.377441516
 30
0.0
 10
122.9270664349334
 20
276.3933626374001
 30
0.0
 10
123.1492301065667
 20
276.4092837588
 30
0.0
 10
123.3713937782
 20
276.4252048802
 30
0.0
 11
122.7049027633
 21
276.377441516
 31
0.0
 11
123.3713937782
 21
276.4252048802
 31
0.0
  0
SPLINE
  5
9E8
330
1B
100
AcDbEntity
  8
0
  6
Continuous
100
AcDbSpline
210
0.0
220
0.0
230
1.0
 70
     8
 71
     3
 72
     9
 73
     5
 74
     3
 42
0.0000000001
 43
0.0000000001
 44
0.0000000001
 40
0.0
 40
0.0
 40
0.0
 40
0.0
 40
0.880797096351463
 40
1.698497029803309
 40
1.698497029803309
 40
1.698497029803309
 40
1.698497029803309
 10
129.2777619911
 20
276.8218857928
 30
0.0
 10
129.5707503453406
 20
276.8408124304268
 30
0.0
 10
130.135738412974
 20
276.8773098688566
 30
0.0
 10
130.7007397871143
 20
276.9136007254023
 30
0.0
 10
130.9727459066
 20
276.9310720724
 30
0.0
 11
129.2777619911
 21
276.8218857928
 31
0.0
 11
130.1567306322
 21
276.8786101518
 31
0.0
 11
130.9727459066
 21
276.9310720724
 31
0.0
  0
SPLINE
  5
9E9
330
1B
100
AcDbEntity
  8
0
  6
Continuous
100
AcDbSpline
210
0.0
220
0.0
230
1.0
 70
    24
 71
     3
 72
     8
 73
     4
 74
     2
 42
0.0000000001
 43
0.0000000001
 44
0.0000000001
 40
0.0
 40
0.0
 40
0.0
 40
0.0
 40
0.5654455679611141
 40
0.5654455679611141
 40
0.5654455679611141
 40
0.5654455679611141
 10
122.7049027761
 20
268.3774387954
 30
0.0
 10
122.8929011312667
 20
268.3909305888667
 30
0.0
 10
123.0808994864333
 20
268.4044223823333
 30
0.0
 10
123.2688978416
 20
268.4179141758
 30
0.0
 11
122.7049027761
 21
268.3774387954
 31
0.0
 11
123.2688978416
 21
268.4179141758
 31
0.0
  0
SPLINE
  5
9EA
330
1B
100
AcDbEntity
  8
0
  6
Continuous
100
AcDbSpline
210
0.0
220
0.0
230
1.0
 70
     8
 71
     3
 72
     9
 73
     5
 74
     3
 42
0.0000000001
 43
0.0000000001
 44
0.0000000001
 40
0.0
 40
0.0
 40
0.0
 40
0.0
 40
0.8832027447607762
 40
1.691167777656603
 40
1.691167777656603
 40
1.691167777656603
 40
1.691167777656603
 10
129.2777619967
 20
268.8218835657
 30
0.0
 10
129.5715505676156
 20
268.8408618688306
 30
0.0
 10
130.1341006361287
 20
268.8772017635143
 30
0.0
 10
130.6966639090306
 20
268.9133366619644
 30
0.0
 10
130.9654317151
 20
268.9306003154
 30
0.0
 11
129.2777619967
 21
268.8218835657
 31
0.0
 11
130.1591313108
 21
268.8787625646
 31
0.0
 11
130.9654317151
 21
268.9306003154
 31
0.0
  0
SPLINE
  5
9EB
330
1B
100
AcDbEntity
  8
0
  6
Continuous
100
AcDbSpline
210
0.0
220
0.0
230
1.0
 70
     8
 71
     3
 72
     9
 73
     5
 74
     3
 42
0.0000000001
 43
0.0000000001
 44
0.0000000001
 40
0.0
 40
0.0
 40
0.0
 40
0.0
 40
0.8807971121741939
 40
1.683838527547745
 40
1.683838527547745
 40
1.683838527547745
 40
1.683838527547745
 10
129.2777619836
 20
260.821878419
 30
0.0
 10
129.570750338828
 20
260.8408051231034
 30
0.0
 10
130.1308623939618
 20
260.8769877049128
 30
0.0
 10
130.6909875639659
 20
260.9129666823804
 30
0.0
 10
130.9581175185
 20
260.9301254589
 30
0.0
 11
129.2777619836
 21
260.821878419
 31
0.0
 11
130.1567306378
 21
260.8786028207
 31
0.0
 11
130.9581175185
 21
260.9301254589
 31
0.0
  0
SPLINE
  5
9EC
330
1B
100
AcDbEntity
  8
0
  6
Continuous
100
AcDbSpline
210
0.0
220
0.0
230
1.0
 70
    24
 71
     3
 72
     8
 73
     4
 74
     2
 42
0.0000000001
 43
0.0000000001
 44
0.0000000001
 40
0.0
 40
0.0
 40
0.0
 40
0.0
 40
0.4626908605399743
 40
0.4626908605399743
 40
0.4626908605399743
 40
0.4626908605399743
 10
122.7049027326
 20
260.3774338568
 30
0.0
 10
122.8587362520333
 20
260.3884896100333
 30
0.0
 10
123.0125697714667
 20
260.3995453632667
 30
0.0
 10
123.1664032909
 20
260.4106011165
 30
0.0
 11
122.7049027326
 21
260.3774338568
 31
0.0
 11
123.1664032909
 21
260.4106011165
 31
0.0
  0
SPLINE
  5
9ED
330
1B
100
AcDbEntity
  8
0
  6
Continuous
100
AcDbSpline
210
0.0
220
0.0
230
1.0
 70
    24
 71
     3
 72
     8
 73
     4
 74
     2
 42
0.0000000001
 43
0.0000000001
 44
0.0000000001
 40
0.0
 40
0.0
 40
0.0
 40
0.0
 40
0.1059744652192039
 40
0.1059744652192039
 40
0.1059744652192039
 40
0.1059744652192039
 10
143.8795069845
 20
275.9656983766
 30
0.0
 10
143.9147173363667
 20
275.9685398819
 30
0.0
 10
143.9499276882333
 20
275.9713813872
 30
0.0
 10
143.9851380401
 20
275.9742228925
 30
0.0
 11
143.8795069845
 21
275.9656983766
 31
0.0
 11
143.9851380401
 21
275.9742228925
 31
0.0
  0
SPLINE
  5
9EE
330
1B
100
AcDbEntity
  8
0
  6
Continuous
100
AcDbSpline
210
0.0
220
0.0
230
1.0
 70
     8
 71
     3
 72
     9
 73
     5
 74
     3
 42
0.0000000001
 43
0.0000000001
 44
0.0000000001
 40
0.0
 40
0.0
 40
0.0
 40
0.0
 40
0.3438525244903018
 40
1.194574183134657
 40
1.194574183134657
 40
1.194574183134657
 40
1.194574183134657
 10
136.6812297518
 20
275.4503236736
 30
0.0
 10
136.7955971744363
 20
275.4578911386863
 30
0.0
 10
137.1929197495008
 20
275.4841811839236
 30
0.0
 10
137.5902195931539
 20
275.5108128558122
 30
0.0
 10
137.8731585573
 20
275.529778727
 30
0.0
 11
136.6812297518
 21
275.4503236736
 31
0.0
 11
137.0243301363
 21
275.4730543743
 31
0.0
 11
137.8731585573
 21
275.529778727
 31
0.0
  0
SPLINE
  5
9EF
330
1B
100
AcDbEntity
  8
0
  6
Continuous
100
AcDbSpline
210
0.0
220
0.0
230
1.0
 70
     8
 71
     3
 72
     9
 73
     5
 74
     3
 42
0.0000000001
 43
0.0000000001
 44
0.0000000001
 40
0.0
 40
0.0
 40
0.0
 40
0.0
 40
0.2880542999790091
 40
1.138775967754364
 40
1.138775967754364
 40
1.138775967754364
 40
1.138775967754364
 10
136.7369063827
 20
267.4540035911
 30
0.0
 10
136.832714740265
 20
267.4603466615335
 30
0.0
 10
137.2114775468365
 20
267.4854229619809
 30
0.0
 10
137.590219604585
 20
267.5108110351362
 30
0.0
 10
137.8731585532
 20
267.5297771747
 30
0.0
 11
136.7369063827
 21
267.4540035911
 31
0.0
 11
137.0243301278
 21
267.4730527509
 31
0.0
 11
137.8731585532
 21
267.5297771747
 31
0.0
  0
SPLINE
  5
9F0
330
1B
100
AcDbEntity
  8
0
  6
Continuous
100
AcDbSpline
210
0.0
220
0.0
230
1.0
 70
    24
 71
     3
 72
     8
 73
     4
 74
     2
 42
0.0000000001
 43
0.0000000001
 44
0.0000000001
 40
0.0
 40
0.0
 40
0.0
 40
0.0
 40
6.998696887654065
 40
6.998696887654065
 40
6.998696887654065
 40
6.998696887654065
 10
140.1992934179
 20
292.2730510037
 30
0.0
 10
140.2291518429333
 20
289.9403431257333
 30
0.0
 10
140.2590102679667
 20
287.6076352477667
 30
0.0
 10
140.288868693
 20
285.2749273698
 30
0.0
 11
140.1992934179
 21
292.2730510037
 31
0.0
 11
140.288868693
 21
285.2749273698
 31
0.0
  0
SPLINE
  5
9F1
330
1B
100
AcDbEntity
  8
0
  6
Continuous
100
AcDbSpline
210
0.0
220
0.0
230
1.0
 70
     8
 71
     3
 72
     9
 73
     5
 74
     3
 42
0.0000000001
 43
0.0000000001
 44
0.0000000001
 40
0.0
 40
0.0
 40
0.0
 40
0.0
 40
13.75300284531891
 40
25.38337833100363
 40
25.38337833100363
 40
25.38337833100363
 40
25.38337833100363
 10
140.288868693
 20
285.2749273698
 30
0.0
 10
140.3475425765167
 20
280.6909685804529
 30
0.0
 10
140.4558346637215
 20
272.2305355017723
 30
0.0
 10
140.5641272675163
 20
263.770102429704
 30
0.0
 10
140.6137457079
 20
259.8936281434
 30
0.0
 11
140.288868693
 21
285.2749273698
 31
0.0
 11
140.4648904952
 21
271.5230510037
 31
0.0
 11
140.6137457079
 21
259.8936281434
 31
0.0
  0
SPLINE
  5
9F2
330
1B
100
AcDbEntity
  8
0
  6
Continuous
100
AcDbSpline
210
0.0
220
0.0
230
1.0
 70
     8
 71
     3
 72
     9
 73
     5
 74
     3
 42
0.0000000001
 43
0.0000000001
 44
0.0000000001
 40
0.0
 40
0.0
 40
0.0
 40
0.0
 40
20.75345447198895
 40
32.38481340842139
 40
32.38481340842139
 40
32.38481340842139
 40
32.38481340842139
 10
143.5819233171
 20
292.2730510037
 30
0.0
 10
143.7081384658374
 20
285.3563843358528
 30
0.0
 10
143.905091413921
 20
274.5632433795456
 30
0.0
 10
144.1020448346118
 20
263.7701024318625
 30
0.0
 10
144.1727828037
 20
259.8936281465
 30
0.0
 11
143.5819233171
 21
292.2730510037
 31
0.0
 11
143.9605689574
 21
271.5230510037
 31
0.0
 11
144.1727828037
 21
259.8936281465
 31
0.0
  0
SPLINE
  5
9F3
330
1B
100
AcDbEntity
  8
0
  6
Continuous
100
AcDbSpline
210
0.0
220
0.0
230
1.0
 70
     8
 71
     3
 72
     9
 73
     5
 74
     3
 42
0.0000000001
 43
0.0000000001
 44
0.0000000001
 40
0.0
 40
0.0
 40
0.0
 40
0.0
 40
20.75555544217091
 40
32.38809187595292
 40
32.38809187595292
 40
32.38809187595292
 40
32.38809187595292
 10
146.6092019653
 20
292.2730510037
 30
0.0
 10
146.7692649656231
 20
285.3563843351348
 30
0.0
 10
147.0190359329599
 20
274.5632433777178
 30
0.0
 10
147.2688074996294
 20
263.7701024341703
 30
0.0
 10
147.3585156819
 20
259.8936281503
 30
0.0
 11
146.6092019653
 21
292.2730510037
 31
0.0
 11
147.0893912124
 21
271.5230510037
 31
0.0
 11
147.3585156819
 21
259.8936281503
 31
0.0
  0
SPLINE
  5
9F4
330
1B
100
AcDbEntity
  8
0
  6
Continuous
100
AcDbSpline
210
0.0
220
0.0
230
1.0
 70
     8
 71
     3
 72
     9
 73
     5
 74
     3
 42
0.0000000001
 43
0.0000000001
 44
0.0000000001
 40
0.0
 40
0.0
 40
0.0
 40
0.0
 40
20.75774917153296
 40
31.31198793786261
 40
31.31198793786261
 40
31.31198793786261
 40
31.31198793786261
 10
149.1891470326
 20
292.2730510037
 30
0.0
 10
149.3781944468106
 20
285.3563843342631
 30
0.0
 10
149.6633626654132
 20
274.9229514252347
 30
0.0
 10
149.9485315758975
 20
264.4895185351172
 30
0.0
 10
150.0446526135
 20
260.9727523019
 30
0.0
 11
149.1891470326
 21
292.2730510037
 31
0.0
 11
149.7562895793
 21
271.5230510037
 31
0.0
 11
150.0446526135
 21
260.9727523019
 31
0.0
  0
SPLINE
  5
9F5
330
1B
100
AcDbEntity
  8
0
  6
Continuous
100
AcDbSpline
210
0.0
220
0.0
230
1.0
 70
    24
 71
     3
 72
     8
 73
     4
 74
     2
 42
0.0000000001
 43
0.0000000001
 44
0.0000000001
 40
0.0
 40
0.0
 40
0.0
 40
0.0
 40
1.079527152129251
 40
1.079527152129251
 40
1.079527152129251
 40
1.079527152129251
 10
150.0446526135
 20
260.9727523019
 30
0.0
 10
150.0544842293667
 20
260.6130442526667
 30
0.0
 10
150.0643158452334
 20
260.2533362034334
 30
0.0
 10
150.0741474611
 20
259.8936281542
 30
0.0
 11
150.0446526135
 21
260.9727523019
 31
0.0
 11
150.0741474611
 21
259.8936281542
 31
0.0
  0
SPLINE
  5
9F6
330
1B
100
AcDbEntity
  8
0
  6
Continuous
100
AcDbSpline
210
0.0
220
0.0
230
1.0
 70
     8
 71
     3
 72
     9
 73
     5
 74
     3
 42
0.0000000001
 43
0.0000000001
 44
0.0000000001
 40
0.0
 40
0.0
 40
0.0
 40
0.0
 40
20.75977107596681
 40
32.39467017910602
 40
32.39467017910602
 40
32.39467017910602
 40
32.39467017910602
 10
151.2433681937
 20
292.2730510037
 30
0.0
 10
151.4556559206058
 20
285.3563843336952
 30
0.0
 10
151.7869211773863
 20
274.5632433740141
 30
0.0
 10
152.1181872286706
 20
263.7701024387181
 30
0.0
 10
152.2371650439
 20
259.8936281578
 30
0.0
 11
151.2433681937
 21
292.2730510037
 31
0.0
 11
151.8802317007
 21
271.5230510037
 31
0.0
 11
152.2371650439
 21
259.8936281578
 31
0.0
  0
SPLINE
  5
9F7
330
1B
100
AcDbEntity
  8
0
  6
Continuous
100
AcDbSpline
210
0.0
220
0.0
230
1.0
 70
     8
 71
     3
 72
     9
 73
     5
 74
     3
 42
0.0000000001
 43
0.0000000001
 44
0.0000000001
 40
0.0
 40
0.0
 40
0.0
 40
0.0
 40
20.76137736633296
 40
32.39717672149355
 40
32.39717672149355
 40
32.39717672149355
 40
32.39717672149355
 10
152.7094489781
 20
292.2730510037
 30
0.0
 10
152.9385267580528
 20
285.3563843331469
 30
0.0
 10
153.2959921221829
 20
274.5632433726175
 30
0.0
 10
153.6534583435402
 20
263.7701024404793
 30
0.0
 10
153.7818462356
 20
259.8936281607
 30
0.0
 11
152.7094489781
 21
292.2730510037
 31
0.0
 11
153.39668267
 21
271.5230510037
 31
0.0
 11
153.7818462356
 21
259.8936281607
 31
0.0
  0
SPLINE
  5
9F8
330
1B
100
AcDbEntity
  8
0
  6
Continuous
100
AcDbSpline
210
0.0
220
0.0
230
1.0
 70
    24
 71
     3
 72
     8
 73
     4
 74
     2
 42
0.0000000001
 43
0.0000000001
 44
0.0000000001
 40
0.0
 40
0.0
 40
0.0
 40
0.0
 40
7.008357851329644
 40
7.008357851329644
 40
7.008357851329644
 40
7.008357851329644
 10
111.0640952669
 20
292.2730510037
 30
0.0
 10
110.9867658667334
 20
289.9382119360333
 30
0.0
 10
110.9094364665667
 20
287.6033728683667
 30
0.0
 10
110.8321070664
 20
285.2685338007
 30
0.0
 11
111.0640952669
 21
292.2730510037
 31
0.0
 11
110.8321070664
 21
285.2685338007
 31
0.0
  0
SPLINE
  5
9F9
330
1B
100
AcDbEntity
  8
0
  6
Continuous
100
AcDbSpline
210
0.0
220
0.0
230
1.0
 70
     8
 71
     3
 72
     9
 73
     5
 74
     3
 42
0.0000000001
 43
0.0000000001
 44
0.0000000001
 40
0.0
 40
0.0
 40
0.0
 40
0.0
 40
13.75301951500006
 40
25.38881887016065
 40
25.38881887016065
 40
25.38881887016065
 40
25.38881887016065
 10
110.8321070664
 20
285.2685338007
 30
0.0
 10
110.6803586999627
 20
280.6867061973725
 30
0.0
 10
110.4002229970272
 20
272.2284042958657
 30
0.0
 10
110.1200859582293
 20
263.7701024386024
 30
0.0
 10
109.9916980095
 20
259.8936281607
 30
0.0
 11
110.8321070664
 21
285.2685338007
 31
0.0
 11
110.3768615751
 21
271.5230510037
 31
0.0
 11
109.9916980095
 21
259.8936281607
 31
0.0
  0
SPLINE
  5
9FA
330
1B
100
AcDbEntity
  8
0
  6
Continuous
100
AcDbSpline
210
0.0
220
0.0
230
1.0
 70
     8
 71
     3
 72
     9
 73
     5
 74
     3
 42
0.0000000001
 43
0.0000000001
 44
0.0000000001
 40
0.0
 40
0.0
 40
0.0
 40
0.0
 40
20.76237441446644
 40
32.39873256934411
 40
32.39873256934411
 40
32.39873256934411
 40
32.39873256934411
 10
153.5428432631
 20
292.2730510037
 30
0.0
 10
153.781750683611
 20
285.3563843328059
 30
0.0
 10
154.1545547507882
 20
274.5632433717483
 30
0.0
 10
154.5273597120232
 20
263.7701024415721
 30
0.0
 10
154.6612566798
 20
259.8936281625
 30
0.0
 11
153.5428432631
 21
292.2730510037
 31
0.0
 11
154.2595658918
 21
271.5230510037
 31
0.0
 11
154.6612566798
 21
259.8936281625
 31
0.0
  0
SPLINE
  5
9FB
330
1B
100
AcDbEntity
  8
0
  6
Continuous
100
AcDbSpline
210
0.0
220
0.0
230
1.0
 70
     8
 71
     3
 72
     9
 73
     5
 74
     3
 42
0.0000000001
 43
0.0000000001
 44
0.0000000001
 40
0.0
 40
0.0
 40
0.0
 40
0.0
 40
20.75977107596681
 40
32.39467017910295
 40
32.39467017910295
 40
32.39467017910295
 40
32.39467017910295
 10
112.5301760513
 20
292.2730510037
 30
0.0
 10
112.3178883243752
 20
285.3563843336958
 30
0.0
 10
111.9866230675649
 20
274.5632433740166
 30
0.0
 10
111.6553570163901
 20
263.7701024387184
 30
0.0
 10
111.5363792012
 20
259.8936281578
 30
0.0
 11
112.5301760513
 21
292.2730510037
 31
0.0
 11
111.8933125443
 21
271.5230510037
 31
0.0
 11
111.5363792012
 21
259.8936281578
 31
0.0
  0
SPLINE
  5
9FC
330
1B
100
AcDbEntity
  8
0
  6
Continuous
100
AcDbSpline
210
0.0
220
0.0
230
1.0
 70
     8
 71
     3
 72
     9
 73
     5
 74
     3
 42
0.0000000001
 43
0.0000000001
 44
0.0000000001
 40
0.0
 40
0.0
 40
0.0
 40
0.0
 40
20.75774917153296
 40
32.39151508999186
 40
32.39151508999186
 40
32.39151508999186
 40
32.39151508999186
 10
114.5843972124
 20
292.2730510037
 30
0.0
 10
114.3953497937075
 20
285.3563843343856
 30
0.0
 10
114.1003499714868
 20
274.5632433757892
 30
0.0
 10
113.8053494415957
 20
263.770102436535
 30
0.0
 10
113.6993967839
 20
259.8936281542
 30
0.0
 11
114.5843972124
 21
292.2730510037
 31
0.0
 11
114.0172546657
 21
271.5230510037
 31
0.0
 11
113.6993967839
 21
259.8936281542
 31
0.0
  0
SPLINE
  5
9FD
330
1B
100
AcDbEntity
  8
0
  6
Continuous
100
AcDbSpline
210
0.0
220
0.0
230
1.0
 70
     8
 71
     3
 72
     9
 73
     5
 74
     3
 42
0.0000000001
 43
0.0000000001
 44
0.0000000001
 40
0.0
 40
0.0
 40
0.0
 40
0.0
 40
20.75555544217323
 40
32.38809187595523
 40
32.38809187595523
 40
32.38809187595523
 40
32.38809187595523
 10
117.1643422798
 20
292.2730510037
 30
0.0
 10
117.0042792794329
 20
285.356384335135
 30
0.0
 10
116.7545083120274
 20
274.5632433777188
 30
0.0
 10
116.5047367453673
 20
263.7701024341703
 30
0.0
 10
116.4150285631
 20
259.8936281503
 30
0.0
 11
117.1643422798
 21
292.2730510037
 31
0.0
 11
116.6841530326
 21
271.5230510037
 31
0.0
 11
116.4150285631
 21
259.8936281503
 31
0.0
  0
SPLINE
  5
9FE
330
1B
100
AcDbEntity
  8
0
  6
Continuous
100
AcDbSpline
210
0.0
220
0.0
230
1.0
 70
     8
 71
     3
 72
     9
 73
     5
 74
     3
 42
0.0000000001
 43
0.0000000001
 44
0.0000000001
 40
0.0
 40
0.0
 40
0.0
 40
0.0
 40
20.75345447198895
 40
32.38481340842139
 40
32.38481340842139
 40
32.38481340842139
 40
32.38481340842139
 10
120.191620928
 20
292.2730510037
 30
0.0
 10
120.0654057792627
 20
285.3563843358528
 30
0.0
 10
119.8684528311791
 20
274.5632433795456
 30
0.0
 10
119.6714994104883
 20
263.7701024318625
 30
0.0
 10
119.6007614414
 20
259.8936281465
 30
0.0
 11
120.191620928
 21
292.2730510037
 31
0.0
 11
119.8129752877
 21
271.5230510037
 31
0.0
 11
119.6007614414
 21
259.8936281465
 31
0.0
  0
SPLINE
  5
9FF
330
1B
100
AcDbEntity
  8
0
  6
Continuous
100
AcDbSpline
210
0.0
220
0.0
230
1.0
 70
     8
 71
     3
 72
     9
 73
     5
 74
     3
 42
0.0000000001
 43
0.0000000001
 44
0.0000000001
 40
0.0
 40
0.0
 40
0.0
 40
0.0
 40
20.75169973297297
 40
32.38207521865897
 40
32.38207521865897
 40
32.38207521865897
 40
32.38207521865897
 10
123.5742508272
 20
292.2730510037
 30
0.0
 10
123.4857185134919
 20
285.3563843364523
 30
0.0
 10
123.3475679003533
 20
274.5632433810961
 30
0.0
 10
123.2094169556247
 20
263.7701024299842
 30
0.0
 10
123.1597985371
 20
259.8936281434
 30
0.0
 11
123.5742508272
 21
292.2730510037
 31
0.0
 11
123.3086537499
 21
271.5230510037
 31
0.0
 11
123.1597985371
 21
259.8936281434
 31
0.0
  0
SPLINE
  5
A00
330
1B
100
AcDbEntity
  8
0
  6
Continuous
100
AcDbSpline
210
0.0
220
0.0
230
1.0
 70
    24
 71
     3
 72
     8
 73
     4
 74
     2
 42
0.0000000001
 43
0.0000000001
 44
0.0000000001
 40
0.0
 40
0.0
 40
0.0
 40
0.0
 40
6.99961436877627
 40
6.99961436877627
 40
6.99961436877627
 40
6.99961436877627
 10
127.2094524796
 20
292.2730510037
 30
0.0
 10
127.1932071417333
 20
289.9399027702667
 30
0.0
 10
127.1769618038667
 20
287.6067545368334
 30
0.0
 10
127.160716466
 20
285.2736063034
 30
0.0
 11
127.2094524796
 21
292.2730510037
 31
0.0
 11
127.160716466
 21
285.2736063034
 31
0.0
  0
SPLINE
  5
A01
330
1B
100
AcDbEntity
  8
0
  6
Continuous
100
AcDbSpline
210
0.0
220
0.0
230
1.0
 70
     8
 71
     3
 72
     9
 73
     5
 74
     3
 42
0.0000000001
 43
0.0000000001
 44
0.0000000001
 40
0.0
 40
0.0
 40
0.0
 40
0.0
 40
13.75088861384051
 40
25.38059337591989
 40
25.38059337591989
 40
25.38059337591989
 40
25.38059337591989
 10
127.160716466
 20
285.2736063034
 30
0.0
 10
127.1288023375761
 20
280.6900878699751
 30
0.0
 10
127.0698970886703
 20
272.2300951482902
 30
0.0
 10
127.0109915586103
 20
263.770102428563
 30
0.0
 10
126.9840003093
 20
259.8936281412
 30
0.0
 11
127.160716466
 21
285.2736063034
 31
0.0
 11
127.0649739982
 21
271.5230510037
 31
0.0
 11
126.9840003093
 21
259.8936281412
 31
0.0
  0
SPLINE
  5
A02
330
1B
100
AcDbEntity
  8
0
  6
Continuous
100
AcDbSpline
210
0.0
220
0.0
230
1.0
 70
     8
 71
     3
 72
     9
 73
     5
 74
     3
 42
0.0000000001
 43
0.0000000001
 44
0.0000000001
 40
0.0
 40
0.0
 40
0.0
 40
0.0
 40
20.75000867132689
 40
32.37943639462333
 40
32.37943639462333
 40
32.37943639462333
 40
32.37943639462333
 10
130.9867721225
 20
292.2730510037
 30
0.0
 10
130.9804487990861
 20
285.3563843370304
 30
0.0
 10
130.9705815430513
 20
274.5632433825539
 30
0.0
 10
130.9607142632551
 20
263.7701024280991
 30
0.0
 10
130.9571703221
 20
259.8936281403
 30
0.0
 11
130.9867721225
 21
292.2730510037
 31
0.0
 11
130.9678021425
 21
271.5230510037
 31
0.0
 11
130.9571703221
 21
259.8936281403
 31
0.0
  0
SPLINE
  5
A03
330
1B
100
AcDbEntity
  8
0
  6
Continuous
100
AcDbSpline
210
0.0
220
0.0
230
1.0
 70
    24
 71
     3
 72
     8
 73
     4
 74
     2
 42
0.0000000001
 43
0.0000000001
 44
0.0000000001
 40
0.0
 40
0.0
 40
0.0
 40
0.0
 40
6.999993351681138
 40
6.999993351681138
 40
6.999993351681138
 40
6.999993351681138
 10
132.7867721225
 20
292.2730510037
 30
0.0
 10
132.7889052966667
 20
289.9397208615667
 30
0.0
 10
132.7910384708333
 20
287.6063907194334
 30
0.0
 10
132.793171645
 20
285.2730605773
 30
0.0
 11
132.7867721225
 21
292.2730510037
 31
0.0
 11
132.793171645
 21
285.2730605773
 31
0.0
  0
SPLINE
  5
A04
330
1B
100
AcDbEntity
  8
0
  6
Continuous
100
AcDbSpline
210
0.0
220
0.0
230
1.0
 70
     8
 71
     3
 72
     9
 73
     5
 74
     3
 42
0.0000000001
 43
0.0000000001
 44
0.0000000001
 40
0.0
 40
0.0
 40
0.0
 40
0.0
 40
13.75001531964585
 40
25.37944304294229
 40
25.37944304294229
 40
25.37944304294229
 40
25.37944304294229
 10
132.793171645
 20
285.2730605773
 30
0.0
 10
132.7973617939208
 20
280.6897240527633
 30
0.0
 10
132.8050958686403
 20
272.2299132404136
 30
0.0
 10
132.8128299802825
 20
263.7701024280977
 30
0.0
 10
132.816373923
 20
259.8936281403
 30
0.0
 11
132.793171645
 21
285.2730605773
 31
0.0
 11
132.8057421026
 21
271.5230510037
 31
0.0
 11
132.816373923
 21
259.8936281403
 31
0.0
  0
SPLINE
  5
A05
330
1B
100
AcDbEntity
  8
0
  6
Continuous
100
AcDbSpline
210
0.0
220
0.0
230
1.0
 70
     8
 71
     3
 72
     9
 73
     5
 74
     3
 42
0.0000000001
 43
0.0000000001
 44
0.0000000001
 40
0.0
 40
0.0
 40
0.0
 40
0.0
 40
20.75050298261677
 40
32.38020774469616
 40
32.38020774469616
 40
32.38020774469616
 40
32.38020774469616
 10
136.5640917655
 20
292.2730510037
 30
0.0
 10
136.6122512345963
 20
285.3563843368613
 30
0.0
 10
136.6874018762708
 20
274.5632433821254
 30
0.0
 10
136.762552698407
 20
263.770102428646
 30
0.0
 10
136.7895439358
 20
259.8936281412
 30
0.0
 11
136.5640917655
 21
292.2730510037
 31
0.0
 11
136.7085702469
 21
271.5230510037
 31
0.0
 11
136.7895439358
 21
259.8936281412
 31
0.0
  0
SPLINE
  5
A06
330
1B
100
AcDbEntity
  8
0
  6
Continuous
100
AcDbSpline
210
0.0
220
0.0
230
1.0
 70
     8
 71
     3
 72
     9
 73
     5
 74
     3
 42
0.0000000001
 43
0.0000000001
 44
0.0000000001
 40
0.0
 40
0.0
 40
0.0
 40
0.0
 40
20.76237441446989
 40
32.39873256934411
 40
32.39873256934411
 40
32.39873256934411
 40
32.39873256934411
 10
110.230700982
 20
292.2730510037
 30
0.0
 10
109.991793561426
 20
285.3563843328069
 30
0.0
 10
109.6189894941505
 20
274.5632433717526
 30
0.0
 10
109.2461845330342
 20
263.7701024415725
 30
0.0
 10
109.1122875653
 20
259.8936281625
 30
0.0
 11
110.230700982
 21
292.2730510037
 31
0.0
 11
109.5139783532
 21
271.5230510037
 31
0.0
 11
109.1122875653
 21
259.8936281625
 31
0.0
  0
SPLINE
  5
A07
330
1B
100
AcDbEntity
  8
0
  6
Continuous
100
AcDbSpline
210
0.0
220
0.0
230
1.0
 70
     8
 71
     3
 72
     9
 73
     5
 74
     3
 42
0.0000000001
 43
0.0000000001
 44
0.0000000001
 40
0.0
 40
0.0
 40
0.0
 40
0.0
 40
0.3009576350826843
 40
1.151679267330592
 40
1.151679267330592
 40
1.151679267330592
 40
1.151679267330592
 10
136.7240311802
 20
269.3031519925
 30
0.0
 10
136.8241313119765
 20
269.3097783271073
 30
0.0
 10
137.2071860445551
 20
269.3351354249049
 30
0.0
 10
137.5902195769412
 20
269.3608110913471
 30
0.0
 10
137.8731585176
 20
269.3797771746
 30
0.0
 11
136.7240311802
 21
269.3031519925
 31
0.0
 11
137.0243301278
 21
269.3230527509
 31
0.0
 11
137.8731585176
 21
269.3797771746
 31
0.0
  0
SPLINE
  5
A08
330
1B
100
AcDbEntity
  8
0
  6
Continuous
100
AcDbSpline
210
0.0
220
0.0
230
1.0
 70
     8
 71
     3
 72
     9
 73
     5
 74
     3
 42
0.0000000001
 43
0.0000000001
 44
0.0000000001
 40
0.0
 40
0.0
 40
0.0
 40
0.0
 40
0.2451594183729731
 40
1.095881049500438
 40
1.095881049500438
 40
1.095881049500438
 40
1.095881049500438
 10
136.7797077006
 20
261.3068302846
 30
0.0
 10
136.8612488402742
 20
261.3122311629329
 30
0.0
 10
137.2257438709636
 20
261.3363734955222
 30
0.0
 10
137.5902196209804
 20
261.3608054989971
 30
0.0
 10
137.8731585446
 20
261.3797718219
 30
0.0
 11
136.7797077006
 21
261.3068302846
 31
0.0
 11
137.0243301547
 21
261.3230474165
 31
0.0
 11
137.8731585446
 21
261.3797718219
 31
0.0
  0
SPLINE
  5
A09
330
1B
100
AcDbEntity
  8
0
  6
Continuous
100
AcDbSpline
210
0.0
220
0.0
230
1.0
 70
     8
 71
     3
 72
     9
 73
     5
 74
     3
 42
0.0000000001
 43
0.0000000001
 44
0.0000000001
 40
0.0
 40
0.0
 40
0.0
 40
0.0
 40
0.8807971083329819
 40
1.696802151785708
 40
1.696802151785708
 40
1.696802151785708
 40
1.696802151785708
 10
129.2777619791
 20
274.9718857927
 30
0.0
 10
129.5707503369544
 20
274.9908124363323
 30
0.0
 10
130.1351746196323
 20
275.0272734661625
 30
0.0
 10
130.6996121865735
 20
275.0635282597012
 30
0.0
 10
130.9710544999
 20
275.0809634653
 30
0.0
 11
129.2777619791
 21
274.9718857927
 31
0.0
 11
130.1567306322
 21
275.0286101518
 31
0.0
 11
130.9710544999
 21
275.0809634653
 31
0.0
  0
SPLINE
  5
A0A
330
1B
100
AcDbEntity
  8
0
  6
Continuous
100
AcDbSpline
210
0.0
220
0.0
230
1.0
 70
    24
 71
     3
 72
     8
 73
     4
 74
     2
 42
0.0000000001
 43
0.0000000001
 44
0.0000000001
 40
0.0
 40
0.0
 40
0.0
 40
0.0
 40
0.6444383054414979
 40
0.6444383054414979
 40
0.6444383054414979
 40
0.6444383054414979
 10
122.7049027217
 20
274.527441516
 30
0.0
 10
122.9191656402
 20
274.5428014397667
 30
0.0
 10
123.1334285587
 20
274.5581613635334
 30
0.0
 10
123.3476914772
 20
274.5735212873
 30
0.0
 11
122.7049027217
 21
274.527441516
 31
0.0
 11
123.3476914772
 21
274.5735212873
 31
0.0
  0
SPLINE
  5
A0B
330
1B
100
AcDbEntity
  8
0
  6
Continuous
100
AcDbSpline
210
0.0
220
0.0
230
1.0
 70
     8
 71
     3
 72
     9
 73
     5
 74
     3
 42
0.0000000001
 43
0.0000000001
 44
0.0000000001
 40
0.0
 40
0.0
 40
0.0
 40
0.0
 40
20.75919777859223
 40
32.39377557482934
 40
32.39377557482934
 40
32.39377557482934
 40
32.39377557482934
 10
150.3433681937
 20
292.2730510037
 30
0.0
 10
150.5493325971917
 20
285.3563843338915
 30
0.0
 10
150.870730597937
 20
274.5632433745267
 30
0.0
 10
151.1921293694256
 20
263.7701024381131
 30
0.0
 10
151.3075632435
 20
259.8936281568
 30
0.0
 11
150.3433681937
 21
292.2730510037
 31
0.0
 11
150.9612617207
 21
271.5230510037
 31
0.0
 11
151.3075632435
 21
259.8936281568
 31
0.0
  0
SPLINE
  5
A0C
330
1B
100
AcDbEntity
  8
0
  6
Continuous
100
AcDbSpline
210
0.0
220
0.0
230
1.0
 70
    24
 71
     3
 72
     8
 73
     4
 74
     2
 42
0.0000000001
 43
0.0000000001
 44
0.0000000001
 40
0.0
 40
0.0
 40
0.0
 40
0.0
 40
0.6958155963438817
 40
0.6958155963438817
 40
0.6958155963438817
 40
0.6958155963438817
 10
122.7049027089
 20
278.5274380968
 30
0.0
 10
122.9362483870667
 20
278.5440109623667
 30
0.0
 10
123.1675940652334
 20
278.5605838279333
 30
0.0
 10
123.3989397434
 20
278.5771566935
 30
0.0
 11
122.7049027089
 21
278.5274380968
 31
0.0
 11
123.3989397434
 21
278.5771566935
 31
0.0
  0
SPLINE
  5
A0D
330
1B
100
AcDbEntity
  8
0
  6
Continuous
100
AcDbSpline
210
0.0
220
0.0
230
1.0
 70
     8
 71
     3
 72
     9
 73
     5
 74
     3
 42
0.0000000001
 43
0.0000000001
 44
0.0000000001
 40
0.0
 40
0.0
 40
0.0
 40
0.0
 40
20.76095188386081
 40
32.39651277565679
 40
32.39651277565679
 40
32.39651277565679
 40
32.39651277565679
 10
152.0938127202
 20
292.2730510037
 30
0.0
 10
152.3185650921344
 20
285.3563843332922
 30
0.0
 10
152.6692808555283
 20
274.5632433729772
 30
0.0
 10
153.0199974599693
 20
263.7701024399916
 30
0.0
 10
153.1459611535
 20
259.8936281599
 30
0.0
 11
152.0938127202
 21
292.2730510037
 31
0.0
 11
152.7680701814
 21
271.5230510037
 31
0.0
 11
153.1459611535
 21
259.8936281599
 31
0.0
  0
SPLINE
  5
A0E
330
1B
100
AcDbEntity
  8
0
  6
Continuous
100
AcDbSpline
210
0.0
220
0.0
230
1.0
 70
     8
 71
     3
 72
     9
 73
     5
 74
     3
 42
0.0000000001
 43
0.0000000001
 44
0.0000000001
 40
0.0
 40
0.0
 40
0.0
 40
0.0
 40
17.25910462585771
 40
25.39281823439265
 40
25.39281823439265
 40
25.39281823439265
 40
25.39281823439265
 10
151.949065527
 20
285.2730510037
 30
0.0
 10
152.1359083569125
 20
279.5230510008159
 30
0.0
 10
152.4108047736861
 20
271.06324337544
 30
0.0
 10
152.6857017668214
 20
262.6034357687928
 30
0.0
 10
152.7737555383
 20
259.8936281523
 30
0.0
 11
151.949065527
 21
285.2730510037
 31
0.0
 11
152.509594283
 21
268.0230510037
 31
0.0
 11
152.7737555383
 21
259.8936281523
 31
0.0
  0
SPLINE
  5
A0F
330
1B
100
AcDbEntity
  8
0
  6
Continuous
100
AcDbSpline
210
0.0
220
0.0
230
1.0
 70
     8
 71
     3
 72
     9
 73
     5
 74
     3
 42
0.0000000001
 43
0.0000000001
 44
0.0000000001
 40
0.0
 40
0.0
 40
0.0
 40
0.0
 40
0.880808879406068
 40
1.687066809548766
 40
1.687066809548766
 40
1.687066809548766
 40
1.687066809548766
 10
129.2801630539
 20
266.9720389242
 30
0.0
 10
129.57315534159
 20
266.9909655991553
 30
0.0
 10
130.1343412873411
 20
267.0272170106464
 30
0.0
 10
130.6955403715852
 20
267.0632644484443
 30
0.0
 10
130.9637403086
 20
267.0804917049
 30
0.0
 11
129.2801630539
 21
266.9720389242
 31
0.0
 11
130.1591434983
 21
267.0287633493
 31
0.0
 11
130.9637403086
 21
267.0804917049
 31
0.0
  0
SPLINE
  5
A10
330
1B
100
AcDbEntity
  8
0
  6
Continuous
100
AcDbSpline
210
0.0
220
0.0
230
1.0
 70
    24
 71
     3
 72
     8
 73
     4
 74
     2
 42
0.0000000001
 43
0.0000000001
 44
0.0000000001
 40
0.0
 40
0.0
 40
0.0
 40
0.0
 40
0.5416835994101292
 40
0.5416835994101292
 40
0.5416835994101292
 40
0.5416835994101292
 10
122.7049027249
 20
266.5274387952
 30
0.0
 10
122.885000438
 20
266.5403678559001
 30
0.0
 10
123.0650981511
 20
266.5532969166001
 30
0.0
 10
123.2451958642
 20
266.5662259773
 30
0.0
 11
122.7049027249
 21
266.5274387952
 31
0.0
 11
123.2451958642
 21
266.5662259773
 31
0.0
  0
SPLINE
  5
A11
330
1B
100
AcDbEntity
  8
0
  6
Continuous
100
AcDbSpline
210
0.0
220
0.0
230
1.0
 70
     8
 71
     3
 72
     9
 73
     5
 74
     3
 42
0.0000000001
 43
0.0000000001
 44
0.0000000001
 40
0.0
 40
0.0
 40
0.0
 40
0.0
 40
20.76095188386406
 40
32.39651277566004
 40
32.39651277566004
 40
32.39651277566004
 40
32.39651277566004
 10
111.6797315249
 20
292.2730510037
 30
0.0
 10
111.4549791529216
 20
285.3563843332926
 30
0.0
 10
111.1042633894591
 20
274.5632433729787
 30
0.0
 10
110.7535467850274
 20
263.7701024399917
 30
0.0
 10
110.6275830915
 20
259.8936281599
 30
0.0
 11
111.6797315249
 21
292.2730510037
 31
0.0
 11
111.0054740636
 21
271.5230510037
 31
0.0
 11
110.6275830915
 21
259.8936281599
 31
0.0
  0
SPLINE
  5
A12
330
1B
100
AcDbEntity
  8
0
  6
Continuous
100
AcDbSpline
210
0.0
220
0.0
230
1.0
 70
     8
 71
     3
 72
     9
 73
     5
 74
     3
 42
0.0000000001
 43
0.0000000001
 44
0.0000000001
 40
0.0
 40
0.0
 40
0.0
 40
0.0
 40
20.76214803193219
 40
32.39837930977933
 40
32.39837930977933
 40
32.39837930977933
 40
32.39837930977933
 10
153.2302765433
 20
292.2730510037
 30
0.0
 10
153.4669878966469
 20
285.3563843328838
 30
0.0
 10
153.8363651017832
 20
274.5632433719499
 30
0.0
 10
154.20574319268
 20
263.7701024413299
 30
0.0
 10
154.3384093626
 20
259.8936281621
 30
0.0
 11
153.2302765433
 21
292.2730510037
 31
0.0
 11
153.9404109671
 21
271.5230510037
 31
0.0
 11
154.3384093626
 21
259.8936281621
 31
0.0
  0
SPLINE
  5
A13
330
1B
100
AcDbEntity
  8
0
  6
Continuous
100
AcDbSpline
210
0.0
220
0.0
230
1.0
 70
     8
 71
     3
 72
     9
 73
     5
 74
     3
 42
0.0000000001
 43
0.0000000001
 44
0.0000000001
 40
0.0
 40
0.0
 40
0.0
 40
0.0
 40
20.75919777858925
 40
32.39377557482636
 40
32.39377557482636
 40
32.39377557482636
 40
32.39377557482636
 10
113.4301760513
 20
292.2730510037
 30
0.0
 10
113.2242116478523
 20
285.3563843338912
 30
0.0
 10
112.9028136471757
 20
274.5632433745253
 30
0.0
 10
112.5814148756778
 20
263.770102438113
 30
0.0
 10
112.4659810016
 20
259.8936281568
 30
0.0
 11
113.4301760513
 21
292.2730510037
 31
0.0
 11
112.8122825244
 21
271.5230510037
 31
0.0
 11
112.4659810016
 21
259.8936281568
 31
0.0
  0
SPLINE
  5
A14
330
1B
100
AcDbEntity
  8
0
  6
Continuous
100
AcDbSpline
210
0.0
220
0.0
230
1.0
 70
     8
 71
     3
 72
     9
 73
     5
 74
     3
 42
0.0000000001
 43
0.0000000001
 44
0.0000000001
 40
0.0
 40
0.0
 40
0.0
 40
0.0
 40
20.76264205421335
 40
32.39915020886298
 40
32.39915020886298
 40
32.39915020886298
 40
32.39915020886298
 10
153.7182287849
 20
292.2730510037
 30
0.0
 10
153.9597067649889
 20
285.3563843327154
 30
0.0
 10
154.3365220724341
 20
274.563243371525
 30
0.0
 10
154.7133382833517
 20
263.770102441877
 30
0.0
 10
154.8486759352
 20
259.893628163
 30
0.0
 11
153.7182287849
 21
292.2730510037
 31
0.0
 11
154.4426630962
 21
271.5230510037
 31
0.0
 11
154.8486759352
 21
259.893628163
 31
0.0
  0
SPLINE
  5
A15
330
1B
100
AcDbEntity
  8
0
  6
Continuous
100
AcDbSpline
210
0.0
220
0.0
230
1.0
 70
     8
 71
     3
 72
     9
 73
     5
 74
     3
 42
0.0000000001
 43
0.0000000001
 44
0.0000000001
 40
0.0
 40
0.0
 40
0.0
 40
0.0
 40
17.25764638612072
 40
25.39067276869746
 40
25.39067276869746
 40
25.39067276869746
 40
25.39067276869746
 10
113.5628232355
 20
285.2730510037
 30
0.0
 10
113.3915993607298
 20
279.5230510012772
 30
0.0
 10
113.1396826579994
 20
271.063243376586
 30
0.0
 10
112.8877654269038
 20
262.6034357676285
 30
0.0
 10
112.8070724297
 20
259.8936281504
 30
0.0
 11
113.5628232355
 21
285.2730510037
 31
0.0
 11
113.0491513671
 21
268.0230510037
 31
0.0
 11
112.8070724297
 21
259.8936281504
 31
0.0
  0
SPLINE
  5
A16
330
1B
100
AcDbEntity
  8
0
  6
Continuous
100
AcDbSpline
210
0.0
220
0.0
230
1.0
 70
     8
 71
     3
 72
     9
 73
     5
 74
     3
 42
0.0000000001
 43
0.0000000001
 44
0.0000000001
 40
0.0
 40
0.0
 40
0.0
 40
0.0
 40
20.75709717707476
 40
32.390497682587
 40
32.390497682587
 40
32.390497682587
 40
32.390497682587
 10
115.7414149099
 20
292.2730510037
 30
0.0
 10
115.5604965991005
 20
285.3563843346086
 30
0.0
 10
115.2781818767337
 20
274.5632433763503
 30
0.0
 10
114.9958664771847
 20
263.770102435805
 30
0.0
 10
114.8944698224
 20
259.893628153
 30
0.0
 11
115.7414149099
 21
292.2730510037
 31
0.0
 11
115.1986596994
 21
271.5230510037
 31
0.0
 11
114.8944698224
 21
259.893628153
 31
0.0
  0
SPLINE
  5
A17
330
1B
100
AcDbEntity
  8
0
  6
Continuous
100
AcDbSpline
210
0.0
220
0.0
230
1.0
 70
     8
 71
     3
 72
     9
 73
     5
 74
     3
 42
0.0000000001
 43
0.0000000001
 44
0.0000000001
 40
0.0
 40
0.0
 40
0.0
 40
0.0
 40
20.75490337879741
 40
32.38707436101019
 40
32.38707436101019
 40
32.38707436101019
 40
32.38707436101019
 10
118.5432222774
 20
292.2730510037
 30
0.0
 10
118.3928471706484
 20
285.3563843353575
 30
0.0
 10
118.15819371669
 20
274.5632433782778
 30
0.0
 10
117.9235396996454
 20
263.7701024334403
 30
0.0
 10
117.8392611502
 20
259.8936281491
 30
0.0
 11
118.5432222774
 21
292.2730510037
 31
0.0
 11
118.0920967259
 21
271.5230510037
 31
0.0
 11
117.8392611502
 21
259.8936281491
 31
0.0
  0
SPLINE
  5
A18
330
1B
100
AcDbEntity
  8
0
  6
Continuous
100
AcDbSpline
210
0.0
220
0.0
230
1.0
 70
     8
 71
     3
 72
     9
 73
     5
 74
     3
 42
0.0000000001
 43
0.0000000001
 44
0.0000000001
 40
0.0
 40
0.0
 40
0.0
 40
0.0
 40
17.2540763242181
 40
25.38542024053773
 40
25.38542024053773
 40
25.38542024053773
 40
25.38542024053773
 10
118.6400683059
 20
285.2730510037
 30
0.0
 10
118.5150573427255
 20
279.523051002408
 30
0.0
 10
118.3311323515971
 20
271.0632433793821
 30
0.0
 10
118.1472069745649
 20
262.6034357647465
 30
0.0
 10
118.088292823
 20
259.8936281457
 30
0.0
 11
118.6400683059
 21
285.2730510037
 31
0.0
 11
118.2650352381
 21
268.0230510037
 31
0.0
 11
118.088292823
 21
259.8936281457
 31
0.0
  0
SPLINE
  5
A19
330
1B
100
AcDbEntity
  8
0
  6
Continuous
100
AcDbSpline
210
0.0
220
0.0
230
1.0
 70
     8
 71
     3
 72
     9
 73
     5
 74
     3
 42
0.0000000001
 43
0.0000000001
 44
0.0000000001
 40
0.0
 40
0.0
 40
0.0
 40
0.0
 40
0.8807971160693282
 40
1.693137528658186
 40
1.693137528658186
 40
1.693137528658186
 40
1.693137528658186
 10
129.2777619807
 20
270.9718858337
 30
0.0
 10
129.5707503393441
 20
270.9908125050976
 30
0.0
 10
130.1339556183237
 20
271.0271948422457
 30
0.0
 10
130.6971741336001
 20
271.0633716885045
 30
0.0
 10
130.9673974045
 20
271.080728763
 30
0.0
 11
129.2777619807
 21
270.9718858337
 31
0.0
 11
130.1567306387
 21
271.028610237
 31
0.0
 11
130.9673974045
 21
271.080728763
 31
0.0
  0
SPLINE
  5
A1A
330
1B
100
AcDbEntity
  8
0
  6
Continuous
100
AcDbSpline
210
0.0
220
0.0
230
1.0
 70
     8
 71
     3
 72
     9
 73
     5
 74
     3
 42
0.0000000001
 43
0.0000000001
 44
0.0000000001
 40
0.0
 40
0.0
 40
0.0
 40
0.0
 40
20.75288100011639
 40
32.38391853185145
 40
32.38391853185145
 40
32.38391853185145
 40
32.38391853185145
 10
121.7504666548
 20
292.2730510037
 30
0.0
 10
121.6352038235627
 20
285.3563843360486
 30
0.0
 10
121.4553414643789
 20
274.5632433800558
 30
0.0
 10
121.2754786734959
 20
263.7701024312573
 30
0.0
 10
121.2108789905
 20
259.8936281455
 30
0.0
 11
121.7504666548
 21
292.2730510037
 31
0.0
 11
121.4046779838
 21
271.5230510037
 31
0.0
 11
121.2108789905
 21
259.8936281455
 31
0.0
  0
SPLINE
  5
A1B
330
1B
100
AcDbEntity
  8
0
  6
Continuous
100
AcDbSpline
210
0.0
220
0.0
230
1.0
 70
    24
 71
     3
 72
     8
 73
     4
 74
     2
 42
0.0000000001
 43
0.0000000001
 44
0.0000000001
 40
0.0
 40
0.0
 40
0.0
 40
0.0
 40
0.5930609667584139
 40
0.5930609667584139
 40
0.5930609667584139
 40
0.5930609667584139
 10
122.7049027262
 20
270.5274412224
 30
0.0
 10
122.9020829871333
 20
270.5415865497666
 30
0.0
 10
123.0992632480667
 20
270.5557318771333
 30
0.0
 10
123.296443509
 20
270.5698772045
 30
0.0
 11
122.7049027262
 21
270.5274412224
 31
0.0
 11
123.296443509
 21
270.5698772045
 31
0.0
  0
SPLINE
  5
A1C
330
1B
100
AcDbEntity
  8
0
  6
Continuous
100
AcDbSpline
210
0.0
220
0.0
230
1.0
 70
     8
 71
     3
 72
     9
 73
     5
 74
     3
 42
0.0000000001
 43
0.0000000001
 44
0.0000000001
 40
0.0
 40
0.0
 40
0.0
 40
0.0
 40
20.75127405207419
 40
32.38141096318607
 40
32.38141096318607
 40
32.38141096318607
 40
32.38141096318607
 10
125.2656975446
 20
292.2730510037
 30
0.0
 10
125.1890491916715
 20
285.3563843365978
 30
0.0
 10
125.0694429540208
 20
274.5632433814564
 30
0.0
 10
124.949836429246
 20
263.7701024294965
 30
0.0
 10
124.9068784414
 20
259.8936281426
 30
0.0
 11
125.2656975446
 21
292.2730510037
 31
0.0
 11
125.0357523679
 21
271.5230510037
 31
0.0
 11
124.9068784414
 21
259.8936281426
 31
0.0
  0
SPLINE
  5
A1D
330
1B
100
AcDbEntity
  8
0
  6
Continuous
100
AcDbSpline
210
0.0
220
0.0
230
1.0
 70
     8
 71
     3
 72
     9
 73
     5
 74
     3
 42
0.0000000001
 43
0.0000000001
 44
0.0000000001
 40
0.0
 40
0.0
 40
0.0
 40
0.0
 40
17.25105915727503
 40
25.38098117066475
 40
25.38098117066475
 40
25.38098117066475
 40
25.38098117066475
 10
125.3150613571
 20
285.2730510037
 30
0.0
 10
125.2513414726772
 20
279.5230510033641
 30
0.0
 10
125.1575922615715
 20
271.0632433817375
 30
0.0
 10
125.0638428536319
 20
262.6034357622921
 30
0.0
 10
125.0338134639
 20
259.8936281417
 30
0.0
 11
125.3150613571
 21
285.2730510037
 31
0.0
 11
125.1239016129
 21
268.0230510037
 31
0.0
 11
125.0338134639
 21
259.8936281417
 31
0.0
  0
SPLINE
  5
A1E
330
1B
100
AcDbEntity
  8
0
  6
Continuous
100
AcDbSpline
210
0.0
220
0.0
230
1.0
 70
     8
 71
     3
 72
     9
 73
     5
 74
     3
 42
0.0000000001
 43
0.0000000001
 44
0.0000000001
 40
0.0
 40
0.0
 40
0.0
 40
0.0
 40
20.7502764705656
 40
32.37985428302761
 40
32.37985428302761
 40
32.37985428302761
 40
32.37985428302761
 10
128.982106435
 20
292.2730510037
 30
0.0
 10
128.9464014818155
 20
285.3563843369389
 30
0.0
 10
128.8906855407323
 20
274.5632433823259
 30
0.0
 10
128.8349694658531
 20
263.7701024284036
 30
0.0
 10
128.8149584299
 20
259.8936281408
 30
0.0
 11
128.982106435
 21
292.2730510037
 31
0.0
 11
128.8749915205
 21
271.5230510037
 31
0.0
 11
128.8149584299
 21
259.8936281408
 31
0.0
  0
SPLINE
  5
A1F
330
1B
100
AcDbEntity
  8
0
  6
Continuous
100
AcDbSpline
210
0.0
220
0.0
230
1.0
 70
     8
 71
     3
 72
     9
 73
     5
 74
     3
 42
0.0000000001
 43
0.0000000001
 44
0.0000000001
 40
0.0
 40
0.0
 40
0.0
 40
0.0
 40
17.25022983818074
 40
25.37976101762832
 40
25.37976101762832
 40
25.37976101762832
 40
25.37976101762832
 10
134.7684427613
 20
285.2730510037
 30
0.0
 10
134.7981252711371
 20
279.5230510036271
 30
0.0
 10
134.8417962838212
 20
271.0632433823853
 30
0.0
 10
134.8854673882619
 20
262.6034357616172
 30
0.0
 10
134.8994559205
 20
259.8936281406
 30
0.0
 11
134.7684427613
 21
285.2730510037
 31
0.0
 11
134.8574903332
 21
268.0230510037
 31
0.0
 11
134.8994559205
 21
259.8936281406
 31
0.0
  0
SPLINE
  5
A20
330
1B
100
AcDbEntity
  8
0
  6
Continuous
100
AcDbSpline
210
0.0
220
0.0
230
1.0
 70
    24
 71
     3
 72
     8
 73
     4
 74
     2
 42
0.0000000001
 43
0.0000000001
 44
0.0000000001
 40
0.0
 40
0.0
 40
0.0
 40
0.0
 40
6.999788031390981
 40
6.999788031390981
 40
6.999788031390981
 40
6.999788031390981
 10
134.7914378101
 20
292.2730510037
 30
0.0
 10
134.8034823729
 20
289.9398194144667
 30
0.0
 10
134.8155269357
 20
287.6065878252334
 30
0.0
 10
134.8275714985
 20
285.273356236
 30
0.0
 11
134.7914378101
 21
292.2730510037
 31
0.0
 11
134.8275714985
 21
285.273356236
 31
0.0
  0
SPLINE
  5
A21
330
1B
100
AcDbEntity
  8
0
  6
Continuous
100
AcDbSpline
210
0.0
220
0.0
230
1.0
 70
     8
 71
     3
 72
     9
 73
     5
 74
     3
 42
0.0000000001
 43
0.0000000001
 44
0.0000000001
 40
0.0
 40
0.0
 40
0.0
 40
0.0
 40
13.75048843917462
 40
25.38006625163662
 40
25.38006625163662
 40
25.38006625163662
 40
25.38006625163662
 10
134.8275714985
 20
285.273356236
 30
0.0
 10
134.8512318868097
 20
280.6899211584614
 30
0.0
 10
134.8949032244132
 20
272.2300117928718
 30
0.0
 10
134.9385747704147
 20
263.770102428358
 30
0.0
 10
134.9585858152
 20
259.8936281408
 30
0.0
 11
134.8275714985
 21
285.273356236
 31
0.0
 11
134.8985527246
 21
271.5230510037
 31
0.0
 11
134.9585858152
 21
259.8936281408
 31
0.0
  0
SPLINE
  5
A22
330
1B
100
AcDbEntity
  8
0
  6
Continuous
100
AcDbSpline
210
0.0
220
0.0
230
1.0
 70
     8
 71
     3
 72
     9
 73
     5
 74
     3
 42
0.0000000001
 43
0.0000000001
 44
0.0000000001
 40
0.0
 40
0.0
 40
0.0
 40
0.0
 40
0.8807971200356681
 40
1.685808273986831
 40
1.685808273986831
 40
1.685808273986831
 40
1.685808273986831
 10
129.2777619791
 20
262.9718805677
 30
0.0
 10
129.570750336919
 20
262.9908072723518
 30
0.0
 10
130.1315176084708
 20
263.0270321811026
 30
0.0
 10
130.6922980205646
 20
263.063053086747
 30
0.0
 10
130.9600832092
 20
263.0802538748
 30
0.0
 11
129.2777619791
 21
262.9718805677
 31
0.0
 11
130.1567306397
 21
263.0286049923
 31
0.0
 11
130.9600832092
 21
263.0802538748
 31
0.0
  0
SPLINE
  5
A23
330
1B
100
AcDbEntity
  8
0
  6
Continuous
100
AcDbSpline
210
0.0
220
0.0
230
1.0
 70
    24
 71
     3
 72
     8
 73
     4
 74
     2
 42
0.0000000001
 43
0.0000000001
 44
0.0000000001
 40
0.0
 40
0.0
 40
0.0
 40
0.0
 40
0.4903062227801525
 40
0.4903062227801525
 40
0.4903062227801525
 40
0.4903062227801525
 10
122.70490272
 20
262.5274358137
 30
0.0
 10
122.8679180027334
 20
262.5391469217
 30
0.0
 10
123.0309332854667
 20
262.5508580297
 30
0.0
 10
123.1939485682
 20
262.5625691377
 30
0.0
 11
122.70490272
 21
262.5274358137
 31
0.0
 11
123.1939485682
 21
262.5625691377
 31
0.0
  0
SPLINE
  5
A24
330
1B
100
AcDbEntity
  8
0
  6
Continuous
100
AcDbSpline
210
0.0
220
0.0
230
1.0
 70
    24
 71
     3
 72
     8
 73
     4
 74
     2
 42
0.0000000001
 43
0.0000000001
 44
0.0000000001
 40
0.0
 40
0.0
 40
0.0
 40
0.0
 40
0.0666743012596511
 40
0.0666743012596511
 40
0.0666743012596511
 40
0.0666743012596511
 10
143.9186801254
 20
273.8188554807
 30
0.0
 10
143.9408327375667
 20
273.8206449069334
 30
0.0
 10
143.9629853497333
 20
273.8224343331667
 30
0.0
 10
143.9851379619
 20
273.8242237594
 30
0.0
 11
143.9186801254
 21
273.8188554807
 31
0.0
 11
143.9851379619
 21
273.8242237594
 31
0.0
  0
SPLINE
  5
A25
330
1B
100
AcDbEntity
  8
0
  6
Continuous
100
AcDbSpline
210
0.0
220
0.0
230
1.0
 70
     8
 71
     3
 72
     9
 73
     5
 74
     3
 42
0.0000000001
 43
0.0000000001
 44
0.0000000001
 40
0.0
 40
0.0
 40
0.0
 40
0.0
 40
20.75127405207419
 40
32.38141096318607
 40
32.38141096318607
 40
32.38141096318607
 40
32.38141096318607
 10
138.5078467005
 20
292.2730510037
 30
0.0
 10
138.5844950534285
 20
285.3563843365978
 30
0.0
 10
138.7041012910793
 20
274.5632433814564
 30
0.0
 10
138.823707815854
 20
263.7701024294965
 30
0.0
 10
138.8666658037
 20
259.8936281426
 30
0.0
 11
138.5078467005
 21
292.2730510037
 31
0.0
 11
138.7377918772
 21
271.5230510037
 31
0.0
 11
138.8666658037
 21
259.8936281426
 31
0.0
  0
SPLINE
  5
A26
330
1B
100
AcDbEntity
  8
0
  6
Continuous
100
AcDbSpline
210
0.0
220
0.0
230
1.0
 70
    24
 71
     3
 72
     8
 73
     4
 74
     2
 42
0.0000000001
 43
0.0000000001
 44
0.0000000001
 40
0.0
 40
0.0
 40
0.0
 40
0.0
 40
0.1397907996963862
 40
0.1397907996963862
 40
0.1397907996963862
 40
0.1397907996963862
 10
143.8457994619
 20
277.8129872543
 30
0.0
 10
143.8922456411666
 20
277.816732467
 30
0.0
 10
143.9386918204333
 20
277.8204776796999
 30
0.0
 10
143.9851379997
 20
277.8242228924
 30
0.0
 11
143.8457994619
 21
277.8129872543
 31
0.0
 11
143.9851379997
 21
277.8242228924
 31
0.0
  0
SPLINE
  5
A27
330
1B
100
AcDbEntity
  8
0
  6
Continuous
100
AcDbSpline
210
0.0
220
0.0
230
1.0
 70
     8
 71
     3
 72
     9
 73
     5
 74
     3
 42
0.0000000001
 43
0.0000000001
 44
0.0000000001
 40
0.0
 40
0.0
 40
0.0
 40
0.0
 40
0.356755859641517
 40
1.207477495337042
 40
1.207477495337042
 40
1.207477495337042
 40
1.207477495337042
 10
136.6683545086
 20
277.2994726892
 30
0.0
 10
136.7870137262856
 20
277.3073231042173
 30
0.0
 10
137.1886282508898
 20
277.333893654374
 30
0.0
 10
137.5902195739217
 20
277.3608129119581
 30
0.0
 10
137.8731585343
 20
277.379778727
 30
0.0
 11
136.6683545086
 21
277.2994726892
 31
0.0
 11
137.0243301363
 21
277.3230543743
 31
0.0
 11
137.8731585343
 21
277.379778727
 31
0.0
  0
SPLINE
  5
A28
330
1B
100
AcDbEntity
  8
0
  6
Continuous
100
AcDbSpline
210
0.0
220
0.0
230
1.0
 70
     8
 71
     3
 72
     9
 73
     5
 74
     3
 42
0.0000000001
 43
0.0000000001
 44
0.0000000001
 40
0.0
 40
0.0
 40
0.0
 40
0.0
 40
0.3288567494750862
 40
1.179578382597154
 40
1.179578382597154
 40
1.179578382597154
 40
1.179578382597154
 10
136.6961928576
 20
273.3013132578
 30
0.0
 10
136.8055725216907
 20
273.3085518038625
 30
0.0
 10
137.197907139919
 20
273.3345157911319
 30
0.0
 10
137.5902195674069
 20
273.3608132626266
 30
0.0
 10
137.8731585174
 20
273.3797792154
 30
0.0
 11
136.6961928576
 21
273.3013132578
 31
0.0
 11
137.0243301251
 21
273.323054816
 31
0.0
 11
137.8731585174
 21
273.3797792154
 31
0.0
  0
SPLINE
  5
A29
330
1B
100
AcDbEntity
  8
0
  6
Continuous
100
AcDbSpline
210
0.0
220
0.0
230
1.0
 70
     8
 71
     3
 72
     9
 73
     5
 74
     3
 42
0.0000000001
 43
0.0000000001
 44
0.0000000001
 40
0.0
 40
0.0
 40
0.0
 40
0.0
 40
20.75288100011639
 40
32.38391853185145
 40
32.38391853185145
 40
32.38391853185145
 40
32.38391853185145
 10
142.0230775903
 20
292.2730510037
 30
0.0
 10
142.1383404215374
 20
285.3563843360486
 30
0.0
 10
142.3182027807211
 20
274.5632433800558
 30
0.0
 10
142.4980655716041
 20
263.7701024312573
 30
0.0
 10
142.5626652546
 20
259.8936281455
 30
0.0
 11
142.0230775903
 21
292.2730510037
 31
0.0
 11
142.3688662613
 21
271.5230510037
 31
0.0
 11
142.5626652546
 21
259.8936281455
 31
0.0
  0
SPLINE
  5
A2A
330
1B
100
AcDbEntity
  8
0
  6
Continuous
100
AcDbSpline
210
0.0
220
0.0
230
1.0
 70
     8
 71
     3
 72
     9
 73
     5
 74
     3
 42
0.0000000001
 43
0.0000000001
 44
0.0000000001
 40
0.0
 40
0.0
 40
0.0
 40
0.0
 40
17.25239506084165
 40
25.38294664665563
 40
25.38294664665563
 40
25.38294664665563
 40
25.38294664665563
 10
141.9488449085
 20
285.2730510037
 30
0.0
 10
142.0446660710814
 20
279.5230510029409
 30
0.0
 10
142.1856449582936
 20
271.0632433807048
 30
0.0
 10
142.3266241413164
 20
262.6034357633981
 30
0.0
 10
142.3717819607
 20
259.8936281435
 30
0.0
 11
141.9488449085
 21
285.2730510037
 31
0.0
 11
142.2363085329
 21
268.0230510037
 31
0.0
 11
142.3717819607
 21
259.8936281435
 31
0.0
  0
SPLINE
  5
A2B
330
1B
100
AcDbEntity
  8
0
  6
Continuous
100
AcDbSpline
210
0.0
220
0.0
230
1.0
 70
     8
 71
     3
 72
     9
 73
     5
 74
     3
 42
0.0000000001
 43
0.0000000001
 44
0.0000000001
 40
0.0
 40
0.0
 40
0.0
 40
0.0
 40
0.2730585227989412
 40
1.123780154781086
 40
1.123780154781086
 40
1.123780154781086
 40
1.123780154781086
 10
136.7518694649
 20
265.3049904744
 30
0.0
 10
136.8426900878642
 20
265.3110042535663
 30
0.0
 10
137.2164649573901
 20
265.3357541336036
 30
0.0
 10
137.5902195967984
 20
265.3608079770807
 30
0.0
 10
137.8731585288
 20
265.3797741837
 30
0.0
 11
136.7518694649
 21
265.3049904744
 31
0.0
 11
137.0243301394
 21
265.323049758
 31
0.0
 11
137.8731585288
 21
265.3797741837
 31
0.0
  0
SPLINE
  5
A2C
330
1B
100
AcDbEntity
  8
0
  6
Continuous
100
AcDbSpline
210
0.0
220
0.0
230
1.0
 70
     8
 71
     3
 72
     9
 73
     5
 74
     3
 42
0.0000000001
 43
0.0000000001
 44
0.0000000001
 40
0.0
 40
0.0
 40
0.0
 40
0.0
 40
17.260099019219
 40
25.3942812564112
 40
25.3942812564112
 40
25.3942812564112
 40
25.3942812564112
 10
110.6957168336
 20
285.2730510037
 30
0.0
 10
110.4989321734868
 20
279.5230510005005
 30
0.0
 10
110.2094086313393
 20
271.0632433746565
 30
0.0
 10
109.9198844820964
 20
262.6034357695894
 30
0.0
 10
109.8271454056
 20
259.8936281536
 30
0.0
 11
110.6957168336
 21
285.2730510037
 31
0.0
 11
110.1053625728
 21
268.0230510037
 31
0.0
 11
109.8271454056
 21
259.8936281536
 31
0.0
  0
SPLINE
  5
A2D
330
1B
100
AcDbEntity
  8
0
  6
Continuous
100
AcDbSpline
210
0.0
220
0.0
230
1.0
 70
     8
 71
     3
 72
     9
 73
     5
 74
     3
 42
0.0000000001
 43
0.0000000001
 44
0.0000000001
 40
0.0
 40
0.0
 40
0.0
 40
0.0
 40
20.76214803193219
 40
32.39837930977934
 40
32.39837930977934
 40
32.39837930977934
 40
32.39837930977934
 10
110.5432677018
 20
292.2730510037
 30
0.0
 10
110.3065563484531
 20
285.3563843328836
 30
0.0
 10
109.9371791433168
 20
274.5632433719499
 30
0.0
 10
109.56780105242
 20
263.7701024413299
 30
0.0
 10
109.4351348825
 20
259.8936281621
 30
0.0
 11
110.5432677018
 21
292.2730510037
 31
0.0
 11
109.833133278
 21
271.5230510037
 31
0.0
 11
109.4351348825
 21
259.8936281621
 31
0.0
  0
SPLINE
  5
A2E
330
1B
100
AcDbEntity
  8
0
  6
Continuous
100
AcDbSpline
210
0.0
220
0.0
230
1.0
 70
     8
 71
     3
 72
     9
 73
     5
 74
     3
 42
0.0000000001
 43
0.0000000001
 44
0.0000000001
 40
0.0
 40
0.0
 40
0.0
 40
0.0
 40
20.76264205421335
 40
32.39915020886298
 40
32.39915020886298
 40
32.39915020886298
 40
32.39915020886298
 10
110.0553154602
 20
292.2730510037
 30
0.0
 10
109.8138374801111
 20
285.3563843327154
 30
0.0
 10
109.4370221726659
 20
274.563243371525
 30
0.0
 10
109.0602059617483
 20
263.770102441877
 30
0.0
 10
108.9248683099
 20
259.893628163
 30
0.0
 11
110.0553154602
 21
292.2730510037
 31
0.0
 11
109.3308811489
 21
271.5230510037
 31
0.0
 11
108.9248683099
 21
259.893628163
 31
0.0
  0
SPLINE
  5
A2F
330
1B
100
AcDbEntity
  8
0
  6
Continuous
100
AcDbSpline
210
0.0
220
0.0
230
1.0
 70
     8
 71
     3
 72
     9
 73
     5
 74
     3
 42
0.0000000001
 43
0.0000000001
 44
0.0000000001
 40
0.0
 40
0.0
 40
0.0
 40
0.0
 40
20.75490337879741
 40
32.38707436101019
 40
32.38707436101019
 40
32.38707436101019
 40
32.38707436101019
 10
145.2303219677
 20
292.2730510037
 30
0.0
 10
145.3806970744516
 20
285.3563843353575
 30
0.0
 10
145.6153505284099
 20
274.5632433782778
 30
0.0
 10
145.8500045454546
 20
263.7701024334403
 30
0.0
 10
145.9342830949
 20
259.8936281491
 30
0.0
 11
145.2303219677
 21
292.2730510037
 31
0.0
 11
145.6814475192
 21
271.5230510037
 31
0.0
 11
145.9342830949
 21
259.8936281491
 31
0.0
  0
SPLINE
  5
A30
330
1B
100
AcDbEntity
  8
0
  6
Continuous
100
AcDbSpline
210
0.0
220
0.0
230
1.0
 70
     8
 71
     3
 72
     9
 73
     5
 74
     3
 42
0.0000000001
 43
0.0000000001
 44
0.0000000001
 40
0.0
 40
0.0
 40
0.0
 40
0.0
 40
20.75709717707214
 40
32.39049768258438
 40
32.39049768258438
 40
32.39049768258438
 40
32.39049768258438
 10
148.0321293352
 20
292.2730510037
 30
0.0
 10
148.2130476459555
 20
285.3563843346083
 30
0.0
 10
148.4953623682537
 20
274.5632433763492
 30
0.0
 10
148.777677767812
 20
263.770102435805
 30
0.0
 10
148.8790744226
 20
259.893628153
 30
0.0
 11
148.0321293352
 21
292.2730510037
 31
0.0
 11
148.5748845456
 21
271.5230510037
 31
0.0
 11
148.8790744226
 21
259.893628153
 31
0.0
  0
SPLINE
  5
A31
330
1B
100
AcDbEntity
  8
0
  6
Continuous
100
AcDbSpline
210
0.0
220
0.0
230
1.0
 70
    24
 71
     3
 72
     8
 73
     4
 74
     2
 42
0.0000000001
 43
0.0000000001
 44
0.0000000001
 40
0.0
 40
0.0
 40
0.0
 40
0.0
 40
12.36952820386637
 40
12.36952820386637
 40
12.36952820386637
 40
12.36952820386637
 10
147.9156125775
 20
285.2730510037
 30
0.0
 10
148.0234254499667
 20
281.1512847231001
 30
0.0
 10
148.1312383224333
 20
277.0295184425
 30
0.0
 10
148.2390511949
 20
272.9077521619
 30
0.0
 11
147.9156125775
 21
285.2730510037
 31
0.0
 11
148.2390511949
 21
272.9077521619
 31
0.0
  0
SPLINE
  5
A32
330
1B
100
AcDbEntity
  8
0
  6
Continuous
100
AcDbSpline
210
0.0
220
0.0
230
1.0
 70
     8
 71
     3
 72
     9
 73
     5
 74
     3
 42
0.0000000001
 43
0.0000000001
 44
0.0000000001
 40
0.0
 40
0.0
 40
0.0
 40
0.0
 40
4.886371889916461
 40
13.01857529574808
 40
13.01857529574808
 40
13.01857529574808
 40
13.01857529574808
 10
148.2390511949
 20
272.9077521619
 30
0.0
 10
148.281640741527
 20
271.2795184419436
 30
0.0
 10
148.3951104552671
 20
266.9414770975934
 30
0.0
 10
148.5085806220122
 20
262.6034357650922
 30
0.0
 10
148.5794610721
 20
259.8936281481
 30
0.0
 11
148.2390511949
 21
272.9077521619
 31
0.0
 11
148.3668198986
 21
268.0230510037
 31
0.0
 11
148.5794610721
 21
259.8936281481
 31
0.0
  0
SPLINE
  5
A33
330
1B
100
AcDbEntity
  8
0
  6
Continuous
100
AcDbSpline
210
0.0
220
0.0
230
1.0
 70
    24
 71
     3
 72
     8
 73
     4
 74
     2
 42
0.0000000001
 43
0.0000000001
 44
0.0000000001
 40
0.0
 40
0.0
 40
0.0
 40
0.0
 40
0.5182073618496433
 40
0.5182073618496433
 40
0.5182073618496433
 40
0.5182073618496433
 10
123.2216839379
 20
264.7375563828
 30
0.0
 10
123.0493975434
 20
264.7251044561
 30
0.0
 10
122.8771111489
 20
264.7126525294
 30
0.0
 10
122.7048247544
 20
264.7002006027
 30
0.0
 11
123.2216839379
 21
264.7375563828
 31
0.0
 11
122.7048247544
 21
264.7002006027
 31
0.0
  0
SPLINE
  5
A34
330
1B
100
AcDbEntity
  8
0
  6
Continuous
100
AcDbSpline
210
0.0
220
0.0
230
1.0
 70
    24
 71
     3
 72
     8
 73
     4
 74
     2
 42
0.0000000001
 43
0.0000000001
 44
0.0000000001
 40
0.0
 40
0.0
 40
0.0
 40
0.0
 40
0.6209634779471137
 40
0.6209634779471137
 40
0.6209634779471137
 40
0.6209634779471137
 10
123.3241773913
 20
272.7448992608
 30
0.0
 10
123.1177265171333
 20
272.7299997084333
 30
0.0
 10
122.9112756429666
 20
272.7151001560666
 30
0.0
 10
122.7048247688
 20
272.7002006037
 30
0.0
 11
123.3241773913
 21
272.7448992608
 31
0.0
 11
122.7048247688
 21
272.7002006037
 31
0.0
  0
SPLINE
  5
A35
330
1B
100
AcDbEntity
  8
0
  6
Continuous
100
AcDbSpline
210
0.0
220
0.0
230
1.0
 70
    24
 71
     3
 72
     8
 73
     4
 74
     2
 42
0.0000000001
 43
0.0000000001
 44
0.0000000001
 40
0.0
 40
0.0
 40
0.0
 40
0.0
 40
0.5695854156990846
 40
0.5695854156990846
 40
0.5695854156990846
 40
0.5695854156990846
 10
123.2729304812
 20
268.7412303943
 30
0.0
 10
123.0835619099333
 20
268.7275537974
 30
0.0
 10
122.8941933386667
 20
268.7138772005
 30
0.0
 10
122.7048247674
 20
268.7002006036
 30
0.0
 11
123.2729304812
 21
268.7412303943
 31
0.0
 11
122.7048247674
 21
268.7002006036
 31
0.0
  0
SPLINE
  5
A36
330
1B
100
AcDbEntity
  8
0
  6
Continuous
100
AcDbSpline
210
0.0
220
0.0
230
1.0
 70
    24
 71
     3
 72
     8
 73
     4
 74
     2
 42
0.0000000001
 43
0.0000000001
 44
0.0000000001
 40
0.0
 40
0.0
 40
0.0
 40
0.0
 40
0.4668293105150115
 40
0.4668293105150115
 40
0.4668293105150115
 40
0.4668293105150115
 10
123.1704377667
 20
260.7338771754
 30
0.0
 10
123.0152334234333
 20
260.7226516507333
 30
0.0
 10
122.8600290801667
 20
260.7114261260667
 30
0.0
 10
122.7048247369
 20
260.7002006014
 30
0.0
 11
123.1704377667
 21
260.7338771754
 31
0.0
 11
122.7048247369
 21
260.7002006014
 31
0.0
  0
SPLINE
  5
A37
330
1B
100
AcDbEntity
  8
0
  6
Continuous
100
AcDbSpline
210
0.0
220
0.0
230
1.0
 70
    24
 71
     3
 72
     8
 73
     4
 74
     2
 42
0.0000000001
 43
0.0000000001
 44
0.0000000001
 40
0.0
 40
0.0
 40
0.0
 40
0.0
 40
0.0744297973582088
 40
0.0744297973582088
 40
0.0744297973582088
 40
0.0744297973582088
 10
143.9851616582
 20
274.2448167954
 30
0.0
 10
143.9604603424333
 20
274.2424977982666
 30
0.0
 10
143.9357590266666
 20
274.2401788011333
 30
0.0
 10
143.9110577109
 20
274.237859804
 30
0.0
 11
143.9851616582
 21
274.2448167954
 31
0.0
 11
143.9110577109
 21
274.237859804
 31
0.0
  0
SPLINE
  5
A38
330
1B
100
AcDbEntity
  8
0
  6
Continuous
100
AcDbSpline
210
0.0
220
0.0
230
1.0
 70
    24
 71
     3
 72
     8
 73
     4
 74
     2
 42
0.0000000001
 43
0.0000000001
 44
0.0000000001
 40
0.0
 40
0.0
 40
0.0
 40
0.0
 40
0.0727956109483223
 40
0.0727956109483223
 40
0.0727956109483223
 40
0.0727956109483223
 10
143.912720954
 20
274.1504979579
 30
0.0
 10
143.9368990829667
 20
274.1525517806333
 30
0.0
 10
143.9610772119333
 20
274.1546056033666
 30
0.0
 10
143.9852553409
 20
274.1566594261
 30
0.0
 11
143.912720954
 21
274.1504979579
 31
0.0
 11
143.9852553409
 21
274.1566594261
 31
0.0
  0
ENDSEC
  0
SECTION
  2
OBJECTS
  0
DICTIONARY
  5
AEF
330
0
100
AcDbDictionary
281
     1
  3
ACAD_COLOR
350
C57
  3
ACAD_GROUP
350
AF0
  3
ACAD_LAYOUT
350
C58
  3
ACAD_MATERIAL
350
C56
  3
ACAD_MLINESTYLE
350
AF1
  3
ACAD_PLOTSETTINGS
350
C59
  3
ACAD_PLOTSTYLENAME
350
C54
  3
ACDBHEADERROUNDTRIPXREC
350
C67
  3
AcDbVariableDictionary
350
C5F
  0
DICTIONARY
  5
C57
102
{ACAD_REACTORS
330
AEF
102
}
330
AEF
100
AcDbDictionary
281
     1
  0
DICTIONARY
  5
AF0
102
{ACAD_REACTORS
330
AEF
102
}
330
AEF
100
AcDbDictionary
281
     1
  0
DICTIONARY
  5
C58
102
{ACAD_REACTORS
330
AEF
102
}
330
AEF
100
AcDbDictionary
281
     1
  3
Layout1
350
C5B
  3
Model
350
C5A
  0
DICTIONARY
  5
C56
102
{ACAD_REACTORS
330
AEF
102
}
330
AEF
100
AcDbDictionary
281
     1
  0
DICTIONARY
  5
AF1
102
{ACAD_REACTORS
330
AEF
102
}
330
AEF
100
AcDbDictionary
281
     1
  3
STANDARD
350
AF2
  0
DICTIONARY
  5
C59
102
{ACAD_REACTORS
330
AEF
102
}
330
AEF
100
AcDbDictionary
281
     1
  0
ACDBDICTIONARYWDFLT
  5
C54
102
{ACAD_REACTORS
330
AEF
102
}
330
AEF
100
AcDbDictionary
281
     1
  3
Normal
350
C55
100
AcDbDictionaryWithDefault
340
C55
  0
DICTIONARY
  5
C67
102
{ACAD_REACTORS
330
AEF
102
}
330
AEF
100
AcDbDictionary
281
     1
  3
COLORDICT
350
C68
  3
MATERIALDICT
350
C69
  0
DICTIONARY
  5
C5F
102
{ACAD_REACTORS
330
AEF
102
}
330
AEF
100
AcDbDictionary
281
     1
  0
LAYOUT
  5
C5B
102
{ACAD_REACTORS
330
C58
102
}
330
C58
100
AcDbPlotSettings
  1

  2
Microsoft Office Document Image Writer
  4

  6

 40
0.0
 41
0.0
 42
0.0
 43
0.0
 44
0.0
 45
0.0
 46
0.0
 47
0.0
 48
0.0
 49
0.0
140
0.0
141
0.0
142
1.0
143
1.0
 70
   688
 72
     0
 73
     0
 74
     5
  7

 75
    16
147
1.0
148
0.0
149
0.0
100
AcDbLayout
  1
Layout1
 70
     0
 71
     1
 10
0.0
 20
0.0
 11
12.0
 21
9.0
 12
0.0
 22
0.0
 32
0.0
 14
1.000000000000000E+20
 24
1.000000000000000E+20
 34
1.000000000000000E+20
 15
-1.000000000000000E+20
 25
-1.000000000000000E+20
 35
-1.000000000000000E+20
146
0.0
 13
0.0
 23
0.0
 33
0.0
 16
1.0
 26
0.0
 36
0.0
 17
0.0
 27
1.0
 37
0.0
 76
     0
330
1C
  0
LAYOUT
  5
C5A
102
{ACAD_REACTORS
330
C58
102
}
330
C58
100
AcDbPlotSettings
  1

  2
Microsoft Office Document Image Writer
  4

  6

 40
0.0
 41
0.0
 42
0.0
 43
0.0
 44
0.0
 45
0.0
 46
0.0
 47
0.0
 48
0.0
 49
0.0
140
0.0
141
0.0
142
1.0
143
1.0
 70
  1712
 72
     0
 73
     0
 74
     0
  7

 75
     0
147
1.0
148
0.0
149
0.0
100
AcDbLayout
  1
Model
 70
     1
 71
     0
 10
0.0
 20
0.0
 11
12.0
 21
9.0
 12
0.0
 22
0.0
 32
0.0
 14
0.0
 24
0.0
 34
0.0
 15
0.0
 25
0.0
 35
0.0
146
0.0
 13
0.0
 23
0.0
 33
0.0
 16
1.0
 26
0.0
 36
0.0
 17
0.0
 27
1.0
 37
0.0
 76
     0
330
1B
  0
MLINESTYLE
  5
AF2
102
{ACAD_REACTORS
330
AF1
102
}
330
AF1
100
AcDbMlineStyle
  2
STANDARD
 70
     0
  3

 62
   256
 51
90.00000000000019
 52
90.00000000000019
 71
     2
 49
0.5
 62
   256
  6
BYLAYER
 49
-0.5
 62
   256
  6
BYLAYER
  0
ACDBPLACEHOLDER
  5
C55
102
{ACAD_REACTORS
330
C54
102
}
330
C54
  0
XRECORD
  5
C68
102
{ACAD_REACTORS
330
C67
102
}
330
C67
100
AcDbXrecord
280
     1
340
C57
  0
XRECORD
  5
C69
102
{ACAD_REACTORS
330
C67
102
}
330
C67
100
AcDbXrecord
280
     1
340
C56
  0
ENDSEC
  0
EOF
