  0
SECTION
  2
HEADER
  9
$ACADVER
  1
AC1015
  9
$ACADMAINTVER
 70
     6
  9
$DWGCODEPAGE
  3
ANSI_1252
  9
$INSBASE
 10
0.0
 20
0.0
 30
0.0
  9
$EXTMIN
 10
284.3190627940706
 20
-451.816176746759
 30
-40.73332500000001
  9
$EXTMAX
 10
4800.663162093308
 20
246.9266154161779
 30
20.8
  9
$LIMMIN
 10
0.0
 20
0.0
  9
$LIMMAX
 10
420.0
 20
297.0
  9
$ORTHOMODE
 70
     1
  9
$REGENMODE
 70
     1
  9
$FILLMODE
 70
     1
  9
$QTEXTMODE
 70
     0
  9
$MIRRTEXT
 70
     1
  9
$LTSCALE
 40
23.1
  9
$ATTMODE
 70
     1
  9
$TEXTSIZE
 40
0.2
  9
$TRACEWID
 40
0.05
  9
$TEXTSTYLE
  7
STANDARD
  9
$CLAYER
  8
0
  9
$CELTYPE
  6
BYLAYER
  9
$CECOLOR
 62
   256
  9
$CELTSCALE
 40
1.0
  9
$DISPSILH
 70
     0
  9
$DIMSCALE
 40
1.0
  9
$DIMASZ
 40
3.0
  9
$DIMEXO
 40
2.625
  9
$DIMDLI
 40
15.96
  9
$DIMRND
 40
0.0
  9
$DIMDLE
 40
0.0
  9
$DIMEXE
 40
7.559999999999999
  9
$DIMTP
 40
0.0
  9
$DIMTM
 40
0.0
  9
$DIMTXT
 40
0.18
  9
$DIMCEN
 40
3.779999999999999
  9
$DIMTSZ
 40
0.0
  9
$DIMTOL
 70
     0
  9
$DIMLIM
 70
     0
  9
$DIMTIH
 70
     1
  9
$DIMTOH
 70
     1
  9
$DIMSE1
 70
     0
  9
$DIMSE2
 70
     0
  9
$DIMTAD
 70
     0
  9
$DIMZIN
 70
     0
  9
$DIMBLK
  1

  9
$DIMASO
 70
     1
  9
$DIMSHO
 70
     1
  9
$DIMPOST
  1

  9
$DIMAPOST
  1

  9
$DIMALT
 70
     0
  9
$DIMALTD
 70
     2
  9
$DIMALTF
 40
25.4
  9
$DIMLFAC
 40
1.0
  9
$DIMTOFL
 70
     0
  9
$DIMTVP
 40
0.0
  9
$DIMTIX
 70
     0
  9
$DIMSOXD
 70
     0
  9
$DIMSAH
 70
     0
  9
$DIMBLK1
  1

  9
$DIMBLK2
  1

  9
$DIMSTYLE
  2
STANDARD
  9
$DIMCLRD
 70
     0
  9
$DIMCLRE
 70
     0
  9
$DIMCLRT
 70
     0
  9
$DIMTFAC
 40
1.0
  9
$DIMGAP
 40
0.09
  9
$DIMJUST
 70
     0
  9
$DIMSD1
 70
     0
  9
$DIMSD2
 70
     0
  9
$DIMTOLJ
 70
     1
  9
$DIMTZIN
 70
     0
  9
$DIMALTZ
 70
     0
  9
$DIMALTTZ
 70
     0
  9
$DIMUPT
 70
     0
  9
$DIMDEC
 70
     4
  9
$DIMTDEC
 70
     4
  9
$DIMALTU
 70
     2
  9
$DIMALTTD
 70
     2
  9
$DIMTXSTY
  7
STANDARD
  9
$DIMAUNIT
 70
     0
  9
$DIMADEC
 70
     0
  9
$DIMALTRND
 40
0.0
  9
$DIMAZIN
 70
     0
  9
$DIMDSEP
 70
    46
  9
$DIMATFIT
 70
     3
  9
$DIMFRAC
 70
     0
  9
$DIMLDRBLK
  1

  9
$DIMLUNIT
 70
     2
  9
$DIMLWD
 70
    -2
  9
$DIMLWE
 70
    -2
  9
$DIMTMOVE
 70
     0
  9
$LUNITS
 70
     2
  9
$LUPREC
 70
     4
  9
$SKETCHINC
 40
0.1
  9
$FILLETRAD
 40
0.0
  9
$AUNITS
 70
     0
  9
$AUPREC
 70
     0
  9
$MENU
  1
acad
  9
$ELEVATION
 40
0.0
  9
$PELEVATION
 40
0.0
  9
$THICKNESS
 40
0.0
  9
$LIMCHECK
 70
     0
  9
$CHAMFERA
 40
0.0
  9
$CHAMFERB
 40
0.0
  9
$CHAMFERC
 40
0.0
  9
$CHAMFERD
 40
0.0
  9
$SKPOLY
 70
     0
  9
$TDCREATE
 40
2444972.041666667
  9
$TDUCREATE
 40
2444972.0
  9
$TDUPDATE
 40
2453410.435005359
  9
$TDUUPDATE
 40
2453410.393338692
  9
$TDINDWG
 40
1.2651435069
  9
$TDUSRTIMER
 40
1.2651435069
  9
$USRTIMER
 70
     1
  9
$ANGBASE
 50
0.0
  9
$ANGDIR
 70
     0
  9
$PDMODE
 70
     0
  9
$PDSIZE
 40
0.0
  9
$PLINEWID
 40
0.0
  9
$SPLFRAME
 70
     0
  9
$SPLINETYPE
 70
     6
  9
$SPLINESEGS
 70
     8
  9
$HANDSEED
  5
5F3F
  9
$SURFTAB1
 70
     6
  9
$SURFTAB2
 70
     6
  9
$SURFTYPE
 70
     6
  9
$SURFU
 70
     6
  9
$SURFV
 70
     6
  9
$UCSBASE
  2

  9
$UCSNAME
  2

  9
$UCSORG
 10
0.0
 20
0.0
 30
0.0
  9
$UCSXDIR
 10
1.0
 20
0.0
 30
0.0
  9
$UCSYDIR
 10
0.0
 20
1.0
 30
0.0
  9
$UCSORTHOREF
  2

  9
$UCSORTHOVIEW
 70
     0
  9
$UCSORGTOP
 10
0.0
 20
0.0
 30
0.0
  9
$UCSORGBOTTOM
 10
0.0
 20
0.0
 30
0.0
  9
$UCSORGLEFT
 10
0.0
 20
0.0
 30
0.0
  9
$UCSORGRIGHT
 10
0.0
 20
0.0
 30
0.0
  9
$UCSORGFRONT
 10
0.0
 20
0.0
 30
0.0
  9
$UCSORGBACK
 10
0.0
 20
0.0
 30
0.0
  9
$PUCSBASE
  2

  9
$PUCSNAME
  2

  9
$PUCSORG
 10
0.0
 20
0.0
 30
0.0
  9
$PUCSXDIR
 10
1.0
 20
0.0
 30
0.0
  9
$PUCSYDIR
 10
0.0
 20
1.0
 30
0.0
  9
$PUCSORTHOREF
  2

  9
$PUCSORTHOVIEW
 70
     0
  9
$PUCSORGTOP
 10
0.0
 20
0.0
 30
0.0
  9
$PUCSORGBOTTOM
 10
0.0
 20
0.0
 30
0.0
  9
$PUCSORGLEFT
 10
0.0
 20
0.0
 30
0.0
  9
$PUCSORGRIGHT
 10
0.0
 20
0.0
 30
0.0
  9
$PUCSORGFRONT
 10
0.0
 20
0.0
 30
0.0
  9
$PUCSORGBACK
 10
0.0
 20
0.0
 30
0.0
  9
$USERI1
 70
     0
  9
$USERI2
 70
     0
  9
$USERI3
 70
     0
  9
$USERI4
 70
     0
  9
$USERI5
 70
     0
  9
$USERR1
 40
0.0
  9
$USERR2
 40
0.0
  9
$USERR3
 40
0.0
  9
$USERR4
 40
0.0
  9
$USERR5
 40
0.0
  9
$WORLDVIEW
 70
     1
  9
$SHADEDGE
 70
     3
  9
$SHADEDIF
 70
    70
  9
$TILEMODE
 70
     1
  9
$MAXACTVP
 70
    16
  9
$PINSBASE
 10
0.0
 20
0.0
 30
0.0
  9
$PLIMCHECK
 70
     0
  9
$PEXTMIN
 10
1.000000000000000E+20
 20
1.000000000000000E+20
 30
1.000000000000000E+20
  9
$PEXTMAX
 10
-1.000000000000000E+20
 20
-1.000000000000000E+20
 30
-1.000000000000000E+20
  9
$PLIMMIN
 10
0.0
 20
0.0
  9
$PLIMMAX
 10
12.0
 20
9.0
  9
$UNITMODE
 70
     0
  9
$VISRETAIN
 70
     0
  9
$PLINEGEN
 70
     1
  9
$PSLTSCALE
 70
     0
  9
$TREEDEPTH
 70
  3020
  9
$CMLSTYLE
  2
STANDARD
  9
$CMLJUST
 70
     0
  9
$CMLSCALE
 40
1.0
  9
$PROXYGRAPHICS
 70
     1
  9
$MEASUREMENT
 70
     0
  9
$CELWEIGHT
370
    -1
  9
$ENDCAPS
280
     0
  9
$JOINSTYLE
280
     0
  9
$LWDISPLAY
290
     0
  9
$INSUNITS
 70
     0
  9
$HYPERLINKBASE
  1

  9
$STYLESHEET
  1

  9
$XEDIT
290
     1
  9
$CEPSNTYPE
380
     0
  9
$PSTYLEMODE
290
     1
  9
$FINGERPRINTGUID
  2
{0BC36D6C-D7C2-4D71-98D4-CB92CFD2B5E3}
  9
$VERSIONGUID
  2
{5AD351CE-029C-40E5-B020-FEA5D4111CAC}
  9
$EXTNAMES
290
     1
  9
$PSVPSCALE
 40
0.0
  9
$OLESTARTUP
290
     0
  0
ENDSEC
  0
SECTION
  2
CLASSES
  0
CLASS
  1
IMAGE
  2
AcDbRasterImage
  3
ISM
 90
      127
280
     0
281
     1
  0
CLASS
  1
DICTIONARYVAR
  2
AcDbDictionaryVar
  3
ObjectDBX Classes
 90
        0
280
     0
281
     0
  0
CLASS
  1
RASTERVARIABLES
  2
AcDbRasterVariables
  3
ISM
 90
        0
280
     0
281
     0
  0
CLASS
  1
IMAGEDEF
  2
AcDbRasterImageDef
  3
ISM
 90
        0
280
     0
281
     0
  0
CLASS
  1
IMAGEDEF_REACTOR
  2
AcDbRasterImageDefReactor
  3
ISM
 90
        1
280
     0
281
     0
  0
CLASS
  1
IDBUFFER
  2
AcDbIdBuffer
  3
ObjectDBX Classes
 90
        0
280
     0
281
     0
  0
CLASS
  1
SPATIAL_FILTER
  2
AcDbSpatialFilter
  3
ObjectDBX Classes
 90
        0
280
     0
281
     0
  0
CLASS
  1
SORTENTSTABLE
  2
AcDbSortentsTable
  3
ObjectDBX Classes
 90
        0
280
     0
281
     0
  0
CLASS
  1
LAYER_INDEX
  2
AcDbLayerIndex
  3
ObjectDBX Classes
 90
        0
280
     0
281
     0
  0
CLASS
  1
SPATIAL_INDEX
  2
AcDbSpatialIndex
  3
AutoCAD 2000
 90
        0
280
     0
281
     0
  0
CLASS
  1
OBJECT_PTR
  2
CAseDLPNTableRecord
  3
ASE-LPNTableRecord
 90
        1
280
     0
281
     0
  0
CLASS
  1
PLOTSETTINGS
  2
AcDbPlotSettings
  3
ObjectDBX Classes
 90
        0
280
     0
281
     0
  0
CLASS
  1
ACDBDICTIONARYWDFLT
  2
AcDbDictionaryWithDefault
  3
ObjectDBX Classes
 90
        0
280
     0
281
     0
  0
CLASS
  1
WIPEOUT
  2
AcDbWipeout
  3
WipeOut|AutoCAD Express Tool|expresstools@autodesk.com
 90
      127
280
     0
281
     1
  0
CLASS
  1
WIPEOUTVARIABLES
  2
AcDbWipeoutVariables
  3
WipeOut|AutoCAD Express Tool|expresstools@autodesk.com
 90
        0
280
     0
281
     0
  0
CLASS
  1
RTEXT
  2
RText
  3
RText|AutoCAD Express Tool|expresstools@autodesk.com
 90
        0
280
     0
281
     1
  0
CLASS
  1
ARCALIGNEDTEXT
  2
AcDbArcAlignedText
  3
ATEXT|AutoCAD Express Tool|expresstools@autodesk.com
 90
        0
280
     0
281
     1
  0
CLASS
  1
ACDBPLACEHOLDER
  2
AcDbPlaceHolder
  3
ObjectDBX Classes
 90
        0
280
     0
281
     0
  0
CLASS
  1
LAYOUT
  2
AcDbLayout
  3
ObjectDBX Classes
 90
        0
280
     0
281
     0
  0
ENDSEC
  0
SECTION
  2
TABLES
  0
TABLE
  2
VPORT
  5
6
330
0
100
AcDbSymbolTable
 70
     1
  0
VPORT
  5
5F33
330
6
100
AcDbSymbolTableRecord
100
AcDbViewportTableRecord
  2
*Active
 70
     0
 10
0.0
 20
0.0
 11
1.0
 21
1.0
 12
946.207464813337
 22
143.8484897716016
 13
0.0
 23
0.0
 14
1.0
 24
1.0
 15
0.0
 25
0.0
 16
0.0
 26
0.0
 36
1.0
 17
0.0
 27
0.0
 37
0.0
 40
132.1055688000215
 41
1.888667992047713
 42
50.0
 43
0.0
 44
0.0
 50
0.0
 51
0.0
 71
     0
 72
   100
 73
     1
 74
     1
 75
     0
 76
     0
 77
     0
 78
     0
281
     0
 65
     1
110
0.0
120
0.0
130
0.0
111
1.0
121
0.0
131
0.0
112
0.0
122
1.0
132
0.0
 79
     0
146
0.0
  0
ENDTAB
  0
TABLE
  2
LTYPE
  5
3
330
0
100
AcDbSymbolTable
 70
     2
  0
LTYPE
  5
C
330
3
100
AcDbSymbolTableRecord
100
AcDbLinetypeTableRecord
  2
BYBLOCK
 70
     0
  3

 72
    65
 73
     0
 40
0.0
  0
LTYPE
  5
D
330
3
100
AcDbSymbolTableRecord
100
AcDbLinetypeTableRecord
  2
BYLAYER
 70
     0
  3

 72
    65
 73
     0
 40
0.0
  0
LTYPE
  5
E
330
3
100
AcDbSymbolTableRecord
100
AcDbLinetypeTableRecord
  2
CONTINUOUS
 70
     0
  3
Solid line
 72
    65
 73
     0
 40
0.0
  0
LTYPE
  5
F
330
3
100
AcDbSymbolTableRecord
100
AcDbLinetypeTableRecord
  2
CENTER
 70
     0
  3
____ _ ____ _ ____ _ ____ _ ____ _ ____ _ ____
 72
    65
 73
     4
 40
0.6
 49
0.375
 74
     0
 49
-0.075
 74
     0
 49
0.075
 74
     0
 49
-0.075
 74
     0
  0
ENDTAB
  0
TABLE
  2
LAYER
  5
1
330
0
100
AcDbSymbolTable
 70
     2
  0
LAYER
  5
14
330
1
100
AcDbSymbolTableRecord
100
AcDbLayerTableRecord
  2
0
 70
     0
 62
     7
  6
CONTINUOUS
370
    -3
390
616
  0
LAYER
  5
61F
330
1
100
AcDbSymbolTableRecord
100
AcDbLayerTableRecord
  2
Defpoints
 70
     0
 62
     7
  6
CONTINUOUS
290
     0
370
    -3
390
616
  0
ENDTAB
  0
TABLE
  2
STYLE
  5
2
330
0
100
AcDbSymbolTable
 70
     3
  0
STYLE
  5
1D
330
2
100
AcDbSymbolTableRecord
100
AcDbTextStyleTableRecord
  2
STANDARD
 70
     0
 40
0.0
 41
1.0
 50
0.0
 71
     0
 42
0.2
  3
VERDANA.TTF
  4

1001
ACAD
1000
Verdana
1071
       34
  0
STYLE
  5
1A
330
2
100
AcDbSymbolTableRecord
100
AcDbTextStyleTableRecord
  2
TEXTSTYLE_0
 70
     0
 40
0.0
 41
0.8
 50
0.0
 71
     0
 42
0.2
  3
txt
  4

  0
STYLE
  5
1B
330
2
100
AcDbSymbolTableRecord
100
AcDbTextStyleTableRecord
  2
TEXTSTYLE_1
 70
     0
 40
0.0
 41
0.8
 50
0.0
 71
     0
 42
0.2
  3
txt
  4

  0
ENDTAB
  0
TABLE
  2
VIEW
  5
4
330
0
100
AcDbSymbolTable
 70
     0
  0
ENDTAB
  0
TABLE
  2
UCS
  5
5
330
0
100
AcDbSymbolTable
 70
     0
  0
ENDTAB
  0
TABLE
  2
APPID
  5
7
330
0
100
AcDbSymbolTable
 70
     1
  0
APPID
  5
19
330
7
100
AcDbSymbolTableRecord
100
AcDbRegAppTableRecord
  2
ACAD
 70
     0
  0
ENDTAB
  0
TABLE
  2
DIMSTYLE
  5
8
330
0
100
AcDbSymbolTable
 70
     2
100
AcDbDimStyleTable
  0
DIMSTYLE
105
2D
330
8
100
AcDbSymbolTableRecord
100
AcDbDimStyleTableRecord
  2
STANDARD
 70
     0
 47
0.003
 48
0.003
 71
     1
140
1.5
289
     0
340
1D
  0
DIMSTYLE
105
784
330
8
100
AcDbSymbolTableRecord
100
AcDbDimStyleTableRecord
  2
dimensionali
 70
     0
 41
6.0
 42
5.0
 43
31.958
 44
0.0
 47
0.003
 48
0.003
 71
     1
 73
     0
 74
     0
140
8.0
141
7.568999999999999
147
5.0
340
1D
341
785
342
785
  0
ENDTAB
  0
TABLE
  2
BLOCK_RECORD
  5
28
330
0
100
AcDbSymbolTable
 70
     1
  0
BLOCK_RECORD
  5
26
330
28
100
AcDbSymbolTableRecord
100
AcDbBlockTableRecord
  2
*MODEL_SPACE
340
61B
  0
BLOCK_RECORD
  5
27
330
28
100
AcDbSymbolTableRecord
100
AcDbBlockTableRecord
  2
*PAPER_SPACE
340
61C
  0
BLOCK_RECORD
  5
785
330
28
100
AcDbSymbolTableRecord
100
AcDbBlockTableRecord
  2
_Dot
340
0
  0
ENDTAB
  0
ENDSEC
  0
SECTION
  2
BLOCKS
  0
BLOCK
  5
29
330
26
100
AcDbEntity
  8
0
100
AcDbBlockBegin
  2
*MODEL_SPACE
 70
     0
 71
     0
 10
0.0
 20
0.0
 30
0.0
  3
*MODEL_SPACE
  1

  0
ENDBLK
  5
2A
330
26
100
AcDbEntity
  8
0
100
AcDbBlockEnd
  0
BLOCK
  5
2B
330
27
100
AcDbEntity
 67
     1
  8
0
100
AcDbBlockBegin
  2
*PAPER_SPACE
 70
     0
 71
     0
 10
0.0
 20
0.0
 30
0.0
  3
*PAPER_SPACE
  1

  0
ENDBLK
  5
2C
330
27
100
AcDbEntity
 67
     1
  8
0
100
AcDbBlockEnd
  0
BLOCK
  5
786
330
785
100
AcDbEntity
  8
0
100
AcDbBlockBegin
  2
_Dot
 70
     0
 71
     0
 10
0.0
 20
0.0
 30
0.0
  3
_Dot
  1

  0
LWPOLYLINE
  5
787
330
785
100
AcDbEntity
  8
0
  6
ByBlock
 62
     0
100
AcDbPolyline
 90
        2
 70
     1
 43
0.5
 10
-0.25
 20
0.0
 42
1.0
 10
0.25
 20
0.0
 42
1.0
  0
LINE
  5
788
330
785
100
AcDbEntity
  8
0
  6
ByBlock
 62
     0
370
    -2
100
AcDbLine
 10
-0.5
 20
0.0
 30
0.0
 11
-1.0
 21
0.0
 31
0.0
  0
ENDBLK
  5
789
330
785
100
AcDbEntity
  8
0
100
AcDbBlockEnd
  0
ENDSEC
  0
SECTION
  2
ENTITIES
  0
TEXT
  5
E5
330
26
100
AcDbEntity
  8
0
  6
Continuous
 62
     2
100
AcDbText
 10
98.4898777622
 20
41.38631207849999
 30
0.0
 40
1.8
  1
 
  7
TEXTSTYLE_1
 72
     5
 11
100.8041634764
 21
41.38631207849999
 31
0.0
100
AcDbText
  0
TEXT
  5
11D
330
26
100
AcDbEntity
  8
0
  6
Continuous
 62
     1
100
AcDbText
 10
328.1631333629
 20
32.0853596703
 30
0.0
 40
1.5
  1
 
  7
TEXTSTYLE_0
 72
     5
 11
330.0092872091
 21
32.0853596703
 31
0.0
100
AcDbText
  0
TEXT
  5
11E
330
26
100
AcDbEntity
  8
0
  6
Continuous
 62
     1
100
AcDbText
 10
330.0092872091
 20
32.0853596703
 30
0.0
 40
1.5
  1
 
  7
TEXTSTYLE_0
 72
     5
 11
331.8554410552
 21
32.0853596703
 31
0.0
100
AcDbText
  0
TEXT
  5
120
330
26
100
AcDbEntity
  8
0
  6
Continuous
 62
     1
100
AcDbText
 10
352.836210286
 20
32.0853596703
 30
0.0
 40
1.5
  1
 
  7
TEXTSTYLE_0
 72
     5
 11
354.6823641321
 21
32.0853596703
 31
0.0
100
AcDbText
  0
TEXT
  5
12A
330
26
100
AcDbEntity
  8
0
  6
Continuous
 62
     1
100
AcDbText
 10
401.5862102859999
 20
20.9420904395
 30
0.0
 40
1.5
  1
 
  7
TEXTSTYLE_0
 72
     5
 11
403.4323641321
 21
20.9420904395
 31
0.0
100
AcDbText
  0
LINE
  5
162A
330
26
100
AcDbEntity
  8
0
100
AcDbLine
 10
916.0640966221572
 20
144.5574224117295
 30
0.0
 11
954.139920836009
 21
144.5574224130103
 31
0.0
  0
LINE
  5
162B
330
26
100
AcDbEntity
  8
0
  6
Continuous
100
AcDbLine
 10
948.639920836009
 20
145.2706762242275
 30
0.0
 11
948.639920836009
 21
165.1363359099275
 31
0.0
  0
LWPOLYLINE
  5
162C
330
26
100
AcDbEntity
  8
0
100
AcDbPolyline
 90
        4
 70
   128
 43
0.0
 10
933.6399208359592
 20
146.3899547066903
 10
941.086559587112
 20
145.0880485684944
 10
948.639920836009
 20
145.4886349473069
 10
954.139920836009
 20
149.3943525477842
  0
SPLINE
  5
162D
330
26
100
AcDbEntity
  8
0
  6
Continuous
100
AcDbSpline
210
0.0
220
0.0
230
1.0
 70
     8
 71
     3
 72
     9
 73
     5
 74
     3
 42
0.0000000001
 43
0.0000000001
 44
0.0000000001
 40
0.0
 40
0.0
 40
0.0
 40
0.0
 40
0.1525205509090521
 40
0.2961939752832325
 40
0.2961939752832325
 40
0.2961939752832325
 40
0.2961939752832325
 10
917.0852202975591
 20
143.1936228379276
 30
0.0
 10
917.1144375895187
 20
143.1519938075327
 30
0.0
 10
917.1711773914735
 20
143.0711504855912
 30
0.0
 10
917.2335462325302
 20
142.9945692924289
 30
0.0
 10
917.263799194159
 20
142.9574224117276
 30
0.0
 11
917.0852202975591
 21
143.1936228379276
 31
0.0
 11
917.1743647566591
 21
143.0698658831276
 31
0.0
 11
917.263799194159
 21
142.9574224117276
 31
0.0
  0
SPLINE
  5
162E
330
26
100
AcDbEntity
  8
0
  6
Continuous
100
AcDbSpline
210
0.0
220
0.0
230
1.0
 70
     8
 71
     3
 72
    10
 73
     6
 74
     4
 42
0.0000000001
 43
0.0000000001
 44
0.0000000001
 40
0.0
 40
0.0
 40
0.0
 40
0.0
 40
0.3795440464240346
 40
0.7465447842977735
 40
1.100611438977591
 40
1.100611438977591
 40
1.100611438977591
 40
1.100611438977591
 10
919.2367504136591
 20
140.5574224117276
 30
0.0
 10
919.3162200953376
 20
140.4589729140218
 30
0.0
 10
919.4725331159893
 20
140.2653275131219
 30
0.0
 10
919.7169532250866
 20
139.9913706092916
 30
0.0
 10
919.8879881453688
 20
139.8224361078415
 30
0.0
 10
919.9719716435591
 20
139.7394839810276
 30
0.0
 11
919.2367504136591
 21
140.5574224117276
 31
0.0
 11
919.477609031559
 21
140.2640952746276
 31
0.0
 11
919.7226499140591
 21
139.9908838043276
 31
0.0
 11
919.9719716435591
 21
139.7394839810276
 31
0.0
  0
SPLINE
  5
162F
330
26
100
AcDbEntity
  8
0
  6
Continuous
100
AcDbSpline
210
0.0
220
0.0
230
1.0
 70
     8
 71
     3
 72
    13
 73
     9
 74
     7
 42
0.0000000001
 43
0.0000000001
 44
0.0000000001
 40
0.0
 40
0.0
 40
0.0
 40
0.0
 40
0.369531736173532
 40
0.8266819949606677
 40
1.321876132607818
 40
1.839513108635241
 40
2.375618240559825
 40
2.931175289159358
 40
2.931175289159358
 40
2.931175289159358
 40
2.931175289159358
 10
917.373895432159
 20
142.8203154315276
 30
0.0
 10
917.4499480935835
 20
142.7234149221839
 30
0.0
 10
917.6200860268491
 20
142.5066381245903
 30
0.0
 10
917.9010543202492
 20
142.1671683787358
 30
0.0
 10
918.2159610893402
 20
141.7917741434981
 30
0.0
 10
918.5486826830111
 20
141.3969689828415
 30
0.0
 10
918.8932258252241
 20
140.9857799678769
 30
0.0
 10
919.1208899968439
 20
140.7018944136518
 30
0.0
 10
919.2367504136591
 20
140.5574224117276
 30
0.0
 11
917.373895432159
 21
142.8203154315276
 31
0.0
 11
917.603167486359
 21
142.5305085489276
 31
0.0
 11
917.8933349781592
 21
142.1772534204276
 31
0.0
 11
918.211294061059
 21
141.7976230007276
 31
0.0
 11
918.544534715459
 21
141.4015185887276
 31
0.0
 11
918.887600881759
 21
140.9895546121276
 31
0.0
 11
919.2367504136591
 21
140.5574224117276
 31
0.0
  0
SPLINE
  5
1630
330
26
100
AcDbEntity
  8
0
  6
Continuous
100
AcDbSpline
210
0.0
220
0.0
230
1.0
 70
     8
 71
     3
 72
     9
 73
     5
 74
     3
 42
0.0000000001
 43
0.0000000001
 44
0.0000000001
 40
0.0
 40
0.0
 40
0.0
 40
0.0
 40
0.0885898778870916
 40
0.1758491798724717
 40
0.1758491798724717
 40
0.1758491798724717
 40
0.1758491798724717
 10
917.373895432159
 20
142.8203154315276
 30
0.0
 10
917.3557699543685
 20
142.8436308235945
 30
0.0
 10
917.3197912344488
 20
142.8899114221363
 30
0.0
 10
917.2823688210974
 20
142.9350325526608
 30
0.0
 10
917.263799194159
 20
142.9574224117276
 30
0.0
 11
917.373895432159
 21
142.8203154315276
 31
0.0
 11
917.319152592859
 21
142.8899673375276
 31
0.0
 11
917.263799194159
 21
142.9574224117276
 31
0.0
  0
SPLINE
  5
1631
330
26
100
AcDbEntity
  8
0
  6
Continuous
100
AcDbSpline
210
0.0
220
0.0
230
1.0
 70
     8
 71
     3
 72
    11
 73
     7
 74
     5
 42
0.0000000001
 43
0.0000000001
 44
0.0000000001
 40
0.0
 40
0.0
 40
0.0
 40
0.0
 40
0.1746543877045437
 40
0.725724872433523
 40
1.672086188245377
 40
3.014188410891846
 40
3.014188410891846
 40
3.014188410891846
 40
3.014188410891846
 10
913.139920835959
 20
147.4020213349276
 30
0.0
 10
913.1825185985073
 20
147.3623378186907
 30
0.0
 10
913.3595210557469
 20
147.1974446537535
 30
0.0
 10
913.7677272707252
 20
146.8179447492647
 30
0.0
 10
914.4619645233986
 20
146.1745770164856
 30
0.0
 10
915.023719964753
 20
145.6585067246141
 30
0.0
 10
915.3531694900591
 20
145.3558499096276
 30
0.0
 11
913.139920835959
 21
147.4020213349276
 31
0.0
 11
913.267723892959
 21
147.2829812838276
 31
0.0
 11
913.671297964559
 21
146.9077391648276
 31
0.0
 11
914.3655945495591
 21
146.2646590826276
 31
0.0
 11
915.3531694900591
 21
145.3558499096276
 31
0.0
  0
SPLINE
  5
1632
330
26
100
AcDbEntity
  8
0
  6
Continuous
100
AcDbSpline
210
0.0
220
0.0
230
1.0
 70
     8
 71
     3
 72
    13
 73
     9
 74
     7
 42
0.0000000001
 43
0.0000000001
 44
0.0000000001
 40
0.0
 40
0.0
 40
0.0
 40
0.0
 40
0.2870377766125352
 40
0.5774570009458386
 40
0.8726190122209598
 40
1.164747302576132
 40
1.449764987068792
 40
1.703828564902084
 40
1.703828564902084
 40
1.703828564902084
 40
1.703828564902084
 10
916.064096622159
 20
144.5574224117276
 30
0.0
 10
916.1213229989421
 20
144.4807424203817
 30
0.0
 10
916.2364499076796
 20
144.3264791092673
 30
0.0
 10
916.4130982221949
 20
144.0953850450271
 30
0.0
 10
916.5910818724133
 20
143.8631793955174
 30
0.0
 10
916.7670555982327
 20
143.6317122377458
 30
0.0
 10
916.9330857284786
 20
143.4098623354909
 30
0.0
 10
917.0364878958897
 20
143.2628896069187
 30
0.0
 10
917.0852202975591
 20
143.1936228379276
 30
0.0
 11
916.064096622159
 21
144.5574224117276
 31
0.0
 11
916.2362131818591
 21
144.3277126490276
 31
0.0
 11
916.4121881424589
 21
144.0966798827276
 31
0.0
 11
916.5915415225591
 21
143.8622593675276
 31
0.0
 11
916.768196053159
 21
143.6295962745276
 31
0.0
 11
916.9380731689591
 21
143.4007363916276
 31
0.0
 11
917.0852202975591
 21
143.1936228379276
 31
0.0
  0
SPLINE
  5
1633
330
26
100
AcDbEntity
  8
0
  6
Continuous
100
AcDbSpline
210
0.0
220
0.0
230
1.0
 70
     8
 71
     3
 72
    10
 73
     6
 74
     4
 42
0.0000000001
 43
0.0000000001
 44
0.0000000001
 40
0.0
 40
0.0
 40
0.0
 40
0.0
 40
0.3405516017910337
 40
0.6986159280807888
 40
1.070507654371392
 40
1.070507654371392
 40
1.070507654371392
 40
1.070507654371392
 10
915.3531694900591
 20
145.3558499096276
 30
0.0
 10
915.4351740761633
 20
145.2773104528536
 30
0.0
 10
915.6034003001103
 20
145.1161926804028
 30
0.0
 10
915.8405338859277
 20
144.8488977584996
 30
0.0
 10
915.9886405260397
 20
144.6558001295583
 30
0.0
 10
916.064096622159
 20
144.5574224117276
 30
0.0
 11
915.3531694900591
 21
145.3558499096276
 31
0.0
 11
915.595981925859
 21
145.1170665046276
 31
0.0
 11
915.8342009941589
 21
144.8497432223276
 31
0.0
 11
916.064096622159
 21
144.5574224117276
 31
0.0
  0
SPLINE
  5
1634
330
26
100
AcDbEntity
  8
0
  6
Continuous
100
AcDbSpline
210
0.0
220
0.0
230
1.0
 70
     8
 71
     3
 72
    11
 73
     7
 74
     0
 42
0.0000000001
 43
0.0000000001
 40
0.0
 40
0.0
 40
0.0
 40
0.0
 40
0.2108134131365072
 40
0.492684929428888
 40
0.6740153436459005
 40
0.726778643401673
 40
0.726778643401673
 40
0.726778643401673
 40
0.726778643401673
 10
933.191951098059
 20
158.0588995906276
 30
0.0
 10
933.2405690424472
 20
158.0011305358035
 30
0.0
 10
933.3541924032359
 20
157.8661204229469
 30
0.0
 10
933.6389581799455
 20
157.9789082371915
 30
0.0
 10
933.6636121009426
 20
158.1660323846424
 30
0.0
 10
933.6448289886316
 20
158.2418878422977
 30
0.0
 10
933.639920836009
 20
158.2587778523605
 30
0.0
  0
SPLINE
  5
1635
330
26
100
AcDbEntity
  8
0
  6
Continuous
100
AcDbSpline
210
0.0
220
0.0
230
1.0
 70
     8
 71
     3
 72
     8
 73
     4
 74
     0
 42
0.0000000001
 43
0.0000000001
 40
3.093571134461743
 40
3.093571134461743
 40
3.093571134461743
 40
3.093571134461743
 40
3.120152574519008
 40
3.120152574519008
 40
3.120152574519008
 40
3.120152574519008
 10
933.1825618672734
 20
158.0833645785592
 30
0.0
 10
933.1856905592946
 20
158.0752070695787
 30
0.0
 10
933.1888208286769
 20
158.0670533301032
 30
0.0
 10
933.191951098059
 20
158.0588995906276
 30
0.0
  0
SPLINE
  5
1636
330
26
100
AcDbEntity
  8
0
  6
Continuous
100
AcDbSpline
210
0.0
220
0.0
230
1.0
 70
     8
 71
     3
 72
     9
 73
     5
 74
     3
 42
0.0000000001
 43
0.0000000001
 44
0.0000000001
 40
0.0
 40
0.0
 40
0.0
 40
0.0
 40
0.2611706310588919
 40
0.5226328042554126
 40
0.5226328042554126
 40
0.5226328042554126
 40
0.5226328042554126
 10
933.8461874101589
 20
150.1671378689276
 30
0.0
 10
933.759091643385
 20
150.1690001947224
 30
0.0
 10
933.5848028857129
 20
150.1727269252076
 30
0.0
 10
933.4117282402942
 20
150.1935999131363
 30
0.0
 10
933.325142644159
 20
150.2040422289276
 30
0.0
 11
933.8461874101589
 21
150.1671378689276
 31
0.0
 11
933.5852032993591
 21
150.1770066296276
 31
0.0
 11
933.325142644159
 21
150.2040422289276
 31
0.0
  0
SPLINE
  5
1637
330
26
100
AcDbEntity
  8
0
  6
Continuous
100
AcDbSpline
210
0.0
220
0.0
230
1.0
 70
    24
 71
     3
 72
     8
 73
     4
 74
     2
 42
0.0000000001
 43
0.0000000001
 44
0.0000000001
 40
0.0
 40
0.0
 40
0.0
 40
0.0
 40
0.5250952017120601
 40
0.5250952017120601
 40
0.5250952017120601
 40
0.5250952017120601
 10
933.325142644159
 20
150.2040422289276
 30
0.0
 10
933.1501203392925
 20
150.205859004261
 30
0.0
 10
932.9750980344259
 20
150.2076757795943
 30
0.0
 10
932.800075729559
 20
150.2094925549276
 30
0.0
 11
933.325142644159
 21
150.2040422289276
 31
0.0
 11
932.800075729559
 21
150.2094925549276
 31
0.0
  0
SPLINE
  5
1638
330
26
100
AcDbEntity
  8
0
  6
Continuous
100
AcDbSpline
210
0.0
220
0.0
230
1.0
 70
     8
 71
     3
 72
     9
 73
     5
 74
     3
 42
0.0000000001
 43
0.0000000001
 44
0.0000000001
 40
0.0
 40
0.0
 40
0.0
 40
0.0
 40
0.5256892474228878
 40
1.051372106102471
 40
1.051372106102471
 40
1.051372106102471
 40
1.051372106102471
 10
932.800075729559
 20
150.2094925549276
 30
0.0
 10
932.6248056374876
 20
150.200467486564
 30
0.0
 10
932.2742675834165
 20
150.1824174595191
 30
0.0
 10
931.9249553389041
 20
150.2168221261457
 30
0.0
 10
931.750300277959
 20
150.2340243549276
 30
0.0
 11
932.800075729559
 21
150.2094925549276
 31
0.0
 11
932.2745719094592
 21
150.1955311826276
 31
0.0
 11
931.750300277959
 21
150.2340243549276
 31
0.0
  0
SPLINE
  5
1639
330
26
100
AcDbEntity
  8
0
  6
Continuous
100
AcDbSpline
210
0.0
220
0.0
230
1.0
 70
     8
 71
     3
 72
    11
 73
     7
 74
     5
 42
0.0000000001
 43
0.0000000001
 44
0.0000000001
 40
0.0
 40
0.0
 40
0.0
 40
0.0
 40
0.3936346634381579
 40
0.7872563368211167
 40
1.180880186544656
 40
1.574528266490207
 40
1.574528266490207
 40
1.574528266490207
 40
1.574528266490207
 10
931.750300277959
 20
150.2340243549276
 30
0.0
 10
931.6202298051203
 20
150.2514925085689
 30
0.0
 10
931.3600931518052
 20
150.2864282393973
 30
0.0
 10
930.9647907320889
 20
150.2940288274485
 30
0.0
 10
930.5745717617903
 20
150.2362405309054
 30
0.0
 10
930.3121584140407
 20
150.2268276728215
 30
0.0
 10
930.180947701959
 20
150.2221210989276
 30
0.0
 11
931.750300277959
 21
150.2340243549276
 31
0.0
 11
931.359239017159
 21
150.2789614060276
 31
0.0
 11
930.965639427859
 21
150.2831309455276
 31
0.0
 11
930.5740137485591
 21
150.2435195534276
 31
0.0
 11
930.180947701959
 21
150.2221210989276
 31
0.0
  0
SPLINE
  5
163A
330
26
100
AcDbEntity
  8
0
  6
Continuous
100
AcDbSpline
210
0.0
220
0.0
230
1.0
 70
    24
 71
     3
 72
     8
 73
     4
 74
     2
 42
0.0000000001
 43
0.0000000001
 44
0.0000000001
 40
0.0
 40
0.0
 40
0.0
 40
0.0
 40
0.2618378337343275
 40
0.2618378337343275
 40
0.2618378337343275
 40
0.2618378337343275
 10
930.180947701959
 20
150.2221210989276
 30
0.0
 10
930.0962134426256
 20
150.201197962261
 30
0.0
 10
930.0114791832924
 20
150.1802748255943
 30
0.0
 10
929.926744923959
 20
150.1593516889276
 30
0.0
 11
930.180947701959
 21
150.2221210989276
 31
0.0
 11
929.926744923959
 21
150.1593516889276
 31
0.0
  0
SPLINE
  5
163B
330
26
100
AcDbEntity
  8
0
  6
Continuous
100
AcDbSpline
210
0.0
220
0.0
230
1.0
 70
     8
 71
     3
 72
    15
 73
    11
 74
     9
 42
0.0000000001
 43
0.0000000001
 44
0.0000000001
 40
0.0
 40
0.0
 40
0.0
 40
0.0
 40
0.115557318547456
 40
0.2316718154447187
 40
0.2887792583117689
 40
0.3461864475377043
 40
0.3762653644098788
 40
0.4072704217341762
 40
0.4370341505841927
 40
0.4651940631833134
 40
0.4651940631833134
 40
0.4651940631833134
 40
0.4651940631833134
 10
929.926744923959
 20
150.1593516889276
 30
0.0
 10
929.8921787966922
 20
150.1418548375026
 30
0.0
 10
929.822879875971
 20
150.1067767707463
 30
0.0
 10
929.7240170293344
 20
150.0976903953392
 30
0.0
 10
929.648276039627
 20
150.1129945081959
 30
0.0
 10
929.6036125588809
 20
150.1317877516173
 30
0.0
 10
929.5690054371484
 20
150.1509672770834
 30
0.0
 10
929.5436329282302
 20
150.1671943655626
 30
0.0
 10
929.5202584309325
 20
150.1868162930551
 30
0.0
 10
929.5133075303802
 20
150.2051535201442
 30
0.0
 10
929.509928309959
 20
150.2140682689276
 30
0.0
 11
929.926744923959
 21
150.1593516889276
 31
0.0
 11
929.820555234459
 21
150.1137748997276
 31
0.0
 11
929.7049008980589
 21
150.1034477093276
 31
0.0
 11
929.6489304027589
 21
150.1147863021276
 31
0.0
 11
929.595804921959
 21
150.1365410410276
 31
0.0
 11
929.569465202859
 21
150.1510655182276
 31
0.0
 11
929.543546322859
 21
150.1680809594276
 31
0.0
 11
929.522021524259
 21
150.1886372869276
 31
0.0
 11
929.509928309959
 21
150.2140682689276
 31
0.0
  0
SPLINE
  5
163C
330
26
100
AcDbEntity
  8
0
  6
Continuous
100
AcDbSpline
210
0.0
220
0.0
230
1.0
 70
     8
 71
     3
 72
    15
 73
    11
 74
     9
 42
0.0000000001
 43
0.0000000001
 44
0.0000000001
 40
0.0
 40
0.0
 40
0.0
 40
0.0
 40
0.0148951789779794
 40
0.0301798923404594
 40
0.0475359232613562
 40
0.0666487316922019
 40
0.1050666243319391
 40
0.1383399092323447
 40
0.2005899546807644
 40
0.2656772240609512
 40
0.2656772240609512
 40
0.2656772240609512
 40
0.2656772240609512
 10
929.509928309959
 20
150.2140682689276
 30
0.0
 10
929.5091893456765
 20
150.2191112044301
 30
0.0
 10
929.5076920919328
 20
150.2293289568163
 30
0.0
 10
929.5159524057393
 20
150.243840395481
 30
0.0
 10
929.5282306751185
 20
150.255919762354
 30
0.0
 10
929.5489441208492
 20
150.2700830458861
 30
0.0
 10
929.5763008942755
 20
150.2833016064674
 30
0.0
 10
929.6186201396639
 20
150.297762156135
 30
0.0
 10
929.6710771441217
 20
150.3088415737406
 30
0.0
 10
929.7125044702937
 20
150.3180275074255
 30
0.0
 10
929.7336796579591
 20
150.3227228109276
 30
0.0
 11
929.509928309959
 21
150.2140682689276
 31
0.0
 11
929.509353593459
 21
150.2289523563276
 31
0.0
 11
929.516046788459
 21
150.2426936664276
 31
0.0
 11
929.528138935559
 21
150.2551440394276
 31
0.0
 11
929.5437610750591
 21
150.2661553156276
 31
0.0
 11
929.5781530688589
 21
150.2832762162276
 31
0.0
 11
929.609588323159
 21
150.2941820071276
 31
0.0
 11
929.670111692859
 21
150.3087418793277
 31
0.0
 11
929.7336796579591
 21
150.3227228109276
 31
0.0
  0
SPLINE
  5
163D
330
26
100
AcDbEntity
  8
0
  6
Continuous
100
AcDbSpline
210
0.0
220
0.0
230
1.0
 70
     8
 71
     3
 72
     9
 73
     5
 74
     3
 42
0.0000000001
 43
0.0000000001
 44
0.0000000001
 40
0.0
 40
0.0
 40
0.0
 40
0.0
 40
0.2857323830125861
 40
0.4549169258393246
 40
0.4549169258393246
 40
0.4549169258393246
 40
0.4549169258393246
 10
930.0615438702591
 20
150.4271444419276
 30
0.0
 10
930.1439052610408
 20
150.4771228723913
 30
0.0
 10
930.2750335227632
 20
150.5566939511226
 30
0.0
 10
930.3699685001122
 20
150.6761339595064
 30
0.0
 10
930.4052750139589
 20
150.7205539449276
 30
0.0
 11
930.0615438702591
 21
150.4271444419276
 31
0.0
 11
930.294349537859
 21
150.5928083059276
 31
0.0
 11
930.4052750139589
 21
150.7205539449276
 31
0.0
  0
SPLINE
  5
163E
330
26
100
AcDbEntity
  8
0
  6
Continuous
100
AcDbSpline
210
0.0
220
0.0
230
1.0
 70
    24
 71
     3
 72
     8
 73
     4
 74
     2
 42
0.0000000001
 43
0.0000000001
 44
0.0000000001
 40
0.0
 40
0.0
 40
0.0
 40
0.0
 40
0.0788906140396392
 40
0.0788906140396392
 40
0.0788906140396392
 40
0.0788906140396392
 10
929.989812270559
 20
150.3943068630276
 30
0.0
 10
930.0137228037925
 20
150.4052527226609
 30
0.0
 10
930.0376333370258
 20
150.4161985822943
 30
0.0
 10
930.0615438702591
 20
150.4271444419276
 30
0.0
 11
929.989812270559
 21
150.3943068630276
 31
0.0
 11
930.0615438702591
 21
150.4271444419276
 31
0.0
  0
SPLINE
  5
163F
330
26
100
AcDbEntity
  8
0
  6
Continuous
100
AcDbSpline
210
0.0
220
0.0
230
1.0
 70
    24
 71
     3
 72
     8
 73
     4
 74
     2
 42
0.0000000001
 43
0.0000000001
 44
0.0000000001
 40
0.0
 40
0.0
 40
0.0
 40
0.0
 40
0.2659477237208729
 40
0.2659477237208729
 40
0.2659477237208729
 40
0.2659477237208729
 10
929.7336796579591
 20
150.3227228109276
 30
0.0
 10
929.8190571954924
 20
150.3465841616276
 30
0.0
 10
929.9044347330257
 20
150.3704455123276
 30
0.0
 10
929.989812270559
 20
150.3943068630276
 30
0.0
 11
929.7336796579591
 21
150.3227228109276
 31
0.0
 11
929.989812270559
 21
150.3943068630276
 31
0.0
  0
SPLINE
  5
1640
330
26
100
AcDbEntity
  8
0
  6
Continuous
100
AcDbSpline
210
0.0
220
0.0
230
1.0
 70
     8
 71
     3
 72
    19
 73
    15
 74
    13
 42
0.0000000001
 43
0.0000000001
 44
0.0000000001
 40
0.0
 40
0.0
 40
0.0
 40
0.0
 40
0.1707495698158826
 40
0.2556147514825112
 40
0.3408241808455856
 40
0.4262236748405721
 40
0.511747524890586
 40
0.5966831480069256
 40
0.681232399151855
 40
0.7666966443772841
 40
0.8523601289398596
 40
1.021936832641527
 40
1.192592432116189
 40
1.362910709784307
 40
1.362910709784307
 40
1.362910709784307
 40
1.362910709784307
 10
930.4052750139589
 20
150.7205539449276
 30
0.0
 10
930.4413548478469
 20
150.7647557588511
 30
0.0
 10
930.4953669181716
 20
150.8309265591249
 30
0.0
 10
930.5826799557744
 20
150.9044739039047
 30
0.0
 10
930.6576044035953
 20
150.9461658614968
 30
0.0
 10
930.7399804357253
 20
150.9712820537658
 30
0.0
 10
930.8258813941352
 20
150.976369158704
 30
0.0
 10
930.9104579995753
 20
150.9625816867505
 30
0.0
 10
930.9900803856839
 20
150.9317963597889
 30
0.0
 10
931.0658760260344
 20
150.8928134806461
 30
0.0
 10
931.1659139952203
 20
150.8389749909563
 30
0.0
 10
931.2973739140301
 20
150.7845515933063
 30
0.0
 10
931.4673711788098
 20
150.7512246849849
 30
0.0
 10
931.5803347828039
 20
150.7696576181145
 30
0.0
 10
931.636760707959
 20
150.7788649669276
 30
0.0
 11
930.4052750139589
 21
150.7205539449276
 31
0.0
 11
930.5186334613591
 21
150.8482460668276
 31
0.0
 11
930.5841625761591
 21
150.9021722587276
 31
0.0
 11
930.658754669859
 21
150.9433628694276
 31
0.0
 11
930.740542965759
 21
150.9679341581276
 31
0.0
 11
930.825904071159
 21
150.9732077349276
 31
0.0
 11
930.9097623209591
 21
150.9597224090276
 31
0.0
 11
930.9891279198589
 21
150.9305731795276
 31
0.0
 11
931.0656961787589
 21
150.8926068926276
 31
0.0
 11
931.1417078875591
 21
150.8531043267276
 31
0.0
 11
931.2990948566591
 21
150.7899727150276
 31
0.0
 11
931.4673407245591
 21
150.7613954239276
 31
0.0
 11
931.636760707959
 21
150.7788649669276
 31
0.0
  0
SPLINE
  5
1641
330
26
100
AcDbEntity
  8
0
  6
Continuous
100
AcDbSpline
210
0.0
220
0.0
230
1.0
 70
     8
 71
     3
 72
    19
 73
    15
 74
    13
 42
0.0000000001
 43
0.0000000001
 44
0.0000000001
 40
0.0
 40
0.0
 40
0.0
 40
0.0
 40
0.178277659532475
 40
0.4233745098847129
 40
0.9726761428193631
 40
1.130252820369437
 40
1.278419978341455
 40
1.405023522122866
 40
1.579023450030559
 40
1.812087091293645
 40
2.080079289491544
 40
4.301160776357715
 40
4.389139398341161
 40
4.609513751883568
 40
4.609513751883568
 40
4.609513751883568
 40
4.609513751883568
 10
931.636760707959
 20
150.7788649669276
 30
0.0
 10
931.6928499725034
 20
150.7998789026103
 30
0.0
 10
931.826050985735
 20
150.8497828824121
 30
0.0
 10
932.0759963478732
 20
151.0552033069087
 30
0.0
 10
932.4194580149837
 20
151.159712357599
 30
0.0
 10
932.6830602951993
 20
151.0824933889451
 30
0.0
 10
932.84047177281
 20
151.0143334440718
 30
0.0
 10
932.9389895730071
 20
151.1776448834737
 30
0.0
 10
932.8412674078031
 20
151.3465467392868
 30
0.0
 10
932.6876109818478
 20
151.5052161648984
 30
0.0
 10
932.2463768865529
 20
152.3049837359932
 30
0.0
 10
931.7845818921405
 20
153.1160703875685
 30
0.0
 10
931.834535842379
 20
153.9598231600168
 30
0.0
 10
931.8578587297354
 20
154.0602049698217
 30
0.0
 10
931.8745271799591
 20
154.1319460529276
 30
0.0
 11
931.636760707959
 21
150.7788649669276
 31
0.0
 11
931.8007006305591
 21
150.8489122771276
 31
0.0
 11
932.0056768647592
 21
150.9832893937276
 31
0.0
 11
932.5383789514589
 21
151.1173071939276
 31
0.0
 11
932.690492468459
 21
151.0761746368276
 31
0.0
 11
932.836772987159
 21
151.0526052382276
 31
0.0
 11
932.907115450059
 21
151.1578686944276
 31
0.0
 11
932.848772634659
 21
151.3217957843276
 31
0.0
 11
932.702665357859
 21
151.5033758618276
 31
0.0
 11
932.5624616593591
 21
151.7317675018276
 31
0.0
 11
931.8273755500591
 21
153.8276805208276
 31
0.0
 11
931.8333240428589
 21
153.9154578149276
 31
0.0
 11
931.8745271799591
 21
154.1319460529276
 31
0.0
  0
SPLINE
  5
1642
330
26
100
AcDbEntity
  8
0
  6
Continuous
100
AcDbSpline
210
0.0
220
0.0
230
1.0
 70
     8
 71
     3
 72
     9
 73
     5
 74
     3
 42
0.0000000001
 43
0.0000000001
 44
0.0000000001
 40
0.0
 40
0.0
 40
0.0
 40
0.0
 40
0.5249391511844262
 40
1.049878041608998
 40
1.049878041608998
 40
1.049878041608998
 40
1.049878041608998
 10
931.8745271799591
 20
154.1319460529276
 30
0.0
 10
931.9296570338219
 20
154.2982165253375
 30
0.0
 10
932.0399167141618
 20
154.6307573875635
 30
0.0
 10
932.1910024798682
 20
154.9468486930422
 30
0.0
 10
932.266545343959
 20
155.1048943065276
 30
0.0
 11
931.8745271799591
 21
154.1319460529276
 31
0.0
 11
932.050123267959
 21
154.6266450789276
 31
0.0
 11
932.266545343959
 21
155.1048943065276
 31
0.0
  0
SPLINE
  5
1643
330
26
100
AcDbEntity
  8
0
  6
Continuous
100
AcDbSpline
210
0.0
220
0.0
230
1.0
 70
     8
 71
     3
 72
     9
 73
     5
 74
     3
 42
0.0000000001
 43
0.0000000001
 44
0.0000000001
 40
0.0
 40
0.0
 40
0.0
 40
0.0
 40
0.2614802439144431
 40
0.5229570408278265
 40
0.5229570408278265
 40
0.5229570408278265
 40
0.5229570408278265
 10
932.266545343959
 20
155.1048943065276
 30
0.0
 10
932.3103595863547
 20
155.1807521179105
 30
0.0
 10
932.3979874935581
 20
155.3324667406698
 30
0.0
 10
932.4419779304778
 20
155.5020568743852
 30
0.0
 10
932.463973003959
 20
155.5868513823276
 30
0.0
 11
932.266545343959
 21
155.1048943065276
 31
0.0
 11
932.387078559759
 21
155.3369366773276
 31
0.0
 11
932.463973003959
 21
155.5868513823276
 31
0.0
  0
SPLINE
  5
1644
330
26
100
AcDbEntity
  8
0
  6
Continuous
100
AcDbSpline
210
0.0
220
0.0
230
1.0
 70
     8
 71
     3
 72
    11
 73
     7
 74
     5
 42
0.0000000001
 43
0.0000000001
 44
0.0000000001
 40
0.0
 40
0.0
 40
0.0
 40
0.0
 40
0.2820491463786878
 40
0.5682587831319017
 40
0.8511750221908583
 40
1.134448062417097
 40
1.134448062417097
 40
1.134448062417097
 40
1.134448062417097
 10
932.463973003959
 20
155.5868513823276
 30
0.0
 10
932.4700470983822
 20
155.6810786462681
 30
0.0
 10
932.4822848858385
 20
155.8709231149792
 30
0.0
 10
932.428425822925
 20
156.1510033576658
 30
0.0
 10
932.4003168075853
 20
156.4341631628652
 30
0.0
 10
932.4057563305416
 20
156.623015903166
 30
0.0
 10
932.4084778059591
 20
156.7175017789276
 30
0.0
 11
932.463973003959
 21
155.5868513823276
 31
0.0
 11
932.4703223192591
 21
155.8688290537276
 31
0.0
 11
932.432578564159
 21
156.1525390555276
 31
0.0
 11
932.406348575459
 21
156.4342367410276
 31
0.0
 11
932.4084778059591
 21
156.7175017789276
 31
0.0
  0
SPLINE
  5
1645
330
26
100
AcDbEntity
  8
0
  6
Continuous
100
AcDbSpline
210
0.0
220
0.0
230
1.0
 70
     8
 71
     3
 72
    11
 73
     7
 74
     5
 42
0.0000000001
 43
0.0000000001
 44
0.0000000001
 40
0.0
 40
0.0
 40
0.0
 40
0.0
 40
0.5244371432891324
 40
1.048863799259689
 40
1.573299687485234
 40
2.097735271804468
 40
2.097735271804468
 40
2.097735271804468
 40
2.097735271804468
 10
932.4084778059591
 20
156.7175017789276
 30
0.0
 10
932.4186463302385
 20
156.8921762576525
 30
0.0
 10
932.4389831754552
 20
157.2415217220872
 30
0.0
 10
932.379115893501
 20
157.7666588970568
 30
0.0
 10
932.2115324468857
 20
158.266077730761
 30
0.0
 10
932.1683975847685
 20
158.613895528465
 30
0.0
 10
932.146830159959
 20
158.7878043769276
 30
0.0
 11
932.4084778059591
 21
156.7175017789276
 31
0.0
 11
932.423921011259
 21
157.2417114933276
 31
0.0
 11
932.361163906059
 21
157.7623695992276
 31
0.0
 11
932.228679444559
 21
158.2697953261276
 31
0.0
 11
932.146830159959
 21
158.7878043769276
 31
0.0
  0
SPLINE
  5
1646
330
26
100
AcDbEntity
  8
0
  6
Continuous
100
AcDbSpline
210
0.0
220
0.0
230
1.0
 70
     8
 71
     3
 72
    11
 73
     7
 74
     0
 42
0.0000000001
 43
0.0000000001
 40
0.0
 40
0.0
 40
0.0
 40
0.0
 40
0.5396285287304885
 40
0.8833017715475532
 40
1.301596408111545
 40
2.342503228715328
 40
2.342503228715328
 40
2.342503228715328
 40
2.342503228715328
 10
932.146830159959
 20
158.7878043769276
 30
0.0
 10
932.1140478619145
 20
158.9668369929308
 30
0.0
 10
932.0603875003948
 20
159.2598901182954
 30
0.0
 10
932.2456920751632
 20
159.6981059463754
 30
0.0
 10
932.8637165190178
 20
159.8678960466098
 30
0.0
 10
933.3177665660541
 20
160.007803113637
 30
0.0
 10
933.639920836009
 20
160.1260682443733
 30
0.0
  0
ARC
  5
1647
330
26
100
AcDbEntity
  8
0
  6
Continuous
100
AcDbCircle
 10
913.539920835959
 20
168.2363359100276
 30
0.0
 40
0.4
100
AcDbArc
 50
134.9999999996971
 51
180.0
  0
ARC
  5
1648
330
26
100
AcDbEntity
  8
0
  6
Continuous
100
AcDbCircle
 10
914.3056062609591
 20
169.0020213349276
 30
0.0
 40
0.4
100
AcDbArc
 50
90.0
 51
134.999999987298
  0
LINE
  5
1649
330
26
100
AcDbEntity
  8
0
  6
Continuous
100
AcDbLine
 10
933.639920836009
 20
169.4020213349275
 30
0.0
 11
914.3056062609591
 21
169.4020213349275
 31
0.0
  0
LINE
  5
164A
330
26
100
AcDbEntity
  8
0
  6
Continuous
100
AcDbLine
 10
933.639920836009
 20
169.2848640474276
 30
0.0
 11
914.022763548459
 21
169.2848640474276
 31
0.0
  0
LINE
  5
164B
330
26
100
AcDbEntity
  8
0
  6
Continuous
100
AcDbLine
 10
933.639920836009
 20
168.5191786224276
 30
0.0
 11
913.2570781234589
 21
168.5191786224276
 31
0.0
  0
LINE
  5
164C
330
26
100
AcDbEntity
  8
0
  6
Continuous
100
AcDbLine
 10
933.639920836009
 20
168.2363359100276
 30
0.0
 11
913.139920835959
 21
168.2363359100276
 31
0.0
  0
LINE
  5
164D
330
26
100
AcDbEntity
  8
0
  6
Continuous
100
AcDbLine
 10
909.4137876132591
 20
147.4020213349275
 30
0.0
 11
913.139920835959
 21
147.4020213349275
 31
0.0
  0
LINE
  5
164E
330
26
100
AcDbEntity
  8
0
  6
Continuous
100
AcDbLine
 10
933.639920836009
 20
142.9574224117275
 30
0.0
 11
917.263799194159
 21
142.9574224117275
 31
0.0
  0
LINE
  5
164F
330
26
100
AcDbEntity
  8
0
  6
Continuous
100
AcDbLine
 10
933.639920836009
 20
140.5574224117276
 30
0.0
 11
919.2367504136591
 21
140.5574224117276
 31
0.0
  0
LINE
  5
1650
330
26
100
AcDbEntity
  8
0
  6
Continuous
100
AcDbLine
 10
913.139920835959
 20
147.4020213349275
 30
0.0
 11
913.139920835959
 21
168.2363359100276
 31
0.0
  0
LINE
  5
1651
330
26
100
AcDbEntity
  8
0
  6
Continuous
100
AcDbLine
 10
913.2570781234589
 20
168.5191786224276
 30
0.0
 11
914.022763548459
 21
169.2848640474276
 31
0.0
  0
ARC
  5
1653
330
26
100
AcDbEntity
  8
0
  6
Continuous
100
AcDbCircle
 10
933.6399208359591
 20
155.4020213349275
 30
0.0
 40
7.73285
100
AcDbArc
 50
90.0
 51
270.0000000003713
  0
ARC
  5
1654
330
26
100
AcDbEntity
  8
0
  6
Continuous
100
AcDbCircle
 10
933.6399208359591
 20
155.4020213349275
 30
0.0
 40
7.9995
100
AcDbArc
 50
89.99999999964174
 51
270.0000000003583
  0
ARC
  5
1655
330
26
100
AcDbEntity
  8
0
  6
Continuous
100
AcDbCircle
 10
952.139920836009
 20
144.5574224117275
 30
0.0
 40
2.0
100
AcDbArc
 50
355.543595227001
 51
0.0000000000008142
  0
ARC
  5
1656
330
26
100
AcDbEntity
  8
0
  6
Continuous
100
AcDbCircle
 10
953.739920836009
 20
168.2363359099275
 30
0.0
 40
0.4
100
AcDbArc
 50
0.0
 51
45.0000000059975
  0
ARC
  5
1657
330
26
100
AcDbEntity
  8
0
  6
Continuous
100
AcDbCircle
 10
950.339920836009
 20
167.5677067598275
 30
0.0
 40
0.4
100
AcDbArc
 50
315.0000000000006
 51
0.0000000000008142
  0
ARC
  5
1658
330
26
100
AcDbEntity
  8
0
  6
Continuous
100
AcDbCircle
 10
949.039920836009
 20
165.1363359099275
 30
0.0
 40
0.4
100
AcDbArc
 50
134.9999999821013
 51
180.0000000005007
  0
ARC
  5
1659
330
26
100
AcDbEntity
  8
0
  6
Continuous
100
AcDbCircle
 10
955.6399208360089
 20
143.8020213349275
 30
0.0
 40
0.4
100
AcDbArc
 50
180.0000000109008
 51
270.0
  0
ARC
  5
165A
330
26
100
AcDbEntity
  8
0
  6
Continuous
100
AcDbCircle
 10
952.9742354111091
 20
169.0020213349276
 30
0.0
 40
0.4
100
AcDbArc
 50
45.00000000360127
 51
89.99999999970036
  0
ARC
  5
165B
330
26
100
AcDbEntity
  8
0
  6
Continuous
100
AcDbCircle
 10
951.3399208360089
 20
168.8020213349275
 30
0.0
 40
0.6
100
AcDbArc
 50
90.00000000949709
 51
180.0
  0
LINE
  5
165C
330
26
100
AcDbEntity
  8
0
  6
Continuous
100
AcDbLine
 10
953.257078123609
 20
169.2848640474275
 30
0.0
 11
954.022763548509
 21
168.5191786224275
 31
0.0
  0
LINE
  5
165D
330
26
100
AcDbEntity
  8
0
  6
Continuous
100
AcDbLine
 10
952.9742354111091
 20
169.4020213349275
 30
0.0
 11
933.639920836009
 21
169.4020213349275
 31
0.0
  0
LINE
  5
165E
330
26
100
AcDbEntity
  8
0
  6
Continuous
100
AcDbLine
 10
950.7399208360089
 20
168.8020213349275
 30
0.0
 11
933.639920836009
 21
168.8020213349276
 31
0.0
  0
LINE
  5
165F
330
26
100
AcDbEntity
  8
0
  6
Continuous
100
AcDbLine
 10
950.7399208360089
 20
167.5677067598275
 30
0.0
 11
933.639920836009
 21
167.5677067598275
 31
0.0
  0
LINE
  5
1660
330
26
100
AcDbEntity
  8
0
  6
Continuous
100
AcDbLine
 10
950.6227635485091
 20
167.2848640474275
 30
0.0
 11
933.639920836009
 21
167.2848640474275
 31
0.0
  0
LINE
  5
1661
330
26
100
AcDbEntity
  8
0
  6
Continuous
100
AcDbLine
 10
950.299920683509
 20
166.9620227082275
 30
0.0
 11
933.639920836009
 21
166.9620227082275
 31
0.0
  0
LINE
  5
1662
330
26
100
AcDbEntity
  8
0
  6
Continuous
100
AcDbLine
 10
933.639920836009
 20
165.4191786224276
 30
0.0
 11
948.757078123609
 21
165.4191786224276
 31
0.0
  0
LINE
  5
1663
330
26
100
AcDbEntity
  8
0
  6
Continuous
100
AcDbLine
 10
933.639920836009
 20
165.1363359099275
 30
0.0
 11
948.639920836009
 21
165.1363359099275
 31
0.0
  0
LINE
  5
1664
330
26
100
AcDbEntity
  8
0
  6
Continuous
100
AcDbLine
 10
955.2399208360089
 20
143.8020213349275
 30
0.0
 11
955.2399208360089
 21
144.4020213349275
 31
0.0
  0
LINE
  5
1665
330
26
100
AcDbEntity
  8
0
  6
Continuous
100
AcDbLine
 10
948.639920836009
 20
147.4020213349275
 30
0.0
 11
950.2999208360091
 21
147.4020213349275
 31
0.0
  0
LINE
  5
1666
330
26
100
AcDbEntity
  8
0
  6
Continuous
100
AcDbLine
 10
954.1338743223089
 20
144.4020213349275
 30
0.0
 11
954.139920836009
 21
144.5574224117275
 31
0.0
  0
LINE
  5
1667
330
26
100
AcDbEntity
  8
0
  6
Continuous
100
AcDbLine
 10
954.139920836009
 20
168.2363359099275
 30
0.0
 11
954.139920836009
 21
144.5574224117275
 31
0.0
  0
LINE
  5
1668
330
26
100
AcDbEntity
  8
0
  6
Continuous
100
AcDbLine
 10
950.7399208360089
 20
167.5677067598275
 30
0.0
 11
950.7399208360089
 21
168.8020213349275
 31
0.0
  0
LINE
  5
1669
330
26
100
AcDbEntity
  8
0
  6
Continuous
100
AcDbLine
 10
955.2399208360089
 20
144.4020213349275
 30
0.0
 11
954.1338743223089
 21
144.4020213349275
 31
0.0
  0
LINE
  5
166A
330
26
100
AcDbEntity
  8
0
  6
Continuous
100
AcDbLine
 10
950.2999208360091
 20
166.9620213349275
 30
0.0
 11
950.2999208360091
 21
147.4020213349275
 31
0.0
  0
LINE
  5
166B
330
26
100
AcDbEntity
  8
0
  6
Continuous
100
AcDbLine
 10
954.139920836009
 20
150.7706762242275
 30
0.0
 11
948.639920836009
 21
145.2706762242275
 31
0.0
  0
LINE
  5
166C
330
26
100
AcDbEntity
  8
0
  6
Continuous
100
AcDbLine
 10
954.139920836009
 20
156.5570015735275
 30
0.0
 11
948.639920836009
 21
151.0570015735275
 31
0.0
  0
LINE
  5
166D
330
26
100
AcDbEntity
  8
0
  6
Continuous
100
AcDbLine
 10
954.139920836009
 20
162.3433269227275
 30
0.0
 11
948.639920836009
 21
156.8433269227275
 31
0.0
  0
LINE
  5
166E
330
26
100
AcDbEntity
  8
0
  6
Continuous
100
AcDbLine
 10
954.139920836009
 20
168.1296522720275
 30
0.0
 11
948.639920836009
 21
162.6296522720275
 31
0.0
  0
LINE
  5
166F
330
26
100
AcDbEntity
  8
0
  6
Continuous
100
AcDbLine
 10
948.757078123609
 20
165.4191786224276
 30
0.0
 11
950.6227635485091
 21
167.2848640474275
 31
0.0
  0
SPLINE
  5
1670
330
26
100
AcDbEntity
  8
0
  6
Continuous
100
AcDbSpline
210
-2.300000000000000E-15
220
1.0
230
9.000000000000000E-16
 70
     8
 71
     3
 72
    16
 73
    12
 74
     0
 42
0.0000000001
 43
0.0000000001
 40
23.52411367790559
 40
23.52411367790559
 40
23.52411367790559
 40
23.52411367790559
 40
23.52411367902635
 40
26.46462788897571
 40
29.40514209880661
 40
32.3456563087103
 40
35.28617051856854
 40
38.22668472849021
 40
41.16719893834676
 40
44.10771314830238
 40
47.04822735814243
 40
47.04822735814243
 40
47.04822735814243
 40
47.04822735814243
 10
933.6399208348863
 20
147.4020213349276
 30
-40.73332500000001
 10
933.6399208352606
 20
147.4020213349276
 30
-40.73332500000001
 10
934.6216633626216
 20
147.4020213349275
 30
-40.73332500004011
 10
936.5851484169305
 20
147.4020213349275
 30
-40.53993918587605
 10
939.417139493875
 20
147.4020213349276
 30
-39.68085058547391
 10
942.0273275367282
 20
147.4020213349276
 30
-38.28576639838195
 10
944.3143963470152
 20
147.4020213349276
 30
-36.40829892803231
 10
946.1942223981444
 20
147.4020213349276
 30
-34.12059819621055
 10
947.5805041840071
 20
147.4020213349276
 30
-31.51057925900631
 10
948.4724438081499
 20
147.4020213349275
 30
-28.6785436806067
 10
948.5840951600566
 20
147.4020213349276
 30
-26.71506456018938
 10
948.639920836009
 20
147.4020213349276
 30
-25.733325
  0
LINE
  5
169C
330
26
100
AcDbEntity
  8
0
  6
Continuous
100
AcDbLine
 10
955.2399208359592
 20
106.4020213349275
 30
0.0
 11
919.9719716435591
 21
106.4020213349275
 31
0.0
  0
LINE
  5
169D
330
26
100
AcDbEntity
  8
0
  6
Continuous
100
AcDbLine
 10
991.4742354110591
 20
107.4020213349275
 30
0.0
 11
955.6399208359591
 21
107.4020213349275
 31
0.0
  0
LINE
  5
16B0
330
26
100
AcDbEntity
  8
0
  6
CENTER
100
AcDbLine
 10
874.5780406206591
 20
125.4020213349275
 30
0.0
 11
997.6399208359591
 21
125.4020213349275
 31
0.0
  0
LINE
  5
16B1
330
26
100
AcDbEntity
  8
0
  6
Continuous
100
AcDbLine
 10
916.5078700284593
 20
103.4020213349275
 30
0.0
 11
917.3738954322593
 21
104.9020213349275
 31
0.0
  0
LINE
  5
16B9
330
26
100
AcDbEntity
  8
0
  6
Continuous
100
AcDbLine
 10
955.2399208359592
 20
106.4020213349275
 30
0.0
 11
955.2399208359592
 21
107.0020213349276
 31
0.0
  0
LINE
  5
16C4
330
26
100
AcDbEntity
  8
0
  6
Continuous
100
AcDbLine
 10
991.4742354110591
 20
107.4020213349275
 30
0.0
 11
991.4742354110591
 21
125.4020213349276
 31
0.0
  0
LINE
  5
16C5
330
26
100
AcDbEntity
  8
0
  6
Continuous
100
AcDbLine
 10
991.7570781235592
 20
107.5191786224274
 30
0.0
 11
991.7570781235593
 21
125.4020213349275
 31
0.0
  0
LINE
  5
16C6
330
26
100
AcDbEntity
  8
0
  6
Continuous
100
AcDbLine
 10
992.5227635484592
 20
125.4020213349275
 30
0.0
 11
992.5227635484592
 21
108.2848640474275
 31
0.0
  0
LINE
  5
16C7
330
26
100
AcDbEntity
  8
0
  6
Continuous
100
AcDbLine
 10
992.6399208359592
 20
125.4020213349275
 30
0.0
 11
992.6399208359592
 21
109.5191786224276
 31
0.0
  0
LINE
  5
16C8
330
26
100
AcDbEntity
  8
0
  6
Continuous
100
AcDbLine
 10
992.6399208359592
 20
108.5677067598275
 30
0.0
 11
992.6399208359592
 21
109.2363359099276
 31
0.0
  0
LINE
  5
16C9
330
26
100
AcDbEntity
  8
0
  6
Continuous
100
AcDbLine
 10
992.5227635484592
 20
108.2848640474276
 30
0.0
 11
991.7570781235593
 21
107.5191786224276
 31
0.0
  0
LINE
  5
16CA
330
26
100
AcDbEntity
  8
0
  6
Continuous
100
AcDbLine
 10
879.578040620659
 20
151.1020213349276
 30
0.0
 11
879.5780406206592
 21
125.4020213349276
 31
0.0
  0
LINE
  5
16CB
330
26
100
AcDbEntity
  8
0
  6
Continuous
100
AcDbLine
 10
880.1780406206589
 20
125.4020213349275
 30
0.0
 11
880.1780406206589
 21
151.7020213349275
 31
0.0
  0
LINE
  5
16CC
330
26
100
AcDbEntity
  8
0
  6
Continuous
100
AcDbLine
 10
880.8459898130591
 20
151.7020213349275
 30
0.0
 11
880.8459898130589
 21
125.4020213349275
 31
0.0
  0
LINE
  5
16CD
330
26
100
AcDbEntity
  8
0
  6
Continuous
100
AcDbLine
 10
883.444066024359
 20
153.2020213349276
 30
0.0
 11
885.4647919665589
 21
156.7020213349275
 31
0.0
  0
LINE
  5
16CE
330
26
100
AcDbEntity
  8
0
  6
Continuous
100
AcDbLine
 10
885.4647919665589
 20
156.7020213349275
 30
0.0
 11
885.4647919665589
 21
156.6791779248275
 31
0.0
  0
LINE
  5
16CF
330
26
100
AcDbEntity
  8
0
  6
Continuous
100
AcDbLine
 10
885.4647919665589
 20
142.0767364718276
 30
0.0
 11
885.4647919665589
 21
140.0042499952275
 31
0.0
  0
LINE
  5
16D0
330
26
100
AcDbEntity
  8
0
  6
Continuous
100
AcDbLine
 10
883.444066024359
 20
153.2020213349276
 30
0.0
 11
883.444066024359
 21
125.4020213349276
 31
0.0
  0
LINE
  5
16D1
330
26
100
AcDbEntity
  8
0
  6
Continuous
100
AcDbLine
 10
887.196842774159
 20
157.7020213349275
 30
0.0
 11
887.196842774159
 21
157.4119686280275
 31
0.0
  0
LINE
  5
16D2
330
26
100
AcDbEntity
  8
0
  6
Continuous
100
AcDbLine
 10
887.196842774159
 20
143.2751372998275
 30
0.0
 11
887.196842774159
 21
139.5388526630275
 31
0.0
  0
LINE
  5
16D3
330
26
100
AcDbEntity
  8
0
  6
Continuous
100
AcDbLine
 10
902.268639543859
 20
157.7020213349275
 30
0.0
 11
902.268639543859
 21
157.6784588425275
 31
0.0
  0
LINE
  5
16D4
330
26
100
AcDbEntity
  8
0
  6
Continuous
100
AcDbLine
 10
902.268639543859
 20
142.6085033343276
 30
0.0
 11
902.268639543859
 21
140.4719768431275
 31
0.0
  0
LINE
  5
16D5
330
26
100
AcDbEntity
  8
0
  6
Continuous
100
AcDbLine
 10
904.5244507821589
 20
153.7948416579276
 30
0.0
 11
904.5244507821591
 21
125.4020213349275
 31
0.0
  0
LINE
  5
16D6
330
26
100
AcDbEntity
  8
0
  6
Continuous
100
AcDbLine
 10
904.578040620659
 20
153.5948416579276
 30
0.0
 11
904.578040620659
 21
125.4020213349275
 31
0.0
  0
LINE
  5
16D7
330
26
100
AcDbEntity
  8
0
  6
Continuous
100
AcDbLine
 10
904.639920835959
 20
125.4020213349275
 30
0.0
 11
904.639920835959
 21
151.4020213349275
 31
0.0
  0
LINE
  5
16D8
330
26
100
AcDbEntity
  8
0
  6
Continuous
100
AcDbLine
 10
906.2609834539591
 20
125.4020213349275
 30
0.0
 11
906.2609834539591
 21
149.7809587169275
 31
0.0
  0
LINE
  5
16D9
330
26
100
AcDbEntity
  8
0
  6
Continuous
100
AcDbLine
 10
906.3357425980591
 20
149.7020205720275
 30
0.0
 11
906.3357425980591
 21
125.4020213349275
 31
0.0
  0
LINE
  5
16DA
330
26
100
AcDbEntity
  8
0
  6
Continuous
100
AcDbLine
 10
906.6735769802589
 20
149.1808556267276
 30
0.0
 11
906.673576980259
 21
125.4020213349276
 31
0.0
  0
LINE
  5
16DB
330
26
100
AcDbEntity
  8
0
  6
Continuous
100
AcDbLine
 10
909.4137876132591
 20
147.4020213349275
 30
0.0
 11
909.4137876132591
 21
125.4020213349276
 31
0.0
  0
LINE
  5
16DC
330
26
100
AcDbEntity
  8
0
  6
Continuous
100
AcDbLine
 10
913.139920835959
 20
147.4020213349275
 30
0.0
 11
913.139920835959
 21
149.9576307895668
 31
0.0
  0
LINE
  5
16DD
330
26
100
AcDbEntity
  8
0
  6
Continuous
100
AcDbLine
 10
915.3531694900589
 20
103.4020213349275
 30
0.0
 11
915.3531694900591
 21
145.3558499096275
 31
0.0
  0
LINE
  5
16DE
330
26
100
AcDbEntity
  8
0
  6
Continuous
100
AcDbLine
 10
917.0852202975591
 20
143.1936228379276
 30
0.0
 11
917.0852202975591
 21
104.4020213347542
 31
0.0
  0
LINE
  5
16DF
330
26
100
AcDbEntity
  8
0
  6
Continuous
100
AcDbLine
 10
917.373895432159
 20
104.9020213348466
 30
0.0
 11
917.373895432159
 21
142.8203154315275
 31
0.0
  0
LINE
  5
16E0
330
26
100
AcDbEntity
  8
0
  6
Continuous
100
AcDbLine
 10
919.9719716435591
 20
139.7394839810275
 30
0.0
 11
919.9719716435593
 21
106.4020213349275
 31
0.0
  0
LINE
  5
16E1
330
26
100
AcDbEntity
  8
0
  6
Continuous
100
AcDbLine
 10
902.268639543859
 20
157.7020213349275
 30
0.0
 11
904.5244507821589
 21
153.7948416579276
 31
0.0
  0
LINE
  5
16E2
330
26
100
AcDbEntity
  8
0
  6
CENTER
100
AcDbLine
 10
874.578040620659
 20
125.4020213349275
 30
0.0
 11
997.6399208359591
 21
125.4020213349275
 31
0.0
  0
LINE
  5
16E3
330
26
100
AcDbEntity
  8
0
  6
Continuous
100
AcDbLine
 10
887.196842773959
 20
139.5388526656276
 30
0.0
 11
885.4647919639589
 21
140.0054147513275
 31
0.0
  0
LINE
  5
16E4
330
26
100
AcDbEntity
  8
0
  6
Continuous
100
AcDbLine
 10
904.639920835959
 20
151.4020213349275
 30
0.0
 11
906.2609834539591
 21
149.7809587169275
 31
0.0
  0
LINE
  5
16E5
330
26
100
AcDbEntity
  8
0
  6
CENTER
100
AcDbLine
 10
933.6399208359591
 20
174.4020213349275
 30
0.0
 11
933.6399208359591
 21
94.40202133492757
 31
0.0
  0
LINE
  5
16E6
330
26
100
AcDbEntity
  8
0
  6
Continuous
100
AcDbLine
 10
902.3941844903591
 20
139.5388526630275
 30
0.0
 11
887.196457950459
 21
139.5388526630275
 31
0.0
  0
LINE
  5
16E7
330
26
100
AcDbEntity
  8
0
  6
Continuous
100
AcDbLine
 10
902.268639543859
 20
140.4719768431275
 30
0.0
 11
887.196842774159
 21
140.4719768431275
 31
0.0
  0
LINE
  5
16E8
330
26
100
AcDbEntity
  8
0
  6
Continuous
100
AcDbLine
 10
948.163563003059
 20
140.5574224117276
 30
0.0
 11
919.2367504136591
 21
140.5574224117276
 31
0.0
  0
LWPOLYLINE
  5
16E9
330
26
100
AcDbEntity
  8
0
  6
Continuous
100
AcDbPolyline
 90
        5
 70
     0
 43
0.0
 10
887.196842774159
 20
140.4719768431275
 10
886.679101007359
 20
140.4401684452276
 10
886.1966324042591
 20
140.3469052326276
 10
885.7823956853589
 20
140.1985621259276
 10
885.4647919665589
 20
140.0054147531275
  0
LINE
  5
16EA
330
26
100
AcDbEntity
  8
0
  6
Continuous
100
AcDbLine
 10
887.196842774159
 20
142.6085033343276
 30
0.0
 11
902.268639543859
 21
142.6085033343276
 31
0.0
  0
LINE
  5
16EB
330
26
100
AcDbEntity
  8
0
  6
Continuous
100
AcDbLine
 10
951.9506310069592
 20
142.9574224117275
 30
0.0
 11
917.263799194159
 21
142.9574224117275
 31
0.0
  0
LINE
  5
16EC
330
26
100
AcDbEntity
  8
0
  6
Continuous
100
AcDbLine
 10
887.196333526259
 20
143.2751372998275
 30
0.0
 11
902.3941844903591
 21
143.2751372998275
 31
0.0
  0
LINE
  5
16ED
330
26
100
AcDbEntity
  8
0
  6
Continuous
100
AcDbLine
 10
955.6399208359591
 20
143.4020213349275
 30
0.0
 11
991.474235411059
 21
143.4020213349275
 31
0.0
  0
LINE
  5
16EE
330
26
100
AcDbEntity
  8
0
  6
Continuous
100
AcDbLine
 10
954.133874322259
 20
144.4020213349275
 30
0.0
 11
955.239920835959
 21
144.4020213349275
 31
0.0
  0
LINE
  5
16EF
330
26
100
AcDbEntity
  8
0
  6
Continuous
100
AcDbLine
 10
954.1399208359591
 20
144.5574224117276
 30
0.0
 11
954.1398513225697
 21
144.5574224117276
 31
0.0
  0
LINE
  5
16F0
330
26
100
AcDbEntity
  8
0
  6
Continuous
100
AcDbLine
 10
954.133874322259
 20
144.4020213349275
 30
0.0
 11
954.1399208359591
 21
144.5574224117276
 31
0.0
  0
LWPOLYLINE
  5
16F1
330
26
100
AcDbEntity
  8
0
  6
Continuous
100
AcDbPolyline
 90
        5
 70
     0
 43
0.0
 10
887.196842774159
 20
142.6085033343276
 10
886.679204683959
 20
142.5722001358276
 10
886.196842774159
 20
142.4657645431276
 10
885.7826292117591
 20
142.2964499661276
 10
885.4647919665589
 20
142.0757949133276
  0
LINE
  5
16F2
330
26
100
AcDbEntity
  8
0
  6
Continuous
100
AcDbLine
 10
909.4137876132591
 20
147.4020213349275
 30
0.0
 11
913.139920835959
 21
147.4020213349275
 31
0.0
  0
LINE
  5
16F3
330
26
100
AcDbEntity
  8
0
  6
Continuous
100
AcDbLine
 10
904.578040620659
 20
149.7020213349275
 30
0.0
 11
906.335741859759
 21
149.7020213349275
 31
0.0
  0
LINE
  5
16F4
330
26
100
AcDbEntity
  8
0
  6
Continuous
100
AcDbLine
 10
955.2399208359586
 20
107.0020213349276
 30
0.0
 11
955.239920835959
 21
144.4020213349275
 31
0.0
  0
LINE
  5
16F5
330
26
100
AcDbEntity
  8
0
  6
Continuous
100
AcDbLine
 10
955.6399208359591
 20
143.4020213349275
 30
0.0
 11
955.6399208359591
 21
107.4020213349276
 31
0.0
  0
LINE
  5
16F6
330
26
100
AcDbEntity
  8
0
  6
Continuous
100
AcDbLine
 10
904.578040620659
 20
151.4020213349275
 30
0.0
 11
904.639920835959
 21
151.4020213349275
 31
0.0
  0
LINE
  5
16F7
330
26
100
AcDbEntity
  8
0
  6
Continuous
100
AcDbLine
 10
880.1780406206589
 20
151.7020213349275
 30
0.0
 11
880.8459898130591
 21
151.7020213349275
 31
0.0
  0
LINE
  5
16F8
330
26
100
AcDbEntity
  8
0
  6
Continuous
100
AcDbLine
 10
902.3941844903591
 20
157.4119686280275
 30
0.0
 11
887.195792074559
 21
157.4119686280275
 31
0.0
  0
LINE
  5
16F9
330
26
100
AcDbEntity
  8
0
  6
Continuous
100
AcDbLine
 10
902.268639543859
 20
157.6784588425275
 30
0.0
 11
887.196842774159
 21
157.6784588425275
 31
0.0
  0
LINE
  5
16FA
330
26
100
AcDbEntity
  8
0
  6
Continuous
100
AcDbLine
 10
902.268639543859
 20
157.7020213349275
 30
0.0
 11
887.196842774159
 21
157.7020213349275
 31
0.0
  0
LWPOLYLINE
  5
16FB
330
26
100
AcDbEntity
  8
0
  6
Continuous
100
AcDbPolyline
 90
        5
 70
     0
 43
0.0
 10
887.196842774159
 20
157.6784588425275
 10
886.679101007359
 20
157.6103324458275
 10
886.1966324042591
 20
157.4105837306276
 10
885.7823956853589
 20
157.0928663350275
 10
885.4647919665589
 20
156.6791883315275
  0
LINE
  5
16FC
330
26
100
AcDbEntity
  8
0
  6
Continuous
100
AcDbLine
 10
991.7570781234589
 20
143.2848640474276
 30
0.0
 11
992.522763548459
 21
142.5191786224275
 31
0.0
  0
LINE
  5
16FD
330
26
100
AcDbEntity
  8
0
  6
Continuous
100
AcDbLine
 10
991.474235411059
 20
143.4020213349275
 30
0.0
 11
991.474235411059
 21
125.4020213349276
 31
0.0
  0
LINE
  5
16FE
330
26
100
AcDbEntity
  8
0
  6
Continuous
100
AcDbLine
 10
991.7570781234589
 20
143.2848640474276
 30
0.0
 11
991.7570781234589
 21
125.4020213349276
 31
0.0
  0
LINE
  5
16FF
330
26
100
AcDbEntity
  8
0
  6
Continuous
100
AcDbLine
 10
992.522763548459
 20
125.4020213349275
 30
0.0
 11
992.522763548459
 21
142.5191786224275
 31
0.0
  0
LINE
  5
1700
330
26
100
AcDbEntity
  8
0
  6
Continuous
100
AcDbLine
 10
992.639920835959
 20
142.2363359100275
 30
0.0
 11
992.639920835959
 21
125.4020213349275
 31
0.0
  0
ARC
  5
1714
330
26
100
AcDbEntity
  8
0
  6
Continuous
100
AcDbCircle
 10
955.6399208359591
 20
107.0020213349276
 30
0.0
 40
0.4
100
AcDbArc
 50
90.0
 51
179.9999999890007
  0
ARC
  5
1715
330
26
100
AcDbEntity
  8
0
  6
Continuous
100
AcDbCircle
 10
919.9719716435591
 20
103.4020213349275
 30
0.0
 40
3.0
100
AcDbArc
 50
90.0
 51
149.9999999999987
  0
ARC
  5
1717
330
26
100
AcDbEntity
  8
0
  6
Continuous
100
AcDbCircle
 10
915.3531694900593
 20
105.4020213349275
 30
0.0
 40
2.0
100
AcDbArc
 50
270.0
 51
270.0
  0
ARC
  5
1718
330
26
100
AcDbEntity
  8
0
  6
Continuous
100
AcDbCircle
 10
992.2399208359591
 20
108.5677067598275
 30
0.0
 40
0.4
100
AcDbArc
 50
314.9999999998992
 51
0.0000000000008142
  0
ARC
  5
1719
330
26
100
AcDbEntity
  8
0
  6
Continuous
100
AcDbCircle
 10
991.4742354110591
 20
107.8020213349276
 30
0.0
 40
0.4
100
AcDbArc
 50
270.0
 51
315.0000000126018
  0
ARC
  5
171C
330
26
100
AcDbEntity
  8
0
  6
Continuous
100
AcDbCircle
 10
904.1780406206589
 20
153.5948416579276
 30
0.0
 40
0.4
100
AcDbArc
 50
0.0
 51
29.99999999679836
  0
ARC
  5
171D
330
26
100
AcDbEntity
  8
0
  6
Continuous
100
AcDbCircle
 10
887.196842774159
 20
155.7020213349275
 30
0.0
 40
2.0
100
AcDbArc
 50
90.0
 51
149.9999999999987
  0
ARC
  5
171E
330
26
100
AcDbEntity
  8
0
  6
Continuous
100
AcDbCircle
 10
880.8459898130591
 20
154.7020213349275
 30
0.0
 40
3.0
100
AcDbArc
 50
270.0
 51
329.9999999999995
  0
ARC
  5
171F
330
26
100
AcDbEntity
  8
0
  6
Continuous
100
AcDbCircle
 10
880.1780406206589
 20
151.1020213349276
 30
0.0
 40
0.6
100
AcDbArc
 50
90.0
 51
180.0
  0
ARC
  5
1720
330
26
100
AcDbEntity
  8
0
  6
Continuous
100
AcDbCircle
 10
955.6399208359591
 20
143.8020213349276
 30
0.0
 40
0.4
100
AcDbArc
 50
180.0000000025005
 51
270.0
  0
ARC
  5
1721
330
26
100
AcDbEntity
  8
0
  6
Continuous
100
AcDbCircle
 10
992.2399208359591
 20
142.2363359100275
 30
0.0
 40
0.4
100
AcDbArc
 50
0.0
 51
44.99999998549994
  0
ARC
  5
1722
330
26
100
AcDbEntity
  8
0
  6
Continuous
100
AcDbCircle
 10
991.474235411059
 20
143.0020213349276
 30
0.0
 40
0.4
100
AcDbArc
 50
44.99999998739816
 51
90.0
  0
ARC
  5
1723
330
26
100
AcDbEntity
  8
0
  6
Continuous
100
AcDbCircle
 10
909.4137876132591
 20
150.4020213349275
 30
0.0
 40
3.0
100
AcDbArc
 50
204.0199830805004
 51
270.0
  0
ARC
  5
1724
330
26
100
AcDbEntity
  8
0
  6
Continuous
100
AcDbCircle
 10
904.8467698916591
 20
148.3667451545275
 30
0.0
 40
2.0
100
AcDbArc
 50
24.01998308049963
 51
44.99999999969658
  0
SPLINE
  5
1726
330
26
100
AcDbEntity
  8
0
  6
Continuous
100
AcDbSpline
210
0.0
220
0.0
230
1.0
 70
    24
 71
     3
 72
     8
 73
     4
 74
     0
 42
0.0000000001
 43
0.0000000001
 40
0.0
 40
0.0
 40
0.0
 40
0.0
 40
0.0000053652906051
 40
0.0000053652906051
 40
0.0000053652906051
 40
0.0000053652906051
 10
883.444066024359
 20
125.4020267007275
 30
0.0
 10
883.4440660490296
 20
125.4020249121275
 30
0.0
 10
883.4440660737
 20
125.4020231235275
 30
0.0
 10
883.4440660983705
 20
125.4020213349275
 30
0.0
  0
SPLINE
  5
1727
330
26
100
AcDbEntity
  8
0
  6
Continuous
100
AcDbSpline
210
0.0
220
0.0
230
1.0
 70
     8
 71
     3
 72
    12
 73
     8
 74
     0
 42
0.0000000001
 43
0.0000000001
 40
0.0
 40
0.0
 40
0.0
 40
0.0
 40
3.029230183995997
 40
5.949180654461335
 40
8.785791047684482
 40
11.5666635260235
 40
14.32101832512922
 40
14.32101832512922
 40
14.32101832512922
 40
14.32101832512922
 10
887.196457950459
 20
139.5388526630275
 30
0.0
 10
886.9453539442914
 20
138.5606571622188
 30
0.0
 10
886.4522045284288
 20
136.6395546390636
 30
0.0
 10
885.8879668446904
 20
133.7641462660166
 30
0.0
 10
885.4771711718043
 20
130.946950542288
 30
0.0
 10
885.2311863523619
 20
128.1655885984852
 30
0.0
 10
885.1761168205966
 20
126.3202635859231
 30
0.0
 10
885.1761168319029
 20
125.4020213349275
 30
0.0
  0
SPLINE
  5
1728
330
26
100
AcDbEntity
  8
0
  6
Continuous
100
AcDbSpline
210
0.0
220
0.0
230
1.0
 70
     8
 71
     3
 72
    12
 73
     8
 74
     6
 42
0.0000000001
 43
0.0000000001
 44
0.0000000001
 40
0.0
 40
0.0
 40
0.0
 40
0.0
 40
3.106527756541809
 40
6.113962165514482
 40
9.044819465400957
 40
11.92474088004878
 40
14.78125603145488
 40
14.78125603145488
 40
14.78125603145488
 40
14.78125603145488
 10
885.4647919665589
 20
140.0042499952276
 30
0.0
 10
885.2134340693808
 20
138.9995463858259
 30
0.0
 10
884.7187361964537
 20
137.0221876313443
 30
0.0
 10
884.1546482861428
 20
134.0586576874969
 30
0.0
 10
883.7467069922407
 20
131.1469080507988
 30
0.0
 10
883.4916494559409
 20
128.2667026353465
 30
0.0
 10
883.4598839641938
 20
126.3543176573357
 30
0.0
 10
883.444066024359
 20
125.4020267007275
 30
0.0
 11
885.4647919665589
 21
140.0042499952276
 31
0.0
 11
884.739993508859
 21
136.9834583940276
 31
0.0
 11
884.1744015957592
 21
134.0296866506275
 31
0.0
 11
883.769235362959
 21
131.1269698480275
 31
0.0
 11
883.525501822659
 21
128.2573807980275
 31
0.0
 11
883.444066024359
 21
125.4020267007275
 31
0.0
  0
SPLINE
  5
1729
330
26
100
AcDbEntity
  8
0
  6
Continuous
100
AcDbSpline
210
0.0
220
0.0
230
1.0
 70
     8
 71
     3
 72
    12
 73
     8
 74
     6
 42
0.0000000001
 43
0.0000000001
 44
0.0000000001
 40
0.0
 40
0.0
 40
0.0
 40
0.0
 40
1.444033526759072
 40
2.919255338672873
 40
4.447272820790145
 40
6.048725293772485
 40
7.742759860677515
 40
7.742759860677515
 40
7.742759860677515
 40
7.742759860677515
 10
883.444066024359
 20
149.4775772461276
 30
0.0
 10
883.4603078448914
 20
148.9959997906387
 30
0.0
 10
883.4931422773479
 20
148.0224437534216
 30
0.0
 10
883.7534788570317
 20
146.5583397827522
 30
0.0
 10
884.1652372692447
 20
145.078304537827
 30
0.0
 10
884.7323878042625
 20
143.5707422240201
 30
0.0
 10
885.2161272516519
 20
142.5839789665637
 30
0.0
 10
885.4647919665589
 20
142.0767364718276
 30
0.0
 11
883.444066024359
 21
149.4775772461276
 31
0.0
 11
883.526571546259
 21
148.0359026416276
 31
0.0
 11
883.7727674713589
 21
146.5813693966275
 31
0.0
 11
884.1796795684591
 21
145.1085286140276
 31
0.0
 11
884.744232405859
 21
143.6098858557276
 31
0.0
 11
885.4647919665589
 21
142.0767364718276
 31
0.0
  0
SPLINE
  5
172A
330
26
100
AcDbEntity
  8
0
  6
Continuous
100
AcDbSpline
210
0.0
220
0.0
230
1.0
 70
     8
 71
     3
 72
    11
 73
     7
 74
     5
 42
0.0000000001
 43
0.0000000001
 44
0.0000000001
 40
0.0
 40
0.0
 40
0.0
 40
0.0
 40
0.5479551831693902
 40
1.102658790398627
 40
1.651286237103764
 40
2.182376374049507
 40
2.182376374049507
 40
2.182376374049507
 40
2.182376374049507
 10
887.1968427738591
 20
143.2751372970276
 30
0.0
 10
887.0170625797994
 20
143.2378239499699
 30
0.0
 10
886.6552880817962
 20
143.162737717745
 30
0.0
 10
886.1681803411818
 20
142.8930191999291
 30
0.0
 10
885.7473000969276
 20
142.5360155839367
 30
0.0
 10
885.5579360914429
 20
142.2275316166791
 30
0.0
 10
885.464791960859
 20
142.0757949080276
 30
0.0
 11
887.1968427738591
 21
143.2751372970276
 31
0.0
 11
886.666516987959
 21
143.1372625583275
 31
0.0
 11
886.176839394859
 21
142.8766633513276
 31
0.0
 11
885.765678645159
 21
142.5134293865276
 31
0.0
 11
885.464791960859
 21
142.0757949080276
 31
0.0
  0
SPLINE
  5
172B
330
26
100
AcDbEntity
  8
0
  6
Continuous
100
AcDbSpline
210
0.0
220
0.0
230
1.0
 70
     8
 71
     3
 72
    16
 73
    12
 74
    10
 42
0.0000000001
 43
0.0000000001
 44
0.0000000001
 40
0.0
 40
0.0
 40
0.0
 40
0.0
 40
1.796889497207002
 40
3.485733462271567
 40
5.091939322324709
 40
6.649552864563531
 40
8.190378475967345
 40
9.747458277395374
 40
11.3547056075286
 40
13.04491571820386
 40
14.84973804613894
 40
14.84973804613894
 40
14.84973804613894
 40
14.84973804613894
 10
887.195792074559
 20
157.4119686280275
 30
0.0
 10
886.9229890687677
 20
156.8783400209932
 30
0.0
 10
886.3937864843167
 20
155.8431694694062
 30
0.0
 10
885.7909381860466
 20
154.2525332263411
 30
0.0
 10
885.3769878937039
 20
152.6854683956215
 30
0.0
 10
885.1680657695202
 20
151.1266430054267
 30
0.0
 10
885.1674404635695
 20
149.5702375050145
 30
0.0
 10
885.37510339017
 20
148.0110699450562
 30
0.0
 10
885.7881453174942
 20
146.4431142127353
 30
0.0
 10
886.3912763058239
 20
144.8488582195298
 30
0.0
 10
886.9221778539419
 20
143.8110551275661
 30
0.0
 10
887.196333526259
 20
143.2751372998275
 30
0.0
 11
887.195792074559
 21
157.4119686280275
 31
0.0
 11
886.4083461802591
 21
155.7968089366276
 31
0.0
 11
885.809796214459
 21
154.2175901814275
 31
0.0
 11
885.406191007859
 21
152.6629197655276
 31
0.0
 11
885.2019874341592
 21
151.1187498113276
 31
0.0
 11
885.2013695118591
 21
149.5779243238275
 31
0.0
 11
885.4042638263591
 21
148.0341201247275
 31
0.0
 11
885.807036391659
 21
146.4781579655276
 31
0.0
 11
886.4052690865589
 21
144.8973582119276
 31
0.0
 11
887.196333526259
 21
143.2751372998275
 31
0.0
  0
SPLINE
  5
172C
330
26
100
AcDbEntity
  8
0
  6
Continuous
100
AcDbSpline
210
0.0
220
0.0
230
1.0
 70
     8
 71
     3
 72
    11
 73
     7
 74
     5
 42
0.0000000001
 43
0.0000000001
 44
0.0000000001
 40
0.0
 40
0.0
 40
0.0
 40
0.0
 40
0.5303843661782902
 40
1.036578571329317
 40
1.518923760397055
 40
1.985498113737732
 40
1.985498113737732
 40
1.985498113737732
 40
1.985498113737732
 10
887.196842773959
 20
157.4119686301276
 30
0.0
 10
887.0192862241154
 20
157.4235539978436
 30
0.0
 10
886.6722712544
 20
157.4461963392872
 30
0.0
 10
886.1766902350139
 20
157.3112754893165
 30
0.0
 10
885.7469546632058
 20
157.0629861381309
 30
0.0
 10
885.5577982833223
 20
156.8056955576946
 30
0.0
 10
885.4647919622591
 20
156.6791883241276
 30
0.0
 11
887.196842773959
 21
157.4119686301276
 31
0.0
 11
886.6664794316589
 21
157.4166910268276
 31
0.0
 11
886.1769296017591
 21
157.2879527754276
 31
0.0
 11
885.7658317910589
 21
157.0356524158276
 31
0.0
 11
885.4647919622591
 21
156.6791883241276
 31
0.0
  0
SPLINE
  5
172D
330
26
100
AcDbEntity
  8
0
  6
Continuous
100
AcDbSpline
210
0.0
220
0.0
230
1.0
 70
     8
 71
     3
 72
    12
 73
     8
 74
     6
 42
0.0000000001
 43
0.0000000001
 44
0.0000000001
 40
0.0
 40
0.0
 40
0.0
 40
0.0
 40
1.62975775406227
 40
3.179448840883201
 40
4.667420849962045
 40
6.118283938083228
 40
7.555588115635024
 40
7.555588115635024
 40
7.555588115635024
 40
7.555588115635024
 10
885.4647919665589
 20
156.6791779248275
 30
0.0
 10
885.2169103367571
 20
156.1954940089362
 30
0.0
 10
884.733324994957
 20
155.2518885792941
 30
0.0
 10
884.1655015236086
 20
153.8000978210548
 30
0.0
 10
883.7527447475824
 20
152.3603841095338
 30
0.0
 10
883.4924896162656
 20
150.9201657561832
 30
0.0
 10
883.4601566243903
 20
149.956932738172
 30
0.0
 10
883.444066024359
 20
149.4775772461276
 30
0.0
 11
885.4647919665589
 21
156.6791779248275
 31
0.0
 11
884.7465769978591
 21
155.2162091638276
 31
0.0
 11
884.1814723591589
 21
153.7732264155275
 31
0.0
 11
883.7738071933591
 21
152.3421883963276
 31
0.0
 11
883.5268688949591
 21
150.9124943111276
 31
0.0
 11
883.444066024359
 21
149.4775772461276
 31
0.0
  0
SPLINE
  5
172E
330
26
100
AcDbEntity
  8
0
  6
Continuous
100
AcDbSpline
210
0.0
220
0.0
230
1.0
 70
     8
 71
     3
 72
    10
 73
     6
 74
     4
 42
0.0000000001
 43
0.0000000001
 44
0.0000000001
 40
0.0
 40
0.0
 40
0.0
 40
0.0
 40
0.0401966013673322
 40
0.1383052450390558
 40
0.2947811703617076
 40
0.2947811703617076
 40
0.2947811703617076
 40
0.2947811703617076
 10
902.268639543859
 20
157.6784588425276
 30
0.0
 10
902.2730989897445
 20
157.6658152634406
 30
0.0
 10
902.2884426938126
 20
157.6223122496455
 30
0.0
 10
902.3332214709435
 20
157.5345889832902
 30
0.0
 10
902.3709780645278
 20
157.4586457809488
 30
0.0
 10
902.3941844903591
 20
157.4119686280275
 30
0.0
 11
902.268639543859
 21
157.6784588425276
 31
0.0
 11
902.282496451359
 21
157.6407261925276
 31
0.0
 11
902.3242191301589
 21
157.5519313501275
 31
0.0
 11
902.3941844903591
 21
157.4119686280275
 31
0.0
  0
SPLINE
  5
172F
330
26
100
AcDbEntity
  8
0
  6
Continuous
100
AcDbSpline
210
0.0
220
0.0
230
1.0
 70
     8
 71
     3
 72
    10
 73
     6
 74
     4
 42
0.0000000001
 43
0.0000000001
 44
0.0000000001
 40
0.0
 40
0.0
 40
0.0
 40
0.0
 40
0.1990919885748472
 40
0.4269890771776372
 40
0.6835588837840045
 40
0.6835588837840045
 40
0.6835588837840045
 40
0.6835588837840045
 10
902.3941844903591
 20
143.2751372998275
 30
0.0
 10
902.3685848086711
 20
143.2137201546436
 30
0.0
 10
902.3136816227702
 20
143.0819998863763
 30
0.0
 10
902.2761080676189
 20
142.8553595873371
 30
0.0
 10
902.2712253775862
 20
142.6939725977785
 30
0.0
 10
902.268639543859
 20
142.6085033343276
 30
0.0
 11
902.3941844903591
 21
143.2751372998275
 31
0.0
 11
902.3242191301589
 21
143.0887439837275
 31
0.0
 11
902.282496451359
 21
142.8646986734276
 31
0.0
 11
902.268639543859
 21
142.6085033343276
 31
0.0
  0
SPLINE
  5
1730
330
26
100
AcDbEntity
  8
0
  6
Continuous
100
AcDbSpline
210
0.0
220
0.0
230
1.0
 70
     8
 71
     3
 72
    10
 73
     6
 74
     4
 42
0.0000000001
 43
0.0000000001
 44
0.0000000001
 40
0.0
 40
0.0
 40
0.0
 40
0.0
 40
0.2942544419427602
 40
0.6098645544712359
 40
0.943636056194803
 40
0.943636056194803
 40
0.943636056194803
 40
0.943636056194803
 10
902.268639543859
 20
140.4719768431276
 30
0.0
 10
902.2715846542969
 20
140.3738897226778
 30
0.0
 10
902.2776886181089
 20
140.170596757523
 30
0.0
 10
902.3205090257288
 20
139.8582597623918
 30
0.0
 10
902.3691723431459
 20
139.6472884554627
 30
0.0
 10
902.3941844903591
 20
139.5388526630275
 30
0.0
 11
902.268639543859
 21
140.4719768431276
 31
0.0
 11
902.282496451359
 21
140.1780488541276
 31
0.0
 11
902.3242191301589
 21
139.8652087013275
 31
0.0
 11
902.3941844903591
 21
139.5388526630275
 31
0.0
  0
SPLINE
  5
1731
330
26
100
AcDbEntity
  8
0
  6
Continuous
100
AcDbSpline
210
0.0
220
0.0
230
1.0
 70
     8
 71
     3
 72
    11
 73
     7
 74
     0
 42
0.0000000001
 43
0.0000000001
 40
14.29872125912718
 40
14.29872125912718
 40
14.29872125912718
 40
14.29872125912718
 40
17.79582391209846
 40
21.31391151710642
 40
24.8904987958312
 40
28.59744190286148
 40
28.59744190286148
 40
28.59744190286148
 40
28.59744190286148
 10
904.2893654859998
 20
125.4020213349275
 30
0.0
 10
904.2893655213557
 20
126.5679940211043
 30
0.0
 10
904.2074762781442
 20
128.9069360405955
 30
0.0
 10
903.8387271179956
 20
132.4204695785099
 30
0.0
 10
903.2475490015444
 20
135.9752063436895
 30
0.0
 10
902.6820131898777
 20
138.3368813222991
 30
0.0
 10
902.3941844903591
 20
139.5388526630275
 30
0.0
  0
SPLINE
  5
1732
330
26
100
AcDbEntity
  8
0
  6
Continuous
100
AcDbSpline
210
0.0
220
0.0
230
1.0
 70
     8
 71
     3
 72
    15
 73
    11
 74
     9
 42
0.0000000001
 43
0.0000000001
 44
0.0000000001
 40
0.0
 40
0.0
 40
0.0
 40
0.0
 40
1.984554194726705
 40
3.844208776495742
 40
5.630764163163169
 40
7.383015867006413
 40
9.135313462467796
 40
10.92197795090438
 40
12.7822121551042
 40
14.76714744352232
 40
14.76714744352232
 40
14.76714744352232
 40
14.76714744352232
 10
902.3941844903591
 20
143.2751372998275
 30
0.0
 10
902.6805717687926
 20
143.8720059948943
 30
0.0
 10
903.2353222977306
 20
145.0281789440072
 30
0.0
 10
903.8332712682613
 20
146.8127179858368
 30
0.0
 10
904.2058188647235
 20
148.5777749342014
 30
0.0
 10
904.3306957822497
 20
150.3430074061448
 30
0.0
 10
904.2059711431111
 20
152.1082880777192
 30
0.0
 10
903.8335014967959
 20
153.873613554976
 30
0.0
 10
903.2355081301109
 20
155.6585191151726
 30
0.0
 10
902.6806241075261
 20
156.8149838489809
 30
0.0
 10
902.3941844903591
 20
157.4119686280275
 30
0.0
 11
902.3941844903591
 21
143.2751372998275
 31
0.0
 11
903.2142969834589
 21
145.0823093587275
 31
0.0
 11
903.805766753959
 21
146.8453971824275
 31
0.0
 11
904.167230420559
 21
148.5950040432275
 31
0.0
 11
904.2893654734592
 21
150.3429940496276
 31
0.0
 11
904.1673781275589
 21
152.0910403735275
 31
0.0
 11
903.8060197733591
 21
153.8407803925276
 31
0.0
 11
903.2144375400591
 21
155.6044418554276
 31
0.0
 11
902.3941844903591
 21
157.4119686280275
 31
0.0
  0
SPLINE
  5
1733
330
26
100
AcDbEntity
  8
0
  6
Continuous
100
AcDbSpline
210
0.0
220
0.0
230
1.0
 70
     8
 71
     3
 72
    10
 73
     6
 74
     4
 42
0.0000000001
 43
0.0000000001
 44
0.0000000001
 40
0.0
 40
0.0
 40
0.0
 40
0.0
 40
0.340551601790954
 40
0.6986159280807727
 40
1.070507654371309
 40
1.070507654371309
 40
1.070507654371309
 40
1.070507654371309
 10
915.3531694900591
 20
145.3558499096275
 30
0.0
 10
915.4351740761636
 20
145.2773104528536
 30
0.0
 10
915.6034003001103
 20
145.1161926804028
 30
0.0
 10
915.8405338859277
 20
144.8488977584995
 30
0.0
 10
915.9886405260396
 20
144.6558001295583
 30
0.0
 10
916.064096622159
 20
144.5574224117276
 30
0.0
 11
915.3531694900591
 21
145.3558499096275
 31
0.0
 11
915.595981925859
 21
145.1170665046276
 31
0.0
 11
915.8342009941589
 21
144.8497432223275
 31
0.0
 11
916.064096622159
 21
144.5574224117276
 31
0.0
  0
SPLINE
  5
1734
330
26
100
AcDbEntity
  8
0
  6
Continuous
100
AcDbSpline
210
0.0
220
0.0
230
1.0
 70
     8
 71
     3
 72
    13
 73
     9
 74
     7
 42
0.0000000001
 43
0.0000000001
 44
0.0000000001
 40
0.0
 40
0.0
 40
0.0
 40
0.0
 40
0.2870377766125352
 40
0.5774570009458386
 40
0.8726190122209598
 40
1.164747302576132
 40
1.449764987068861
 40
1.703828564902083
 40
1.703828564902083
 40
1.703828564902083
 40
1.703828564902083
 10
916.064096622159
 20
144.5574224117276
 30
0.0
 10
916.1213229989421
 20
144.4807424203817
 30
0.0
 10
916.2364499076796
 20
144.3264791092673
 30
0.0
 10
916.4130982221949
 20
144.0953850450271
 30
0.0
 10
916.5910818724134
 20
143.8631793955174
 30
0.0
 10
916.7670555982327
 20
143.6317122377458
 30
0.0
 10
916.9330857284787
 20
143.4098623354908
 30
0.0
 10
917.0364878958897
 20
143.2628896069187
 30
0.0
 10
917.0852202975591
 20
143.1936228379276
 30
0.0
 11
916.064096622159
 21
144.5574224117276
 31
0.0
 11
916.2362131818591
 21
144.3277126490276
 31
0.0
 11
916.4121881424589
 21
144.0966798827276
 31
0.0
 11
916.5915415225591
 21
143.8622593675276
 31
0.0
 11
916.768196053159
 21
143.6295962745276
 31
0.0
 11
916.9380731689591
 21
143.4007363916275
 31
0.0
 11
917.0852202975591
 21
143.1936228379276
 31
0.0
  0
SPLINE
  5
1735
330
26
100
AcDbEntity
  8
0
  6
Continuous
100
AcDbSpline
210
0.0
220
0.0
230
1.0
 70
     8
 71
     3
 72
    11
 73
     7
 74
     5
 42
0.0000000001
 43
0.0000000001
 44
0.0000000001
 40
0.0
 40
0.0
 40
0.0
 40
0.0
 40
0.1746543877045437
 40
0.725724872433523
 40
1.672086188245294
 40
3.014188410891923
 40
3.014188410891923
 40
3.014188410891923
 40
3.014188410891923
 10
913.139920835959
 20
147.4020213349276
 30
0.0
 10
913.1825185985073
 20
147.3623378186907
 30
0.0
 10
913.3595210557468
 20
147.1974446537535
 30
0.0
 10
913.7677272707256
 20
146.8179447492648
 30
0.0
 10
914.461964523398
 20
146.1745770164854
 30
0.0
 10
915.0237199647527
 20
145.658506724614
 30
0.0
 10
915.3531694900591
 20
145.3558499096275
 30
0.0
 11
913.139920835959
 21
147.4020213349276
 31
0.0
 11
913.267723892959
 21
147.2829812838276
 31
0.0
 11
913.671297964559
 21
146.9077391648276
 31
0.0
 11
914.365594549559
 21
146.2646590826276
 31
0.0
 11
915.3531694900591
 21
145.3558499096275
 31
0.0
  0
SPLINE
  5
1736
330
26
100
AcDbEntity
  8
0
  6
Continuous
100
AcDbSpline
210
0.0
220
0.0
230
1.0
 70
     8
 71
     3
 72
    29
 73
    25
 74
    23
 42
0.0000000001
 43
0.0000000001
 44
0.0000000001
 40
0.0
 40
0.0
 40
0.0
 40
0.0
 40
2.089222896189742
 40
4.05574158407229
 40
5.872848369101875
 40
7.551548178354586
 40
9.119392689503792
 40
10.6135239801489
 40
12.04964027628743
 40
13.39109330110171
 40
14.60147998210765
 40
15.71290832576038
 40
16.78442833726897
 40
17.89754349885894
 40
19.11805537805012
 40
20.46783449277002
 40
21.9702331492477
 40
23.60320544272859
 40
25.31869537341879
 40
27.13235515436604
 40
29.06766115392945
 40
31.13302451399523
 40
33.31190097095196
 40
35.58578013618784
 40
35.58578013618784
 40
35.58578013618784
 40
35.58578013618784
 10
919.9719716435591
 20
139.7394839810276
 30
0.0
 10
920.4767225717953
 20
139.2596788282098
 30
0.0
 10
921.4565794041998
 20
138.3282484317288
 30
0.0
 10
922.8863072238621
 20
136.990998991597
 30
0.0
 10
924.2267290309188
 20
135.7586853476607
 30
0.0
 10
925.482932409706
 20
134.6312619175048
 30
0.0
 10
926.6759188717631
 20
133.5948329454682
 30
0.0
 10
927.8300602352122
 20
132.6374440584122
 30
0.0
 10
928.9563722131348
 20
131.7656424776212
 30
0.0
 10
930.0490948167731
 20
131.007082035683
 30
0.0
 10
931.1063411527312
 20
130.3922993166437
 30
0.0
 10
932.1500050551479
 20
129.9457687965474
 30
0.0
 10
933.2311105771302
 20
129.7047689593541
 30
0.0
 10
934.3789788514639
 20
129.7436923745031
 30
0.0
 10
935.5653490507349
 20
130.0985753161484
 30
0.0
 10
936.7777593459513
 20
130.7188278115615
 30
0.0
 10
938.0264043440282
 20
131.5442594064934
 30
0.0
 10
939.3132060287385
 20
132.5245028067078
 30
0.0
 10
940.6387634457531
 20
133.6220870099484
 30
0.0
 10
942.0113081793732
 20
134.8197498521546
 30
0.0
 10
943.4493746475096
 20
136.1191688072235
 30
0.0
 10
944.9607897950718
 20
137.5187166340855
 30
0.0
 10
946.5426647375946
 20
139.0081558594058
 30
0.0
 10
947.6156327361009
 20
140.0337066093913
 30
0.0
 10
948.163563003059
 20
140.5574224117276
 30
0.0
 11
919.9719716435591
 21
139.7394839810276
 31
0.0
 11
921.4882150328589
 21
138.3021745869276
 31
0.0
 11
922.924671024659
 21
136.9591221183275
 31
0.0
 11
924.2632326630591
 21
135.7302487284275
 31
0.0
 11
925.5135294379591
 21
134.6100741776276
 31
0.0
 11
926.6984310085589
 21
133.5833586965275
 31
0.0
 11
927.850342710259
 21
132.6317664807275
 31
0.0
 11
928.9890077477591
 21
131.7566253787275
 31
0.0
 11
930.095304534659
 21
130.9979399122276
 31
0.0
 11
931.1468619204591
 21
130.3985544086275
 31
0.0
 11
932.1738436350591
 21
129.9736055635276
 31
0.0
 11
933.2222494774589
 21
129.7522453939276
 31
0.0
 11
934.3348046146589
 21
129.7875502045275
 31
0.0
 11
935.5095770856589
 21
130.1185470151275
 31
0.0
 11
936.719998881259
 21
130.7158599442276
 31
0.0
 11
937.9806061459589
 21
131.5332160766276
 31
0.0
 11
939.2845572092589
 21
132.5162268272275
 31
0.0
 11
940.608877995259
 21
133.6066763483276
 31
0.0
 11
941.9773795004591
 21
134.7968718916275
 31
0.0
 11
943.414634781859
 21
136.0929068325276
 31
0.0
 11
944.9311221082592
 21
137.4950451987276
 31
0.0
 11
946.5177729873589
 21
138.9883775805276
 31
0.0
 11
948.163563003059
 21
140.5574224117276
 31
0.0
  0
SPLINE
  5
1737
330
26
100
AcDbEntity
  8
0
  6
Continuous
100
AcDbSpline
210
0.0
220
0.0
230
1.0
 70
     8
 71
     3
 72
    14
 73
    10
 74
     8
 42
0.0000000001
 43
0.0000000001
 44
0.0000000001
 40
0.0
 40
0.0
 40
0.0
 40
0.0
 40
0.5772615917296061
 40
1.123331838896745
 40
1.611808748227586
 40
2.02543085552092
 40
2.348562247263037
 40
2.558363505527511
 40
2.6330937429388
 40
2.6330937429388
 40
2.6330937429388
 40
2.6330937429388
 10
951.9506310069589
 20
142.9574224117275
 30
0.0
 10
952.1263616398953
 20
143.0360791646404
 30
0.0
 10
952.4683276010389
 20
143.1891425871117
 30
0.0
 10
952.9345393623387
 20
143.4578316311734
 30
0.0
 10
953.336377175051
 20
143.7257779520371
 30
0.0
 10
953.6608890848636
 20
143.9742217408117
 30
0.0
 10
953.9004855547047
 20
144.1796993823781
 30
0.0
 10
954.0486365521251
 20
144.3179034713792
 30
0.0
 10
954.116143965219
 20
144.3845239302931
 30
0.0
 10
954.133874322259
 20
144.4020213349276
 30
0.0
 11
951.9506310069589
 21
142.9574224117275
 31
0.0
 11
952.473321738759
 21
143.2024231141276
 31
0.0
 11
952.9478062312589
 21
143.4727140337276
 31
0.0
 11
953.3538092932589
 21
143.7443225840276
 31
0.0
 11
953.6821316968589
 21
143.9958929458275
 31
0.0
 11
953.9273461762588
 21
144.2063300039276
 31
0.0
 11
954.0805547615589
 21
144.3496607311276
 31
0.0
 11
954.133874322259
 21
144.4020213349276
 31
0.0
  0
SPLINE
  5
1738
330
26
100
AcDbEntity
  8
0
  6
Continuous
100
AcDbSpline
210
0.0
220
0.0
230
1.0
 70
     8
 71
     3
 72
     9
 73
     5
 74
     3
 42
0.0000000001
 43
0.0000000001
 44
0.0000000001
 40
0.0
 40
0.0
 40
0.0
 40
0.0
 40
0.0885898778870916
 40
0.1758491798723838
 40
0.1758491798723838
 40
0.1758491798723838
 40
0.1758491798723838
 10
917.373895432159
 20
142.8203154315276
 30
0.0
 10
917.3557699543684
 20
142.8436308235945
 30
0.0
 10
917.3197912344488
 20
142.8899114221363
 30
0.0
 10
917.2823688210974
 20
142.9350325526607
 30
0.0
 10
917.263799194159
 20
142.9574224117275
 30
0.0
 11
917.373895432159
 21
142.8203154315276
 31
0.0
 11
917.319152592859
 21
142.8899673375276
 31
0.0
 11
917.263799194159
 21
142.9574224117275
 31
0.0
  0
SPLINE
  5
1739
330
26
100
AcDbEntity
  8
0
  6
Continuous
100
AcDbSpline
210
0.0
220
0.0
230
1.0
 70
     8
 71
     3
 72
    10
 73
     6
 74
     4
 42
0.0000000001
 43
0.0000000001
 44
0.0000000001
 40
0.0
 40
0.0
 40
0.0
 40
0.0
 40
1.632485935177782
 40
3.12643018925605
 40
4.502980537726815
 40
4.502980537726815
 40
4.502980537726815
 40
4.502980537726815
 10
951.9506310069589
 20
142.9574224117275
 30
0.0
 10
951.4572858410952
 20
142.7271983963677
 30
0.0
 10
950.5124634772128
 20
142.2862884342036
 30
0.0
 10
949.2375440183339
 20
141.4817621429297
 30
0.0
 10
948.5116612591116
 20
140.8570190003594
 30
0.0
 10
948.163563003059
 20
140.5574224117276
 30
0.0
 11
951.9506310069589
 21
142.9574224117275
 31
0.0
 11
950.486856945759
 21
142.2346666948276
 31
0.0
 11
949.2278270509588
 21
141.4304819161275
 31
0.0
 11
948.163563003059
 21
140.5574224117276
 31
0.0
  0
SPLINE
  5
173A
330
26
100
AcDbEntity
  8
0
  6
Continuous
100
AcDbSpline
210
0.0
220
0.0
230
1.0
 70
     8
 71
     3
 72
    13
 73
     9
 74
     7
 42
0.0000000001
 43
0.0000000001
 44
0.0000000001
 40
0.0
 40
0.0
 40
0.0
 40
0.0
 40
0.3695317361736211
 40
0.826681994960669
 40
1.321876132607906
 40
1.839513108635243
 40
2.375618240559892
 40
2.931175289159359
 40
2.931175289159359
 40
2.931175289159359
 40
2.931175289159359
 10
917.373895432159
 20
142.8203154315276
 30
0.0
 10
917.4499480935837
 20
142.7234149221839
 30
0.0
 10
917.6200860268485
 20
142.5066381245902
 30
0.0
 10
917.9010543202496
 20
142.1671683787358
 30
0.0
 10
918.2159610893406
 20
141.791774143498
 30
0.0
 10
918.5486826830112
 20
141.3969689828415
 30
0.0
 10
918.8932258252239
 20
140.9857799678768
 30
0.0
 10
919.120889996844
 20
140.7018944136518
 30
0.0
 10
919.2367504136591
 20
140.5574224117276
 30
0.0
 11
917.373895432159
 21
142.8203154315276
 31
0.0
 11
917.603167486359
 21
142.5305085489275
 31
0.0
 11
917.8933349781592
 21
142.1772534204276
 31
0.0
 11
918.211294061059
 21
141.7976230007275
 31
0.0
 11
918.544534715459
 21
141.4015185887276
 31
0.0
 11
918.887600881759
 21
140.9895546121275
 31
0.0
 11
919.2367504136591
 21
140.5574224117276
 31
0.0
  0
SPLINE
  5
173B
330
26
100
AcDbEntity
  8
0
  6
Continuous
100
AcDbSpline
210
0.0
220
0.0
230
1.0
 70
     8
 71
     3
 72
    10
 73
     6
 74
     4
 42
0.0000000001
 43
0.0000000001
 44
0.0000000001
 40
0.0
 40
0.0
 40
0.0
 40
0.0
 40
0.3795440464240346
 40
0.7465447842977735
 40
1.100611438977591
 40
1.100611438977591
 40
1.100611438977591
 40
1.100611438977591
 10
919.2367504136591
 20
140.5574224117276
 30
0.0
 10
919.3162200953376
 20
140.4589729140218
 30
0.0
 10
919.4725331159893
 20
140.2653275131219
 30
0.0
 10
919.7169532250866
 20
139.9913706092916
 30
0.0
 10
919.8879881453688
 20
139.8224361078415
 30
0.0
 10
919.9719716435591
 20
139.7394839810276
 30
0.0
 11
919.2367504136591
 21
140.5574224117276
 31
0.0
 11
919.477609031559
 21
140.2640952746276
 31
0.0
 11
919.7226499140591
 21
139.9908838043276
 31
0.0
 11
919.9719716435591
 21
139.7394839810276
 31
0.0
  0
SPLINE
  5
173C
330
26
100
AcDbEntity
  8
0
  6
Continuous
100
AcDbSpline
210
0.0
220
0.0
230
1.0
 70
     8
 71
     3
 72
     9
 73
     5
 74
     3
 42
0.0000000001
 43
0.0000000001
 44
0.0000000001
 40
0.0
 40
0.0
 40
0.0
 40
0.0
 40
0.1525205509090521
 40
0.2961939752833215
 40
0.2961939752833215
 40
0.2961939752833215
 40
0.2961939752833215
 10
917.0852202975591
 20
143.1936228379276
 30
0.0
 10
917.114437589519
 20
143.1519938075327
 30
0.0
 10
917.1711773914736
 20
143.0711504855912
 30
0.0
 10
917.2335462325303
 20
142.9945692924288
 30
0.0
 10
917.263799194159
 20
142.9574224117275
 30
0.0
 11
917.0852202975591
 21
143.1936228379276
 31
0.0
 11
917.1743647566591
 21
143.0698658831276
 31
0.0
 11
917.263799194159
 21
142.9574224117275
 31
0.0
  0
LINE
  5
24E2
330
26
100
AcDbEntity
  8
0
100
AcDbLine
 10
992.6399208359592
 20
109.5191786224276
 30
0.0
 11
992.6399208359592
 21
109.2363359099318
 31
0.0
  0
LEADER
  5
3C1A
330
26
100
AcDbEntity
  8
0
  6
Continuous
100
AcDbLeader
  3
dimensionali
 76
     3
 10
4742.343203675238
 20
155.8380403142116
 30
0.0
 10
4757.902017335047
 20
136.8901693944412
 30
0.0
 10
4783.479369618905
 20
136.7947445882755
 30
0.0
  0
TEXT
  5
3C1B
330
26
100
AcDbEntity
  8
0
100
AcDbText
 10
4784.238716156438
 20
235.8641573906574
 30
0.0
 40
8.0
  1
Ex'
100
AcDbText
  0
SPLINE
  5
5EFD
330
26
100
AcDbEntity
  8
0
  6
Continuous
100
AcDbSpline
210
0.0
220
0.0
230
1.0
 70
     8
 71
     3
 72
    15
 73
    11
 74
     9
 42
0.0000000001
 43
0.0000000001
 44
0.0000000001
 40
0.0
 40
0.0
 40
0.0
 40
0.0
 40
1.984554194726692
 40
3.844208776495743
 40
5.630764163163156
 40
7.3830158670063
 40
9.135313462467739
 40
10.9219779509043
 40
12.78221215510406
 40
14.76714744352228
 40
14.76714744352228
 40
14.76714744352228
 40
14.76714744352228
 10
902.3941844903591
 20
107.5289053700275
 30
0.0
 10
902.6805717687926
 20
106.9320366749607
 30
0.0
 10
903.2353222977307
 20
105.7758637258478
 30
0.0
 10
903.8332712682617
 20
103.9913246840182
 30
0.0
 10
904.2058188647234
 20
102.2262677356537
 30
0.0
 10
904.3306957822493
 20
100.4610352637103
 30
0.0
 10
904.2059711431114
 20
98.69575459213581
 30
0.0
 10
903.8335014967958
 20
96.9304291148791
 30
0.0
 10
903.2355081301112
 20
95.14552355468246
 30
0.0
 10
902.680624107526
 20
93.98905882087412
 30
0.0
 10
902.3941844903591
 20
93.39207404182753
 30
0.0
 11
902.3941844903591
 21
107.5289053700275
 31
0.0
 11
903.2142969834589
 21
105.7217333111275
 31
0.0
 11
903.805766753959
 21
103.9586454874275
 31
0.0
 11
904.167230420559
 21
102.2090386266275
 31
0.0
 11
904.2893654734592
 21
100.4610486202275
 31
0.0
 11
904.1673781275589
 21
98.71300229632755
 31
0.0
 11
903.8060197733591
 21
96.96326227732749
 31
0.0
 11
903.2144375400591
 21
95.19960081442753
 31
0.0
 11
902.3941844903591
 21
93.39207404182753
 31
0.0
  0
SPLINE
  5
5EFE
330
26
100
AcDbEntity
  8
0
  6
Continuous
100
AcDbSpline
210
0.0
220
0.0
230
1.0
 70
     8
 71
     3
 72
    11
 73
     7
 74
     0
 42
0.0000000001
 43
0.0000000001
 40
14.29872125912718
 40
14.29872125912718
 40
14.29872125912718
 40
14.29872125912718
 40
17.79582391209846
 40
21.31391151710642
 40
24.8904987958312
 40
28.59744190286148
 40
28.59744190286148
 40
28.59744190286148
 40
28.59744190286148
 10
904.2893654859998
 20
125.4020213349275
 30
0.0
 10
904.2893655213557
 20
124.2360486487507
 30
0.0
 10
904.2074762781442
 20
121.8971066292595
 30
0.0
 10
903.8387271179956
 20
118.3835730913451
 30
0.0
 10
903.2475490015444
 20
114.8288363261656
 30
0.0
 10
902.6820131898777
 20
112.467161347556
 30
0.0
 10
902.3941844903591
 20
111.2651900068275
 30
0.0
  0
SPLINE
  5
5EFF
330
26
100
AcDbEntity
  8
0
  6
Continuous
100
AcDbSpline
210
0.0
220
0.0
230
1.0
 70
     8
 71
     3
 72
    10
 73
     6
 74
     4
 42
0.0000000001
 43
0.0000000001
 44
0.0000000001
 40
0.0
 40
0.0
 40
0.0
 40
0.0
 40
0.2942544419427602
 40
0.6098645544711373
 40
0.9436360561947044
 40
0.9436360561947044
 40
0.9436360561947044
 40
0.9436360561947044
 10
902.268639543859
 20
110.3320658267275
 30
0.0
 10
902.2715846542969
 20
110.4301529471774
 30
0.0
 10
902.2776886181086
 20
110.6334459123321
 30
0.0
 10
902.3205090257292
 20
110.9457829074633
 30
0.0
 10
902.3691723431459
 20
111.1567542143923
 30
0.0
 10
902.3941844903591
 20
111.2651900068275
 30
0.0
 11
902.268639543859
 21
110.3320658267275
 31
0.0
 11
902.282496451359
 21
110.6259938157275
 31
0.0
 11
902.3242191301589
 21
110.9388339685275
 31
0.0
 11
902.3941844903591
 21
111.2651900068275
 31
0.0
  0
SPLINE
  5
5F00
330
26
100
AcDbEntity
  8
0
  6
Continuous
100
AcDbSpline
210
0.0
220
0.0
230
1.0
 70
     8
 71
     3
 72
    10
 73
     6
 74
     4
 42
0.0000000001
 43
0.0000000001
 44
0.0000000001
 40
0.0
 40
0.0
 40
0.0
 40
0.0
 40
0.1990919885748605
 40
0.4269890771777344
 40
0.6835588837841017
 40
0.6835588837841017
 40
0.6835588837841017
 40
0.6835588837841017
 10
902.3941844903591
 20
107.5289053700275
 30
0.0
 10
902.3685848086709
 20
107.5903225152114
 30
0.0
 10
902.3136816227705
 20
107.7220427834788
 30
0.0
 10
902.2761080676189
 20
107.9486830825179
 30
0.0
 10
902.2712253775862
 20
108.1100700720766
 30
0.0
 10
902.268639543859
 20
108.1955393355275
 30
0.0
 11
902.3941844903591
 21
107.5289053700275
 31
0.0
 11
902.3242191301589
 21
107.7152986861275
 31
0.0
 11
902.282496451359
 21
107.9393439964275
 31
0.0
 11
902.268639543859
 21
108.1955393355275
 31
0.0
  0
SPLINE
  5
5F01
330
26
100
AcDbEntity
  8
0
  6
Continuous
100
AcDbSpline
210
0.0
220
0.0
230
1.0
 70
     8
 71
     3
 72
    10
 73
     6
 74
     4
 42
0.0000000001
 43
0.0000000001
 44
0.0000000001
 40
0.0
 40
0.0
 40
0.0
 40
0.0
 40
0.0401966013673589
 40
0.1383052450390053
 40
0.2947811703616571
 40
0.2947811703616571
 40
0.2947811703616571
 40
0.2947811703616571
 10
902.268639543859
 20
93.12558382732749
 30
0.0
 10
902.2730989897444
 20
93.1382274064145
 30
0.0
 10
902.2884426938128
 20
93.18173042020959
 30
0.0
 10
902.3332214709436
 20
93.26945368656486
 30
0.0
 10
902.3709780645279
 20
93.34539688890628
 30
0.0
 10
902.3941844903591
 20
93.39207404182753
 30
0.0
 11
902.268639543859
 21
93.12558382732749
 31
0.0
 11
902.282496451359
 21
93.1633164773275
 31
0.0
 11
902.3242191301589
 21
93.25211131972753
 31
0.0
 11
902.3941844903591
 21
93.39207404182753
 31
0.0
  0
SPLINE
  5
5F02
330
26
100
AcDbEntity
  8
0
  6
Continuous
100
AcDbSpline
210
0.0
220
0.0
230
1.0
 70
     8
 71
     3
 72
    12
 73
     8
 74
     6
 42
0.0000000001
 43
0.0000000001
 44
0.0000000001
 40
0.0
 40
0.0
 40
0.0
 40
0.0
 40
1.629757754062321
 40
3.179448840883173
 40
4.667420849962126
 40
6.118283938083281
 40
7.555588115635064
 40
7.555588115635064
 40
7.555588115635064
 40
7.555588115635064
 10
885.4647919665589
 20
94.12486474502754
 30
0.0
 10
885.2169103367573
 20
94.6085486609189
 30
0.0
 10
884.733324994957
 20
95.55215409056099
 30
0.0
 10
884.1655015236087
 20
97.00394484880033
 30
0.0
 10
883.7527447475819
 20
98.44365856032127
 30
0.0
 10
883.4924896162657
 20
99.88387691367191
 30
0.0
 10
883.4601566243903
 20
100.8471099316831
 30
0.0
 10
883.444066024359
 20
101.3264654237275
 30
0.0
 11
885.4647919665589
 21
94.12486474502754
 31
0.0
 11
884.7465769978591
 21
95.58783350602749
 31
0.0
 11
884.1814723591589
 21
97.03081625432753
 31
0.0
 11
883.7738071933591
 21
98.46185427352754
 31
0.0
 11
883.5268688949591
 21
99.89154835872751
 31
0.0
 11
883.444066024359
 21
101.3264654237275
 31
0.0
  0
SPLINE
  5
5F03
330
26
100
AcDbEntity
  8
0
  6
Continuous
100
AcDbSpline
210
0.0
220
0.0
230
1.0
 70
     8
 71
     3
 72
    11
 73
     7
 74
     5
 42
0.0000000001
 43
0.0000000001
 44
0.0000000001
 40
0.0
 40
0.0
 40
0.0
 40
0.0
 40
0.5303843661782902
 40
1.036578571329324
 40
1.518923760397041
 40
1.985498113737717
 40
1.985498113737717
 40
1.985498113737717
 40
1.985498113737717
 10
887.196842773959
 20
93.3920740397275
 30
0.0
 10
887.0192862241156
 20
93.38048867201151
 30
0.0
 10
886.6722712544001
 20
93.3578463305679
 30
0.0
 10
886.1766902350139
 20
93.49276718053868
 30
0.0
 10
885.7469546632058
 20
93.74105653172418
 30
0.0
 10
885.5577982833222
 20
93.9983471121605
 30
0.0
 10
885.4647919622591
 20
94.12485434572749
 30
0.0
 11
887.196842773959
 21
93.3920740397275
 31
0.0
 11
886.6664794316589
 21
93.3873516430275
 31
0.0
 11
886.1769296017591
 21
93.51608989442752
 31
0.0
 11
885.7658317910589
 21
93.76839025402749
 31
0.0
 11
885.4647919622591
 21
94.12485434572749
 31
0.0
  0
SPLINE
  5
5F04
330
26
100
AcDbEntity
  8
0
  6
Continuous
100
AcDbSpline
210
0.0
220
0.0
230
1.0
 70
     8
 71
     3
 72
    16
 73
    12
 74
    10
 42
0.0000000001
 43
0.0000000001
 44
0.0000000001
 40
0.0
 40
0.0
 40
0.0
 40
0.0
 40
1.796889497207078
 40
3.485733462271591
 40
5.091939322324802
 40
6.649552864563638
 40
8.190378475967309
 40
9.747458277395353
 40
11.35470560752867
 40
13.04491571820394
 40
14.84973804613891
 40
14.84973804613891
 40
14.84973804613891
 40
14.84973804613891
 10
887.195792074559
 20
93.39207404182753
 30
0.0
 10
886.9229890687678
 20
93.92570264886186
 30
0.0
 10
886.3937864843166
 20
94.96087320044893
 30
0.0
 10
885.7909381860469
 20
96.55150944351394
 30
0.0
 10
885.3769878937036
 20
98.1185742742336
 30
0.0
 10
885.16806576952
 20
99.67739966442846
 30
0.0
 10
885.1674404635694
 20
101.2338051648405
 30
0.0
 10
885.3751033901699
 20
102.7929727247988
 30
0.0
 10
885.7881453174942
 20
104.3609284571199
 30
0.0
 10
886.391276305824
 20
105.9551844503253
 30
0.0
 10
886.9221778539418
 20
106.9929875422889
 30
0.0
 10
887.196333526259
 20
107.5289053700275
 30
0.0
 11
887.195792074559
 21
93.39207404182753
 31
0.0
 11
886.4083461802591
 21
95.00723373322751
 31
0.0
 11
885.809796214459
 21
96.58645248842754
 31
0.0
 11
885.406191007859
 21
98.14112290432753
 31
0.0
 11
885.2019874341592
 21
99.68529285852753
 31
0.0
 11
885.2013695118591
 21
101.2261183460275
 31
0.0
 11
885.4042638263591
 21
102.7699225451275
 31
0.0
 11
885.807036391659
 21
104.3258847043275
 31
0.0
 11
886.4052690865589
 21
105.9066844579275
 31
0.0
 11
887.196333526259
 21
107.5289053700275
 31
0.0
  0
SPLINE
  5
5F05
330
26
100
AcDbEntity
  8
0
  6
Continuous
100
AcDbSpline
210
0.0
220
0.0
230
1.0
 70
     8
 71
     3
 72
    11
 73
     7
 74
     5
 42
0.0000000001
 43
0.0000000001
 44
0.0000000001
 40
0.0
 40
0.0
 40
0.0
 40
0.0
 40
0.5479551831693652
 40
1.102658790398649
 40
1.651286237103786
 40
2.182376374049529
 40
2.182376374049529
 40
2.182376374049529
 40
2.182376374049529
 10
887.1968427738591
 20
107.5289053728275
 30
0.0
 10
887.0170625797996
 20
107.5662187198851
 30
0.0
 10
886.6552880817957
 20
107.64130495211
 30
0.0
 10
886.1681803411823
 20
107.911023469926
 30
0.0
 10
885.7473000969275
 20
108.2680270859185
 30
0.0
 10
885.5579360914428
 20
108.576511053176
 30
0.0
 10
885.464791960859
 20
108.7282477618275
 30
0.0
 11
887.1968427738591
 21
107.5289053728275
 31
0.0
 11
886.666516987959
 21
107.6667801115275
 31
0.0
 11
886.176839394859
 21
107.9273793185275
 31
0.0
 11
885.765678645159
 21
108.2906132833275
 31
0.0
 11
885.464791960859
 21
108.7282477618275
 31
0.0
  0
SPLINE
  5
5F06
330
26
100
AcDbEntity
  8
0
  6
Continuous
100
AcDbSpline
210
0.0
220
0.0
230
1.0
 70
     8
 71
     3
 72
    12
 73
     8
 74
     6
 42
0.0000000001
 43
0.0000000001
 44
0.0000000001
 40
0.0
 40
0.0
 40
0.0
 40
0.0
 40
1.444033526759072
 40
2.919255338672789
 40
4.447272820790143
 40
6.048725293772495
 40
7.742759860677513
 40
7.742759860677513
 40
7.742759860677513
 40
7.742759860677513
 10
883.444066024359
 20
101.3264654237275
 30
0.0
 10
883.4603078448916
 20
101.8080428792163
 30
0.0
 10
883.4931422773479
 20
102.7815989164335
 30
0.0
 10
883.753478857032
 20
104.2457028871028
 30
0.0
 10
884.1652372692445
 20
105.7257381320281
 30
0.0
 10
884.7323878042628
 20
107.233300445835
 30
0.0
 10
885.216127251652
 20
108.2200637032914
 30
0.0
 10
885.4647919665589
 20
108.7273061980275
 30
0.0
 11
883.444066024359
 21
101.3264654237275
 31
0.0
 11
883.526571546259
 21
102.7681400282275
 31
0.0
 11
883.7727674713589
 21
104.2226732732275
 31
0.0
 11
884.1796795684591
 21
105.6955140558275
 31
0.0
 11
884.744232405859
 21
107.1941568141275
 31
0.0
 11
885.4647919665589
 21
108.7273061980275
 31
0.0
  0
SPLINE
  5
5F07
330
26
100
AcDbEntity
  8
0
  6
Continuous
100
AcDbSpline
210
0.0
220
0.0
230
1.0
 70
     8
 71
     3
 72
    12
 73
     8
 74
     6
 42
0.0000000001
 43
0.0000000001
 44
0.0000000001
 40
0.0
 40
0.0
 40
0.0
 40
0.0
 40
3.106527756541794
 40
6.11396216551437
 40
9.044819465400845
 40
11.92474088004866
 40
14.78125603145478
 40
14.78125603145478
 40
14.78125603145478
 40
14.78125603145478
 10
885.4647919665589
 20
110.7997926746275
 30
0.0
 10
885.2134340693807
 20
111.8044962840292
 30
0.0
 10
884.7187361964539
 20
113.7818550385108
 30
0.0
 10
884.1546482861428
 20
116.7453849823582
 30
0.0
 10
883.7467069922408
 20
119.6571346190562
 30
0.0
 10
883.4916494559407
 20
122.5373400345085
 30
0.0
 10
883.4598839641938
 20
124.4497250125194
 30
0.0
 10
883.444066024359
 20
125.4020159691275
 30
0.0
 11
885.4647919665589
 21
110.7997926746275
 31
0.0
 11
884.739993508859
 21
113.8205842758275
 31
0.0
 11
884.1744015957592
 21
116.7743560192275
 31
0.0
 11
883.769235362959
 21
119.6770728218275
 31
0.0
 11
883.525501822659
 21
122.5466618718275
 31
0.0
 11
883.444066024359
 21
125.4020159691275
 31
0.0
  0
SPLINE
  5
5F08
330
26
100
AcDbEntity
  8
0
  6
Continuous
100
AcDbSpline
210
0.0
220
0.0
230
1.0
 70
     8
 71
     3
 72
    12
 73
     8
 74
     0
 42
0.0000000001
 43
0.0000000001
 40
0.0
 40
0.0
 40
0.0
 40
0.0
 40
3.029230183995997
 40
5.949180654461335
 40
8.785791047684482
 40
11.5666635260235
 40
14.32101832512922
 40
14.32101832512922
 40
14.32101832512922
 40
14.32101832512922
 10
887.196457950459
 20
111.2651900068275
 30
0.0
 10
886.9453539442914
 20
112.2433855076363
 30
0.0
 10
886.4522045284288
 20
114.1644880307914
 30
0.0
 10
885.8879668446904
 20
117.0398964038385
 30
0.0
 10
885.4771711718043
 20
119.8570921275671
 30
0.0
 10
885.2311863523619
 20
122.6384540713699
 30
0.0
 10
885.1761168205966
 20
124.483779083932
 30
0.0
 10
885.1761168319029
 20
125.4020213349275
 30
0.0
  0
ARC
  5
5F09
330
26
100
AcDbEntity
  8
0
  6
Continuous
100
AcDbCircle
 10
904.8467698916591
 20
102.4372975153275
 30
0.0
 40
2.0
100
AcDbArc
 50
315.0000000003034
 51
335.9800169195004
  0
ARC
  5
5F0A
330
26
100
AcDbEntity
  8
0
  6
Continuous
100
AcDbCircle
 10
909.4137876132591
 20
100.4020213349275
 30
0.0
 40
3.0
100
AcDbArc
 50
90.00000000000003
 51
155.9800169194996
  0
ARC
  5
5F0B
330
26
100
AcDbEntity
  8
0
  6
Continuous
100
AcDbCircle
 10
880.1780406206589
 20
99.70202133492751
 30
0.0
 40
0.6
100
AcDbArc
 50
180.0
 51
270.0
  0
ARC
  5
5F0C
330
26
100
AcDbEntity
  8
0
  6
Continuous
100
AcDbCircle
 10
880.8459898130591
 20
96.10202133492756
 30
0.0
 40
3.0
100
AcDbArc
 50
30.00000000000053
 51
90.00000000000003
  0
ARC
  5
5F0D
330
26
100
AcDbEntity
  8
0
  6
Continuous
100
AcDbCircle
 10
887.196842774159
 20
95.10202133492754
 30
0.0
 40
2.0
100
AcDbArc
 50
210.0000000000012
 51
270.0
  0
ARC
  5
5F0E
330
26
100
AcDbEntity
  8
0
  6
Continuous
100
AcDbCircle
 10
904.1780406206589
 20
97.20920101192753
 30
0.0
 40
0.4
100
AcDbArc
 50
330.0000000032016
 51
0.0
  0
LWPOLYLINE
  5
5F0F
330
26
100
AcDbEntity
  8
0
  6
Continuous
100
AcDbPolyline
 90
        5
 70
     0
 43
0.0
 10
887.196842774159
 20
93.12558382732755
 10
886.679101007359
 20
93.19371022402753
 10
886.1966324042591
 20
93.39345893922751
 10
885.7823956853589
 20
93.71117633482754
 10
885.4647919665589
 20
94.12485433832757
  0
LINE
  5
5F10
330
26
100
AcDbEntity
  8
0
  6
Continuous
100
AcDbLine
 10
902.268639543859
 20
93.10202133492754
 30
0.0
 11
887.196842774159
 21
93.10202133492754
 31
0.0
  0
LINE
  5
5F11
330
26
100
AcDbEntity
  8
0
  6
Continuous
100
AcDbLine
 10
902.268639543859
 20
93.12558382732755
 30
0.0
 11
887.196842774159
 21
93.12558382732755
 31
0.0
  0
LINE
  5
5F12
330
26
100
AcDbEntity
  8
0
  6
Continuous
100
AcDbLine
 10
902.3941844903591
 20
93.39207404182753
 30
0.0
 11
887.195792074559
 21
93.39207404182753
 31
0.0
  0
LINE
  5
5F13
330
26
100
AcDbEntity
  8
0
  6
Continuous
100
AcDbLine
 10
880.1780406206589
 20
99.10202133492754
 30
0.0
 11
880.8459898130591
 21
99.10202133492754
 31
0.0
  0
LINE
  5
5F14
330
26
100
AcDbEntity
  8
0
  6
Continuous
100
AcDbLine
 10
904.578040620659
 20
99.40202133492755
 30
0.0
 11
904.639920835959
 21
99.40202133492755
 31
0.0
  0
LINE
  5
5F15
330
26
100
AcDbEntity
  8
0
  6
Continuous
100
AcDbLine
 10
904.578040620659
 20
101.1020213349275
 30
0.0
 11
906.335741859759
 21
101.1020213349275
 31
0.0
  0
LINE
  5
5F16
330
26
100
AcDbEntity
  8
0
  6
Continuous
100
AcDbLine
 10
909.4137876132591
 20
103.4020213349275
 30
0.0
 11
913.139920835959
 21
103.4020213349275
 31
0.0
  0
LWPOLYLINE
  5
5F17
330
26
100
AcDbEntity
  8
0
  6
Continuous
100
AcDbPolyline
 90
        5
 70
     0
 43
0.0
 10
887.196842774159
 20
108.1955393355275
 10
886.679204683959
 20
108.2318425340275
 10
886.196842774159
 20
108.3382781267275
 10
885.7826292117591
 20
108.5075927037275
 10
885.4647919665589
 20
108.7282477565275
  0
LINE
  5
5F18
330
26
100
AcDbEntity
  8
0
  6
Continuous
100
AcDbLine
 10
887.196333526259
 20
107.5289053700275
 30
0.0
 11
902.3941844903591
 21
107.5289053700275
 31
0.0
  0
LINE
  5
5F19
330
26
100
AcDbEntity
  8
0
  6
Continuous
100
AcDbLine
 10
887.196842774159
 20
108.1955393355275
 30
0.0
 11
902.268639543859
 21
108.1955393355275
 31
0.0
  0
LWPOLYLINE
  5
5F1A
330
26
100
AcDbEntity
  8
0
  6
Continuous
100
AcDbPolyline
 90
        5
 70
     0
 43
0.0
 10
887.196842774159
 20
110.3320658267275
 10
886.679101007359
 20
110.3638742246275
 10
886.1966324042591
 20
110.4571374372275
 10
885.7823956853589
 20
110.6054805439275
 10
885.4647919665589
 20
110.7986279167275
  0
LINE
  5
5F1B
330
26
100
AcDbEntity
  8
0
  6
Continuous
100
AcDbLine
 10
902.268639543859
 20
110.3320658267275
 30
0.0
 11
887.196842774159
 21
110.3320658267275
 31
0.0
  0
LINE
  5
5F1C
330
26
100
AcDbEntity
  8
0
  6
Continuous
100
AcDbLine
 10
902.3941844903591
 20
111.2651900068275
 30
0.0
 11
887.196457950459
 21
111.2651900068275
 31
0.0
  0
LINE
  5
5F1D
330
26
100
AcDbEntity
  8
0
  6
Continuous
100
AcDbLine
 10
904.639920835959
 20
99.40202133492755
 30
0.0
 11
906.2609834539591
 21
101.0230839529275
 31
0.0
  0
LINE
  5
5F1E
330
26
100
AcDbEntity
  8
0
  6
Continuous
100
AcDbLine
 10
887.196842773959
 20
111.2651900042275
 30
0.0
 11
885.4647919639589
 21
110.7986279185275
 31
0.0
  0
LINE
  5
5F1F
330
26
100
AcDbEntity
  8
0
  6
Continuous
100
AcDbLine
 10
902.268639543859
 20
93.10202133492754
 30
0.0
 11
904.5244507821589
 21
97.00920101192753
 31
0.0
  0
LINE
  5
5F20
330
26
100
AcDbEntity
  8
0
  6
Continuous
100
AcDbLine
 10
909.4137876132591
 20
103.4020213349275
 30
0.0
 11
909.4137876132591
 21
125.4020213349275
 31
0.0
  0
LINE
  5
5F21
330
26
100
AcDbEntity
  8
0
  6
Continuous
100
AcDbLine
 10
906.6735769802589
 20
101.6231870431275
 30
0.0
 11
906.673576980259
 21
125.4020213349275
 31
0.0
  0
LINE
  5
5F22
330
26
100
AcDbEntity
  8
0
  6
Continuous
100
AcDbLine
 10
906.3357425980591
 20
101.1020220978275
 30
0.0
 11
906.3357425980591
 21
125.4020213349275
 31
0.0
  0
LINE
  5
5F23
330
26
100
AcDbEntity
  8
0
  6
Continuous
100
AcDbLine
 10
906.2609834539591
 20
125.4020213349275
 30
0.0
 11
906.2609834539591
 21
101.0230839529275
 31
0.0
  0
LINE
  5
5F24
330
26
100
AcDbEntity
  8
0
  6
Continuous
100
AcDbLine
 10
904.639920835959
 20
125.4020213349275
 30
0.0
 11
904.639920835959
 21
99.40202133492755
 31
0.0
  0
LINE
  5
5F25
330
26
100
AcDbEntity
  8
0
  6
Continuous
100
AcDbLine
 10
904.578040620659
 20
97.20920101192753
 30
0.0
 11
904.578040620659
 21
125.4020213349275
 31
0.0
  0
LINE
  5
5F26
330
26
100
AcDbEntity
  8
0
  6
Continuous
100
AcDbLine
 10
904.5244507821589
 20
97.00920101192753
 30
0.0
 11
904.5244507821591
 21
125.4020213349275
 31
0.0
  0
LINE
  5
5F27
330
26
100
AcDbEntity
  8
0
  6
Continuous
100
AcDbLine
 10
902.268639543859
 20
108.1955393355275
 30
0.0
 11
902.268639543859
 21
110.3320658267275
 31
0.0
  0
LINE
  5
5F28
330
26
100
AcDbEntity
  8
0
  6
Continuous
100
AcDbLine
 10
902.268639543859
 20
93.10202133492754
 30
0.0
 11
902.268639543859
 21
93.12558382732755
 31
0.0
  0
LINE
  5
5F29
330
26
100
AcDbEntity
  8
0
  6
Continuous
100
AcDbLine
 10
887.196842774159
 20
107.5289053700275
 30
0.0
 11
887.196842774159
 21
111.2651900068275
 31
0.0
  0
LINE
  5
5F2A
330
26
100
AcDbEntity
  8
0
  6
Continuous
100
AcDbLine
 10
887.196842774159
 20
93.10202133492754
 30
0.0
 11
887.196842774159
 21
93.39207404182753
 31
0.0
  0
LINE
  5
5F2B
330
26
100
AcDbEntity
  8
0
  6
Continuous
100
AcDbLine
 10
883.444066024359
 20
97.60202133492754
 30
0.0
 11
883.444066024359
 21
125.4020213349275
 31
0.0
  0
LINE
  5
5F2C
330
26
100
AcDbEntity
  8
0
  6
Continuous
100
AcDbLine
 10
885.4647919665589
 20
108.7273061980275
 30
0.0
 11
885.4647919665589
 21
110.7997926746275
 31
0.0
  0
LINE
  5
5F2D
330
26
100
AcDbEntity
  8
0
  6
Continuous
100
AcDbLine
 10
885.4647919665589
 20
94.10202133492754
 30
0.0
 11
885.4647919665589
 21
94.12486474502754
 31
0.0
  0
LINE
  5
5F2E
330
26
100
AcDbEntity
  8
0
  6
Continuous
100
AcDbLine
 10
883.444066024359
 20
97.60202133492754
 30
0.0
 11
885.4647919665589
 21
94.10202133492754
 31
0.0
  0
LINE
  5
5F2F
330
26
100
AcDbEntity
  8
0
  6
Continuous
100
AcDbLine
 10
880.8459898130591
 20
99.10202133492754
 30
0.0
 11
880.8459898130589
 21
125.4020213349275
 31
0.0
  0
LINE
  5
5F30
330
26
100
AcDbEntity
  8
0
  6
Continuous
100
AcDbLine
 10
880.1780406206589
 20
125.4020213349275
 30
0.0
 11
880.1780406206589
 21
99.10202133492754
 31
0.0
  0
LINE
  5
5F31
330
26
100
AcDbEntity
  8
0
  6
Continuous
100
AcDbLine
 10
879.578040620659
 20
99.70202133492751
 30
0.0
 11
879.5780406206592
 21
125.4020213349275
 31
0.0
  0
LINE
  5
5F32
330
26
100
AcDbEntity
  8
0
  6
Continuous
100
AcDbLine
 10
909.4137876132591
 20
103.4020213349275
 30
0.0
 11
916.5078700284593
 21
103.4020213349275
 31
0.0
  0
ENDSEC
  0
SECTION
  2
OBJECTS
  0
DICTIONARY
  5
593
330
0
100
AcDbDictionary
281
     1
  3
ACAD_COLOR
350
618
  3
ACAD_GROUP
350
594
  3
ACAD_LAYOUT
350
619
  3
ACAD_MATERIAL
350
617
  3
ACAD_MLINESTYLE
350
595
  3
ACAD_PLOTSETTINGS
350
61A
  3
ACAD_PLOTSTYLENAME
350
615
  3
AcadDim
350
3268
  3
ACDBHEADERROUNDTRIPXREC
350
5F3C
  3
AcDbVariableDictionary
350
5F34
  0
DICTIONARY
  5
618
102
{ACAD_REACTORS
330
593
102
}
330
593
100
AcDbDictionary
281
     1
  0
DICTIONARY
  5
594
102
{ACAD_REACTORS
330
593
102
}
330
593
100
AcDbDictionary
281
     1
  0
DICTIONARY
  5
619
102
{ACAD_REACTORS
330
593
102
}
330
593
100
AcDbDictionary
281
     1
  3
Layout1
350
61C
  3
Model
350
61B
  0
DICTIONARY
  5
617
102
{ACAD_REACTORS
330
593
102
}
330
593
100
AcDbDictionary
281
     1
  0
DICTIONARY
  5
595
102
{ACAD_REACTORS
330
593
102
}
330
593
100
AcDbDictionary
281
     1
  3
STANDARD
350
596
  0
DICTIONARY
  5
61A
102
{ACAD_REACTORS
330
593
102
}
330
593
100
AcDbDictionary
281
     1
  0
ACDBDICTIONARYWDFLT
  5
615
102
{ACAD_REACTORS
330
593
102
}
330
593
100
AcDbDictionary
281
     1
  3
Normal
350
616
100
AcDbDictionaryWithDefault
340
616
  0
XRECORD
  5
3268
102
{ACAD_REACTORS
330
593
102
}
330
593
100
AcDbXrecord
280
     1
 90
   990106
  3

 60
     0
 61
     0
 62
     1
 63
     3
 64
     0
 65
     0
 66
     0
 67
     3
 68
     1
 69
     0
 70
     0
 71
     0
 72
     0
 40
25.0445657995416
170
     0
  0
DICTIONARY
  5
5F3C
102
{ACAD_REACTORS
330
593
102
}
330
593
100
AcDbDictionary
281
     1
  3
COLORDICT
350
5F3D
  3
MATERIALDICT
350
5F3E
  0
DICTIONARY
  5
5F34
102
{ACAD_REACTORS
330
593
102
}
330
593
100
AcDbDictionary
281
     1
  0
LAYOUT
  5
61C
102
{ACAD_REACTORS
330
619
102
}
330
619
100
AcDbPlotSettings
  1

  2
\\alderaan\HP LaserJet 4050 Ricerca
  4

  6

 40
0.0
 41
0.0
 42
0.0
 43
0.0
 44
0.0
 45
0.0
 46
0.0
 47
0.0
 48
0.0
 49
0.0
140
0.0
141
0.0
142
1.0
143
1.0
 70
   688
 72
     0
 73
     0
 74
     5
  7

 75
    16
147
1.0
148
0.0
149
0.0
100
AcDbLayout
  1
Layout1
 70
     0
 71
     1
 10
0.0
 20
0.0
 11
12.0
 21
9.0
 12
0.0
 22
0.0
 32
0.0
 14
1.000000000000000E+20
 24
1.000000000000000E+20
 34
1.000000000000000E+20
 15
-1.000000000000000E+20
 25
-1.000000000000000E+20
 35
-1.000000000000000E+20
146
0.0
 13
0.0
 23
0.0
 33
0.0
 16
1.0
 26
0.0
 36
0.0
 17
0.0
 27
1.0
 37
0.0
 76
     0
330
27
  0
LAYOUT
  5
61B
102
{ACAD_REACTORS
330
619
102
}
330
619
100
AcDbPlotSettings
  1

  2
\\alderaan\HP LaserJet 4050 Ricerca
  4
A4
  6

 40
5.027083396911621
 41
5.069430828094482
 42
5.365737915039062
 43
5.365753173828125
 44
209.8886566162109
 45
297.0530090332031
 46
0.254
 47
0.0
 48
259.215225634116
 49
-488.3976836719121
140
1317.037973125747
141
245.6809236204426
142
1.0
143
93.74398742770123
 70
 11956
 72
     0
 73
     1
 74
     4
  7

 75
     0
147
0.0106673508076583
148
-6584.066731106545
149
12405.30116526656
100
AcDbLayout
  1
Model
 70
     1
 71
     0
 10
0.0
 20
0.0
 11
12.0
 21
9.0
 12
0.0
 22
0.0
 32
0.0
 14
0.0
 24
0.0
 34
0.0
 15
0.0
 25
0.0
 35
0.0
146
0.0
 13
0.0
 23
0.0
 33
0.0
 16
1.0
 26
0.0
 36
0.0
 17
0.0
 27
1.0
 37
0.0
 76
     0
330
26
  0
MLINESTYLE
  5
596
102
{ACAD_REACTORS
330
595
102
}
330
595
100
AcDbMlineStyle
  2
STANDARD
 70
     0
  3

 62
     0
 51
90.00000000000019
 52
90.00000000000019
 71
     2
 49
0.5
 62
   256
  6
BYLAYER
 49
-0.5
 62
   256
  6
BYLAYER
  0
ACDBPLACEHOLDER
  5
616
102
{ACAD_REACTORS
330
615
102
}
330
615
  0
XRECORD
  5
5F3D
102
{ACAD_REACTORS
330
5F3C
102
}
330
5F3C
100
AcDbXrecord
280
     1
340
618
  0
XRECORD
  5
5F3E
102
{ACAD_REACTORS
330
5F3C
102
}
330
5F3C
100
AcDbXrecord
280
     1
340
617
  0
ENDSEC
  0
EOF
