  0
SECTION
  2
HEADER
  9
$ACADVER
  1
AC1015
  9
$ACADMAINTVER
 70
     6
  9
$DWGCODEPAGE
  3
ANSI_1252
  9
$INSBASE
 10
0.0
 20
0.0
 30
0.0
  9
$EXTMIN
 10
2747.116518310379
 20
2014.268558953097
 30
0.0
  9
$EXTMAX
 10
3824.348813189383
 20
2534.66547266636
 30
274.0
  9
$LIMMIN
 10
0.0
 20
0.0
  9
$LIMMAX
 10
594.0
 20
420.0
  9
$ORTHOMODE
 70
     0
  9
$REGENMODE
 70
     1
  9
$FILLMODE
 70
     1
  9
$QTEXTMODE
 70
     0
  9
$MIRRTEXT
 70
     1
  9
$LTSCALE
 40
32.67
  9
$ATTMODE
 70
     1
  9
$TEXTSIZE
 40
0.2
  9
$TRACEWID
 40
0.05
  9
$TEXTSTYLE
  7
STANDARD
  9
$CLAYER
  8
0
  9
$CELTYPE
  6
BYLAYER
  9
$CECOLOR
 62
   256
  9
$CELTSCALE
 40
1.0
  9
$DISPSILH
 70
     0
  9
$DIMSCALE
 40
2.0
  9
$DIMASZ
 40
3.0
  9
$DIMEXO
 40
3.712499999999999
  9
$DIMDLI
 40
22.572
  9
$DIMRND
 40
0.0
  9
$DIMDLE
 40
0.0
  9
$DIMEXE
 40
10.692
  9
$DIMTP
 40
0.003
  9
$DIMTM
 40
0.003
  9
$DIMTXT
 40
1.5
  9
$DIMCEN
 40
5.346
  9
$DIMTSZ
 40
0.0
  9
$DIMTOL
 70
     1
  9
$DIMLIM
 70
     0
  9
$DIMTIH
 70
     1
  9
$DIMTOH
 70
     1
  9
$DIMSE1
 70
     0
  9
$DIMSE2
 70
     0
  9
$DIMTAD
 70
     0
  9
$DIMZIN
 70
     0
  9
$DIMBLK
  1

  9
$DIMASO
 70
     1
  9
$DIMSHO
 70
     1
  9
$DIMPOST
  1

  9
$DIMAPOST
  1

  9
$DIMALT
 70
     0
  9
$DIMALTD
 70
     2
  9
$DIMALTF
 40
25.4
  9
$DIMLFAC
 40
0.5
  9
$DIMTOFL
 70
     0
  9
$DIMTVP
 40
0.0
  9
$DIMTIX
 70
     0
  9
$DIMSOXD
 70
     0
  9
$DIMSAH
 70
     0
  9
$DIMBLK1
  1

  9
$DIMBLK2
  1

  9
$DIMSTYLE
  2
STANDARD
  9
$DIMCLRD
 70
     0
  9
$DIMCLRE
 70
     0
  9
$DIMCLRT
 70
     0
  9
$DIMTFAC
 40
1.0
  9
$DIMGAP
 40
0.09
  9
$DIMJUST
 70
     0
  9
$DIMSD1
 70
     0
  9
$DIMSD2
 70
     0
  9
$DIMTOLJ
 70
     1
  9
$DIMTZIN
 70
     0
  9
$DIMALTZ
 70
     0
  9
$DIMALTTZ
 70
     0
  9
$DIMUPT
 70
     0
  9
$DIMDEC
 70
     4
  9
$DIMTDEC
 70
     4
  9
$DIMALTU
 70
     2
  9
$DIMALTTD
 70
     2
  9
$DIMTXSTY
  7
STANDARD
  9
$DIMAUNIT
 70
     0
  9
$DIMADEC
 70
     0
  9
$DIMALTRND
 40
0.0
  9
$DIMAZIN
 70
     0
  9
$DIMDSEP
 70
    46
  9
$DIMATFIT
 70
     3
  9
$DIMFRAC
 70
     0
  9
$DIMLDRBLK
  1

  9
$DIMLUNIT
 70
     2
  9
$DIMLWD
 70
    -2
  9
$DIMLWE
 70
    -2
  9
$DIMTMOVE
 70
     0
  9
$LUNITS
 70
     2
  9
$LUPREC
 70
     4
  9
$SKETCHINC
 40
0.1
  9
$FILLETRAD
 40
1.0
  9
$AUNITS
 70
     0
  9
$AUPREC
 70
     0
  9
$MENU
  1
acad
  9
$ELEVATION
 40
0.0
  9
$PELEVATION
 40
0.0
  9
$THICKNESS
 40
0.0
  9
$LIMCHECK
 70
     0
  9
$CHAMFERA
 40
0.0
  9
$CHAMFERB
 40
0.0
  9
$CHAMFERC
 40
0.0
  9
$CHAMFERD
 40
0.0
  9
$SKPOLY
 70
     0
  9
$TDCREATE
 40
2444972.041666667
  9
$TDUCREATE
 40
2444972.0
  9
$TDUPDATE
 40
2453410.621180995
  9
$TDUUPDATE
 40
2453410.579514329
  9
$TDINDWG
 40
0.7055858681
  9
$TDUSRTIMER
 40
0.7055858681
  9
$USRTIMER
 70
     1
  9
$ANGBASE
 50
0.0
  9
$ANGDIR
 70
     0
  9
$PDMODE
 70
     0
  9
$PDSIZE
 40
0.0
  9
$PLINEWID
 40
0.0
  9
$SPLFRAME
 70
     0
  9
$SPLINETYPE
 70
     6
  9
$SPLINESEGS
 70
     8
  9
$HANDSEED
  5
2AFEF
  9
$SURFTAB1
 70
     6
  9
$SURFTAB2
 70
     6
  9
$SURFTYPE
 70
     6
  9
$SURFU
 70
     6
  9
$SURFV
 70
     6
  9
$UCSBASE
  2

  9
$UCSNAME
  2

  9
$UCSORG
 10
0.0
 20
0.0
 30
0.0
  9
$UCSXDIR
 10
1.0
 20
0.0
 30
0.0
  9
$UCSYDIR
 10
0.0
 20
1.0
 30
0.0
  9
$UCSORTHOREF
  2

  9
$UCSORTHOVIEW
 70
     0
  9
$UCSORGTOP
 10
0.0
 20
0.0
 30
0.0
  9
$UCSORGBOTTOM
 10
0.0
 20
0.0
 30
0.0
  9
$UCSORGLEFT
 10
0.0
 20
0.0
 30
0.0
  9
$UCSORGRIGHT
 10
0.0
 20
0.0
 30
0.0
  9
$UCSORGFRONT
 10
0.0
 20
0.0
 30
0.0
  9
$UCSORGBACK
 10
0.0
 20
0.0
 30
0.0
  9
$PUCSBASE
  2

  9
$PUCSNAME
  2

  9
$PUCSORG
 10
0.0
 20
0.0
 30
0.0
  9
$PUCSXDIR
 10
1.0
 20
0.0
 30
0.0
  9
$PUCSYDIR
 10
0.0
 20
1.0
 30
0.0
  9
$PUCSORTHOREF
  2

  9
$PUCSORTHOVIEW
 70
     0
  9
$PUCSORGTOP
 10
0.0
 20
0.0
 30
0.0
  9
$PUCSORGBOTTOM
 10
0.0
 20
0.0
 30
0.0
  9
$PUCSORGLEFT
 10
0.0
 20
0.0
 30
0.0
  9
$PUCSORGRIGHT
 10
0.0
 20
0.0
 30
0.0
  9
$PUCSORGFRONT
 10
0.0
 20
0.0
 30
0.0
  9
$PUCSORGBACK
 10
0.0
 20
0.0
 30
0.0
  9
$USERI1
 70
     0
  9
$USERI2
 70
     0
  9
$USERI3
 70
     0
  9
$USERI4
 70
     0
  9
$USERI5
 70
     0
  9
$USERR1
 40
0.0
  9
$USERR2
 40
0.0
  9
$USERR3
 40
0.0
  9
$USERR4
 40
0.0
  9
$USERR5
 40
0.0
  9
$WORLDVIEW
 70
     1
  9
$SHADEDGE
 70
     3
  9
$SHADEDIF
 70
    70
  9
$TILEMODE
 70
     1
  9
$MAXACTVP
 70
    16
  9
$PINSBASE
 10
0.0
 20
0.0
 30
0.0
  9
$PLIMCHECK
 70
     0
  9
$PEXTMIN
 10
1.000000000000000E+20
 20
1.000000000000000E+20
 30
1.000000000000000E+20
  9
$PEXTMAX
 10
-1.000000000000000E+20
 20
-1.000000000000000E+20
 30
-1.000000000000000E+20
  9
$PLIMMIN
 10
0.0
 20
0.0
  9
$PLIMMAX
 10
12.0
 20
9.0
  9
$UNITMODE
 70
     0
  9
$VISRETAIN
 70
     0
  9
$PLINEGEN
 70
     1
  9
$PSLTSCALE
 70
     0
  9
$TREEDEPTH
 70
  3020
  9
$CMLSTYLE
  2
STANDARD
  9
$CMLJUST
 70
     0
  9
$CMLSCALE
 40
1.0
  9
$PROXYGRAPHICS
 70
     1
  9
$MEASUREMENT
 70
     0
  9
$CELWEIGHT
370
    -1
  9
$ENDCAPS
280
     0
  9
$JOINSTYLE
280
     0
  9
$LWDISPLAY
290
     0
  9
$INSUNITS
 70
     0
  9
$HYPERLINKBASE
  1

  9
$STYLESHEET
  1

  9
$XEDIT
290
     1
  9
$CEPSNTYPE
380
     0
  9
$PSTYLEMODE
290
     1
  9
$FINGERPRINTGUID
  2
{CA13A069-F2C0-40A5-844C-DBDF6CEA9423}
  9
$VERSIONGUID
  2
{4BDB37A1-01F5-49C8-BF82-DD5AAB4FABC7}
  9
$EXTNAMES
290
     1
  9
$PSVPSCALE
 40
0.0
  9
$OLESTARTUP
290
     0
  0
ENDSEC
  0
SECTION
  2
CLASSES
  0
CLASS
  1
IMAGE
  2
AcDbRasterImage
  3
ISM
 90
      127
280
     0
281
     1
  0
CLASS
  1
DICTIONARYVAR
  2
AcDbDictionaryVar
  3
ObjectDBX Classes
 90
        0
280
     0
281
     0
  0
CLASS
  1
RASTERVARIABLES
  2
AcDbRasterVariables
  3
ISM
 90
        0
280
     0
281
     0
  0
CLASS
  1
IMAGEDEF
  2
AcDbRasterImageDef
  3
ISM
 90
        0
280
     0
281
     0
  0
CLASS
  1
IMAGEDEF_REACTOR
  2
AcDbRasterImageDefReactor
  3
ISM
 90
        1
280
     0
281
     0
  0
CLASS
  1
IDBUFFER
  2
AcDbIdBuffer
  3
ObjectDBX Classes
 90
        0
280
     0
281
     0
  0
CLASS
  1
SPATIAL_FILTER
  2
AcDbSpatialFilter
  3
ObjectDBX Classes
 90
        0
280
     0
281
     0
  0
CLASS
  1
SORTENTSTABLE
  2
AcDbSortentsTable
  3
ObjectDBX Classes
 90
        0
280
     0
281
     0
  0
CLASS
  1
LAYER_INDEX
  2
AcDbLayerIndex
  3
ObjectDBX Classes
 90
        0
280
     0
281
     0
  0
CLASS
  1
SPATIAL_INDEX
  2
AcDbSpatialIndex
  3
AutoCAD 2000
 90
        0
280
     0
281
     0
  0
CLASS
  1
OBJECT_PTR
  2
CAseDLPNTableRecord
  3
ASE-LPNTableRecord
 90
        1
280
     0
281
     0
  0
CLASS
  1
PLOTSETTINGS
  2
AcDbPlotSettings
  3
ObjectDBX Classes
 90
        0
280
     0
281
     0
  0
CLASS
  1
ACDBDICTIONARYWDFLT
  2
AcDbDictionaryWithDefault
  3
ObjectDBX Classes
 90
        0
280
     0
281
     0
  0
CLASS
  1
WIPEOUT
  2
AcDbWipeout
  3
WipeOut|AutoCAD Express Tool|expresstools@autodesk.com
 90
      127
280
     0
281
     1
  0
CLASS
  1
WIPEOUTVARIABLES
  2
AcDbWipeoutVariables
  3
WipeOut|AutoCAD Express Tool|expresstools@autodesk.com
 90
        0
280
     0
281
     0
  0
CLASS
  1
RTEXT
  2
RText
  3
RText|AutoCAD Express Tool|expresstools@autodesk.com
 90
        0
280
     0
281
     1
  0
CLASS
  1
ARCALIGNEDTEXT
  2
AcDbArcAlignedText
  3
ATEXT|AutoCAD Express Tool|expresstools@autodesk.com
 90
        0
280
     0
281
     1
  0
CLASS
  1
ACDBPLACEHOLDER
  2
AcDbPlaceHolder
  3
ObjectDBX Classes
 90
        0
280
     0
281
     0
  0
CLASS
  1
LAYOUT
  2
AcDbLayout
  3
ObjectDBX Classes
 90
        0
280
     0
281
     0
  0
ENDSEC
  0
SECTION
  2
TABLES
  0
TABLE
  2
VPORT
  5
8
330
0
100
AcDbSymbolTable
 70
     1
  0
VPORT
  5
2AFE3
330
8
100
AcDbSymbolTableRecord
100
AcDbViewportTableRecord
  2
*Active
 70
     0
 10
0.0
 20
0.0
 11
1.0
 21
1.0
 12
3220.354834249814
 22
2194.714829923779
 13
0.0
 23
0.0
 14
1.0
 24
1.0
 15
0.0
 25
0.0
 16
0.0
 26
0.0
 36
1.0
 17
0.0
 27
0.0
 37
0.0
 40
739.0793238523509
 41
1.888667992047713
 42
50.0
 43
0.0
 44
0.0
 50
0.0
 51
0.0
 71
     0
 72
   100
 73
     1
 74
     1
 75
     0
 76
     0
 77
     0
 78
     0
281
     0
 65
     1
110
0.0
120
0.0
130
0.0
111
1.0
121
0.0
131
0.0
112
0.0
122
1.0
132
0.0
 79
     0
146
0.0
  0
ENDTAB
  0
TABLE
  2
LTYPE
  5
5
330
0
100
AcDbSymbolTable
 70
     2
  0
LTYPE
  5
14
330
5
100
AcDbSymbolTableRecord
100
AcDbLinetypeTableRecord
  2
BYBLOCK
 70
     0
  3

 72
    65
 73
     0
 40
0.0
  0
LTYPE
  5
15
330
5
100
AcDbSymbolTableRecord
100
AcDbLinetypeTableRecord
  2
BYLAYER
 70
     0
  3

 72
    65
 73
     0
 40
0.0
  0
LTYPE
  5
16
330
5
100
AcDbSymbolTableRecord
100
AcDbLinetypeTableRecord
  2
CONTINUOUS
 70
     0
  3
Solid line
 72
    65
 73
     0
 40
0.0
  0
LTYPE
  5
1F5
330
5
100
AcDbSymbolTableRecord
100
AcDbLinetypeTableRecord
  2
CENTER
 70
     0
  3
____ _ ____ _ ____ _ ____ _ ____ _ ____ _ ____
 72
    65
 73
     4
 40
0.6
 49
0.375
 74
     0
 49
-0.075
 74
     0
 49
0.075
 74
     0
 49
-0.075
 74
     0
  0
ENDTAB
  0
TABLE
  2
LAYER
  5
2
330
0
100
AcDbSymbolTable
 70
     3
  0
LAYER
  5
10
330
2
100
AcDbSymbolTableRecord
100
AcDbLayerTableRecord
  2
0
 70
     0
 62
     7
  6
CONTINUOUS
370
    -3
390
41B
  0
LAYER
  5
1FA
330
2
100
AcDbSymbolTableRecord
100
AcDbLayerTableRecord
  2
DEFAULT_1
 70
     0
 62
     7
  6
CENTER
370
    -3
390
41B
  0
LAYER
  5
424
330
2
100
AcDbSymbolTableRecord
100
AcDbLayerTableRecord
  2
Defpoints
 70
     0
 62
     7
  6
CONTINUOUS
290
     0
370
    -3
390
41B
  0
ENDTAB
  0
TABLE
  2
STYLE
  5
3
330
0
100
AcDbSymbolTable
 70
     1
  0
STYLE
  5
11
330
3
100
AcDbSymbolTableRecord
100
AcDbTextStyleTableRecord
  2
STANDARD
 70
     0
 40
10.0
 41
1.0
 50
0.0
 71
     0
 42
0.2
  3
VERDANA.TTF
  4

1001
ACAD
1000
Verdana
1071
       34
  0
ENDTAB
  0
TABLE
  2
VIEW
  5
6
330
0
100
AcDbSymbolTable
 70
     0
  0
ENDTAB
  0
TABLE
  2
UCS
  5
7
330
0
100
AcDbSymbolTable
 70
     0
  0
ENDTAB
  0
TABLE
  2
APPID
  5
9
330
0
100
AcDbSymbolTable
 70
     1
  0
APPID
  5
20E
330
9
100
AcDbSymbolTableRecord
100
AcDbRegAppTableRecord
  2
ACAD
 70
     0
  0
ENDTAB
  0
TABLE
  2
DIMSTYLE
  5
A
330
0
100
AcDbSymbolTable
 70
     1
100
AcDbDimStyleTable
  0
DIMSTYLE
105
20F
330
A
100
AcDbSymbolTableRecord
100
AcDbDimStyleTableRecord
  2
STANDARD
 70
     0
 41
3.0
 47
0.003
 48
0.003
 71
     1
 73
     0
 74
     0
 77
     1
 78
     8
140
1.5
271
     3
272
     3
284
     8
340
11
  0
ENDTAB
  0
TABLE
  2
BLOCK_RECORD
  5
1
330
0
100
AcDbSymbolTable
 70
     0
  0
BLOCK_RECORD
  5
1B
330
1
100
AcDbSymbolTableRecord
100
AcDbBlockTableRecord
  2
*MODEL_SPACE
340
420
  0
BLOCK_RECORD
  5
1C
330
1
100
AcDbSymbolTableRecord
100
AcDbBlockTableRecord
  2
*PAPER_SPACE
340
421
  0
ENDTAB
  0
ENDSEC
  0
SECTION
  2
BLOCKS
  0
BLOCK
  5
1E
330
1B
100
AcDbEntity
  8
0
100
AcDbBlockBegin
  2
*MODEL_SPACE
 70
     0
 71
     0
 10
0.0
 20
0.0
 30
0.0
  3
*MODEL_SPACE
  1

  0
ENDBLK
  5
1F
330
1B
100
AcDbEntity
  8
0
100
AcDbBlockEnd
  0
BLOCK
  5
20
330
1C
100
AcDbEntity
 67
     1
  8
0
100
AcDbBlockBegin
  2
*PAPER_SPACE
 70
     0
 71
     0
 10
0.0
 20
0.0
 30
0.0
  3
*PAPER_SPACE
  1

  0
ENDBLK
  5
21
330
1C
100
AcDbEntity
 67
     1
  8
0
100
AcDbBlockEnd
  0
ENDSEC
  0
SECTION
  2
ENTITIES
  0
SPLINE
  5
478C
330
1B
100
AcDbEntity
  8
0
  6
Continuous
100
AcDbSpline
210
0.0
220
0.0
230
1.0
 70
     8
 71
     3
 72
    13
 73
     9
 74
     7
 42
0.0000000001
 43
0.0000000001
 44
0.0000000001
 40
0.0
 40
0.0
 40
0.0
 40
0.0
 40
0.3550429850174292
 40
0.6821317076050335
 40
0.9848167780465561
 40
1.264005291537619
 40
1.519894561746253
 40
1.753358563240101
 40
1.753358563240101
 40
1.753358563240101
 40
1.753358563240101
 10
3591.376613099071
 20
2249.222224407928
 30
0.0
 10
3591.258265413269
 20
2249.222150107451
 30
0.0
 10
3591.03088813104
 20
2249.222007356534
 30
0.0
 10
3590.702617276725
 20
2249.22096175602
 30
0.0
 10
3590.399632534763
 20
2249.219686829956
 30
0.0
 10
3590.120380902497
 20
2249.21848003818
 30
0.0
 10
3589.86420173638
 20
2249.217560601332
 30
0.0
 10
3589.70108397167
 20
2249.21741863432
 30
0.0
 10
3589.62326263427
 20
2249.217350903728
 30
0.0
 11
3591.376613099071
 21
2249.222224407928
 31
0.0
 11
3591.021570317871
 21
2249.221843976928
 31
0.0
 11
3590.69448302187
 21
2249.220877934128
 31
0.0
 11
3590.391800450671
 21
2249.219647909528
 31
0.0
 11
3590.112614371471
 21
2249.218482042328
 31
0.0
 11
3589.856726437671
 21
2249.217655033528
 31
0.0
 11
3589.62326263427
 21
2249.217350903728
 31
0.0
  0
SPLINE
  5
478E
330
1B
100
AcDbEntity
  8
0
  6
Continuous
100
AcDbSpline
210
0.0
220
0.0
230
1.0
 70
     8
 71
     3
 72
    13
 73
     9
 74
     7
 42
0.0000000001
 43
0.0000000001
 44
0.0000000001
 40
0.0
 40
0.0
 40
0.0
 40
0.0
 40
0.3658156786061526
 40
0.6963835657740429
 40
0.9918630323044522
 40
1.25101037740848
 40
1.475535708723658
 40
1.668491373150668
 40
1.668491373150668
 40
1.668491373150668
 40
1.668491373150668
 10
3591.727869739871
 20
2249.919440230128
 30
0.0
 10
3591.605895802532
 20
2249.921995104896
 30
0.0
 10
3591.373700600459
 20
2249.926858682116
 30
0.0
 10
3591.044879053273
 20
2249.965548622588
 30
0.0
 10
3590.754673401725
 20
2250.019865061777
 30
0.0
 10
3590.502818730013
 20
2250.083854359438
 30
0.0
 10
3590.286953826142
 20
2250.149451186237
 30
0.0
 10
3590.155443110898
 20
2250.194978605982
 30
0.0
 10
3590.094660134671
 20
2250.216020937528
 30
0.0
 11
3591.727869739871
 21
2249.919440230128
 31
0.0
 11
3591.362315144271
 21
2249.933258636328
 31
0.0
 11
3591.03388807647
 21
2249.970819109728
 31
0.0
 11
3590.743486559071
 21
2250.025363347127
 31
0.0
 11
3590.492212234871
 21
2250.088755463928
 31
0.0
 11
3590.277367591871
 21
2250.153973588528
 31
0.0
 11
3590.094660134671
 21
2250.216020937528
 31
0.0
  0
SPLINE
  5
4791
330
1B
100
AcDbEntity
  8
0
  6
Continuous
100
AcDbSpline
210
0.0
220
0.0
230
1.0
 70
     8
 71
     3
 72
    12
 73
     8
 74
     6
 42
0.0000000001
 43
0.0000000001
 44
0.0000000001
 40
0.0
 40
0.0
 40
0.0
 40
0.0
 40
0.2999107097773069
 40
0.5795392915322911
 40
0.822206645924807
 40
1.019533094091268
 40
1.179155144565548
 40
1.179155144565548
 40
1.179155144565548
 40
1.179155144565548
 10
3590.094658502471
 20
2250.216005378528
 30
0.0
 10
3590.090421837208
 20
2250.116012291971
 30
0.0
 10
3590.082235020581
 20
2249.922788373477
 30
0.0
 10
3590.017401961967
 20
2249.653599991603
 30
0.0
 10
3589.918427997379
 20
2249.436172017963
 30
0.0
 10
3589.790814821162
 20
2249.270055004095
 30
0.0
 10
3589.675036827899
 20
2249.23363664937
 30
0.0
 10
3589.62326263427
 20
2249.217350903728
 30
0.0
 11
3590.094658502471
 21
2250.216005378528
 31
0.0
 11
3590.071902801471
 21
2249.916959208328
 31
0.0
 11
3590.00570206307
 21
2249.645279974728
 31
0.0
 11
3589.902115550271
 21
2249.425832306128
 31
0.0
 11
3589.770624135871
 21
2249.278700613128
 31
0.0
 11
3589.62326263427
 21
2249.217350903728
 31
0.0
  0
SPLINE
  5
479A
330
1B
100
AcDbEntity
  8
0
  6
Continuous
100
AcDbSpline
210
0.0
220
0.0
230
1.0
 70
     8
 71
     3
 72
    13
 73
     9
 74
     7
 42
0.0000000001
 43
0.0000000001
 44
0.0000000001
 40
0.0
 40
0.0
 40
0.0
 40
0.0
 40
0.0087777667468185
 40
0.0325742031238201
 40
0.068961580648398
 40
0.1140500829732474
 40
0.1633331402206735
 40
0.2131649127131262
 40
0.2131649127131262
 40
0.2131649127131262
 40
0.2131649127131262
 10
3613.504092685471
 20
2249.217350903728
 30
0.0
 10
3613.501168511376
 20
2249.217452034354
 30
0.0
 10
3613.490316931051
 20
2249.217827329077
 30
0.0
 10
3613.467344133032
 20
2249.218640723666
 30
0.0
 10
3613.43227124103
 20
2249.219765807923
 30
0.0
 10
3613.388701369573
 20
2249.2209602448
 30
0.0
 10
3613.340642850838
 20
2249.221981276661
 30
0.0
 10
3613.30760445025
 20
2249.222143065078
 30
0.0
 10
3613.29099379707
 20
2249.222224407128
 30
0.0
 11
3613.504092685471
 21
2249.217350903728
 31
0.0
 11
3613.495320185871
 21
2249.217654942928
 31
0.0
 11
3613.47153811907
 21
2249.218481794128
 31
0.0
 11
3613.435169421271
 21
2249.219647582928
 31
0.0
 11
3613.390097701671
 21
2249.220877678128
 31
0.0
 11
3613.340824116671
 21
2249.221843883528
 31
0.0
 11
3613.29099379707
 21
2249.222224407128
 31
0.0
  0
SPLINE
  5
479C
330
1B
100
AcDbEntity
  8
0
  6
Continuous
100
AcDbSpline
210
0.0
220
0.0
230
1.0
 70
     8
 71
     3
 72
    12
 73
     8
 74
     6
 42
0.0000000001
 43
0.0000000001
 44
0.0000000001
 40
0.0
 40
0.0
 40
0.0
 40
0.0
 40
0.3025063495294344
 40
0.6050371131133117
 40
0.9075676590829578
 40
1.210098051560597
 40
1.512628472471519
 40
1.512628472471519
 40
1.512628472471519
 40
1.512628472471519
 10
3612.556433990471
 20
2250.216005362728
 30
0.0
 10
3612.565374762914
 20
2250.114810725451
 30
0.0
 10
3612.583257029372
 20
2249.91241328389
 30
0.0
 10
3612.723642294466
 20
2249.636155997611
 30
0.0
 10
3612.933775649531
 20
2249.414709042494
 30
0.0
 10
3613.202305574937
 20
2249.260038544866
 30
0.0
 10
3613.403496978808
 20
2249.231580117887
 30
0.0
 10
3613.504092685471
 20
2249.217350903728
 30
0.0
 11
3612.556433990471
 21
2250.216005362728
 31
0.0
 11
3612.602181448871
 21
2249.916978170728
 31
0.0
 11
3612.735266401671
 21
2249.645292215528
 31
0.0
 11
3612.943508465471
 21
2249.425838406928
 31
0.0
 11
3613.207848436271
 21
2249.278702353528
 31
0.0
 11
3613.504092685471
 21
2249.217350903728
 31
0.0
  0
SPLINE
  5
479D
330
1B
100
AcDbEntity
  8
0
  6
Continuous
100
AcDbSpline
210
0.0
220
0.0
230
1.0
 70
     8
 71
     3
 72
    12
 73
     8
 74
     6
 42
0.0000000001
 43
0.0000000001
 44
0.0000000001
 40
0.0
 40
0.0
 40
0.0
 40
0.0
 40
0.0447970987903533
 40
0.1121750589525575
 40
0.1751090165780656
 40
0.2295489502650899
 40
0.2786959343039286
 40
0.2786959343039286
 40
0.2786959343039286
 40
0.2786959343039286
 10
3612.547751906471
 20
2250.132369563928
 30
0.0
 10
3612.544573372074
 20
2250.117780353105
 30
0.0
 10
3612.536614100314
 20
2250.081247951937
 30
0.0
 10
3612.516776027527
 20
2250.025874552638
 30
0.0
 10
3612.487124987649
 20
2249.972276386357
 30
0.0
 10
3612.447965909557
 20
2249.928989588319
 30
0.0
 10
3612.413181932148
 20
2249.922513122448
 30
0.0
 10
3612.396678616671
 20
2249.919440352528
 30
0.0
 11
3612.547751906471
 21
2250.132369563928
 31
0.0
 11
3612.537458927471
 21
2250.088771001528
 31
0.0
 11
3612.51462817367
 21
2250.025378997328
 31
0.0
 11
3612.483242129071
 21
2249.970829943928
 31
0.0
 11
3612.443841971671
 21
2249.933262218728
 31
0.0
 11
3612.396678616671
 21
2249.919440352528
 31
0.0
  0
SPLINE
  5
479E
330
1B
100
AcDbEntity
  8
0
  6
Continuous
100
AcDbSpline
210
0.0
220
0.0
230
1.0
 70
     8
 71
     3
 72
     9
 73
     5
 74
     3
 42
0.0000000001
 43
0.0000000001
 44
0.0000000001
 40
0.0
 40
0.0
 40
0.0
 40
0.0
 40
0.0214397652277076
 40
0.0433606584366421
 40
0.0433606584366421
 40
0.0433606584366421
 40
0.0433606584366421
 10
3612.55407891067
 20
2250.175256175928
 30
0.0
 10
3612.553263019346
 20
2250.168154297908
 30
0.0
 10
3612.551612927349
 20
2250.153791169216
 30
0.0
 10
3612.54904839873
 20
2250.13956272509
 30
0.0
 10
3612.547751906471
 20
2250.132369563928
 30
0.0
 11
3612.55407891067
 21
2250.175256175928
 31
0.0
 11
3612.551407672671
 21
2250.153983469928
 31
0.0
 11
3612.547751906471
 21
2250.132369563928
 31
0.0
  0
SPLINE
  5
479F
330
1B
100
AcDbEntity
  8
0
  6
Continuous
100
AcDbSpline
210
0.0
220
0.0
230
1.0
 70
    24
 71
     3
 72
     8
 73
     4
 74
     2
 42
0.0000000001
 43
0.0000000001
 44
0.0000000001
 40
0.0
 40
0.0
 40
0.0
 40
0.0
 40
0.040841835473108
 40
0.040841835473108
 40
0.040841835473108
 40
0.040841835473108
 10
3612.556430815871
 20
2250.216030237128
 30
0.0
 10
3612.555646847471
 20
2250.202438883394
 30
0.0
 10
3612.55486287907
 20
2250.188847529661
 30
0.0
 10
3612.55407891067
 20
2250.175256175928
 30
0.0
 11
3612.556430815871
 21
2250.216030237128
 31
0.0
 11
3612.55407891067
 21
2250.175256175928
 31
0.0
  0
SPLINE
  5
47A1
330
1B
100
AcDbEntity
  8
0
  6
Continuous
100
AcDbSpline
210
0.0
220
0.0
230
1.0
 70
     8
 71
     3
 72
    11
 73
     7
 74
     5
 42
0.0000000001
 43
0.0000000001
 44
0.0000000001
 40
0.0
 40
0.0
 40
0.0
 40
0.0
 40
0.4013355549437489
 40
0.7882890559933335
 40
1.147839926958265
 40
1.30074242523533
 40
1.30074242523533
 40
1.30074242523533
 40
1.30074242523533
 10
3582.568963817071
 20
2263.167387870728
 30
0.0
 10
3582.568578482742
 20
2263.301167002909
 30
0.0
 10
3582.567821622723
 20
2263.563931227308
 30
0.0
 10
3582.562354625095
 20
2263.946509795819
 30
0.0
 10
3582.557940697478
 20
2264.246279833607
 30
0.0
 10
3582.556365040374
 20
2264.417090597756
 30
0.0
 10
3582.555894906071
 20
2264.468056000929
 30
0.0
 11
3582.568963817071
 21
2263.167387870728
 31
0.0
 11
3582.567030807071
 21
2263.568718770528
 31
0.0
 11
3582.562195078271
 21
2263.955642054528
 31
0.0
 11
3582.557388928071
 21
2264.315160801928
 31
0.0
 11
3582.555894906071
 21
2264.468056000929
 31
0.0
  0
SPLINE
  5
47A3
330
1B
100
AcDbEntity
  8
0
  6
Continuous
100
AcDbSpline
210
0.0
220
0.0
230
1.0
 70
     8
 71
     3
 72
    14
 73
    10
 74
     8
 42
0.0000000001
 43
0.0000000001
 44
0.0000000001
 40
0.0
 40
0.0
 40
0.0
 40
0.0
 40
0.2007306156133427
 40
0.3939083082846452
 40
0.5758790268653392
 40
0.7434592069999066
 40
0.8995603046166859
 40
1.057588523718041
 40
1.242636651340967
 40
1.242636651340967
 40
1.242636651340967
 40
1.242636651340967
 10
3612.044870524871
 20
2263.167387789528
 30
0.0
 10
3612.04583134481
 20
2263.234329610804
 30
0.0
 10
3612.047716831761
 20
2263.365694422751
 30
0.0
 10
3612.029167540537
 20
2263.55719940962
 30
0.0
 10
3611.991642779954
 20
2263.734665354689
 30
0.0
 10
3611.928337104416
 20
2263.892367679874
 30
0.0
 10
3611.829356370834
 20
2264.021961840341
 30
0.0
 10
3611.680662123014
 20
2264.110010197544
 30
0.0
 10
3611.564808660055
 20
2264.114782617376
 30
0.0
 10
3611.502319751671
 20
2264.117356759728
 30
0.0
 11
3612.044870524871
 21
2263.167387789528
 31
0.0
 11
3612.043968570071
 21
2263.368116378728
 31
0.0
 11
3612.025132920671
 21
2263.560373600328
 31
0.0
 11
3611.985337633471
 21
2263.737939581128
 31
0.0
 11
3611.919934576471
 21
2263.892230076328
 31
0.0
 11
3611.822584687671
 21
2264.014256925127
 31
0.0
 11
3611.685812849871
 21
2264.093417410327
 31
0.0
 11
3611.502319751671
 21
2264.117356759728
 31
0.0
  0
SPLINE
  5
47A4
330
1B
100
AcDbEntity
  8
0
  6
Continuous
100
AcDbSpline
210
0.0
220
0.0
230
1.0
 70
     8
 71
     3
 72
    14
 73
    10
 74
     8
 42
0.0000000001
 43
0.0000000001
 44
0.0000000001
 40
0.0
 40
0.0
 40
0.0
 40
0.0
 40
0.1850464136289249
 40
0.34307535075901
 40
0.4991765358458721
 40
0.666756873746422
 40
0.8487277647072031
 40
1.041905699116024
 40
1.242636480170185
 40
1.242636480170185
 40
1.242636480170185
 40
1.242636480170185
 10
3611.502319883271
 20
2250.616674990128
 30
0.0
 10
3611.564808179917
 20
2250.619249088792
 30
0.0
 10
3611.680661245478
 20
2250.624021457974
 30
0.0
 10
3611.829355693659
 20
2250.712068943239
 30
0.0
 10
3611.928336727285
 20
2250.841663342333
 30
0.0
 10
3611.991642648291
 20
2250.999365704359
 30
0.0
 10
3612.029167501845
 20
2251.176831838645
 30
0.0
 10
3612.047716822548
 20
2251.368337014907
 30
0.0
 10
3612.045831339578
 20
2251.499701963065
 30
0.0
 10
3612.044870521871
 20
2251.566643839728
 30
0.0
 11
3611.502319883271
 21
2250.616674990128
 31
0.0
 11
3611.685811320271
 21
2250.640613823528
 31
0.0
 11
3611.822584094071
 21
2250.719774124927
 31
0.0
 11
3611.919934193071
 21
2250.841800917928
 31
0.0
 11
3611.985337467471
 21
2250.996091492328
 31
0.0
 11
3612.025132866471
 21
2251.173657624728
 31
0.0
 11
3612.043968557671
 21
2251.365915085128
 31
0.0
 11
3612.044870521871
 21
2251.566643839728
 31
0.0
  0
SPLINE
  5
47A5
330
1B
100
AcDbEntity
  8
0
  6
Continuous
100
AcDbSpline
210
0.0
220
0.0
230
1.0
 70
     8
 71
     3
 72
    11
 73
     7
 74
     5
 42
0.0000000001
 43
0.0000000001
 44
0.0000000001
 40
0.0
 40
0.0
 40
0.0
 40
0.0
 40
0.2425489467488739
 40
0.5699388473230567
 40
0.8450300240765227
 40
1.235666730046516
 40
1.235666730046516
 40
1.235666730046516
 40
1.235666730046516
 10
3611.50231982047
 20
2250.616680760528
 30
0.0
 10
3611.580749151996
 20
2250.638248921038
 30
0.0
 10
3611.765041532589
 20
2250.688929547381
 30
0.0
 10
3612.060698159328
 20
2250.616052442175
 30
0.0
 10
3612.289165115946
 20
2250.369855333136
 30
0.0
 10
3612.452128205016
 20
2250.220190245907
 30
0.0
 10
3612.547751906471
 20
2250.132369563927
 30
0.0
 11
3611.50231982047
 21
2250.616680760528
 31
0.0
 11
3611.740345500294
 21
2250.663304438131
 31
0.0
 11
3612.057678536271
 21
2250.582781824688
 31
0.0
 11
3612.264259280471
 21
2250.40112403748
 31
0.0
 11
3612.547751906471
 21
2250.132369563927
 31
0.0
  0
SPLINE
  5
47A7
330
1B
100
AcDbEntity
  8
0
  6
Continuous
100
AcDbSpline
210
0.0
220
0.0
230
1.0
 70
     8
 71
     3
 72
    14
 73
    10
 74
     8
 42
0.0000000001
 43
0.0000000001
 44
0.0000000001
 40
0.0
 40
0.0
 40
0.0
 40
0.0
 40
0.2018557809674428
 40
0.4100727492597712
 40
0.6373344920310451
 40
0.8959526317803852
 40
1.199597976101709
 40
1.561216371927056
 40
1.991311154493719
 40
1.991311154493719
 40
1.991311154493719
 40
1.991311154493719
 10
3590.568138933071
 20
2251.566643841528
 30
0.0
 10
3590.571226654212
 20
2251.498953135968
 30
0.0
 10
3590.577499401474
 20
2251.361438552066
 30
0.0
 10
3590.664615790774
 20
2251.162760946171
 30
0.0
 10
3590.811407236563
 20
2250.981128518914
 30
0.0
 10
3591.026823325467
 20
2250.824888958267
 30
0.0
 10
3591.312135922291
 20
2250.704051542128
 30
0.0
 10
3591.671127076186
 20
2250.624792394185
 30
0.0
 10
3591.935511882286
 20
2250.619532366804
 30
0.0
 10
3592.07913779227
 20
2250.616674879528
 30
0.0
 11
3590.568138933071
 21
2251.566643841528
 31
0.0
 11
3590.589463878071
 21
2251.365917652328
 31
0.0
 11
3590.669459029071
 21
2251.173680606727
 31
0.0
 11
3590.811297921271
 21
2250.996114764328
 31
0.0
 11
3591.018817559671
 21
2250.841780899328
 31
0.0
 11
3591.296854772871
 21
2250.719732535128
 31
0.0
 11
3591.649709057871
 21
2250.640601518728
 31
0.0
 11
3592.07913779227
 21
2250.616674879528
 31
0.0
  0
SPLINE
  5
47A8
330
1B
100
AcDbEntity
  8
0
  6
Continuous
100
AcDbSpline
210
0.0
220
0.0
230
1.0
 70
     8
 71
     3
 72
    11
 73
     7
 74
     5
 42
0.0000000001
 43
0.0000000001
 44
0.0000000001
 40
0.0
 40
0.0
 40
0.0
 40
0.0
 40
0.3657352775737951
 40
0.7336217681271438
 40
1.109633019154137
 40
1.499798717354287
 40
1.499798717354287
 40
1.499798717354287
 40
1.499798717354287
 10
3589.533249525271
 20
2251.566643845128
 30
0.0
 10
3589.539809029605
 20
2251.444496259892
 30
0.0
 10
3589.552966620528
 20
2251.199482631325
 30
0.0
 10
3589.66205360998
 20
2250.843024050239
 30
0.0
 10
3589.834675195117
 20
2250.502755534035
 30
0.0
 10
3590.006929999076
 20
2250.312758771548
 30
0.0
 10
3590.094648529271
 20
2250.216005378528
 30
0.0
 11
3589.533249525271
 21
2251.566643845128
 31
0.0
 11
3589.567582734871
 21
2251.202523639728
 31
0.0
 11
3589.671062225871
 21
2250.849490404927
 31
0.0
 11
3589.845919328071
 21
2250.516609863728
 31
0.0
 11
3590.094648529271
 21
2250.216005378528
 31
0.0
  0
SPLINE
  5
47B8
330
1B
100
AcDbEntity
  8
0
  6
Continuous
100
AcDbSpline
210
0.0
220
0.0
230
1.0
 70
     8
 71
     3
 72
    12
 73
     8
 74
     6
 42
0.0000000001
 43
0.0000000001
 44
0.0000000001
 40
0.0
 40
0.0
 40
0.0
 40
0.0
 40
0.1307565186545564
 40
0.3103763071756192
 40
0.5443500356482922
 40
0.8209299713719219
 40
1.120497001258135
 40
1.120497001258135
 40
1.120497001258135
 40
1.120497001258135
 10
3592.079137773871
 20
2264.117350858928
 30
0.0
 10
3592.0380488482
 20
2264.134605290627
 30
0.0
 10
3591.940516203963
 20
2264.175562076938
 30
0.0
 10
3591.846496400993
 20
2264.342119292868
 30
0.0
 10
3591.769296635368
 20
2264.556314062801
 30
0.0
 10
3591.719488056903
 20
2264.824217665308
 30
0.0
 10
3591.713084436433
 20
2265.016173190481
 30
0.0
 10
3591.709754880471
 20
2265.115980270928
 30
0.0
 11
3592.079137773871
 21
2264.117350858928
 31
0.0
 11
3591.963666744671
 21
2264.178699930528
 31
0.0
 11
3591.860632192871
 21
2264.325829633728
 31
0.0
 11
3591.779463549271
 21
2264.545272922328
 31
0.0
 11
3591.727588901071
 21
2264.816944565528
 31
0.0
 11
3591.709754880471
 21
2265.115980270928
 31
0.0
  0
SPLINE
  5
47B9
330
1B
100
AcDbEntity
  8
0
  6
Continuous
100
AcDbSpline
210
0.0
220
0.0
230
1.0
 70
     8
 71
     3
 72
    14
 73
    10
 74
     8
 42
0.0000000001
 43
0.0000000001
 44
0.0000000001
 40
0.0
 40
0.0
 40
0.0
 40
0.0
 40
0.5949829543429158
 40
1.120851906284025
 40
1.594266077802495
 40
2.032942532640364
 40
2.451344525549814
 40
2.858321886389556
 40
3.261818407697334
 40
3.261818407697334
 40
3.261818407697334
 40
3.261818407697334
 10
3591.709754881671
 20
2265.115980271527
 30
0.0
 10
3591.510924320882
 20
2265.104812718267
 30
0.0
 10
3591.136359618712
 20
2265.083774849417
 30
0.0
 10
3590.627759282859
 20
2264.908071942751
 30
0.0
 10
3590.21790425847
 20
2264.652255909792
 30
0.0
 10
3589.905804012213
 20
2264.33061338484
 30
0.0
 10
3589.689947872893
 20
2263.965371790555
 30
0.0
 10
3589.557470098458
 20
2263.572782914714
 30
0.0
 10
3589.541299900303
 20
2263.3021320283
 30
0.0
 10
3589.533249525271
 20
2263.167387783528
 30
0.0
 11
3591.709754881671
 21
2265.115980271527
 31
0.0
 11
3591.118051297671
 21
2265.053597704728
 31
0.0
 11
3590.620432361271
 21
2264.883557860128
 31
0.0
 11
3590.22039992767
 21
2264.630387897728
 31
0.0
 11
3589.915375234871
 21
2264.315115049528
 31
0.0
 11
3589.701350702671
 21
2263.955596305528
 31
0.0
 11
3589.575048617071
 21
2263.568713435128
 31
0.0
 11
3589.533249525271
 21
2263.167387783528
 31
0.0
  0
SPLINE
  5
47BA
330
1B
100
AcDbEntity
  8
0
  6
Continuous
100
AcDbSpline
210
0.0
220
0.0
230
1.0
 70
     8
 71
     3
 72
    14
 73
    10
 74
     8
 42
0.0000000001
 43
0.0000000001
 44
0.0000000001
 40
0.0
 40
0.0
 40
0.0
 40
0.0
 40
0.4300908769049064
 40
0.7917111860460775
 40
1.095356924004428
 40
1.3539755734447
 40
1.581237650271186
 40
1.789454912758323
 40
1.991310868055354
 40
1.991310868055354
 40
1.991310868055354
 40
1.991310868055354
 10
3592.079137529671
 20
2264.117356601127
 30
0.0
 10
3591.935512938021
 20
2264.11449915995
 30
0.0
 10
3591.671128823157
 20
2264.109239182897
 30
0.0
 10
3591.312137992167
 20
2264.029980944952
 30
0.0
 10
3591.026824477971
 20
2263.909143265492
 30
0.0
 10
3590.811407850758
 20
2263.752903748371
 30
0.0
 10
3590.66461601949
 20
2263.571271122758
 30
0.0
 10
3590.577499448805
 20
2263.372593290873
 30
0.0
 10
3590.571226667506
 20
2263.235078550855
 30
0.0
 10
3590.56813893047
 20
2263.167387787328
 30
0.0
 11
3592.079137529671
 21
2264.117356601127
 31
0.0
 11
3591.649712677071
 21
2264.093430498928
 31
0.0
 11
3591.296856386471
 21
2264.014299682128
 31
0.0
 11
3591.01881871827
 21
2263.892251375128
 31
0.0
 11
3590.81129850447
 21
2263.737917429728
 31
0.0
 11
3590.669459270071
 21
2263.560351433128
 31
0.0
 11
3590.58946393487
 21
2263.368114145528
 31
0.0
 11
3590.56813893047
 21
2263.167387787328
 31
0.0
  0
SPLINE
  5
47BB
330
1B
100
AcDbEntity
  8
0
  6
Continuous
100
AcDbSpline
210
0.0
220
0.0
230
1.0
 70
     8
 71
     3
 72
    12
 73
     8
 74
     6
 42
0.0000000001
 43
0.0000000001
 44
0.0000000001
 40
0.0
 40
0.0
 40
0.0
 40
0.0
 40
0.3003180404559534
 40
0.6010883909604277
 40
0.9025262144366344
 40
1.20460799849903
 40
1.507081106460522
 40
1.507081106460522
 40
1.507081106460522
 40
1.507081106460522
 10
3611.502319816671
 20
2264.117350858728
 30
0.0
 10
3611.602174644157
 20
2264.131591817334
 30
0.0
 10
3611.802034690832
 20
2264.160095182902
 30
0.0
 10
3612.068565794275
 20
2264.314909478464
 30
0.0
 10
3612.277028355859
 20
2264.536401139046
 30
0.0
 10
3612.416209751968
 20
2264.812576451008
 30
0.0
 10
3612.433932974934
 20
2265.01480203698
 30
0.0
 10
3612.442800322471
 20
2265.115980279528
 30
0.0
 11
3611.502319816671
 21
2264.117350858728
 31
0.0
 11
3611.796305559471
 21
2264.178696669128
 31
0.0
 11
3612.058635946071
 21
2264.325821011128
 31
0.0
 11
3612.265301514071
 21
2264.545261445928
 31
0.0
 11
3612.397386358671
 21
2264.816935879928
 31
0.0
 11
3612.442800322471
 21
2265.115980279528
 31
0.0
  0
SPLINE
  5
47BC
330
1B
100
AcDbEntity
  8
0
  6
Continuous
100
AcDbSpline
210
0.0
220
0.0
230
1.0
 70
     8
 71
     3
 72
    10
 73
     6
 74
     4
 42
0.0000000001
 43
0.0000000001
 44
0.0000000001
 40
0.0
 40
0.0
 40
0.0
 40
0.0
 40
1.11830411722042
 40
2.152103181501142
 40
3.121692613794451
 40
3.121692613794451
 40
3.121692613794451
 40
3.121692613794451
 10
3590.568132800871
 20
2263.167387784728
 30
0.0
 10
3590.940446733704
 20
2263.14899273696
 30
0.0
 10
3591.65694056309
 20
2263.113592669826
 30
0.0
 10
3592.696350336451
 20
2263.064557426602
 30
0.0
 10
3593.36349202902
 20
2263.034993788348
 30
0.0
 10
3593.686371758071
 20
2263.020685734128
 30
0.0
 11
3590.568132800871
 21
2263.167387784728
 31
0.0
 11
3591.685095668871
 21
2263.112633331928
 31
0.0
 11
3592.717752808271
 21
2263.064056199928
 31
0.0
 11
3593.686371758071
 21
2263.020685734128
 31
0.0
  0
SPLINE
  5
47BD
330
1B
100
AcDbEntity
  8
0
  6
Continuous
100
AcDbSpline
210
0.0
220
0.0
230
1.0
 70
     8
 71
     3
 72
    10
 73
     6
 74
     4
 42
0.0000000001
 43
0.0000000001
 44
0.0000000001
 40
0.0
 40
0.0
 40
0.0
 40
0.0
 40
0.7419084308080588
 40
1.448408229226257
 40
2.123916921325596
 40
2.123916921325596
 40
2.123916921325596
 40
2.123916921325596
 10
3592.079137408271
 20
2264.117350858928
 30
0.0
 10
3592.326155782571
 20
2264.105492834182
 30
0.0
 10
3592.808403228821
 20
2264.082342725744
 30
0.0
 10
3593.515619178268
 20
2264.049613211745
 30
0.0
 10
3593.975839027728
 20
2264.029262463354
 30
0.0
 10
3594.200788809671
 20
2264.019315268728
 30
0.0
 11
3592.079137408271
 21
2264.117350858928
 31
0.0
 11
3592.820202894271
 21
2264.081994598328
 31
0.0
 11
3593.525949619071
 21
2264.049382858127
 31
0.0
 11
3594.200788809671
 21
2264.019315268728
 31
0.0
  0
SPLINE
  5
47BE
330
1B
100
AcDbEntity
  8
0
  6
Continuous
100
AcDbSpline
210
0.0
220
0.0
230
1.0
 70
     8
 71
     3
 72
    12
 73
     8
 74
     6
 42
0.0000000001
 43
0.0000000001
 44
0.0000000001
 40
0.0
 40
0.0
 40
0.0
 40
0.0
 40
0.3524767745602949
 40
0.6390650646301042
 40
0.8482310660669129
 40
0.9700448532447136
 40
1.007893057344139
 40
1.007893057344139
 40
1.007893057344139
 40
1.007893057344139
 10
3594.200788809671
 20
2264.019315268728
 30
0.0
 10
3594.317960912544
 20
2264.013394968358
 30
0.0
 10
3594.53040213676
 20
2264.002661049383
 30
0.0
 10
3594.814558486361
 20
2263.987353040421
 30
0.0
 10
3595.01464245928
 20
2263.957597722001
 30
0.0
 10
3595.144563914359
 20
2263.955479088439
 30
0.0
 10
3595.187567341935
 20
2263.923127474007
 30
0.0
 10
3595.197761393071
 20
2263.915458457128
 30
0.0
 11
3594.200788809671
 21
2264.019315268728
 31
0.0
 11
3594.552805472471
 21
2264.001311221528
 31
0.0
 11
3594.838670496871
 21
2263.980963351128
 31
0.0
 11
3595.046680020471
 21
2263.958998509929
 31
0.0
 11
3595.166435331671
 21
2263.936699088727
 31
0.0
 11
3595.197761393071
 21
2263.915458457128
 31
0.0
  0
SPLINE
  5
47C0
330
1B
100
AcDbEntity
  8
0
  6
Continuous
100
AcDbSpline
210
0.0
220
0.0
230
1.0
 70
     8
 71
     3
 72
    12
 73
     8
 74
     6
 42
0.0000000001
 43
0.0000000001
 44
0.0000000001
 40
0.0
 40
0.0
 40
0.0
 40
0.0
 40
0.1825765080475059
 40
0.32987245982296
 40
0.4363251017028158
 40
0.4976024268637953
 40
0.5166563933668995
 40
0.5166563933668995
 40
0.5166563933668995
 40
0.5166563933668995
 10
3593.686371758071
 20
2263.020685734128
 30
0.0
 10
3593.746723769582
 20
2263.014777581124
 30
0.0
 10
3593.855765544481
 20
2263.004102949512
 30
0.0
 10
3594.002454624058
 20
2262.986154221288
 30
0.0
 10
3594.099514985244
 20
2262.96055803269
 30
0.0
 10
3594.169116284689
 20
2262.949470767917
 30
0.0
 10
3594.181484468981
 20
2262.924934883905
 30
0.0
 10
3594.184418107471
 20
2262.919115160328
 30
0.0
 11
3593.686371758071
 21
2263.020685734128
 31
0.0
 11
3593.867997197471
 21
2263.002074418928
 31
0.0
 11
3594.013784116871
 21
2262.981044165927
 31
0.0
 11
3594.11779321207
 21
2262.958366576127
 31
0.0
 11
3594.174628944071
 21
2262.935462206527
 31
0.0
 11
3594.184418107471
 21
2262.919115160328
 31
0.0
  0
SPLINE
  5
47C1
330
1B
100
AcDbEntity
  8
0
  6
Continuous
100
AcDbSpline
210
0.0
220
0.0
230
1.0
 70
     8
 71
     3
 72
    14
 73
    10
 74
     8
 42
0.0000000001
 43
0.0000000001
 44
0.0000000001
 40
0.0
 40
0.0
 40
0.0
 40
0.0
 40
0.1288071421934131
 40
0.2893130954007105
 40
0.4815352045061376
 40
0.6986957272570717
 40
0.9270211475289458
 40
1.14702889254285
 40
1.336175860067133
 40
1.336175860067133
 40
1.336175860067133
 40
1.336175860067133
 10
3607.59823065527
 20
2262.877830130529
 30
0.0
 10
3607.64077609273
 20
2262.883608671341
 30
0.0
 10
3607.736337192811
 20
2262.896587823746
 30
0.0
 10
3607.895659398365
 20
2262.916125473609
 30
0.0
 10
3608.084370272735
 20
2262.937906646278
 30
0.0
 10
3608.295720104241
 20
2262.960665460139
 30
0.0
 10
3608.516432032634
 20
2262.982932524997
 30
0.0
 10
3608.727969230061
 20
2263.003086301515
 30
0.0
 10
3608.863822308639
 20
2263.015121853196
 30
0.0
 10
3608.926625441671
 20
2263.020685734128
 30
0.0
 11
3607.59823065527
 21
2262.877830130529
 31
0.0
 11
3607.725899061671
 21
2262.894919831728
 31
0.0
 11
3607.885185661671
 21
2262.914666732128
 31
0.0
 11
3608.076137937871
 21
2262.936725005928
 31
0.0
 11
3608.29204421667
 21
2262.960031044128
 31
0.0
 11
3608.519211761471
 21
2262.982996325128
 31
0.0
 11
3608.73823354127
 21
2263.003801801327
 31
0.0
 11
3608.926625441671
 21
2263.020685734128
 31
0.0
  0
SPLINE
  5
47C2
330
1B
100
AcDbEntity
  8
0
  6
Continuous
100
AcDbSpline
210
0.0
220
0.0
230
1.0
 70
     8
 71
     3
 72
    12
 73
     8
 74
     6
 42
0.0000000001
 43
0.0000000001
 44
0.0000000001
 40
0.0
 40
0.0
 40
0.0
 40
0.0
 40
0.0190509087038722
 40
0.0803282275253385
 40
0.1867808359783681
 40
0.3340767187778164
 40
0.5166533192624901
 40
0.5166533192624901
 40
0.5166533192624901
 40
0.5166533192624901
 10
3594.184417351871
 20
2251.814913327328
 30
0.0
 10
3594.18148383373
 20
2251.809094768154
 30
0.0
 10
3594.169114643555
 20
2251.784560791721
 30
0.0
 10
3594.099515315265
 20
2251.773473502265
 30
0.0
 10
3594.002454505193
 20
2251.74787744754
 30
0.0
 10
3593.855765638133
 20
2251.729928655775
 30
0.0
 10
3593.746723819854
 20
2251.719254034939
 30
0.0
 10
3593.686371758071
 20
2251.713345885328
 30
0.0
 11
3594.184417351871
 21
2251.814913327328
 31
0.0
 11
3594.17462893187
 21
2251.798569400128
 31
0.0
 11
3594.117793202271
 21
2251.775665041527
 31
0.0
 11
3594.013784139671
 21
2251.752987459128
 31
0.0
 11
3593.86799728947
 21
2251.731957209528
 31
0.0
 11
3593.686371758071
 21
2251.713345885328
 31
0.0
  0
SPLINE
  5
47C3
330
1B
100
AcDbEntity
  8
0
  6
Continuous
100
AcDbSpline
210
0.0
220
0.0
230
1.0
 70
     8
 71
     3
 72
    12
 73
     8
 74
     6
 42
0.0000000001
 43
0.0000000001
 44
0.0000000001
 40
0.0
 40
0.0
 40
0.0
 40
0.0
 40
0.3799153252799229
 40
0.8058966102534388
 40
1.251443570319011
 40
1.67979850083349
 40
2.048605227200028
 40
2.048605227200028
 40
2.048605227200028
 40
2.048605227200028
 10
3607.329894403471
 20
2263.915458432928
 30
0.0
 10
3607.456319513559
 20
2263.922808398336
 30
0.0
 10
3607.72449918648
 20
2263.938399536185
 30
0.0
 10
3608.1410554772
 20
2263.960635151789
 30
0.0
 10
3608.573801406358
 20
2263.982435656839
 30
0.0
 10
3608.987570919623
 20
2264.002111726434
 30
0.0
 10
3609.253031141737
 20
2264.01387362708
 30
0.0
 10
3609.375846275471
 20
2264.019315268728
 30
0.0
 11
3607.329894403471
 21
2263.915458432928
 31
0.0
 11
3607.709185640871
 21
2263.937225647128
 31
0.0
 11
3608.134553406071
 21
2263.960079956928
 31
0.0
 11
3608.579535366271
 21
2263.982510933728
 31
0.0
 11
3609.007409230471
 21
2264.002806323128
 31
0.0
 11
3609.375846275471
 21
2264.019315268728
 31
0.0
  0
SPLINE
  5
47C4
330
1B
100
AcDbEntity
  8
0
  6
Continuous
100
AcDbSpline
210
0.0
220
0.0
230
1.0
 70
     8
 71
     3
 72
    10
 73
     6
 74
     4
 42
0.0000000001
 43
0.0000000001
 44
0.0000000001
 40
0.0
 40
0.0
 40
0.0
 40
0.0
 40
0.6771338805699219
 40
1.385228368720436
 40
2.128733991813173
 40
2.128733991813173
 40
2.128733991813173
 40
2.128733991813173
 10
3609.375846275471
 20
2264.019315268728
 30
0.0
 10
3609.601338328132
 20
2264.029262169105
 30
0.0
 10
3610.062632611624
 20
2264.049610772206
 30
0.0
 10
3610.77145598998
 20
2264.082339837688
 30
0.0
 10
3611.254768509319
 20
2264.105492254104
 30
0.0
 10
3611.502319865271
 20
2264.117350858728
 30
0.0
 11
3609.375846275471
 21
2264.019315268728
 31
0.0
 11
3610.052312267071
 21
2264.049382766528
 31
0.0
 11
3610.759655407471
 21
2264.081993897727
 31
0.0
 11
3611.502319865271
 21
2264.117350858728
 31
0.0
  0
SPLINE
  5
47C5
330
1B
100
AcDbEntity
  8
0
  6
Continuous
100
AcDbSpline
210
0.0
220
0.0
230
1.0
 70
     8
 71
     3
 72
    12
 73
     8
 74
     6
 42
0.0000000001
 43
0.0000000001
 44
0.0000000001
 40
0.0
 40
0.0
 40
0.0
 40
0.0
 40
0.3021784765462617
 40
0.5821273954831086
 40
0.8232394813374835
 40
1.018149059235515
 40
1.177175038033013
 40
1.177175038033013
 40
1.177175038033013
 40
1.177175038033013
 10
3608.926625440071
 20
2263.020685734128
 30
0.0
 10
3608.927650454085
 20
2263.121523703268
 30
0.0
 10
3608.929625077641
 20
2263.315781563759
 30
0.0
 10
3608.987163960434
 20
2263.587153947023
 30
0.0
 10
3609.081087619529
 20
2263.80543313089
 30
0.0
 10
3609.207626645256
 20
2263.971674691483
 30
0.0
 10
3609.323695601789
 20
2264.004545884201
 30
0.0
 10
3609.375846280271
 20
2264.019315164928
 30
0.0
 11
3608.926625440071
 21
2263.020685734128
 31
0.0
 11
3608.940131778671
 21
2263.322562216328
 31
0.0
 11
3608.99909692387
 21
2263.596230827728
 31
0.0
 11
3609.098011069471
 21
2263.816119503528
 31
0.0
 11
3609.227631507071
 21
2263.961681468728
 31
0.0
 11
3609.375846280271
 21
2264.019315164928
 31
0.0
  0
SPLINE
  5
47C6
330
1B
100
AcDbEntity
  8
0
  6
Continuous
100
AcDbSpline
210
0.0
220
0.0
230
1.0
 70
     8
 71
     3
 72
    10
 73
     6
 74
     4
 42
0.0000000001
 43
0.0000000001
 44
0.0000000001
 40
0.0
 40
0.0
 40
0.0
 40
0.0
 40
0.9695384908952972
 40
2.003341504928723
 40
3.121692613466013
 40
3.121692613466013
 40
3.121692613466013
 40
3.121692613466013
 10
3608.926625441671
 20
2263.020685734128
 30
0.0
 10
3609.249488207259
 20
2263.034993028151
 30
0.0
 10
3609.916614252046
 20
2263.064555955472
 30
0.0
 10
3610.956024030033
 20
2263.113591098365
 30
0.0
 10
3611.672534820312
 20
2263.148991979061
 30
0.0
 10
3612.044864398471
 20
2263.167387787128
 30
0.0
 11
3608.926625441671
 21
2263.020685734128
 31
0.0
 11
3609.895193503271
 21
2263.064053871928
 31
0.0
 11
3610.927854592671
 21
2263.112631091528
 31
0.0
 11
3612.044864398471
 21
2263.167387787128
 31
0.0
  0
SPLINE
  5
47C9
330
1B
100
AcDbEntity
  8
0
  6
Continuous
100
AcDbSpline
210
0.0
220
0.0
230
1.0
 70
     8
 71
     3
 72
    10
 73
     6
 74
     4
 42
0.0000000001
 43
0.0000000001
 44
0.0000000001
 40
0.0
 40
0.0
 40
0.0
 40
0.0
 40
0.9625994281444583
 40
1.998757032802003
 40
3.121692614211845
 40
3.121692614211845
 40
3.121692614211845
 40
3.121692614211845
 10
3593.686371758071
 20
2251.713345885328
 30
0.0
 10
3593.365819677788
 20
2251.699142585053
 30
0.0
 10
3592.700220149977
 20
2251.669650622472
 30
0.0
 10
3591.660809767323
 20
2251.620628149241
 30
0.0
 10
3590.941988708769
 20
2251.585114400271
 30
0.0
 10
3590.568132800871
 20
2251.566643843927
 30
0.0
 11
3593.686371758071
 21
2251.713345885328
 31
0.0
 11
3592.724735452871
 21
2251.670296197928
 31
0.0
 11
3591.689721796271
 21
2251.621620615328
 31
0.0
 11
3590.568132800871
 21
2251.566643843927
 31
0.0
  0
SPLINE
  5
47CB
330
1B
100
AcDbEntity
  8
0
  6
Continuous
100
AcDbSpline
210
0.0
220
0.0
230
1.0
 70
     8
 71
     3
 72
    11
 73
     7
 74
     5
 42
0.0000000001
 43
0.0000000001
 44
0.0000000001
 40
0.0
 40
0.0
 40
0.0
 40
0.0
 40
0.1599076262878996
 40
0.4133456248602468
 40
0.5868348383795286
 40
0.6775137074522326
 40
0.6775137074522326
 40
0.6775137074522326
 40
0.6775137074522326
 10
3612.557109384271
 20
2264.470448042328
 30
0.0
 10
3612.557047629231
 20
2264.524042771857
 30
0.0
 10
3612.556887998475
 20
2264.662579922841
 30
0.0
 10
3612.541387324817
 20
2264.850852981437
 30
0.0
 10
3612.539532827685
 20
2265.040885568054
 30
0.0
 10
3612.467519695526
 20
2265.096790306279
 30
0.0
 10
3612.442800322471
 20
2265.115980279528
 30
0.0
 11
3612.557109384271
 21
2264.470448042328
 31
0.0
 11
3612.555313981071
 21
2264.630345589127
 31
0.0
 11
3612.54271048827
 21
2264.883470007328
 31
0.0
 11
3612.508584741271
 21
2265.053569803328
 31
0.0
 11
3612.442800322471
 21
2265.115980279528
 31
0.0
  0
SPLINE
  5
47CD
330
1B
100
AcDbEntity
  8
0
  6
Continuous
100
AcDbSpline
210
0.0
220
0.0
230
1.0
 70
     8
 71
     3
 72
    12
 73
     8
 74
     6
 42
0.0000000001
 43
0.0000000001
 44
0.0000000001
 40
0.0
 40
0.0
 40
0.0
 40
0.0
 40
0.3021781062773613
 40
0.5821265692780877
 40
0.8232380867306121
 40
1.018147087327952
 40
1.424704728099704
 40
1.424704728099704
 40
1.424704728099704
 40
1.424704728099704
 10
3608.92662416827
 20
2251.713345885328
 30
0.0
 10
3608.927585536379
 20
2251.612402345591
 30
0.0
 10
3608.929437549839
 20
2251.41794114785
 30
0.0
 10
3608.987805654234
 20
2251.14794544212
 30
0.0
 10
3609.079205330383
 20
2250.925476277874
 30
0.0
 10
3609.268333851911
 20
2250.706599783856
 30
0.0
 10
3609.468144149606
 20
2250.652947015837
 30
0.0
 10
3609.603204679393
 20
2250.616680760509
 30
0.0
 11
3608.92662416827
 21
2251.713345885328
 31
0.0
 11
3608.940130613271
 21
2251.411469778528
 31
0.0
 11
3608.999096037871
 21
2251.137801693728
 31
0.0
 11
3609.098010575471
 21
2250.917913817528
 31
0.0
 11
3609.22763142047
 21
2250.772352988128
 31
0.0
 11
3609.603204679393
 21
2250.616680760509
 31
0.0
  0
SPLINE
  5
47CE
330
1B
100
AcDbEntity
  8
0
  6
Continuous
100
AcDbSpline
210
0.0
220
0.0
230
1.0
 70
     8
 71
     3
 72
    14
 73
    10
 74
     8
 42
0.0000000001
 43
0.0000000001
 44
0.0000000001
 40
0.0
 40
0.0
 40
0.0
 40
0.0
 40
0.1891423070102992
 40
0.4091470925677154
 40
0.6374733862703539
 40
0.854636191590882
 40
1.046860193503011
 40
1.207367705792638
 40
1.3361758499741
 40
1.3361758499741
 40
1.3361758499741
 40
1.3361758499741
 10
3608.926625441671
 20
2251.713345885328
 30
0.0
 10
3608.863823852067
 20
2251.718909585045
 30
0.0
 10
3608.727973294878
 20
2251.730944817134
 30
0.0
 10
3608.51643835657
 20
2251.751098594283
 30
0.0
 10
3608.295726341672
 20
2251.773365451234
 30
0.0
 10
3608.084374840268
 20
2251.79612447997
 30
0.0
 10
3607.89566206091
 20
2251.817905817647
 30
0.0
 10
3607.736338381267
 20
2251.837443644822
 30
0.0
 10
3607.640776432927
 20
2251.850422894714
 30
0.0
 10
3607.598230663471
 20
2251.856201472728
 30
0.0
 11
3608.926625441671
 21
2251.713345885328
 31
0.0
 11
3608.73823817567
 21
2251.730229318328
 31
0.0
 11
3608.519219349671
 21
2251.751034594728
 31
0.0
 11
3608.292050925471
 21
2251.773999860728
 31
0.0
 11
3608.076142374871
 21
2251.797306121528
 31
0.0
 11
3607.885188214671
 21
2251.819364580528
 31
0.0
 11
3607.725900065671
 21
2251.839111658528
 31
0.0
 11
3607.598230663471
 21
2251.856201472728
 31
0.0
  0
SPLINE
  5
47CF
330
1B
100
AcDbEntity
  8
0
  6
Continuous
100
AcDbSpline
210
0.0
220
0.0
230
1.0
 70
     8
 71
     3
 72
    10
 73
     6
 74
     4
 42
0.0000000001
 43
0.0000000001
 44
0.0000000001
 40
0.0
 40
0.0
 40
0.0
 40
0.0
 40
1.122904461255071
 40
2.159098294048342
 40
3.121692613845079
 40
3.121692613845079
 40
3.121692613845079
 40
3.121692613845079
 10
3612.044864398471
 20
2251.566643842128
 30
0.0
 10
3611.671018851214
 20
2251.585113884169
 30
0.0
 10
3610.952196091868
 20
2251.620627712492
 30
0.0
 10
3609.91278571142
 20
2251.669650231244
 30
0.0
 10
3609.247175820733
 20
2251.699142658014
 30
0.0
 10
3608.926625441671
 20
2251.713345885328
 30
0.0
 11
3612.044864398471
 21
2251.566643842128
 31
0.0
 11
3610.923306486671
 21
2251.621619105528
 31
0.0
 11
3609.888256643471
 21
2251.670296422728
 31
0.0
 11
3608.926625441671
 21
2251.713345885328
 31
0.0
  0
SPLINE
  5
47FB
330
1B
100
AcDbEntity
  8
0
  6
Continuous
100
AcDbSpline
210
0.0
220
0.0
230
1.0
 70
     8
 71
     3
 72
    14
 73
    10
 74
     8
 42
0.0000000001
 43
0.0000000001
 44
0.0000000001
 40
0.0
 40
0.0
 40
0.0
 40
0.0
 40
0.0369604630023451
 40
0.1987651362849695
 40
0.3829323305897879
 40
0.5839769854640993
 40
0.8011060603702558
 40
1.035186304152466
 40
1.127836303047561
 40
1.127836303047561
 40
1.127836303047561
 40
1.127836303047561
 10
3594.76314149607
 20
2250.914530725928
 30
0.0
 10
3594.751891136664
 20
2250.919557279131
 30
0.0
 10
3594.691389210036
 20
2250.946588962478
 30
0.0
 10
3594.58254688107
 20
2251.014907439051
 30
0.0
 10
3594.445130772022
 20
2251.136035103887
 30
0.0
 10
3594.322787588835
 20
2251.2972060341
 30
0.0
 10
3594.230140569429
 20
2251.495506336186
 30
0.0
 10
3594.190341272068
 20
2251.674630862333
 30
0.0
 10
3594.187269627653
 20
2251.783547596042
 30
0.0
 10
3594.186398609871
 20
2251.814432815528
 30
0.0
 11
3594.76314149607
 21
2250.914530725928
 31
0.0
 11
3594.729528940671
 21
2250.929901865928
 31
0.0
 11
3594.591402069871
 21
2251.014173568528
 31
0.0
 11
3594.453605486271
 21
2251.136360544128
 31
0.0
 11
3594.331957463871
 21
2251.296425255728
 31
0.0
 11
3594.23974344007
 21
2251.492999946327
 31
0.0
 11
3594.190687277271
 21
2251.721882128728
 31
0.0
 11
3594.186398609871
 21
2251.814432815528
 31
0.0
  0
SPLINE
  5
47FC
330
1B
100
AcDbEntity
  8
0
  6
Continuous
100
AcDbSpline
210
0.0
220
0.0
230
1.0
 70
     8
 71
     3
 72
    15
 73
    11
 74
     9
 42
0.0000000001
 43
0.0000000001
 44
0.0000000001
 40
0.0
 40
0.0
 40
0.0
 40
0.0
 40
0.0621974734669845
 40
0.2685029867675144
 40
0.4617151727309463
 40
0.6442020483053391
 40
0.818156742308658
 40
0.9810868580335632
 40
1.125134045636497
 40
1.128575367919298
 40
1.128575367919298
 40
1.128575367919298
 40
1.128575367919298
 10
3594.186382994871
 20
2262.919595158328
 30
0.0
 10
3594.186781836993
 20
2262.940326759372
 30
0.0
 10
3594.188503615948
 20
2263.029823912397
 30
0.0
 10
3594.215081597754
 20
2263.182844623028
 30
0.0
 10
3594.284963804793
 20
2263.364987201781
 30
0.0
 10
3594.382476335396
 20
2263.52135437936
 30
0.0
 10
3594.499415473606
 20
2263.650294354311
 30
0.0
 10
3594.626594226372
 20
2263.748904347514
 30
0.0
 10
3594.717195591191
 20
2263.799990752428
 30
0.0
 10
3594.762248612605
 20
2263.819668339995
 30
0.0
 10
3594.76329982647
 20
2263.820127473528
 30
0.0
 11
3594.186382994871
 21
2262.919595158328
 31
0.0
 11
3594.188316493471
 21
2262.981762571728
 31
0.0
 11
3594.222494483072
 21
2263.185217308328
 31
0.0
 11
3594.29194870407
 21
2263.365514451928
 31
0.0
 11
3594.388450967071
 21
2263.520397546527
 31
0.0
 11
3594.50542663967
 21
2263.649148964328
 31
0.0
 11
3594.633959370671
 21
2263.749276681128
 31
0.0
 11
3594.760147276871
 21
2263.818747571328
 31
0.0
 11
3594.76329982647
 21
2263.820127473528
 31
0.0
  0
SPLINE
  5
47FD
330
1B
100
AcDbEntity
  8
0
  6
Continuous
100
AcDbSpline
210
0.0
220
0.0
230
1.0
 70
     8
 71
     3
 72
     9
 73
     5
 74
     3
 42
0.0000000001
 43
0.0000000001
 44
0.0000000001
 40
0.0
 40
0.0
 40
0.0
 40
0.0
 40
0.2077249860650175
 40
0.4473393027715865
 40
0.4473393027715865
 40
0.4473393027715865
 40
0.4473393027715865
 10
3594.763280034471
 20
2263.820166718728
 30
0.0
 10
3594.82804593872
 20
2263.845878818419
 30
0.0
 10
3594.967520418892
 20
2263.901250263936
 30
0.0
 10
3595.11747599601
 20
2263.910502538116
 30
0.0
 10
3595.197798701671
 20
2263.915458457128
 30
0.0
 11
3594.763280034471
 21
2263.820166718728
 31
0.0
 11
3594.959837755871
 21
2263.887358474128
 31
0.0
 11
3595.197798701671
 21
2263.915458457128
 31
0.0
  0
SPLINE
  5
47FE
330
1B
100
AcDbEntity
  8
0
  6
Continuous
100
AcDbSpline
210
0.0
220
0.0
230
1.0
 70
     8
 71
     3
 72
    11
 73
     7
 74
     5
 42
0.0000000001
 43
0.0000000001
 44
0.0000000001
 40
0.0
 40
0.0
 40
0.0
 40
0.0
 40
0.1333467922498969
 40
0.5585342828968425
 40
1.000558674436196
 40
1.236105460962346
 40
1.236105460962346
 40
1.236105460962346
 40
1.236105460962346
 10
3612.55632818507
 20
2250.330599736528
 30
0.0
 10
3612.555997962357
 20
2250.375047542267
 30
0.0
 10
3612.554614796682
 20
2250.561220924361
 30
0.0
 10
3612.549299074402
 20
2250.894700410655
 30
0.0
 10
3612.545372201252
 20
2251.26227083959
 30
0.0
 10
3612.544967064117
 20
2251.488128152333
 30
0.0
 10
3612.544826224671
 20
2251.566643835928
 30
0.0
 11
3612.55632818507
 21
2250.330599736528
 31
0.0
 11
3612.555247220071
 21
2250.463942147328
 31
0.0
 11
3612.54975371587
 21
2250.889094147928
 31
0.0
 11
3612.545491367871
 21
2251.331097988528
 31
0.0
 11
3612.544826224671
 21
2251.566643835928
 31
0.0
  0
SPLINE
  5
47FF
330
1B
100
AcDbEntity
  8
0
  6
Continuous
100
AcDbSpline
210
0.0
220
0.0
230
1.0
 70
    24
 71
     3
 72
     8
 73
     4
 74
     2
 42
0.0000000001
 43
0.0000000001
 44
0.0000000001
 40
0.0
 40
0.0
 40
0.0
 40
0.0
 40
0.0572746832722599
 40
0.0572746832722599
 40
0.0572746832722599
 40
0.0572746832722599
 10
3612.556514263071
 20
2250.273325355528
 30
0.0
 10
3612.556452237071
 20
2250.292416815861
 30
0.0
 10
3612.55639021107
 20
2250.311508276194
 30
0.0
 10
3612.55632818507
 20
2250.330599736528
 30
0.0
 11
3612.556514263071
 21
2250.273325355528
 31
0.0
 11
3612.55632818507
 21
2250.330599736528
 31
0.0
  0
SPLINE
  5
4800
330
1B
100
AcDbEntity
  8
0
  6
Continuous
100
AcDbSpline
210
0.0
220
0.0
230
1.0
 70
     8
 71
     3
 72
    11
 73
     7
 74
     5
 42
0.0000000001
 43
0.0000000001
 44
0.0000000001
 40
0.0
 40
0.0
 40
0.0
 40
0.0
 40
0.2039643752829407
 40
0.536895344299993
 40
0.8899932140999689
 40
1.254123408678743
 40
1.254123408678743
 40
1.254123408678743
 40
1.254123408678743
 10
3612.556391644471
 20
2250.312590580529
 30
0.0
 10
3612.555836700796
 20
2250.380576694796
 30
0.0
 10
3612.55437592278
 20
2250.559536516462
 30
0.0
 10
3612.549461541916
 20
2250.856161718316
 30
0.0
 10
3612.545005073627
 20
2251.206190116317
 30
0.0
 10
3612.544360584013
 20
2251.445266783947
 30
0.0
 10
3612.544033382471
 20
2251.566643843528
 30
0.0
 11
3612.556391644471
 21
2250.312590580529
 31
0.0
 11
3612.554509774871
 21
2250.516546274128
 31
0.0
 11
3612.549779422071
 21
2250.849443636528
 31
0.0
 11
3612.545633367871
 21
2251.202517164128
 31
0.0
 11
3612.544033382471
 21
2251.566643843528
 31
0.0
  0
SPLINE
  5
4801
330
1B
100
AcDbEntity
  8
0
  6
Continuous
100
AcDbSpline
210
0.0
220
0.0
230
1.0
 70
    24
 71
     3
 72
     8
 73
     4
 74
     2
 42
0.0000000001
 43
0.0000000001
 44
0.0000000001
 40
0.0
 40
0.0
 40
0.0
 40
0.0
 40
0.0394652967192197
 40
0.0394652967192197
 40
0.0394652967192197
 40
0.0394652967192197
 10
3612.556496884071
 20
2250.273125424128
 30
0.0
 10
3612.556461804204
 20
2250.286280476262
 30
0.0
 10
3612.556426724337
 20
2250.299435528395
 30
0.0
 10
3612.556391644471
 20
2250.312590580529
 30
0.0
 11
3612.556496884071
 21
2250.273125424128
 31
0.0
 11
3612.556391644471
 21
2250.312590580529
 31
0.0
  0
SPLINE
  5
4802
330
1B
100
AcDbEntity
  8
0
  6
Continuous
100
AcDbSpline
210
0.0
220
0.0
230
1.0
 70
     8
 71
     3
 72
    11
 73
     7
 74
     5
 42
0.0000000001
 43
0.0000000001
 44
0.0000000001
 40
0.0
 40
0.0
 40
0.0
 40
0.0
 40
0.1998866305947337
 40
0.617929598430174
 40
1.019413487697874
 40
1.302425903167821
 40
1.302425903167821
 40
1.302425903167821
 40
1.302425903167821
 10
3612.54482993667
 20
2263.167387780528
 30
0.0
 10
3612.544936510846
 20
2263.23401667153
 30
0.0
 10
3612.545265974292
 20
2263.439993248044
 30
0.0
 10
3612.548464473804
 20
2263.77978775093
 30
0.0
 10
3612.554472674987
 20
2264.147254894859
 30
0.0
 10
3612.555900312902
 20
2264.375417150294
 30
0.0
 10
3612.556490585271
 20
2264.469753307528
 30
0.0
 11
3612.54482993667
 21
2263.167387780528
 31
0.0
 11
3612.545318057871
 21
2263.367273815128
 31
0.0
 11
3612.549009416071
 21
2263.785300485128
 31
0.0
 11
3612.554326161071
 21
2264.186749168728
 31
0.0
 11
3612.556490585271
 21
2264.469753307528
 31
0.0
  0
SPLINE
  5
4803
330
1B
100
AcDbEntity
  8
0
  6
Continuous
100
AcDbSpline
210
0.0
220
0.0
230
1.0
 70
    24
 71
     3
 72
     8
 73
     4
 74
     2
 42
0.0000000001
 43
0.0000000001
 44
0.0000000001
 40
0.0
 40
0.0
 40
0.0
 40
0.0
 40
0.0572747220723919
 40
0.0572747220723919
 40
0.0572747220723919
 40
0.0572747220723919
 10
3582.55666901507
 20
2250.330599838727
 30
0.0
 10
3582.556606988936
 20
2250.311508365461
 30
0.0
 10
3582.556544962804
 20
2250.292416892195
 30
0.0
 10
3582.556482936671
 20
2250.273325418928
 30
0.0
 11
3582.55666901507
 21
2250.330599838727
 31
0.0
 11
3582.556482936671
 21
2250.273325418928
 31
0.0
  0
SPLINE
  5
4804
330
1B
100
AcDbEntity
  8
0
  6
Continuous
100
AcDbSpline
210
0.0
220
0.0
230
1.0
 70
     8
 71
     3
 72
    11
 73
     7
 74
     5
 42
0.0000000001
 43
0.0000000001
 44
0.0000000001
 40
0.0
 40
0.0
 40
0.0
 40
0.0
 40
0.2355467457252543
 40
0.6775711040606229
 40
1.102758573308023
 40
1.236105360963379
 40
1.236105360963379
 40
1.236105360963379
 40
1.236105360963379
 10
3582.568170974871
 20
2251.566643838128
 30
0.0
 10
3582.568030135546
 20
2251.488128168134
 30
0.0
 10
3582.567624998736
 20
2251.262270880059
 30
0.0
 10
3582.56369812606
 20
2250.894700482919
 30
0.0
 10
3582.558382404214
 20
2250.561221016358
 30
0.0
 10
3582.556999237931
 20
2250.375047642933
 30
0.0
 10
3582.55666901507
 20
2250.330599838727
 30
0.0
 11
3582.568170974871
 21
2251.566643838128
 31
0.0
 11
3582.56750583207
 21
2251.331098031528
 31
0.0
 11
3582.563243484671
 21
2250.889094224128
 31
0.0
 11
3582.557749980471
 21
2250.463942244929
 31
0.0
 11
3582.55666901507
 21
2250.330599838727
 31
0.0
  0
SPLINE
  5
4805
330
1B
100
AcDbEntity
  8
0
  6
Continuous
100
AcDbSpline
210
0.0
220
0.0
230
1.0
 70
     8
 71
     3
 72
    11
 73
     7
 74
     5
 42
0.0000000001
 43
0.0000000001
 44
0.0000000001
 40
0.0
 40
0.0
 40
0.0
 40
0.0
 40
0.2039643790858539
 40
0.5368953499026016
 40
0.8899932189022828
 40
1.254123408079652
 40
1.254123408079652
 40
1.254123408079652
 40
1.254123408079652
 10
3582.556605555071
 20
2250.312590583328
 30
0.0
 10
3582.557160498824
 20
2250.380576698862
 30
0.0
 10
3582.558621277035
 20
2250.559536522395
 30
0.0
 10
3582.56353565776
 20
2250.85616172585
 30
0.0
 10
3582.567992126157
 20
2251.206190122383
 30
0.0
 10
3582.568636615612
 20
2251.445266787946
 30
0.0
 10
3582.568963817071
 20
2251.566643845727
 30
0.0
 11
3582.556605555071
 21
2250.312590583328
 31
0.0
 11
3582.558487424871
 21
2250.516546280728
 31
0.0
 11
3582.56321777767
 21
2250.849443644928
 31
0.0
 11
3582.567363831871
 21
2251.202517171728
 31
0.0
 11
3582.568963817071
 21
2251.566643845727
 31
0.0
  0
SPLINE
  5
4806
330
1B
100
AcDbEntity
  8
0
  6
Continuous
100
AcDbSpline
210
0.0
220
0.0
230
1.0
 70
    24
 71
     3
 72
     8
 73
     4
 74
     2
 42
0.0000000001
 43
0.0000000001
 44
0.0000000001
 40
0.0
 40
0.0
 40
0.0
 40
0.0
 40
0.039465241317924
 40
0.039465241317924
 40
0.039465241317924
 40
0.039465241317924
 10
3582.556500315671
 20
2250.273125482328
 30
0.0
 10
3582.556535395471
 20
2250.286280515995
 30
0.0
 10
3582.556570475271
 20
2250.299435549661
 30
0.0
 10
3582.556605555071
 20
2250.312590583328
 30
0.0
 11
3582.556500315671
 21
2250.273125482328
 31
0.0
 11
3582.556605555071
 21
2250.312590583328
 31
0.0
  0
SPLINE
  5
4807
330
1B
100
AcDbEntity
  8
0
  6
Continuous
100
AcDbSpline
210
0.0
220
0.0
230
1.0
 70
     8
 71
     3
 72
    11
 73
     7
 74
     5
 42
0.0000000001
 43
0.0000000001
 44
0.0000000001
 40
0.0
 40
0.0
 40
0.0
 40
0.0
 40
0.2830126722898889
 40
0.6844965999592969
 40
1.102539478571668
 40
1.302425851563959
 40
1.302425851563959
 40
1.302425851563959
 40
1.302425851563959
 10
3582.556506614471
 20
2264.469753244328
 30
0.0
 10
3582.557096887957
 20
2264.375417001493
 30
0.0
 10
3582.558524527894
 20
2264.147254647661
 30
0.0
 10
3582.564532729675
 20
2263.779787435071
 30
0.0
 10
3582.567731226048
 20
2263.439993034966
 30
0.0
 10
3582.568060688949
 20
2263.234016574063
 30
0.0
 10
3582.568167262871
 20
2263.167387768928
 30
0.0
 11
3582.556506614471
 21
2264.469753244328
 31
0.0
 11
3582.558671042271
 21
2264.186748848728
 31
0.0
 11
3582.563987787671
 21
2263.785300126728
 31
0.0
 11
3582.567679142871
 21
2263.367273545928
 31
0.0
 11
3582.568167262871
 21
2263.167387768928
 31
0.0
  0
SPLINE
  5
4813
330
1B
100
AcDbEntity
  8
0
  6
Continuous
100
AcDbSpline
210
0.0
220
0.0
230
1.0
 70
     8
 71
     3
 72
    14
 73
    10
 74
     8
 42
0.0000000001
 43
0.0000000001
 44
0.0000000001
 40
0.0
 40
0.0
 40
0.0
 40
0.0
 40
0.0729954989213974
 40
0.1731101257519188
 40
0.3079559037486197
 40
0.4743060260456927
 40
0.6671453639702829
 40
0.8841333394661105
 40
1.118593937292158
 40
1.118593937292158
 40
1.118593937292158
 40
1.118593937292158
 10
3607.32986211147
 20
2263.915458432928
 30
0.0
 10
3607.353900996277
 20
2263.908273726683
 30
0.0
 10
3607.410909639733
 20
2263.89123506786
 30
0.0
 10
3607.46487916515
 20
2263.795534671396
 30
0.0
 10
3607.511338956685
 20
2263.672444570462
 30
0.0
 10
3607.547746157586
 20
2263.510472846535
 30
0.0
 10
3607.575497225004
 20
2263.320692140925
 30
0.0
 10
3607.594397580339
 20
2263.106467629855
 30
0.0
 10
3607.596924695328
 20
2262.95598301479
 30
0.0
 10
3607.598237156871
 20
2262.877828569528
 30
0.0
 11
3607.32986211147
 21
2263.915458432928
 31
0.0
 11
3607.397236501871
 21
2263.887368677128
 31
0.0
 11
3607.45625517767
 21
2263.806500052728
 31
0.0
 11
3607.505151499671
 21
2263.680831705328
 31
0.0
 11
3607.543827257471
 21
2263.519040021528
 31
0.0
 11
3607.572625632071
 21
2263.328363164328
 31
0.0
 11
3607.591409319271
 21
2263.112189727928
 31
0.0
 11
3607.598237156871
 21
2262.877828569528
 31
0.0
  0
SPLINE
  5
4814
330
1B
100
AcDbEntity
  8
0
  6
Continuous
100
AcDbSpline
210
0.0
220
0.0
230
1.0
 70
     8
 71
     3
 72
     9
 73
     5
 74
     3
 42
0.0000000001
 43
0.0000000001
 44
0.0000000001
 40
0.0
 40
0.0
 40
0.0
 40
0.0
 40
0.239549867105958
 40
0.447732870469063
 40
0.447732870469063
 40
0.447732870469063
 40
0.447732870469063
 10
3595.197798465471
 20
2250.818573162328
 30
0.0
 10
3595.117497114218
 20
2250.823526665226
 30
0.0
 10
3594.96740913908
 20
2250.83278505513
 30
0.0
 10
3594.8278231032
 20
2250.888241710499
 30
0.0
 10
3594.762919581271
 20
2250.914027472127
 30
0.0
 11
3595.197798465471
 21
2250.818573162328
 31
0.0
 11
3594.959900650071
 21
2250.846658180728
 31
0.0
 11
3594.762919581271
 21
2250.914027472127
 31
0.0
  0
SPLINE
  5
4815
330
1B
100
AcDbEntity
  8
0
  6
Continuous
100
AcDbSpline
210
0.0
220
0.0
230
1.0
 70
     8
 71
     3
 72
    14
 73
    10
 74
     8
 42
0.0000000001
 43
0.0000000001
 44
0.0000000001
 40
0.0
 40
0.0
 40
0.0
 40
0.0
 40
0.2344026517150494
 40
0.45132609798239
 40
0.6441372030949824
 40
0.8105109856001971
 40
0.9454123488964268
 40
1.045575593941957
 40
1.118592617280489
 40
1.118592617280489
 40
1.118592617280489
 40
1.118592617280489
 10
3607.598237154871
 20
2251.856203031728
 30
0.0
 10
3607.596925339148
 20
2251.778067906979
 30
0.0
 10
3607.594399528677
 20
2251.627624126971
 30
0.0
 10
3607.575508669211
 20
2251.413449388512
 30
0.0
 10
3607.5477694624
 20
2251.223690359071
 30
0.0
 10
3607.511371641971
 20
2251.061698844279
 30
0.0
 10
3607.46491164755
 20
2250.938565559252
 30
0.0
 10
3607.410937842546
 20
2250.842813564409
 30
0.0
 10
3607.353907496136
 20
2250.825762381258
 30
0.0
 10
3607.329862111671
 20
2250.818573186728
 30
0.0
 11
3607.598237154871
 21
2251.856203031728
 31
0.0
 11
3607.591412691471
 21
2251.621899745728
 31
0.0
 11
3607.572639924071
 21
2251.405790132928
 31
0.0
 11
3607.543855413071
 21
2251.215139735128
 31
0.0
 11
3607.505188190071
 21
2251.053321684928
 31
0.0
 11
3607.456288009271
 21
2250.927595195528
 31
0.0
 11
3607.397253599871
 21
2250.846677866328
 31
0.0
 11
3607.329862111671
 21
2250.818573186728
 31
0.0
  0
SPLINE
  5
4825
330
1B
100
AcDbEntity
  8
0
  6
Continuous
100
AcDbSpline
210
0.0
220
0.0
230
1.0
 70
    24
 71
     3
 72
     8
 73
     4
 74
     2
 42
0.0000000001
 43
0.0000000001
 44
0.0000000001
 40
0.0
 40
0.0
 40
0.0
 40
0.0
 40
0.8390333340828543
 40
0.8390333340828543
 40
0.8390333340828543
 40
0.8390333340828543
 10
3597.55649859987
 20
2305.067015809728
 30
274.0
 10
3597.276847377138
 20
2305.063161831728
 30
274.0000000000001
 10
3596.997196154405
 20
2305.059307853729
 30
274.0000000000001
 10
3596.717544931671
 20
2305.055453875728
 30
274.0
 11
3597.55649859987
 21
2305.067015809728
 31
274.0
 11
3596.717544931671
 21
2305.055453875728
 31
274.0
  0
SPLINE
  5
4826
330
1B
100
AcDbEntity
  8
0
  6
Continuous
100
AcDbSpline
210
0.0
220
0.0
230
1.0
 70
    24
 71
     3
 72
     8
 73
     4
 74
     2
 42
0.0000000001
 43
0.0000000001
 44
0.0000000001
 40
0.0
 40
0.0
 40
0.0
 40
0.0
 40
0.9059923814678265
 40
0.9059923814678265
 40
0.9059923814678265
 40
0.9059923814678265
 10
3598.462390846071
 20
2305.053546082528
 30
274.0
 10
3598.160426764004
 20
2305.058035991595
 30
274.0
 10
3597.858462681938
 20
2305.062525900662
 30
274.0
 10
3597.55649859987
 20
2305.067015809728
 30
274.0
 11
3598.462390846071
 21
2305.053546082528
 31
274.0
 11
3597.55649859987
 21
2305.067015809728
 31
274.0
  0
SPLINE
  5
4828
330
1B
100
AcDbEntity
  8
0
  6
Continuous
100
AcDbSpline
210
0.0
220
0.0
230
1.0
 70
     8
 71
     3
 72
    17
 73
    13
 74
    11
 42
0.0000000001
 43
0.0000000001
 44
0.0000000001
 40
0.0
 40
0.0
 40
0.0
 40
0.0
 40
0.0790152363902858
 40
0.1654780735721141
 40
0.2849676128682701
 40
0.4436838890371074
 40
0.6410712001781961
 40
0.8795597322973251
 40
1.151875649784018
 40
1.463824878511119
 40
1.800977896237735
 40
2.170587052644332
 40
2.170587052644332
 40
2.170587052644332
 40
2.170587052644332
 10
3491.13790491067
 20
2232.467015809728
 30
0.0
 10
3491.110783264096
 20
2232.472067901419
 30
0.0
 10
3491.053983613394
 20
2232.482648270963
 30
0.0
 10
3491.004096417426
 20
2232.573774707892
 30
0.0
 10
3490.986964573349
 20
2232.693265653207
 30
0.0
 10
3490.993285409338
 20
2232.852952198916
 30
0.0
 10
3491.024670561356
 20
2233.048674262163
 30
0.0
 10
3491.080495228104
 20
2233.278324429011
 30
0.0
 10
3491.161483847561
 20
2233.540461316594
 30
0.0
 10
3491.26702098984
 20
2233.829011314931
 30
0.0
 10
3491.396820680622
 20
2234.142948452497
 30
0.0
 10
3491.498008785566
 20
2234.355736124803
 30
0.0
 10
3491.55092623287
 20
2234.467015809729
 30
0.0
 11
3491.13790491067
 21
2232.467015809728
 31
0.0
 11
3491.062885437671
 21
2232.491824805128
 31
0.0
 11
3491.01452743607
 21
2232.563499946528
 31
0.0
 11
3490.991900501271
 21
2232.680827572528
 31
0.0
 11
3490.99556526387
 21
2232.839501533328
 31
0.0
 11
3491.024828947271
 21
2233.034707546128
 31
0.0
 11
3491.08001212727
 21
2233.266723917528
 31
0.0
 11
3491.159626154671
 21
2233.527141976728
 31
0.0
 11
3491.26606482927
 21
2233.820370777928
 31
0.0
 11
3491.395219348471
 21
2234.131804988528
 31
0.0
 11
3491.55092623287
 21
2234.467015809729
 31
0.0
  0
SPLINE
  5
482E
330
1B
100
AcDbEntity
  8
0
  6
Continuous
100
AcDbSpline
210
0.0
220
0.0
230
1.0
 70
     8
 71
     3
 72
    10
 73
     6
 74
     4
 42
0.0000000001
 43
0.0000000001
 44
0.0000000001
 40
0.0
 40
0.0
 40
0.0
 40
0.0
 40
3.431317516693075
 40
7.246051897588341
 40
11.57738474181914
 40
11.57738474181914
 40
11.57738474181914
 40
11.57738474181914
 10
3496.477678961362
 20
2303.979724936528
 30
0.0
 10
3496.011474412307
 20
2305.024188600625
 30
0.0
 10
3495.026971421572
 20
2307.229824738458
 30
0.0
 10
3493.39160199969
 20
2310.725569943493
 30
0.0
 10
3492.205583128497
 20
2313.168231826266
 30
0.0
 10
3491.574966863162
 20
2314.467015809729
 30
0.0
 11
3496.477678961362
 21
2303.979724936528
 31
0.0
 11
3495.070310465762
 21
2307.109142425128
 31
0.0
 11
3493.456823994762
 21
2310.565854707729
 31
0.0
 11
3491.574966863162
 21
2314.467015809729
 31
0.0
  0
SPLINE
  5
4830
330
1B
100
AcDbEntity
  8
0
  6
Continuous
100
AcDbSpline
210
0.0
220
0.0
230
1.0
 70
     8
 71
     3
 72
    17
 73
    13
 74
    11
 42
0.0000000001
 43
0.0000000001
 44
0.0000000001
 40
0.0
 40
0.0
 40
0.0
 40
0.0
 40
0.3702355799975197
 40
0.7132766645384661
 40
1.031990811942046
 40
1.309050711437738
 40
1.547453047299121
 40
1.741496769384373
 40
1.894949254599666
 40
2.009609641019702
 40
2.093233832928075
 40
2.170721257459151
 40
2.170721257459151
 40
2.170721257459151
 40
2.170721257459151
 10
3491.574966863162
 20
2314.467015809729
 30
0.0
 10
3491.521963394217
 20
2314.578485807052
 30
0.0
 10
3491.419849660204
 20
2314.793238122015
 30
0.0
 10
3491.288495435888
 20
2315.111329581564
 30
0.0
 10
3491.181381395364
 20
2315.405485134501
 30
0.0
 10
3491.100072855328
 20
2315.671521860169
 30
0.0
 10
3491.045340945516
 20
2315.901891869579
 30
0.0
 10
3491.015944580176
 20
2316.095032287546
 30
0.0
 10
3491.011577440728
 20
2316.250235315272
 30
0.0
 10
3491.030001232278
 20
2316.365404955268
 30
0.0
 10
3491.0800813785
 20
2316.452263633585
 30
0.0
 10
3491.135359335566
 20
2316.462224893005
 30
0.0
 10
3491.161945540961
 20
2316.467015809728
 30
0.0
 11
3491.574966863162
 21
2314.467015809729
 31
0.0
 11
3491.419008033961
 21
2314.802800306528
 31
0.0
 11
3491.287744112762
 21
2315.119734004128
 31
0.0
 11
3491.179463105562
 21
2315.419490457328
 31
0.0
 11
3491.099332479162
 21
2315.684709745128
 31
0.0
 11
3491.045463409161
 21
2315.916946256128
 31
0.0
 11
3491.018320603762
 21
2316.109082234528
 31
0.0
 11
3491.016641151162
 21
2316.262525529128
 31
0.0
 11
3491.040194681962
 21
2316.374740659128
 31
0.0
 11
3491.088205836562
 21
2316.443209151928
 31
0.0
 11
3491.161945540961
 21
2316.467015809728
 31
0.0
  0
SPLINE
  5
4831
330
1B
100
AcDbEntity
  8
0
  6
Continuous
100
AcDbSpline
210
0.0
220
0.0
230
1.0
 70
     8
 71
     3
 72
    12
 73
     8
 74
     6
 42
0.0000000001
 43
0.0000000001
 44
0.0000000001
 40
0.0
 40
0.0
 40
0.0
 40
0.0
 40
0.3744722508519515
 40
0.7218419382321655
 40
1.032165684760959
 40
1.303520281449319
 40
1.535836072113908
 40
1.535836072113908
 40
1.535836072113908
 40
1.535836072113908
 10
3496.477678961362
 20
2303.979724936528
 30
0.0
 10
3496.526192126045
 20
2303.864682294615
 30
0.0
 10
3496.61970729772
 20
2303.642923263264
 30
0.0
 10
3496.729559403473
 20
2303.316448667156
 30
0.0
 10
3496.808170226949
 20
2303.016850957719
 30
0.0
 10
3496.858428351015
 20
2302.749435405699
 30
0.0
 10
3496.865809733824
 20
2302.5815335061
 30
0.0
 10
3496.869214364762
 20
2302.504089480128
 30
0.0
 11
3496.477678961362
 21
2303.979724936528
 31
0.0
 11
3496.618726631562
 21
2303.632831550328
 31
0.0
 11
3496.729499917562
 21
2303.303597623128
 31
0.0
 11
3496.807680999762
 21
2303.003283544128
 31
0.0
 11
3496.853954834962
 21
2302.735903572328
 31
0.0
 11
3496.869214364762
 21
2302.504089480128
 31
0.0
  0
SPLINE
  5
4832
330
1B
100
AcDbEntity
  8
0
  6
Continuous
100
AcDbSpline
210
0.0
220
0.0
230
1.0
 70
     8
 71
     3
 72
    12
 73
     8
 74
     6
 42
0.0000000001
 43
0.0000000001
 44
0.0000000001
 40
0.0
 40
0.0
 40
0.0
 40
0.0
 40
0.3744722508519515
 40
0.7218419382325965
 40
1.03216568476139
 40
1.303520281449828
 40
1.535836072114387
 40
1.535836072114387
 40
1.535836072114387
 40
1.535836072114387
 10
3496.45363833107
 20
2244.954306682928
 30
0.0
 10
3496.502151495755
 20
2245.069349324841
 30
0.0
 10
3496.595666667428
 20
2245.291108356194
 30
0.0
 10
3496.705518773181
 20
2245.617582952298
 30
0.0
 10
3496.784129596656
 20
2245.917180661738
 30
0.0
 10
3496.834387720724
 20
2246.184596213757
 30
0.0
 10
3496.841769103532
 20
2246.352498113356
 30
0.0
 10
3496.84517373447
 20
2246.429942139328
 30
0.0
 11
3496.45363833107
 21
2244.954306682928
 31
0.0
 11
3496.59468600127
 21
2245.301200069128
 31
0.0
 11
3496.70545928727
 21
2245.630433996328
 31
0.0
 11
3496.78364036947
 21
2245.930748075328
 31
0.0
 11
3496.829914204671
 21
2246.198128047128
 31
0.0
 11
3496.84517373447
 21
2246.429942139328
 31
0.0
  0
SPLINE
  5
4833
330
1B
100
AcDbEntity
  8
0
  6
Continuous
100
AcDbSpline
210
0.0
220
0.0
230
1.0
 70
     8
 71
     3
 72
    10
 73
     6
 74
     4
 42
0.0000000001
 43
0.0000000001
 44
0.0000000001
 40
0.0
 40
0.0
 40
0.0
 40
0.0
 40
4.342006648852796
 40
8.159464642779568
 40
11.57738477216039
 40
11.57738477216039
 40
11.57738477216039
 40
11.57738477216039
 10
3491.55092623287
 20
2234.467015809729
 30
0.0
 10
3492.183087682819
 20
2235.76900484061
 30
0.0
 10
3493.371040492782
 20
2238.215692356753
 30
0.0
 10
3495.00625620357
 20
2241.711509895874
 30
0.0
 10
3495.989271672863
 20
2243.913913355803
 30
0.0
 10
3496.45363833107
 20
2244.954306682928
 30
0.0
 11
3491.55092623287
 21
2234.467015809729
 31
0.0
 11
3493.43736013467
 21
2238.377819930728
 31
0.0
 11
3495.05185203867
 21
2241.837068610328
 31
0.0
 11
3496.45363833107
 21
2244.954306682928
 31
0.0
  0
SPLINE
  5
48E5
330
1B
100
AcDbEntity
  8
0
  6
Continuous
100
AcDbSpline
210
0.0
220
0.0
230
1.0
 70
     8
 71
     3
 72
     9
 73
     5
 74
     3
 42
0.0000000001
 43
0.0000000001
 44
0.0000000001
 40
0.0
 40
0.0
 40
0.0
 40
0.0
 40
0.6822169445959727
 40
1.371775149681476
 40
1.371775149681476
 40
1.371775149681476
 40
1.371775149681476
 10
2930.38808936287
 20
2226.467015809729
 30
0.0
 10
2930.61217737267
 20
2226.505834395469
 30
0.0
 10
2931.062764778364
 20
2226.583889289424
 30
0.0
 10
2931.510299217075
 20
2226.677883824741
 30
0.0
 10
2931.735263960271
 20
2226.725132605328
 30
0.0
 11
2930.38808936287
 21
2226.467015809729
 31
0.0
 11
2931.059598297871
 21
2226.587413939728
 31
0.0
 11
2931.735263960271
 21
2226.725132605328
 31
0.0
  0
SPLINE
  5
48ED
330
1B
100
AcDbEntity
  8
0
  6
Continuous
100
AcDbSpline
210
0.0
220
0.0
230
1.0
 70
     8
 71
     3
 72
    14
 73
    10
 74
     8
 42
0.0000000001
 43
0.0000000001
 44
0.0000000001
 40
0.0
 40
0.0
 40
0.0
 40
0.0
 40
2.794856146407469
 40
5.408650417445486
 40
7.818779052094905
 40
10.01263053214264
 40
11.98766004248774
 40
13.74912121973736
 40
15.30540707425804
 40
15.30540707425804
 40
15.30540707425804
 40
15.30540707425804
 10
2941.19272314667
 20
2224.467015809728
 30
0.0
 10
2942.124326175856
 20
2224.472885456303
 30
0.0
 10
2943.927179291991
 20
2224.484244490449
 30
0.0
 10
2946.53322075071
 20
2224.519287068199
 30
0.0
 10
2948.939167621322
 20
2224.528990635083
 30
0.0
 10
2951.132165093698
 20
2224.517674675057
 30
0.0
 10
2953.108821311826
 20
2224.495519099865
 30
0.0
 10
2954.87294951304
 20
2224.473009733397
 30
0.0
 10
2955.978863271182
 20
2224.468929678354
 30
0.0
 10
2956.497624322471
 20
2224.467015809728
 30
0.0
 11
2941.19272314667
 21
2224.467015809728
 31
0.0
 11
2943.987500031471
 21
2224.488064403328
 31
0.0
 11
2946.601145725671
 21
2224.515933319728
 31
0.0
 11
2949.011255708871
 21
2224.525415114728
 31
0.0
 11
2951.20508232787
 21
2224.514970868528
 31
0.0
 11
2953.18000242087
 21
2224.494181616528
 31
0.0
 11
2954.94135876607
 21
2224.474964327928
 31
0.0
 11
2956.497624322471
 21
2224.467015809728
 31
0.0
  0
SPLINE
  5
48EE
330
1B
100
AcDbEntity
  8
0
  6
Continuous
100
AcDbSpline
210
0.0
220
0.0
230
1.0
 70
     8
 71
     3
 72
    14
 73
    10
 74
     8
 42
0.0000000001
 43
0.0000000001
 44
0.0000000001
 40
0.0
 40
0.0
 40
0.0
 40
0.0
 40
0.6679581269926553
 40
1.305672655682305
 40
1.884916350276374
 40
2.381697725625894
 40
2.779264978942456
 40
3.074056267036061
 40
3.291799681661311
 40
3.291799681661311
 40
3.291799681661311
 40
3.291799681661311
 10
2942.111017217071
 20
2221.467015809729
 30
0.0
 10
2942.106694727771
 20
2221.689692593168
 30
0.0
 10
2942.098245461483
 20
2222.124963870577
 30
0.0
 10
2942.030576660326
 20
2222.750749437987
 30
0.0
 10
2941.925974489916
 20
2223.312028835737
 30
0.0
 10
2941.787510188022
 20
2223.787313409779
 30
0.0
 10
2941.620107896751
 20
2224.141528300856
 30
0.0
 10
2941.434247629189
 20
2224.403770202996
 30
0.0
 10
2941.264737307152
 20
2224.448158179952
 30
0.0
 10
2941.19272314667
 20
2224.467015809728
 30
0.0
 11
2942.111017217071
 21
2221.467015809729
 31
0.0
 11
2942.08799342807
 21
2222.134577016328
 31
0.0
 11
2942.020077260871
 21
2222.768664718728
 31
0.0
 11
2941.91067418407
 21
2223.337482988928
 31
0.0
 11
2941.76527003507
 21
2223.812508639128
 31
0.0
 11
2941.59115594947
 21
2224.169921574128
 31
0.0
 11
2941.39706275207
 21
2224.391799320328
 31
0.0
 11
2941.19272314667
 21
2224.467015809728
 31
0.0
  0
SPLINE
  5
48EF
330
1B
100
AcDbEntity
  8
0
  6
Continuous
100
AcDbSpline
210
0.0
220
0.0
230
1.0
 70
     8
 71
     3
 72
    14
 73
    10
 74
     8
 42
0.0000000001
 43
0.0000000001
 44
0.0000000001
 40
0.0
 40
0.0
 40
0.0
 40
0.0
 40
2.461203836383735
 40
4.76176822061809
 40
6.882509365583551
 40
8.813126424719915
 40
10.5517641891518
 40
12.10244291724685
 40
13.47190523280045
 40
13.47190523280045
 40
13.47190523280045
 40
13.47190523280045
 10
2942.11101721727
 20
2221.467015809729
 30
0.0
 10
2942.931306805842
 20
2221.4817077426
 30
0.0
 10
2944.518346788806
 20
2221.510132685714
 30
0.0
 10
2946.810967958928
 20
2221.597699516489
 30
0.0
 10
2948.928432303248
 20
2221.621947165599
 30
0.0
 10
2950.858389880921
 20
2221.593637412088
 30
0.0
 10
2952.597483664833
 20
2221.538257230754
 30
0.0
 10
2954.149482410484
 20
2221.481992025749
 30
0.0
 10
2955.122849180828
 20
2221.471796989188
 30
0.0
 10
2955.57933025187
 20
2221.467015809729
 30
0.0
 11
2942.11101721727
 21
2221.467015809729
 31
0.0
 11
2944.571657475871
 21
2221.519683085928
 31
0.0
 11
2946.871167479271
 21
2221.589326680529
 31
0.0
 11
2948.99177640947
 21
2221.613007244528
 31
0.0
 11
2950.92221678207
 21
2221.586888345928
 31
0.0
 11
2952.66007752367
 21
2221.534914133928
 31
0.0
 11
2954.210011916871
 21
2221.486873582928
 31
0.0
 11
2955.57933025187
 21
2221.467015809729
 31
0.0
  0
SPLINE
  5
48F0
330
1B
100
AcDbEntity
  8
0
  6
Continuous
100
AcDbSpline
210
0.0
220
0.0
230
1.0
 70
     8
 71
     3
 72
    14
 73
    10
 74
     8
 42
0.0000000001
 43
0.0000000001
 44
0.0000000001
 40
0.0
 40
0.0
 40
0.0
 40
0.0
 40
0.6679594042384645
 40
1.30567441790663
 40
1.884917968381499
 40
2.381698857844151
 40
2.779265605760484
 40
3.074056639517597
 40
3.291800175459073
 40
3.291800175459073
 40
3.291800175459073
 40
3.291800175459073
 10
2955.57933025187
 20
2221.467015809729
 30
0.0
 10
2955.583652633593
 20
2221.689693021977
 30
0.0
 10
2955.592101684842
 20
2222.124964892751
 30
0.0
 10
2955.659770421544
 20
2222.750751015435
 30
0.0
 10
2955.764372603297
 20
2223.312030368734
 30
0.0
 10
2955.902836964224
 20
2223.787314525595
 30
0.0
 10
2956.070239311494
 20
2224.141528969822
 30
0.0
 10
2956.256099794669
 20
2224.403770411368
 30
0.0
 10
2956.42561010721
 20
2224.448158231273
 30
0.0
 10
2956.497624322471
 20
2224.467015809728
 30
0.0
 11
2955.57933025187
 21
2221.467015809729
 31
0.0
 11
2955.60235378007
 21
2222.134578303328
 31
0.0
 11
2955.67026987587
 21
2222.768666501128
 31
0.0
 11
2955.77967296327
 21
2223.337484622529
 31
0.0
 11
2955.92507714187
 21
2223.812509755528
 31
0.0
 11
2956.09919126487
 21
2224.169922110128
 31
0.0
 11
2956.293284539871
 21
2224.391799450528
 31
0.0
 11
2956.497624322471
 21
2224.467015809728
 31
0.0
  0
SPLINE
  5
48F1
330
1B
100
AcDbEntity
  8
0
  6
Continuous
100
AcDbSpline
210
0.0
220
0.0
230
1.0
 70
     8
 71
     3
 72
    13
 73
     9
 74
     7
 42
0.0000000001
 43
0.0000000001
 44
0.0000000001
 40
0.0
 40
0.0
 40
0.0
 40
0.0
 40
1.108688474718769
 40
2.332694385887394
 40
3.641209197438072
 40
4.997028471753911
 40
6.353205167167019
 40
7.653455411884396
 40
7.653455411884396
 40
7.653455411884396
 40
7.653455411884396
 10
2965.63035305067
 20
2224.467015809728
 30
0.0
 10
2965.999913276506
 20
2224.46962734021
 30
0.0
 10
2966.777472603325
 20
2224.475122032935
 30
0.0
 10
2967.990890297551
 20
2224.50424664815
 30
0.0
 10
2969.286815040146
 20
2224.526621330976
 30
0.0
 10
2970.627142686517
 20
2224.527140275377
 30
0.0
 10
2971.964122931922
 20
2224.490477225832
 30
0.0
 10
2972.849456455781
 20
2224.474725741725
 30
0.0
 10
2973.282803638671
 20
2224.467015809728
 30
0.0
 11
2965.63035305067
 21
2224.467015809728
 31
0.0
 11
2966.73898884187
 21
2224.477823975329
 31
0.0
 11
2967.962751147871
 21
2224.502243004528
 31
0.0
 11
2969.271105505871
 21
2224.522734123328
 31
0.0
 11
2970.62692348347
 21
2224.520858962928
 31
0.0
 11
2971.982797066271
 21
2224.492187432728
 31
0.0
 11
2973.282803638671
 21
2224.467015809728
 31
0.0
  0
SPLINE
  5
48F3
330
1B
100
AcDbEntity
  8
0
  6
Continuous
100
AcDbSpline
210
0.0
220
0.0
230
1.0
 70
     8
 71
     3
 72
    14
 73
    10
 74
     8
 42
0.0000000001
 43
0.0000000001
 44
0.0000000001
 40
0.0
 40
0.0
 40
0.0
 40
0.0
 40
0.6694696228350134
 40
1.320821842307002
 40
1.938186584142021
 40
2.510347975520931
 40
3.033413917116568
 40
3.513494323538576
 40
3.818571606073837
 40
3.818571606073837
 40
3.818571606073837
 40
3.818571606073837
 10
2963.616131532671
 20
2221.467015809729
 30
0.0
 10
2963.625731175582
 20
2221.690387031054
 30
0.0
 10
2963.644670672764
 20
2222.1310845295
 30
0.0
 10
2963.796418403023
 20
2222.763194615402
 30
0.0
 10
2964.031501349952
 20
2223.332669785802
 30
0.0
 10
2964.347995236662
 20
2223.81345158963
 30
0.0
 10
2964.731016845108
 20
2224.178090319394
 30
0.0
 10
2965.120788555259
 20
2224.394001367038
 30
0.0
 10
2965.379371954781
 20
2224.44044070403
 30
0.0
 10
2965.47984593847
 20
2224.458484960528
 30
0.0
 11
2963.616131532671
 21
2221.467015809729
 31
0.0
 11
2963.66663190067
 21
2222.134578008128
 31
0.0
 11
2963.81560142067
 21
2222.768666169129
 31
0.0
 11
2964.05557025007
 21
2223.337484404928
 31
0.0
 11
2964.37450542067
 21
2223.812509682928
 31
0.0
 11
2964.756414212871
 21
2224.169922124929
 31
0.0
 11
2965.18214609987
 21
2224.391799471728
 31
0.0
 11
2965.47984593847
 21
2224.458484960528
 31
0.0
  0
SPLINE
  5
48F9
330
1B
100
AcDbEntity
  8
0
  6
Continuous
100
AcDbSpline
210
0.0
220
0.0
230
1.0
 70
     8
 71
     3
 72
     9
 73
     5
 74
     3
 42
0.0000000001
 43
0.0000000001
 44
0.0000000001
 40
0.0
 40
0.0
 40
0.0
 40
0.0
 40
0.6825288090461631
 40
1.371623577950006
 40
1.371623577950006
 40
1.371623577950006
 40
1.371623577950006
 10
2975.075154173471
 20
2226.467015809729
 30
0.0
 10
2975.299342402046
 20
2226.505864622397
 30
0.0
 10
2975.7498755607
 20
2226.583935975174
 30
0.0
 10
2976.197361013166
 20
2226.677917099447
 30
0.0
 10
2976.42217479547
 20
2226.725132605328
 30
0.0
 11
2975.075154173471
 21
2226.467015809729
 31
0.0
 11
2975.746964209871
 21
2226.587501701728
 31
0.0
 11
2976.42217479547
 21
2226.725132605328
 31
0.0
  0
SPLINE
  5
48FF
330
1B
100
AcDbEntity
  8
0
  6
Continuous
100
AcDbSpline
210
0.0
220
0.0
230
1.0
 70
     8
 71
     3
 72
     9
 73
     5
 74
     3
 42
0.0000000001
 43
0.0000000001
 44
0.0000000001
 40
0.0
 40
0.0
 40
0.0
 40
0.0
 40
0.6897479089515592
 40
1.371799076447734
 40
1.371799076447734
 40
1.371799076447734
 40
1.371799076447734
 10
2965.955083508871
 20
2226.725132605328
 30
0.0
 10
2966.180110138506
 20
2226.677870720056
 30
0.0
 10
2966.627652376335
 20
2226.583874334238
 30
0.0
 10
2967.078248449348
 20
2226.505822676641
 30
0.0
 10
2967.30228240807
 20
2226.467015809729
 30
0.0
 11
2965.955083508871
 21
2226.725132605328
 31
0.0
 11
2966.63093544767
 21
2226.587377987528
 31
0.0
 11
2967.30228240807
 21
2226.467015809729
 31
0.0
  0
SPLINE
  5
4901
330
1B
100
AcDbEntity
  8
0
  6
Continuous
100
AcDbSpline
210
0.0
220
0.0
230
1.0
 70
     8
 71
     3
 72
     9
 73
     5
 74
     3
 42
0.0000000001
 43
0.0000000001
 44
0.0000000001
 40
0.0
 40
0.0
 40
0.0
 40
0.0
 40
1.346861831339542
 40
2.706966748481889
 40
2.706966748481889
 40
2.706966748481889
 40
2.706966748481889
 10
2956.617682791271
 20
2226.467015809729
 30
0.0
 10
2957.064973999432
 20
2226.505739091797
 30
0.0
 10
2957.963954428757
 20
2226.583566404525
 30
0.0
 10
2958.861364713131
 20
2226.677790217083
 30
0.0
 10
2959.31226502107
 20
2226.725132605328
 30
0.0
 11
2956.617682791271
 21
2226.467015809729
 31
0.0
 11
2957.95916771087
 21
2226.587244771328
 31
0.0
 11
2959.31226502107
 21
2226.725132605328
 31
0.0
  0
SPLINE
  5
4902
330
1B
100
AcDbEntity
  8
0
  6
Continuous
100
AcDbSpline
210
0.0
220
0.0
230
1.0
 70
    24
 71
     3
 72
     8
 73
     4
 74
     2
 42
0.0000000001
 43
0.0000000001
 44
0.0000000001
 40
0.0
 40
0.0
 40
0.0
 40
0.0
 40
0.0204091643988524
 40
0.0204091643988524
 40
0.0204091643988524
 40
0.0204091643988524
 10
2923.821404284471
 20
2224.538494353928
 30
0.0
 10
2923.828116162671
 20
2224.537384288328
 30
0.0
 10
2923.834828040871
 20
2224.536274222728
 30
0.0
 10
2923.841539919071
 20
2224.535164157128
 30
0.0
 11
2923.821404284471
 21
2224.538494353928
 31
0.0
 11
2923.841539919071
 21
2224.535164157128
 31
0.0
  0
SPLINE
  5
4903
330
1B
100
AcDbEntity
  8
0
  6
Continuous
100
AcDbSpline
210
0.0
220
0.0
230
1.0
 70
     8
 71
     3
 72
     9
 73
     5
 74
     3
 42
0.0000000001
 43
0.0000000001
 44
0.0000000001
 40
0.0
 40
0.0
 40
0.0
 40
0.0
 40
0.6923826098101317
 40
1.359874622777951
 40
1.359874622777951
 40
1.359874622777951
 40
1.359874622777951
 10
2922.485708647471
 20
2224.793280952729
 30
0.0
 10
2922.711635624238
 20
2224.746031253215
 30
0.0
 10
2923.155367685027
 20
2224.653230442804
 30
0.0
 10
2923.602117795961
 20
2224.576270166932
 30
0.0
 10
2923.821404284471
 20
2224.538494353928
 30
0.0
 11
2922.485708647471
 21
2224.793280952729
 31
0.0
 11
2923.164271963671
 21
2224.655638283928
 31
0.0
 11
2923.821404284471
 21
2224.538494353928
 31
0.0
  0
SPLINE
  5
4905
330
1B
100
AcDbEntity
  8
0
  6
Continuous
100
AcDbSpline
210
0.0
220
0.0
230
1.0
 70
     8
 71
     3
 72
     9
 73
     5
 74
     3
 42
0.0000000001
 43
0.0000000001
 44
0.0000000001
 40
0.0
 40
0.0
 40
0.0
 40
0.0
 40
1.107450757741374
 40
1.789503045043113
 40
1.789503045043113
 40
1.789503045043113
 40
1.789503045043113
 10
2920.84517373447
 20
2226.725132605328
 30
0.0
 10
2921.212362554444
 20
2226.685163606912
 30
0.0
 10
2921.805694137682
 20
2226.620578663635
 30
0.0
 10
2922.391932395719
 20
2226.509393131563
 30
0.0
 10
2922.61537160467
 20
2226.467015809729
 30
0.0
 11
2920.84517373447
 21
2226.725132605328
 31
0.0
 11
2921.944023543471
 21
2226.587378193128
 31
0.0
 11
2922.61537160467
 21
2226.467015809729
 31
0.0
  0
SPLINE
  5
4907
330
1B
100
AcDbEntity
  8
0
  6
Continuous
100
AcDbSpline
210
0.0
220
0.0
230
1.0
 70
     8
 71
     3
 72
     9
 73
     5
 74
     3
 42
0.0000000001
 43
0.0000000001
 44
0.0000000001
 40
0.0
 40
0.0
 40
0.0
 40
0.0
 40
1.358707114579369
 40
2.706782948137132
 40
2.706782948137132
 40
2.706782948137132
 40
2.706782948137132
 10
2938.378082448071
 20
2226.725132605328
 30
0.0
 10
2938.828519302394
 20
2226.67783865407
 30
0.0
 10
2939.725868542279
 20
2226.583620805763
 30
0.0
 10
2940.624786482693
 20
2226.505782234329
 30
0.0
 10
2941.072480137871
 20
2226.467015809729
 30
0.0
 11
2938.378082448071
 21
2226.725132605328
 31
0.0
 11
2939.729788272871
 21
2226.587377799928
 31
0.0
 11
2941.072480137871
 21
2226.467015809729
 31
0.0
  0
ARC
  5
493E
330
1B
100
AcDbEntity
  8
0
  6
Continuous
100
AcDbCircle
 10
3574.556498599871
 20
2314.467015809728
 30
0.0
 40
2.0
100
AcDbArc
 50
90.00000000000019
 51
180.0
  0
ARC
  5
493F
330
1B
100
AcDbEntity
  8
0
  6
Continuous
100
AcDbCircle
 10
3570.556498599871
 20
2303.979724936528
 30
0.0
 40
2.0
100
AcDbArc
 50
312.4541502044004
 51
0.0
  0
ARC
  5
4941
330
1B
100
AcDbEntity
  8
0
  6
Continuous
100
AcDbCircle
 10
3570.556498599871
 20
2244.954306682928
 30
0.0
 40
2.0
100
AcDbArc
 50
0.0
 51
47.54584979559978
  0
ARC
  5
4944
330
1B
100
AcDbEntity
  8
0
  6
Continuous
100
AcDbCircle
 10
3624.556498599871
 20
2244.954306682928
 30
0.0
 40
2.0
100
AcDbArc
 50
132.4541502044003
 51
180.0
  0
ARC
  5
4946
330
1B
100
AcDbEntity
  8
0
  6
Continuous
100
AcDbCircle
 10
3624.556498599871
 20
2303.979724936528
 30
0.0
 40
2.0
100
AcDbArc
 50
180.0
 51
227.5458497955999
  0
ARC
  5
4947
330
1B
100
AcDbEntity
  8
0
  6
Continuous
100
AcDbCircle
 10
3620.556498599871
 20
2314.467015809728
 30
0.0
 40
2.0
100
AcDbArc
 50
0.0
 51
90.00000000000019
  0
ARC
  5
494C
330
1B
100
AcDbEntity
  8
0
  6
Continuous
100
AcDbCircle
 10
3615.55649859987
 20
2299.922723081728
 30
0.0
 40
3.0
100
AcDbArc
 50
164.4598579338013
 51
180.0
  0
ARC
  5
494D
330
1B
100
AcDbEntity
  8
0
  6
Continuous
100
AcDbCircle
 10
3579.55649859987
 20
2299.922723081728
 30
0.0
 40
3.0
100
AcDbArc
 50
0.0
 51
15.54014206619864
  0
ARC
  5
494F
330
1B
100
AcDbEntity
  8
0
  6
Continuous
100
AcDbCircle
 10
3581.556498599871
 20
2250.215980376528
 30
0.0
 40
1.0
100
AcDbArc
 50
273.0000690069006
 51
0.0014037432042464
  0
ARC
  5
495E
330
1B
100
AcDbEntity
  8
0
  6
Continuous
100
AcDbCircle
 10
3606.856498599871
 20
2263.533041213528
 30
0.0
 40
0.6
100
AcDbArc
 50
270.0000000000006
 51
0.0
  0
ARC
  5
495F
330
1B
100
AcDbEntity
  8
0
  6
Continuous
100
AcDbCircle
 10
3604.656498599871
 20
2262.333041213528
 30
0.0
 40
0.6
100
AcDbArc
 50
90.00000203170015
 51
180.0
  0
ARC
  5
4960
330
1B
100
AcDbEntity
  8
0
  6
Continuous
100
AcDbCircle
 10
3604.656498599871
 20
2253.533041213528
 30
0.0
 40
0.6
100
AcDbArc
 50
180.0
 51
269.9999549699006
  0
ARC
  5
4961
330
1B
100
AcDbEntity
  8
0
  6
Continuous
100
AcDbCircle
 10
3606.856498599871
 20
2252.333041213528
 30
0.0
 40
0.6
100
AcDbArc
 50
0.0
 51
90.00000000000019
  0
ARC
  5
4963
330
1B
100
AcDbEntity
  8
0
  6
Continuous
100
AcDbCircle
 10
3496.44517373447
 20
2311.359836132728
 30
0.0
 40
0.4
100
AcDbArc
 50
0.0
 51
30.00000000000003
  0
ARC
  5
4964
330
1B
100
AcDbEntity
  8
0
  6
Continuous
100
AcDbCircle
 10
3496.44517373447
 20
2237.574195486728
 30
0.0
 40
0.4
100
AcDbArc
 50
330.0000000000001
 51
0.0
  0
ARC
  5
49B3
330
1B
100
AcDbEntity
  8
0
  6
Continuous
100
AcDbCircle
 10
2925.21085915947
 20
2196.867015809728
 30
0.0
 40
0.4
100
AcDbArc
 50
225.0000759459997
 51
270.0000000000006
  0
ARC
  5
49B4
330
1B
100
AcDbEntity
  8
0
  6
Continuous
100
AcDbCircle
 10
2972.47948830967
 20
2196.867015809728
 30
0.0
 40
0.4
100
AcDbArc
 50
270.0000000000006
 51
314.9999240540013
  0
ARC
  5
49B5
330
1B
100
AcDbEntity
  8
0
  6
Continuous
100
AcDbCircle
 10
2974.445173734471
 20
2198.832701234728
 30
0.0
 40
0.4
100
AcDbArc
 50
314.9999465467034
 51
359.999998832106
  0
ARC
  5
49B6
330
1B
100
AcDbEntity
  8
0
  6
Continuous
100
AcDbCircle
 10
2923.24517373447
 20
2198.832701234728
 30
0.0
 40
0.4
100
AcDbArc
 50
180.0000011678939
 51
225.0000534532973
  0
ARC
  5
49B7
330
1B
100
AcDbEntity
  8
0
  6
Continuous
100
AcDbCircle
 10
2973.845173734471
 20
2210.709656496928
 30
0.0
 40
3.0
100
AcDbArc
 50
180.0
 51
224.9999944773049
  0
ARC
  5
49B8
330
1B
100
AcDbEntity
  8
0
  6
Continuous
100
AcDbCircle
 10
2923.84517373447
 20
2210.709656496928
 30
0.0
 40
3.0
100
AcDbArc
 50
315.0000055227045
 51
0.0
  0
ARC
  5
49BB
330
1B
100
AcDbEntity
  8
0
  6
Continuous
100
AcDbCircle
 10
2974.84517373447
 20
2226.725132605328
 30
0.0
 40
2.0
100
AcDbArc
 50
285.0000000000001
 51
0.0
  0
ARC
  5
49BC
330
1B
100
AcDbEntity
  8
0
  6
Continuous
100
AcDbCircle
 10
2922.84517373447
 20
2226.725132605328
 30
0.0
 40
2.0
100
AcDbArc
 50
180.0
 51
255.0000000000008
  0
ARC
  5
49BD
330
1B
100
AcDbEntity
  8
0
  6
Continuous
100
AcDbCircle
 10
2973.881868739471
 20
2226.467015809729
 30
0.0
 40
2.0
100
AcDbArc
 50
270.0000000000006
 51
285.0000000000001
  0
LINE
  5
49DD
330
1B
100
AcDbEntity
  8
0
  6
Continuous
100
AcDbLine
 10
3620.556498599871
 20
2316.467015809728
 30
0.0
 11
3574.556498599871
 21
2316.467015809728
 31
0.0
  0
LINE
  5
49DF
330
1B
100
AcDbEntity
  8
0
  6
Continuous
100
AcDbLine
 10
3587.07631036747
 20
2302.894577026728
 30
0.0
 11
3608.036686832071
 21
2302.894577026728
 31
0.0
  0
LINE
  5
49E1
330
1B
100
AcDbEntity
  8
0
  6
Continuous
100
AcDbLine
 10
3582.556498599871
 20
2299.922723081728
 30
0.0
 11
3612.556498599671
 21
2299.922723081728
 31
0.0
  0
LINE
  5
4A14
330
1B
100
AcDbEntity
  8
0
  6
Continuous
100
AcDbLine
 10
3622.55649859987
 20
2303.979724936528
 30
0.0
 11
3622.55649859987
 21
2314.467015809728
 31
0.0
  0
LINE
  5
4A15
330
1B
100
AcDbEntity
  8
0
  6
Continuous
100
AcDbLine
 10
3622.55649859987
 20
2234.467015809728
 30
0.0
 11
3622.55649859987
 21
2244.954306682928
 31
0.0
  0
LINE
  5
4A27
330
1B
100
AcDbEntity
  8
0
  6
Continuous
100
AcDbLine
 10
3612.556498599871
 20
2264.461520606728
 30
0.0
 11
3612.556498599871
 21
2299.922723081728
 31
0.0
  0
LINE
  5
4A28
330
1B
100
AcDbEntity
  8
0
  6
Continuous
100
AcDbLine
 10
3612.556498599871
 20
2250.216004876128
 30
0.0
 11
3612.556485405271
 21
2250.273125410128
 31
0.0
  0
LINE
  5
4A29
330
1B
100
AcDbEntity
  8
0
  6
Continuous
100
AcDbLine
 10
3612.544864397271
 20
2251.566643843328
 30
0.0
 11
3612.544864397271
 21
2263.167387781727
 31
0.0
  0
LINE
  5
4A2A
330
1B
100
AcDbEntity
  8
0
  6
Continuous
100
AcDbLine
 10
3612.044864398471
 20
2251.566643842128
 30
0.0
 11
3612.044864398471
 21
2263.167387787128
 31
0.0
  0
LINE
  5
4A2C
330
1B
100
AcDbEntity
  8
0
  6
Continuous
100
AcDbLine
 10
3608.926625441671
 20
2263.020685734128
 30
0.0
 11
3608.926625441671
 21
2251.713345885328
 31
0.0
  0
LINE
  5
4A2D
330
1B
100
AcDbEntity
  8
0
  6
Continuous
100
AcDbLine
 10
3612.442800322471
 20
2265.115980279528
 30
0.0
 11
3591.709754881671
 21
2265.115980271527
 31
0.0
  0
LINE
  5
4A33
330
1B
100
AcDbEntity
  8
0
  6
Continuous
100
AcDbLine
 10
3607.59823065527
 20
2262.877830130529
 30
0.0
 11
3607.598230663471
 21
2251.856201472728
 31
0.0
  0
LINE
  5
4A34
330
1B
100
AcDbEntity
  8
0
  6
Continuous
100
AcDbLine
 10
3607.456498599872
 20
2263.533041213528
 30
0.0
 11
3607.456498599872
 21
2263.805979654128
 31
0.0
  0
LINE
  5
4A35
330
1B
100
AcDbEntity
  8
0
  6
Continuous
100
AcDbLine
 10
3607.456498599872
 20
2250.933041213528
 30
0.0
 11
3607.456498599872
 21
2252.333041213528
 31
0.0
  0
LINE
  5
4A3E
330
1B
100
AcDbEntity
  8
0
  6
Continuous
100
AcDbLine
 10
3604.056498599871
 20
2253.533041213528
 30
0.0
 11
3604.056498599871
 21
2262.333041213528
 31
0.0
  0
LINE
  5
4A41
330
1B
100
AcDbEntity
  8
0
  6
Continuous
100
AcDbLine
 10
3611.502319865271
 20
2264.117350858728
 30
0.0
 11
3592.079137408271
 21
2264.117350858928
 31
0.0
  0
LINE
  5
4A42
330
1B
100
AcDbEntity
  8
0
  6
Continuous
100
AcDbLine
 10
3607.32986211147
 20
2263.915458432928
 30
0.0
 11
3595.197798701671
 21
2263.915458457128
 31
0.0
  0
LINE
  5
4A43
330
1B
100
AcDbEntity
  8
0
  6
Continuous
100
AcDbLine
 10
3607.456498599872
 20
2263.533041213528
 30
0.0
 11
3594.398660000871
 21
2263.533041213528
 31
0.0
  0
LINE
  5
4A44
330
1B
100
AcDbEntity
  8
0
  6
Continuous
100
AcDbLine
 10
3582.568132802271
 20
2263.167387767328
 30
0.0
 11
3582.568963817071
 21
2263.167387780928
 31
0.0
  0
LINE
  5
4A45
330
1B
100
AcDbEntity
  8
0
  6
Continuous
100
AcDbLine
 10
3612.044864398471
 20
2263.167387785728
 30
0.0
 11
3612.544864265271
 21
2263.167387778728
 31
0.0
  0
LINE
  5
4A46
330
1B
100
AcDbEntity
  8
0
  6
Continuous
100
AcDbLine
 10
3590.568132800871
 20
2263.167387783528
 30
0.0
 11
3589.533249525271
 21
2263.167387783528
 31
0.0
  0
LINE
  5
4A47
330
1B
100
AcDbEntity
  8
0
  6
Continuous
100
AcDbLine
 10
3606.856524040471
 20
2262.933041213528
 30
0.0
 11
3594.186371754471
 21
2262.933041213528
 31
0.0
  0
LINE
  5
4A48
330
1B
100
AcDbEntity
  8
0
  6
Continuous
100
AcDbLine
 10
3594.18637175807
 20
2262.333041213528
 30
0.0
 11
3604.056498599871
 21
2262.333041213528
 31
0.0
  0
LINE
  5
4A5A
330
1B
100
AcDbEntity
  8
0
  6
Continuous
100
AcDbLine
 10
3594.186371754471
 20
2262.919588044328
 30
0.0
 11
3594.186371267071
 21
2262.919478063528
 31
0.0
  0
LINE
  5
4A5B
330
1B
100
AcDbEntity
  8
DEFAULT_1
  6
CENTER
100
AcDbLine
 10
3597.55649859987
 20
2284.967015809728
 30
0.0
 11
3597.55649859987
 21
2339.067015809728
 31
0.0
  0
LINE
  5
4A5C
330
1B
100
AcDbEntity
  8
DEFAULT_1
  6
CENTER
100
AcDbLine
 10
3597.55649859987
 20
2263.967015809728
 30
0.0
 11
3597.556498599871
 21
2186.467015809729
 31
0.0
  0
LINE
  5
4A5D
330
1B
100
AcDbEntity
  8
0
  6
Continuous
100
AcDbLine
 10
3597.55649859987
 20
2276.567015809728
 30
0.0
 11
3597.55649859987
 21
2272.367015809727
 31
0.0
  0
LINE
  5
4A5F
330
1B
100
AcDbEntity
  8
0
  6
Continuous
100
AcDbLine
 10
3594.18637175807
 20
2262.919682236928
 30
0.0
 11
3594.18637175807
 21
2251.814349389328
 31
0.0
  0
LINE
  5
4A63
330
1B
100
AcDbEntity
  8
0
  6
Continuous
100
AcDbLine
 10
3614.241344156271
 20
2249.178716795728
 30
0.0
 11
3613.504161440871
 21
2249.217350904728
 31
0.0
  0
LINE
  5
4A64
330
1B
100
AcDbEntity
  8
0
  6
Continuous
100
AcDbLine
 10
3594.18637175807
 20
2253.533041213528
 30
0.0
 11
3604.056498599871
 21
2253.533041213528
 31
0.0
  0
LINE
  5
4A65
330
1B
100
AcDbEntity
  8
0
  6
Continuous
100
AcDbLine
 10
3606.856518673271
 20
2252.933041213528
 30
0.0
 11
3594.18637175807
 21
2252.933041213528
 31
0.0
  0
LINE
  5
4A66
330
1B
100
AcDbEntity
  8
0
  6
Continuous
100
AcDbLine
 10
3607.456498599872
 20
2252.333041213528
 30
0.0
 11
3594.18637175807
 21
2252.333041213528
 31
0.0
  0
LINE
  5
4A67
330
1B
100
AcDbEntity
  8
0
  6
Continuous
100
AcDbLine
 10
3582.568132802271
 20
2251.566643845328
 30
0.0
 11
3582.568963817071
 21
2251.566643845727
 31
0.0
  0
LINE
  5
4A68
330
1B
100
AcDbEntity
  8
0
  6
Continuous
100
AcDbLine
 10
3612.044864398471
 20
2251.566643843528
 30
0.0
 11
3612.544033382471
 21
2251.566643842928
 31
0.0
  0
LINE
  5
4A69
330
1B
100
AcDbEntity
  8
0
  6
Continuous
100
AcDbLine
 10
3590.568132800871
 20
2251.566643845128
 30
0.0
 11
3589.53324952607
 21
2251.566643838528
 31
0.0
  0
LINE
  5
4A6B
330
1B
100
AcDbEntity
  8
0
  6
Continuous
100
AcDbLine
 10
3607.329862111671
 20
2250.818573186728
 30
0.0
 11
3595.197798465471
 21
2250.818573162328
 31
0.0
  0
LINE
  5
4A6C
330
1B
100
AcDbEntity
  8
0
  6
Continuous
100
AcDbLine
 10
3592.079137403671
 20
2250.616680760328
 30
0.0
 11
3611.50231986967
 21
2250.616680760528
 31
0.0
  0
LINE
  5
4A6D
330
1B
100
AcDbEntity
  8
0
  6
Continuous
100
AcDbLine
 10
3590.094648529271
 20
2250.216005378528
 30
0.0
 11
3582.556498599871
 21
2250.216004637728
 31
0.0
  0
LINE
  5
4A6E
330
1B
100
AcDbEntity
  8
0
  6
Continuous
100
AcDbLine
 10
3591.727880801871
 20
2249.919452915328
 30
0.0
 11
3612.396650301071
 21
2249.919452915328
 31
0.0
  0
LINE
  5
4A6F
330
1B
100
AcDbEntity
  8
0
  6
Continuous
100
AcDbLine
 10
3580.871653043271
 20
2249.178716795728
 30
0.0
 11
3581.608835758871
 21
2249.217350904728
 31
0.0
  0
LINE
  5
4A71
330
1B
100
AcDbEntity
  8
0
  6
Continuous
100
AcDbLine
 10
3590.568132800871
 20
2263.167387784728
 30
0.0
 11
3590.568132800871
 21
2251.566643843927
 31
0.0
  0
LINE
  5
4A72
330
1B
100
AcDbEntity
  8
0
  6
Continuous
100
AcDbLine
 10
3589.533249525271
 20
2263.167387783528
 30
0.0
 11
3589.53324952607
 21
2251.566643838528
 31
0.0
  0
LINE
  5
4A74
330
1B
100
AcDbEntity
  8
0
  6
Continuous
100
AcDbLine
 10
3613.29099379707
 20
2249.222224407128
 30
0.0
 11
3591.376613099071
 21
2249.222224407928
 31
0.0
  0
LINE
  5
4A75
330
1B
100
AcDbEntity
  8
0
  6
Continuous
100
AcDbLine
 10
3589.62326263427
 20
2249.217350903728
 30
0.0
 11
3581.608835765871
 21
2249.217350905128
 31
0.0
  0
LINE
  5
4A77
330
1B
100
AcDbEntity
  8
0
  6
Continuous
100
AcDbLine
 10
3613.099743498471
 20
2248.457028932328
 30
0.0
 11
3582.013404039871
 21
2248.457028932328
 31
0.0
  0
LINE
  5
4A78
330
1B
100
AcDbEntity
  8
0
  6
Continuous
100
AcDbLine
 10
3609.768297470871
 20
2246.738623948728
 30
0.0
 11
3585.344696305671
 21
2246.738625411929
 31
0.0
  0
LINE
  5
4A7B
330
1B
100
AcDbEntity
  8
0
  6
Continuous
100
AcDbLine
 10
3582.556563175871
 20
2250.216005362928
 30
0.0
 11
3582.556511794471
 21
2250.273125468328
 31
0.0
  0
LINE
  5
4A7C
330
1B
100
AcDbEntity
  8
0
  6
Continuous
100
AcDbLine
 10
3582.568132802271
 20
2251.566643845528
 30
0.0
 11
3582.568132802271
 21
2263.167387770128
 31
0.0
  0
LINE
  5
4A7D
330
1B
100
AcDbEntity
  8
0
  6
Continuous
100
AcDbLine
 10
3582.556498599871
 20
2264.461520604728
 30
0.0
 11
3582.556498599871
 21
2299.922723081728
 31
0.0
  0
LINE
  5
4A8B
330
1B
100
AcDbEntity
  8
0
  6
Continuous
100
AcDbLine
 10
3572.55649859987
 20
2244.954306682928
 30
0.0
 11
3572.55649859987
 21
2234.467015809728
 31
0.0
  0
LINE
  5
4A8C
330
1B
100
AcDbEntity
  8
0
  6
Continuous
100
AcDbLine
 10
3572.55649859987
 20
2314.467015809728
 30
0.0
 11
3572.55649859987
 21
2303.979724936528
 31
0.0
  0
LINE
  5
4ABB
330
1B
100
AcDbEntity
  8
0
  6
Continuous
100
AcDbLine
 10
3496.791583896071
 20
2311.559836132728
 30
0.0
 11
3493.958422388671
 21
2316.467015809728
 31
0.0
  0
LINE
  5
4ABC
330
1B
100
AcDbEntity
  8
0
  6
Continuous
100
AcDbLine
 10
3496.791583896071
 20
2237.374195486728
 30
0.0
 11
3493.958422388671
 21
2232.467015809728
 31
0.0
  0
LINE
  5
4AC1
330
1B
100
AcDbEntity
  8
0
  6
Continuous
100
AcDbLine
 10
3496.84517373447
 20
2311.359836132728
 30
0.0
 11
3496.84517373447
 21
2237.574195486728
 31
0.0
  0
LINE
  5
4AD2
330
1B
100
AcDbEntity
  8
DEFAULT_1
  6
CENTER
100
AcDbLine
 10
3448.845173734471
 20
2186.467015809729
 30
0.0
 11
3448.845173734471
 21
2339.067015809728
 31
0.0
  0
LINE
  5
4B01
330
1B
100
AcDbEntity
  8
DEFAULT_1
  6
CENTER
100
AcDbLine
 10
3348.845173734471
 20
2186.467015809729
 30
0.0
 11
3348.845173734471
 21
2339.067015809728
 31
0.0
  0
LINE
  5
4B60
330
1B
100
AcDbEntity
  8
0
  6
Continuous
100
AcDbLine
 10
2903.731925080471
 20
2316.467015809728
 30
0.0
 11
3493.958422388671
 21
2316.467015809728
 31
0.0
  0
LINE
  5
4B61
330
1B
100
AcDbEntity
  8
0
  6
Continuous
100
AcDbLine
 10
3491.574966863162
 20
2314.467015809729
 30
0.0
 11
2906.178651720269
 21
2314.467015809729
 31
0.0
  0
LINE
  5
4B62
330
1B
100
AcDbEntity
  8
0
  6
Continuous
100
AcDbLine
 10
3496.477678961362
 20
2303.979724936528
 30
0.0
 11
2901.311274542035
 21
2303.979724936528
 31
0.0
  0
LINE
  5
4B63
330
1B
100
AcDbEntity
  8
0
  6
Continuous
100
AcDbLine
 10
3496.84517373447
 20
2302.504089480128
 30
0.0
 11
2900.926028442915
 21
2302.504089480128
 31
0.0
  0
LINE
  5
4B6D
330
1B
100
AcDbEntity
  8
DEFAULT_1
  6
CENTER
100
AcDbLine
 10
3248.845173734471
 20
2186.467015809729
 30
0.0
 11
3248.845173734471
 21
2339.067015809728
 31
0.0
  0
LINE
  5
4B71
330
1B
100
AcDbEntity
  8
0
  6
Continuous
100
AcDbLine
 10
2974.399506829671
 20
2224.535164157128
 30
0.0
 11
2975.36281182467
 21
2224.793280952729
 31
0.0
  0
LINE
  5
4B87
330
1B
100
AcDbEntity
  8
DEFAULT_1
  6
CENTER
100
AcDbLine
 10
2890.845173734471
 20
2274.467015809728
 30
0.0
 11
3514.353995009216
 21
2274.467015809728
 31
0.0
  0
LINE
  5
4B94
330
1B
100
AcDbEntity
  8
0
  6
Continuous
100
AcDbLine
 10
2900.926028442916
 20
2246.429942139328
 30
0.0
 11
3496.84517373447
 21
2246.429942139328
 31
0.0
  0
LINE
  5
4B95
330
1B
100
AcDbEntity
  8
0
  6
Continuous
100
AcDbLine
 10
2901.311274542035
 20
2244.954306682928
 30
0.0
 11
3496.45363833107
 21
2244.954306682928
 31
0.0
  0
LWPOLYLINE
  5
4B96
330
1B
100
AcDbEntity
  8
0
  6
Continuous
100
AcDbPolyline
 90
        3
 70
     0
 43
0.0
 10
2973.600232670071
 20
2224.489312278728
 10
2973.47161987267
 20
2224.472596014328
 10
2973.34232462967
 20
2224.467015809728
  0
LINE
  5
4BB7
330
1B
100
AcDbEntity
  8
0
  6
Continuous
100
AcDbLine
 10
3491.55092623287
 20
2234.467015809729
 30
0.0
 11
2906.178651720271
 21
2234.467015809729
 31
0.0
  0
LINE
  5
4BC4
330
1B
100
AcDbEntity
  8
0
  6
Continuous
100
AcDbLine
 10
3066.50869546727
 20
2232.467015809728
 30
0.0
 11
3493.958422388671
 21
2232.467015809728
 31
0.0
  0
LINE
  5
4BC5
330
1B
100
AcDbEntity
  8
0
  6
Continuous
100
AcDbLine
 10
2965.955083508871
 20
2232.467015809729
 30
0.0
 11
3065.955083508871
 21
2232.467015809728
 31
0.0
  0
LINE
  5
4BC6
330
1B
100
AcDbEntity
  8
0
  6
Continuous
100
AcDbLine
 10
2903.731925080471
 20
2232.467015809728
 30
0.0
 11
2965.955083508871
 21
2232.467015809728
 31
0.0
  0
LINE
  5
4BDB
330
1B
100
AcDbEntity
  8
0
  6
Continuous
100
AcDbLine
 10
2976.42217479547
 20
2226.725132605328
 30
0.0
 11
2976.845173734471
 21
2226.725132605328
 31
0.0
  0
LINE
  5
4BDC
330
1B
100
AcDbEntity
  8
0
  6
Continuous
100
AcDbLine
 10
2959.31226502107
 20
2226.725132605328
 30
0.0
 11
2965.955083508871
 21
2226.725132605328
 31
0.0
  0
LINE
  5
4BDD
330
1B
100
AcDbEntity
  8
0
  6
Continuous
100
AcDbLine
 10
2931.735263960271
 20
2226.725132605328
 30
0.0
 11
2938.378082448071
 21
2226.725132605328
 31
0.0
  0
LINE
  5
4BEE
330
1B
100
AcDbEntity
  8
0
  6
Continuous
100
AcDbLine
 10
2967.30228240807
 20
2226.467015809729
 30
0.0
 11
2975.075154173471
 21
2226.467015809729
 31
0.0
  0
LINE
  5
4BEF
330
1B
100
AcDbEntity
  8
0
  6
Continuous
100
AcDbLine
 10
2941.072480137871
 20
2226.467015809729
 30
0.0
 11
2956.617682791271
 21
2226.467015809729
 31
0.0
  0
LINE
  5
4BF0
330
1B
100
AcDbEntity
  8
0
  6
Continuous
100
AcDbLine
 10
2922.61537160467
 20
2226.467015809729
 30
0.0
 11
2930.38808936287
 21
2226.467015809729
 31
0.0
  0
LINE
  5
4C08
330
1B
100
AcDbEntity
  8
0
  6
Continuous
100
AcDbLine
 10
2922.327535658271
 20
2224.793280952729
 30
0.0
 11
2922.485708647471
 21
2224.793280952729
 31
0.0
  0
LINE
  5
4C21
330
1B
100
AcDbEntity
  8
0
  6
Continuous
100
AcDbLine
 10
2973.34253483627
 20
2224.467015821328
 30
0.0
 11
2973.34232462967
 21
2224.467015809728
 31
0.0
  0
LINE
  5
4C39
330
1B
100
AcDbEntity
  8
0
  6
Continuous
100
AcDbLine
 10
2973.282803638671
 20
2224.467015809728
 30
0.0
 11
2973.838743247871
 21
2224.467015809728
 31
0.0
  0
LINE
  5
4C3A
330
1B
100
AcDbEntity
  8
0
  6
Continuous
100
AcDbLine
 10
2956.497624322471
 20
2224.467015809728
 30
0.0
 11
2965.63035305067
 21
2224.467015809728
 31
0.0
  0
LINE
  5
4C3B
330
1B
100
AcDbEntity
  8
0
  6
Continuous
100
AcDbLine
 10
2932.059994418471
 20
2224.467015809728
 30
0.0
 11
2941.19272314667
 21
2224.467015809728
 31
0.0
  0
LINE
  5
4C52
330
1B
100
AcDbEntity
  8
0
  6
Continuous
100
AcDbLine
 10
2955.57933025187
 20
2221.467015809729
 30
0.0
 11
2963.616131532671
 21
2221.467015809729
 31
0.0
  0
LWPOLYLINE
  5
4C7A
330
1B
100
AcDbEntity
  8
0
  6
Continuous
100
AcDbPolyline
 90
        6
 70
     0
 43
0.0
 10
2924.29115481007
 20
2224.467861327928
 10
2924.23427687227
 20
2224.470398588528
 10
2924.17746778967
 20
2224.474626413528
 10
2924.120828182871
 20
2224.480539675528
 10
2924.06440936867
 20
2224.488132316328
 10
2924.008210766871
 20
2224.497400303728
  0
LINE
  5
4C7F
330
1B
100
AcDbEntity
  8
0
  6
Continuous
100
AcDbLine
 10
2924.348022839471
 20
2224.467015809728
 30
0.0
 11
2924.291154810071
 21
2224.467861327928
 31
0.0
  0
LINE
  5
4C85
330
1B
100
AcDbEntity
  8
0
  6
Continuous
100
AcDbLine
 10
2926.845173734671
 20
2210.709656496928
 30
0.0
 11
2970.84517373447
 21
2210.709656496928
 31
0.0
  0
LINE
  5
4C8B
330
1B
100
AcDbEntity
  8
0
  6
Continuous
100
AcDbLine
 10
2925.96649429387
 20
2208.588336368928
 30
0.0
 11
2971.723853175271
 21
2208.588336368928
 31
0.0
  0
LINE
  5
4C91
330
1B
100
AcDbEntity
  8
0
  6
Continuous
100
AcDbLine
 10
2924.54517373447
 20
2207.167012757928
 30
0.0
 11
2973.145173734471
 21
2207.167012757928
 31
0.0
  0
LINE
  5
4C97
330
1B
100
AcDbEntity
  8
0
  6
Continuous
100
AcDbLine
 10
2922.84517373447
 20
2205.467015809729
 30
0.0
 11
2974.84517373447
 21
2205.467015809729
 31
0.0
  0
LINE
  5
4CA8
330
1B
100
AcDbEntity
  8
DEFAULT_1
  6
CENTER
100
AcDbLine
 10
3148.84517373447
 20
2186.467015809729
 30
0.0
 11
3148.84517373447
 21
2339.067015809728
 31
0.0
  0
LINE
  5
4CB5
330
1B
100
AcDbEntity
  8
0
  6
Continuous
100
AcDbLine
 10
2974.72801616627
 20
2198.549858241728
 30
0.0
 11
2922.96233130287
 21
2198.549858241728
 31
0.0
  0
LINE
  5
4CC0
330
1B
100
AcDbEntity
  8
0
  6
Continuous
100
AcDbLine
 10
2924.54517373447
 20
2196.967015809728
 30
0.0
 11
2973.145173734471
 21
2196.967015809728
 31
0.0
  0
LINE
  5
4CC7
330
1B
100
AcDbEntity
  8
0
  6
Continuous
100
AcDbLine
 10
2972.479424797871
 20
2196.467015809728
 30
0.0
 11
2925.210922671271
 21
2196.467015809728
 31
0.0
  0
LWPOLYLINE
  5
4CE7
330
1B
100
AcDbEntity
  8
0
  6
Continuous
100
AcDbPolyline
 90
        4
 70
     0
 43
0.0
 10
2924.008210766871
 20
2224.497400303728
 10
2923.952276415671
 20
2224.508336701128
 10
2923.89669762587
 20
2224.520929033528
 10
2923.841539919071
 20
2224.535164157128
  0
LINE
  5
4CF2
330
1B
100
AcDbEntity
  8
0
  6
Continuous
100
AcDbLine
 10
2972.76233064727
 20
2196.584172722328
 30
0.0
 11
2974.728016183071
 21
2198.549858258328
 31
0.0
  0
LINE
  5
4D06
330
1B
100
AcDbEntity
  8
0
  6
Continuous
100
AcDbLine
 10
2922.84517373447
 20
2205.467015809729
 30
0.0
 11
2925.96649428267
 21
2208.588336357728
 31
0.0
  0
LINE
  5
4D0B
330
1B
100
AcDbEntity
  8
DEFAULT_1
  6
CENTER
100
AcDbLine
 10
3048.84517373447
 20
2186.467015809729
 30
0.0
 11
3048.84517373447
 21
2339.067015809728
 31
0.0
  0
LINE
  5
4D22
330
1B
100
AcDbEntity
  8
0
  6
Continuous
100
AcDbLine
 10
2974.84517373447
 20
2205.467015809729
 30
0.0
 11
2971.723853186471
 21
2208.588336357728
 31
0.0
  0
LINE
  5
4D23
330
1B
100
AcDbEntity
  8
0
  6
Continuous
100
AcDbLine
 10
2924.928016821871
 20
2196.584172722328
 30
0.0
 11
2922.96233128587
 21
2198.549858258328
 31
0.0
  0
LINE
  5
4D29
330
1B
100
AcDbEntity
  8
0
  6
Continuous
100
AcDbLine
 10
2976.845173734471
 20
2226.725132605328
 30
0.0
 11
2976.845173734471
 21
2232.467015809728
 31
0.0
  0
LINE
  5
4D2C
330
1B
100
AcDbEntity
  8
0
  6
Continuous
100
AcDbLine
 10
2974.84517373447
 20
2198.832701226528
 30
0.0
 11
2974.84517373447
 21
2205.467015809729
 31
0.0
  0
LINE
  5
4D2D
330
1B
100
AcDbEntity
  8
0
  6
Continuous
100
AcDbLine
 10
2973.145173734471
 20
2196.967015809728
 30
0.0
 11
2973.145173734471
 21
2207.167015809728
 31
0.0
  0
LINE
  5
4D2E
330
1B
100
AcDbEntity
  8
0
  6
Continuous
100
AcDbLine
 10
2970.84517373447
 20
2210.709656496928
 30
0.0
 11
2970.84517373447
 21
2221.467015809729
 31
0.0
  0
LINE
  5
4D2F
330
1B
100
AcDbEntity
  8
0
  6
Continuous
100
AcDbLine
 10
2965.955083508871
 20
2232.467015809728
 30
0.0
 11
2965.955083508871
 21
2226.725132605328
 31
0.0
  0
LINE
  5
4D33
330
1B
100
AcDbEntity
  8
0
  6
Continuous
100
AcDbLine
 10
2960.11742588927
 20
2226.725132605328
 30
0.0
 11
2960.11742588927
 21
2232.467015809728
 31
0.0
  0
LINE
  5
4D35
330
1B
100
AcDbEntity
  8
0
  6
Continuous
100
AcDbLine
 10
2938.378082447871
 20
2226.725132605328
 30
0.0
 11
2937.986020096837
 21
2224.467015809728
 31
0.0
  0
LINE
  5
4D38
330
1B
100
AcDbEntity
  8
DEFAULT_1
  6
CENTER
100
AcDbLine
 10
2948.845173734471
 20
2186.467015809729
 30
0.0
 11
2948.845173734471
 21
2339.067015809728
 31
0.0
  0
LINE
  5
4D3A
330
1B
100
AcDbEntity
  8
0
  6
Continuous
100
AcDbLine
 10
2938.378082448071
 20
2232.467015809728
 30
0.0
 11
2938.378082448071
 21
2226.725132605328
 31
0.0
  0
LINE
  5
4D42
330
1B
100
AcDbEntity
  8
0
  6
Continuous
100
AcDbLine
 10
2931.735263960271
 20
2226.725132605328
 30
0.0
 11
2931.735263960271
 21
2232.467015809728
 31
0.0
  0
LINE
  5
4D43
330
1B
100
AcDbEntity
  8
0
  6
Continuous
100
AcDbLine
 10
2926.84517373447
 20
2210.709656496928
 30
0.0
 11
2926.84517373447
 21
2221.467015809729
 31
0.0
  0
LINE
  5
4D44
330
1B
100
AcDbEntity
  8
0
  6
Continuous
100
AcDbLine
 10
2924.54517373447
 20
2196.967015809728
 30
0.0
 11
2924.54517373447
 21
2207.167015809728
 31
0.0
  0
LINE
  5
4D45
330
1B
100
AcDbEntity
  8
0
  6
Continuous
100
AcDbLine
 10
2922.84517373447
 20
2198.832701226528
 30
0.0
 11
2922.84517373447
 21
2205.467015809729
 31
0.0
  0
LINE
  5
4D48
330
1B
100
AcDbEntity
  8
0
  6
Continuous
100
AcDbLine
 10
2920.84517373447
 20
2226.725132605328
 30
0.0
 11
2920.84517373447
 21
2232.467015809728
 31
0.0
  0
SPLINE
  5
4E7C
330
1B
100
AcDbEntity
  8
0
  6
Continuous
 62
     0
100
AcDbSpline
210
0.0
220
0.0
230
1.0
 70
     8
 71
     3
 72
    17
 73
    13
 74
    11
 42
0.0000000001
 43
0.0000000001
 44
0.0000000001
 40
0.0
 40
0.0
 40
0.0
 40
0.0
 40
0.0790152363911493
 40
0.1654780735725916
 40
0.284967613065028
 40
0.4436838892338863
 40
0.6410712001769624
 40
0.8795597322963018
 40
1.151875649782729
 40
1.463824878510295
 40
1.800977896421562
 40
2.17058705273013
 40
2.17058705273013
 40
2.17058705273013
 40
2.17058705273013
 10
2906.59167304267
 20
2316.467015809729
 30
0.0
 10
2906.618794689244
 20
2316.461963718038
 30
0.0
 10
2906.675594339947
 20
2316.451383348495
 30
0.0
 10
2906.725481535951
 20
2316.360256911501
 30
0.0
 10
2906.742613379969
 20
2316.240765966113
 30
0.0
 10
2906.736292544023
 20
2316.081079420406
 30
0.0
 10
2906.704907391956
 20
2315.885357357231
 30
0.0
 10
2906.649082725238
 20
2315.655707190447
 30
0.0
 10
2906.568094105789
 20
2315.393570302859
 30
0.0
 10
2906.462556963438
 20
2315.105020304485
 30
0.0
 10
2906.332757272843
 20
2314.791083166808
 30
0.0
 10
2906.231569167672
 20
2314.578295494574
 30
0.0
 10
2906.178651720269
 20
2314.467015809729
 30
0.0
 11
2906.59167304267
 21
2316.467015809729
 31
0.0
 11
2906.66669251567
 21
2316.442206814329
 31
0.0
 11
2906.71505051727
 21
2316.370531672929
 31
0.0
 11
2906.73767745207
 21
2316.253204046729
 31
0.0
 11
2906.73401268947
 21
2316.094530085929
 31
0.0
 11
2906.70474900607
 21
2315.899324073329
 31
0.0
 11
2906.64956582607
 21
2315.667307701929
 31
0.0
 11
2906.56995179867
 21
2315.406889642729
 31
0.0
 11
2906.46351312407
 21
2315.113660841529
 31
0.0
 11
2906.334358604869
 21
2314.802226630729
 31
0.0
 11
2906.178651720269
 21
2314.467015809729
 31
0.0
  0
SPLINE
  5
4E7D
330
1B
100
AcDbEntity
  8
0
  6
Continuous
 62
     0
100
AcDbSpline
210
0.0
220
0.0
230
1.0
 70
     8
 71
     3
 72
    13
 73
     9
 74
     7
 42
0.0000000001
 43
0.0000000001
 44
0.0000000001
 40
0.0
 40
0.0
 40
0.0
 40
0.0
 40
0.615925869713937
 40
1.196987421088828
 40
1.729777095035264
 40
2.209690828980872
 40
2.637422089554768
 40
3.014542979681126
 40
3.014542979681126
 40
3.014542979681126
 40
3.014542979681126
 10
2901.66072737287
 20
2304.847930871529
 30
0.0
 10
2901.579567137657
 20
2304.659297913234
 30
0.0
 10
2901.421840720535
 20
2304.292709514557
 30
0.0
 10
2901.227363350831
 20
2303.749535931785
 30
0.0
 10
2901.074314903356
 20
2303.240437826364
 30
0.0
 10
2900.967061777718
 20
2302.772244115726
 30
0.0
 10
2900.898633490343
 20
2302.348562335137
 30
0.0
 10
2900.888944217109
 20
2302.080236793898
 30
0.0
 10
2900.88440421887
 20
2301.954510389529
 30
0.0
 11
2901.66072737287
 21
2304.847930871529
 31
0.0
 11
2901.42337625547
 21
2304.279574360128
 31
0.0
 11
2901.22690727627
 21
2303.732735748929
 31
0.0
 11
2901.07528358927
 21
2303.221976417928
 31
0.0
 11
2900.96855526727
 21
2302.754080855529
 31
0.0
 11
2900.905308410071
 21
2302.331051463729
 31
0.0
 11
2900.88440421887
 21
2301.954510389529
 31
0.0
  0
SPLINE
  5
4E7E
330
1B
100
AcDbEntity
  8
0
  6
Continuous
 62
     0
100
AcDbSpline
210
0.0
220
0.0
230
1.0
 70
     8
 71
     3
 72
    10
 73
     6
 74
     4
 42
0.0000000001
 43
0.0000000001
 44
0.0000000001
 40
0.0
 40
0.0
 40
0.0
 40
0.0
 40
3.944272301259385
 40
7.455150329774988
 40
10.62775311740731
 40
10.62775311740731
 40
10.62775311740731
 40
10.62775311740731
 10
2906.178651720269
 20
2314.467015809729
 30
0.0
 10
2905.604039947017
 20
2313.284465740984
 30
0.0
 10
2904.517954397221
 20
2311.049303495171
 30
0.0
 10
2903.011237352217
 20
2307.842917655944
 30
0.0
 10
2902.095446871755
 20
2305.811995687042
 30
0.0
 10
2901.66072737287
 20
2304.847930871529
 30
0.0
 11
2906.178651720269
 21
2314.467015809729
 31
0.0
 11
2904.46297708947
 21
2310.915432423729
 31
0.0
 11
2902.97203784087
 21
2307.736853387729
 31
0.0
 11
2901.66072737287
 21
2304.847930871529
 31
0.0
  0
ARC
  5
4E7F
330
1B
100
AcDbEntity
  8
0
  6
Continuous
100
AcDbCircle
 10
2901.245173734471
 20
2311.359836132728
 30
0.0
 40
0.4
100
AcDbArc
 50
150.0
 51
180.0
  0
LINE
  5
4E80
330
1B
100
AcDbEntity
  8
0
  6
Continuous
100
AcDbLine
 10
2903.731925080271
 20
2316.467015809728
 30
0.0
 11
2900.89876357287
 21
2311.559836132728
 31
0.0
  0
LINE
  5
4E81
330
1B
100
AcDbEntity
  8
0
  6
Continuous
 62
     0
100
AcDbLine
 10
2900.845173734471
 20
2311.359836132728
 30
0.0
 11
2900.884404218871
 21
2237.074195486728
 31
0.0
  0
LINE
  5
4E82
330
1B
100
AcDbEntity
  8
0
  6
Continuous
 62
     0
100
AcDbLine
 10
2900.93799405747
 20
2236.874195486728
 30
0.0
 11
2903.482480430271
 21
2232.467015809728
 31
0.0
  0
ARC
  5
4E83
330
1B
100
AcDbEntity
  8
0
  6
Continuous
 62
     0
100
AcDbCircle
 10
2901.28440421887
 20
2237.074195486728
 30
0.0
 40
0.4
100
AcDbArc
 50
180.0
 51
210.0
  0
SPLINE
  5
4E84
330
1B
100
AcDbEntity
  8
0
  6
Continuous
 62
     0
100
AcDbSpline
210
0.0
220
0.0
230
1.0
 70
     8
 71
     3
 72
    10
 73
     6
 74
     4
 42
0.0000000001
 43
0.0000000001
 44
0.0000000001
 40
0.0
 40
0.0
 40
0.0
 40
0.0
 40
3.944272301259173
 40
7.45515032977497
 40
10.62775311740771
 40
10.62775311740771
 40
10.62775311740771
 40
10.62775311740771
 10
2906.178651720271
 20
2234.467015809728
 30
0.0
 10
2905.604039947019
 20
2235.649565878473
 30
0.0
 10
2904.517954397223
 20
2237.884728124287
 30
0.0
 10
2903.011237352218
 20
2241.091113963513
 30
0.0
 10
2902.095446871755
 20
2243.122035932414
 30
0.0
 10
2901.660727372871
 20
2244.086100747928
 30
0.0
 11
2906.178651720271
 21
2234.467015809728
 31
0.0
 11
2904.462977089471
 21
2238.018599195728
 31
0.0
 11
2902.972037840871
 21
2241.197178231728
 31
0.0
 11
2901.660727372871
 21
2244.086100747928
 31
0.0
  0
SPLINE
  5
4E85
330
1B
100
AcDbEntity
  8
0
  6
Continuous
 62
     0
100
AcDbSpline
210
0.0
220
0.0
230
1.0
 70
     8
 71
     3
 72
    13
 73
     9
 74
     7
 42
0.0000000001
 43
0.0000000001
 44
0.0000000001
 40
0.0
 40
0.0
 40
0.0
 40
0.0
 40
0.6159258697142875
 40
1.196987421088871
 40
1.729777095035308
 40
2.209690828980915
 40
2.637422089554946
 40
3.014542979681228
 40
3.014542979681228
 40
3.014542979681228
 40
3.014542979681228
 10
2901.660727372871
 20
2244.086100747928
 30
0.0
 10
2901.579567137657
 20
2244.274733706223
 30
0.0
 10
2901.421840720534
 20
2244.641322104899
 30
0.0
 10
2901.227363350834
 20
2245.18449568767
 30
0.0
 10
2901.074314903357
 20
2245.693593793095
 30
0.0
 10
2900.96706177772
 20
2246.161787503731
 30
0.0
 10
2900.898633490343
 20
2246.58546928432
 30
0.0
 10
2900.888944217109
 20
2246.853794825559
 30
0.0
 10
2900.884404218871
 20
2246.979521229928
 30
0.0
 11
2901.660727372871
 21
2244.086100747928
 31
0.0
 11
2901.42337625547
 21
2244.654457259329
 31
0.0
 11
2901.226907276271
 21
2245.201295870528
 31
0.0
 11
2901.075283589271
 21
2245.712055201529
 31
0.0
 11
2900.968555267271
 21
2246.179950763928
 31
0.0
 11
2900.905308410071
 21
2246.602980155728
 31
0.0
 11
2900.884404218871
 21
2246.979521229928
 31
0.0
  0
SPLINE
  5
4E86
330
1B
100
AcDbEntity
  8
0
  6
Continuous
 62
     0
100
AcDbSpline
210
0.0
220
0.0
230
1.0
 70
     8
 71
     3
 72
    17
 73
    13
 74
    11
 42
0.0000000001
 43
0.0000000001
 44
0.0000000001
 40
0.0
 40
0.0
 40
0.0
 40
0.0
 40
0.0790152363911493
 40
0.1654780735722146
 40
0.2849676130650976
 40
0.4436838892339559
 40
0.641071200177032
 40
0.8795597322963714
 40
1.151875649782799
 40
1.46382487851021
 40
1.800977896421303
 40
2.170587052729871
 40
2.170587052729871
 40
2.170587052729871
 40
2.170587052729871
 10
2906.591673042671
 20
2232.467015809728
 30
0.0
 10
2906.618794689244
 20
2232.472067901419
 30
0.0
 10
2906.675594339946
 20
2232.482648270961
 30
0.0
 10
2906.725481535952
 20
2232.573774707956
 30
0.0
 10
2906.742613379969
 20
2232.693265653344
 30
0.0
 10
2906.736292544024
 20
2232.852952199051
 30
0.0
 10
2906.704907391956
 20
2233.048674262226
 30
0.0
 10
2906.64908272524
 20
2233.278324429011
 30
0.0
 10
2906.568094105789
 20
2233.540461316597
 30
0.0
 10
2906.462556963442
 20
2233.829011314972
 30
0.0
 10
2906.332757272844
 20
2234.14294845265
 30
0.0
 10
2906.231569167674
 20
2234.355736124883
 30
0.0
 10
2906.178651720271
 20
2234.467015809728
 30
0.0
 11
2906.591673042671
 21
2232.467015809728
 31
0.0
 11
2906.666692515671
 21
2232.491824805128
 31
0.0
 11
2906.715050517271
 21
2232.563499946528
 31
0.0
 11
2906.737677452071
 21
2232.680827572728
 31
0.0
 11
2906.734012689471
 21
2232.839501533528
 31
0.0
 11
2906.704749006071
 21
2233.034707546128
 31
0.0
 11
2906.649565826071
 21
2233.266723917528
 31
0.0
 11
2906.569951798671
 21
2233.527141976728
 31
0.0
 11
2906.463513124071
 21
2233.820370777928
 31
0.0
 11
2906.334358604871
 21
2234.131804988728
 31
0.0
 11
2906.178651720271
 21
2234.467015809728
 31
0.0
  0
CIRCLE
  5
5134
330
1B
100
AcDbEntity
  8
0
  6
Continuous
100
AcDbCircle
 10
3597.55649859987
 20
2274.467015809728
 30
0.0
 40
30.3
  0
CIRCLE
  5
5135
330
1B
100
AcDbEntity
  8
0
  6
Continuous
100
AcDbCircle
 10
3597.556498599871
 20
2274.467015809728
 30
0.0
 40
33.25
  0
CIRCLE
  5
5138
330
1B
100
AcDbEntity
  8
0
  6
Continuous
100
AcDbCircle
 10
3597.556498599871
 20
2274.467015809728
 30
0.0
 40
38.0
  0
LINE
  5
C959
330
1B
100
AcDbEntity
  8
0
  6
Continuous
100
AcDbLine
 10
3169.44517373447
 20
2319.951545755928
 30
0.0
 11
3165.14184163487
 21
2317.467015809728
 31
0.0
  0
LINE
  5
C95A
330
1B
100
AcDbEntity
  8
0
  6
Continuous
100
AcDbLine
 10
3128.04517373447
 20
2322.454513238929
 30
0.0
 11
3128.04517373447
 21
2320.297955917528
 31
0.0
  0
LINE
  5
C95B
330
1B
100
AcDbEntity
  8
0
  6
Continuous
100
AcDbLine
 10
3131.34517373447
 20
2316.467015809728
 30
0.0
 11
3131.34517373447
 21
2317.067015809728
 31
0.0
  0
LINE
  5
C95C
330
1B
100
AcDbEntity
  8
0
  6
Continuous
100
AcDbLine
 10
3166.34517373447
 20
2316.467015809728
 30
0.0
 11
3166.34517373447
 21
2317.067015809728
 31
0.0
  0
LINE
  5
C95D
330
1B
100
AcDbEntity
  8
0
  6
Continuous
100
AcDbLine
 10
3169.64517373447
 20
2322.454513238929
 30
0.0
 11
3169.64517373447
 21
2320.297955917528
 31
0.0
  0
LINE
  5
C95E
330
1B
100
AcDbEntity
  8
0
  6
Continuous
100
AcDbLine
 10
3128.24517373447
 20
2319.951545755928
 30
0.0
 11
3132.548505834071
 21
2317.467015809728
 31
0.0
  0
LINE
  5
C95F
330
1B
100
AcDbEntity
  8
0
  6
Continuous
100
AcDbLine
 10
3165.945173734471
 20
2317.467015809728
 30
0.0
 11
3131.745173734471
 21
2317.467015809728
 31
0.0
  0
LINE
  5
C960
330
1B
100
AcDbEntity
  8
0
  6
Continuous
100
AcDbLine
 10
3128.24517373447
 20
2319.951545755928
 30
0.0
 11
3169.44517373447
 21
2319.951545755928
 31
0.0
  0
LINE
  5
C961
330
1B
100
AcDbEntity
  8
0
  6
Continuous
100
AcDbLine
 10
3128.222222914871
 20
2322.786617035928
 30
0.0
 11
3169.46812455407
 21
2322.786617035928
 31
0.0
  0
ARC
  5
C962
330
1B
100
AcDbEntity
  8
0
  6
Continuous
100
AcDbCircle
 10
3148.84517373447
 20
2292.067015809728
 30
0.0
 40
37.0
100
AcDbArc
 50
56.1254033985022
 51
123.8745966014978
  0
ARC
  5
C963
330
1B
100
AcDbEntity
  8
0
  6
Continuous
100
AcDbCircle
 10
3128.44517373447
 20
2322.454513238929
 30
0.0
 40
0.4
100
AcDbArc
 50
123.8745965811988
 51
179.9999999998957
  0
ARC
  5
C964
330
1B
100
AcDbEntity
  8
0
  6
Continuous
100
AcDbCircle
 10
3169.24517373447
 20
2322.454513238929
 30
0.0
 40
0.4
100
AcDbArc
 50
0.0000000001042204
 51
56.12540340680174
  0
ARC
  5
C965
330
1B
100
AcDbEntity
  8
0
  6
Continuous
100
AcDbCircle
 10
3128.44517373447
 20
2320.297955917528
 30
0.0
 40
0.4
100
AcDbArc
 50
180.0
 51
240.0000000075957
  0
ARC
  5
C966
330
1B
100
AcDbEntity
  8
0
  6
Continuous
100
AcDbCircle
 10
3169.24517373447
 20
2320.297955917528
 30
0.0
 40
0.4
100
AcDbArc
 50
299.9999999941963
 51
0.0
  0
ARC
  5
C967
330
1B
100
AcDbEntity
  8
0
  6
Continuous
100
AcDbCircle
 10
3165.945173734471
 20
2317.067015809728
 30
0.0
 40
0.4
100
AcDbArc
 50
0.0
 51
90.0
  0
ARC
  5
C968
330
1B
100
AcDbEntity
  8
0
  6
Continuous
100
AcDbCircle
 10
3131.745173734471
 20
2317.067015809728
 30
0.0
 40
0.4
100
AcDbArc
 50
90.0
 51
180.0
  0
ARC
  5
C969
330
1B
100
AcDbEntity
  8
0
  6
Continuous
100
AcDbCircle
 10
3031.745173734471
 20
2317.067015809728
 30
0.0
 40
0.4
100
AcDbArc
 50
90.0
 51
180.0
  0
ARC
  5
C96A
330
1B
100
AcDbEntity
  8
0
  6
Continuous
100
AcDbCircle
 10
3065.94517373447
 20
2317.067015809728
 30
0.0
 40
0.4
100
AcDbArc
 50
0.0
 51
90.0
  0
ARC
  5
C96B
330
1B
100
AcDbEntity
  8
0
  6
Continuous
100
AcDbCircle
 10
3069.245173734471
 20
2320.297955917528
 30
0.0
 40
0.4
100
AcDbArc
 50
299.9999999941963
 51
0.0
  0
ARC
  5
C96C
330
1B
100
AcDbEntity
  8
0
  6
Continuous
100
AcDbCircle
 10
3028.44517373447
 20
2320.297955917528
 30
0.0
 40
0.4
100
AcDbArc
 50
180.0
 51
240.0000000075957
  0
ARC
  5
C96D
330
1B
100
AcDbEntity
  8
0
  6
Continuous
100
AcDbCircle
 10
3069.245173734471
 20
2322.454513238929
 30
0.0
 40
0.4
100
AcDbArc
 50
0.0000000001042204
 51
56.12540340680174
  0
ARC
  5
C96E
330
1B
100
AcDbEntity
  8
0
  6
Continuous
100
AcDbCircle
 10
3028.44517373447
 20
2322.454513238929
 30
0.0
 40
0.4
100
AcDbArc
 50
123.8745965811988
 51
179.9999999998957
  0
ARC
  5
C96F
330
1B
100
AcDbEntity
  8
0
  6
Continuous
100
AcDbCircle
 10
3048.84517373447
 20
2292.067015809728
 30
0.0
 40
37.0
100
AcDbArc
 50
56.1254033985022
 51
123.8745966014978
  0
LINE
  5
C970
330
1B
100
AcDbEntity
  8
0
  6
Continuous
100
AcDbLine
 10
3028.222222914871
 20
2322.786617035928
 30
0.0
 11
3069.46812455407
 21
2322.786617035928
 31
0.0
  0
LINE
  5
C971
330
1B
100
AcDbEntity
  8
0
  6
Continuous
100
AcDbLine
 10
3028.24517373447
 20
2319.951545755928
 30
0.0
 11
3069.44517373447
 21
2319.951545755928
 31
0.0
  0
LINE
  5
C972
330
1B
100
AcDbEntity
  8
0
  6
Continuous
100
AcDbLine
 10
3065.94517373447
 20
2317.467015809728
 30
0.0
 11
3031.745173734471
 21
2317.467015809728
 31
0.0
  0
LINE
  5
C973
330
1B
100
AcDbEntity
  8
0
  6
Continuous
100
AcDbLine
 10
3028.24517373447
 20
2319.951545755928
 30
0.0
 11
3032.548505834071
 21
2317.467015809728
 31
0.0
  0
LINE
  5
C974
330
1B
100
AcDbEntity
  8
0
  6
Continuous
100
AcDbLine
 10
3069.64517373447
 20
2322.454513238929
 30
0.0
 11
3069.64517373447
 21
2320.297955917528
 31
0.0
  0
LINE
  5
C975
330
1B
100
AcDbEntity
  8
0
  6
Continuous
100
AcDbLine
 10
3066.34517373447
 20
2316.467015809728
 30
0.0
 11
3066.34517373447
 21
2317.067015809728
 31
0.0
  0
LINE
  5
C976
330
1B
100
AcDbEntity
  8
0
  6
Continuous
100
AcDbLine
 10
3031.34517373447
 20
2316.467015809728
 30
0.0
 11
3031.34517373447
 21
2317.067015809728
 31
0.0
  0
LINE
  5
C977
330
1B
100
AcDbEntity
  8
0
  6
Continuous
100
AcDbLine
 10
3028.045173734471
 20
2322.454513238929
 30
0.0
 11
3028.045173734471
 21
2320.297955917528
 31
0.0
  0
LINE
  5
C978
330
1B
100
AcDbEntity
  8
0
  6
Continuous
100
AcDbLine
 10
3069.44517373447
 20
2319.951545755928
 30
0.0
 11
3065.14184163487
 21
2317.467015809728
 31
0.0
  0
ARC
  5
C979
330
1B
100
AcDbEntity
  8
0
  6
Continuous
100
AcDbCircle
 10
2931.745173734471
 20
2317.067015809728
 30
0.0
 40
0.4
100
AcDbArc
 50
90.0
 51
180.0
  0
ARC
  5
C97A
330
1B
100
AcDbEntity
  8
0
  6
Continuous
100
AcDbCircle
 10
2965.94517373447
 20
2317.067015809728
 30
0.0
 40
0.4
100
AcDbArc
 50
0.0
 51
90.0
  0
ARC
  5
C97B
330
1B
100
AcDbEntity
  8
0
  6
Continuous
100
AcDbCircle
 10
2969.245173734471
 20
2320.297955917528
 30
0.0
 40
0.4
100
AcDbArc
 50
299.9999999941963
 51
0.0
  0
ARC
  5
C97C
330
1B
100
AcDbEntity
  8
0
  6
Continuous
100
AcDbCircle
 10
2928.44517373447
 20
2320.297955917528
 30
0.0
 40
0.4
100
AcDbArc
 50
180.0
 51
240.0000000075957
  0
ARC
  5
C97D
330
1B
100
AcDbEntity
  8
0
  6
Continuous
100
AcDbCircle
 10
2969.245173734471
 20
2322.454513238929
 30
0.0
 40
0.4
100
AcDbArc
 50
0.0000000001042204
 51
56.12540340680174
  0
ARC
  5
C97E
330
1B
100
AcDbEntity
  8
0
  6
Continuous
100
AcDbCircle
 10
2928.44517373447
 20
2322.454513238929
 30
0.0
 40
0.4
100
AcDbArc
 50
123.8745965811988
 51
179.9999999998957
  0
ARC
  5
C97F
330
1B
100
AcDbEntity
  8
0
  6
Continuous
100
AcDbCircle
 10
2948.845173734471
 20
2292.067015809728
 30
0.0
 40
37.0
100
AcDbArc
 50
56.1254033985022
 51
123.8745966014978
  0
LINE
  5
C980
330
1B
100
AcDbEntity
  8
0
  6
Continuous
100
AcDbLine
 10
2928.222222914871
 20
2322.786617035928
 30
0.0
 11
2969.46812455407
 21
2322.786617035928
 31
0.0
  0
LINE
  5
C981
330
1B
100
AcDbEntity
  8
0
  6
Continuous
100
AcDbLine
 10
2928.245173734471
 20
2319.951545755928
 30
0.0
 11
2969.445173734471
 21
2319.951545755928
 31
0.0
  0
LINE
  5
C982
330
1B
100
AcDbEntity
  8
0
  6
Continuous
100
AcDbLine
 10
2965.94517373447
 20
2317.467015809728
 30
0.0
 11
2931.745173734471
 21
2317.467015809728
 31
0.0
  0
LINE
  5
C983
330
1B
100
AcDbEntity
  8
0
  6
Continuous
100
AcDbLine
 10
2928.245173734471
 20
2319.951545755928
 30
0.0
 11
2932.548505834071
 21
2317.467015809728
 31
0.0
  0
LINE
  5
C984
330
1B
100
AcDbEntity
  8
0
  6
Continuous
100
AcDbLine
 10
2969.64517373447
 20
2322.454513238929
 30
0.0
 11
2969.64517373447
 21
2320.297955917528
 31
0.0
  0
LINE
  5
C985
330
1B
100
AcDbEntity
  8
0
  6
Continuous
100
AcDbLine
 10
2966.345173734471
 20
2316.467015809728
 30
0.0
 11
2966.345173734471
 21
2317.067015809728
 31
0.0
  0
LINE
  5
C986
330
1B
100
AcDbEntity
  8
0
  6
Continuous
100
AcDbLine
 10
2931.345173734471
 20
2316.467015809728
 30
0.0
 11
2931.345173734471
 21
2317.067015809728
 31
0.0
  0
LINE
  5
C987
330
1B
100
AcDbEntity
  8
0
  6
Continuous
100
AcDbLine
 10
2928.045173734471
 20
2322.454513238929
 30
0.0
 11
2928.045173734471
 21
2320.297955917528
 31
0.0
  0
LINE
  5
C988
330
1B
100
AcDbEntity
  8
0
  6
Continuous
100
AcDbLine
 10
2969.445173734471
 20
2319.951545755928
 30
0.0
 11
2965.14184163487
 21
2317.467015809728
 31
0.0
  0
ARC
  5
C989
330
1B
100
AcDbEntity
  8
0
  6
Continuous
100
AcDbCircle
 10
3231.74517373447
 20
2317.067015809728
 30
0.0
 40
0.4
100
AcDbArc
 50
90.0
 51
180.0
  0
ARC
  5
C98A
330
1B
100
AcDbEntity
  8
0
  6
Continuous
100
AcDbCircle
 10
3265.945173734471
 20
2317.067015809728
 30
0.0
 40
0.4
100
AcDbArc
 50
0.0
 51
90.0
  0
ARC
  5
C98B
330
1B
100
AcDbEntity
  8
0
  6
Continuous
100
AcDbCircle
 10
3269.24517373447
 20
2320.297955917528
 30
0.0
 40
0.4
100
AcDbArc
 50
299.9999999941963
 51
0.0
  0
ARC
  5
C98C
330
1B
100
AcDbEntity
  8
0
  6
Continuous
100
AcDbCircle
 10
3228.445173734471
 20
2320.297955917528
 30
0.0
 40
0.4
100
AcDbArc
 50
180.0
 51
240.0000000075957
  0
ARC
  5
C98D
330
1B
100
AcDbEntity
  8
0
  6
Continuous
100
AcDbCircle
 10
3269.24517373447
 20
2322.454513238929
 30
0.0
 40
0.4
100
AcDbArc
 50
0.0000000001042204
 51
56.12540340680174
  0
ARC
  5
C98E
330
1B
100
AcDbEntity
  8
0
  6
Continuous
100
AcDbCircle
 10
3228.445173734471
 20
2322.454513238929
 30
0.0
 40
0.4
100
AcDbArc
 50
123.8745965811988
 51
179.9999999998957
  0
ARC
  5
C98F
330
1B
100
AcDbEntity
  8
0
  6
Continuous
100
AcDbCircle
 10
3248.845173734471
 20
2292.067015809728
 30
0.0
 40
37.0
100
AcDbArc
 50
56.1254033985022
 51
123.8745966014978
  0
LINE
  5
C990
330
1B
100
AcDbEntity
  8
0
  6
Continuous
100
AcDbLine
 10
3228.222222914871
 20
2322.786617035928
 30
0.0
 11
3269.468124554071
 21
2322.786617035928
 31
0.0
  0
LINE
  5
C991
330
1B
100
AcDbEntity
  8
0
  6
Continuous
100
AcDbLine
 10
3228.245173734471
 20
2319.951545755928
 30
0.0
 11
3269.44517373447
 21
2319.951545755928
 31
0.0
  0
LINE
  5
C992
330
1B
100
AcDbEntity
  8
0
  6
Continuous
100
AcDbLine
 10
3265.945173734471
 20
2317.467015809728
 30
0.0
 11
3231.74517373447
 21
2317.467015809728
 31
0.0
  0
LINE
  5
C993
330
1B
100
AcDbEntity
  8
0
  6
Continuous
100
AcDbLine
 10
3228.245173734471
 20
2319.951545755928
 30
0.0
 11
3232.548505834071
 21
2317.467015809728
 31
0.0
  0
LINE
  5
C994
330
1B
100
AcDbEntity
  8
0
  6
Continuous
100
AcDbLine
 10
3269.64517373447
 20
2322.454513238929
 30
0.0
 11
3269.64517373447
 21
2320.297955917528
 31
0.0
  0
LINE
  5
C995
330
1B
100
AcDbEntity
  8
0
  6
Continuous
100
AcDbLine
 10
3266.34517373447
 20
2316.467015809728
 30
0.0
 11
3266.34517373447
 21
2317.067015809728
 31
0.0
  0
LINE
  5
C996
330
1B
100
AcDbEntity
  8
0
  6
Continuous
100
AcDbLine
 10
3231.345173734471
 20
2316.467015809728
 30
0.0
 11
3231.345173734471
 21
2317.067015809728
 31
0.0
  0
LINE
  5
C997
330
1B
100
AcDbEntity
  8
0
  6
Continuous
100
AcDbLine
 10
3228.045173734471
 20
2322.454513238929
 30
0.0
 11
3228.045173734471
 21
2320.297955917528
 31
0.0
  0
LINE
  5
C998
330
1B
100
AcDbEntity
  8
0
  6
Continuous
100
AcDbLine
 10
3269.44517373447
 20
2319.951545755928
 30
0.0
 11
3265.14184163487
 21
2317.467015809728
 31
0.0
  0
ARC
  5
C999
330
1B
100
AcDbEntity
  8
0
  6
Continuous
100
AcDbCircle
 10
3331.74517373447
 20
2317.067015809728
 30
0.0
 40
0.4
100
AcDbArc
 50
90.0
 51
180.0
  0
ARC
  5
C99A
330
1B
100
AcDbEntity
  8
0
  6
Continuous
100
AcDbCircle
 10
3365.94517373447
 20
2317.067015809728
 30
0.0
 40
0.4
100
AcDbArc
 50
0.0
 51
90.0
  0
ARC
  5
C99B
330
1B
100
AcDbEntity
  8
0
  6
Continuous
100
AcDbCircle
 10
3369.24517373447
 20
2320.297955917528
 30
0.0
 40
0.4
100
AcDbArc
 50
299.9999999941963
 51
0.0
  0
ARC
  5
C99C
330
1B
100
AcDbEntity
  8
0
  6
Continuous
100
AcDbCircle
 10
3328.445173734471
 20
2320.297955917528
 30
0.0
 40
0.4
100
AcDbArc
 50
180.0
 51
240.0000000075957
  0
ARC
  5
C99D
330
1B
100
AcDbEntity
  8
0
  6
Continuous
100
AcDbCircle
 10
3369.24517373447
 20
2322.454513238929
 30
0.0
 40
0.4
100
AcDbArc
 50
0.0000000001042204
 51
56.12540340680174
  0
ARC
  5
C99E
330
1B
100
AcDbEntity
  8
0
  6
Continuous
100
AcDbCircle
 10
3328.445173734471
 20
2322.454513238929
 30
0.0
 40
0.4
100
AcDbArc
 50
123.8745965811988
 51
179.9999999998957
  0
ARC
  5
C99F
330
1B
100
AcDbEntity
  8
0
  6
Continuous
100
AcDbCircle
 10
3348.845173734471
 20
2292.067015809728
 30
0.0
 40
37.0
100
AcDbArc
 50
56.1254033985022
 51
123.8745966014978
  0
LINE
  5
C9A0
330
1B
100
AcDbEntity
  8
0
  6
Continuous
100
AcDbLine
 10
3328.22222291487
 20
2322.786617035928
 30
0.0
 11
3369.46812455407
 21
2322.786617035928
 31
0.0
  0
LINE
  5
C9A1
330
1B
100
AcDbEntity
  8
0
  6
Continuous
100
AcDbLine
 10
3328.24517373447
 20
2319.951545755928
 30
0.0
 11
3369.44517373447
 21
2319.951545755928
 31
0.0
  0
LINE
  5
C9A2
330
1B
100
AcDbEntity
  8
0
  6
Continuous
100
AcDbLine
 10
3365.94517373447
 20
2317.467015809728
 30
0.0
 11
3331.74517373447
 21
2317.467015809728
 31
0.0
  0
LINE
  5
C9A3
330
1B
100
AcDbEntity
  8
0
  6
Continuous
100
AcDbLine
 10
3328.24517373447
 20
2319.951545755928
 30
0.0
 11
3332.548505834071
 21
2317.467015809728
 31
0.0
  0
LINE
  5
C9A4
330
1B
100
AcDbEntity
  8
0
  6
Continuous
100
AcDbLine
 10
3369.645173734471
 20
2322.454513238929
 30
0.0
 11
3369.645173734471
 21
2320.297955917528
 31
0.0
  0
LINE
  5
C9A5
330
1B
100
AcDbEntity
  8
0
  6
Continuous
100
AcDbLine
 10
3366.34517373447
 20
2316.467015809728
 30
0.0
 11
3366.34517373447
 21
2317.067015809728
 31
0.0
  0
LINE
  5
C9A6
330
1B
100
AcDbEntity
  8
0
  6
Continuous
100
AcDbLine
 10
3331.345173734471
 20
2316.467015809728
 30
0.0
 11
3331.345173734471
 21
2317.067015809728
 31
0.0
  0
LINE
  5
C9A7
330
1B
100
AcDbEntity
  8
0
  6
Continuous
100
AcDbLine
 10
3328.045173734471
 20
2322.454513238929
 30
0.0
 11
3328.045173734471
 21
2320.297955917528
 31
0.0
  0
LINE
  5
C9A8
330
1B
100
AcDbEntity
  8
0
  6
Continuous
100
AcDbLine
 10
3369.44517373447
 20
2319.951545755928
 30
0.0
 11
3365.141841634871
 21
2317.467015809728
 31
0.0
  0
ARC
  5
C9A9
330
1B
100
AcDbEntity
  8
0
  6
Continuous
100
AcDbCircle
 10
3431.745173734471
 20
2317.067015809728
 30
0.0
 40
0.4
100
AcDbArc
 50
90.0
 51
180.0
  0
ARC
  5
C9AA
330
1B
100
AcDbEntity
  8
0
  6
Continuous
100
AcDbCircle
 10
3465.94517373447
 20
2317.067015809728
 30
0.0
 40
0.4
100
AcDbArc
 50
0.0
 51
90.0
  0
ARC
  5
C9AB
330
1B
100
AcDbEntity
  8
0
  6
Continuous
100
AcDbCircle
 10
3469.245173734471
 20
2320.297955917528
 30
0.0
 40
0.4
100
AcDbArc
 50
299.9999999941963
 51
0.0
  0
ARC
  5
C9AC
330
1B
100
AcDbEntity
  8
0
  6
Continuous
100
AcDbCircle
 10
3428.44517373447
 20
2320.297955917528
 30
0.0
 40
0.4
100
AcDbArc
 50
180.0
 51
240.0000000075957
  0
ARC
  5
C9AD
330
1B
100
AcDbEntity
  8
0
  6
Continuous
100
AcDbCircle
 10
3469.245173734471
 20
2322.454513238929
 30
0.0
 40
0.4
100
AcDbArc
 50
0.0000000001042204
 51
56.12540340680174
  0
ARC
  5
C9AE
330
1B
100
AcDbEntity
  8
0
  6
Continuous
100
AcDbCircle
 10
3428.44517373447
 20
2322.454513238929
 30
0.0
 40
0.4
100
AcDbArc
 50
123.8745965811988
 51
179.9999999998957
  0
ARC
  5
C9AF
330
1B
100
AcDbEntity
  8
0
  6
Continuous
100
AcDbCircle
 10
3448.845173734471
 20
2292.067015809728
 30
0.0
 40
37.0
100
AcDbArc
 50
56.1254033985022
 51
123.8745966014978
  0
LINE
  5
C9B0
330
1B
100
AcDbEntity
  8
0
  6
Continuous
100
AcDbLine
 10
3428.222222914871
 20
2322.786617035928
 30
0.0
 11
3469.46812455407
 21
2322.786617035928
 31
0.0
  0
LINE
  5
C9B1
330
1B
100
AcDbEntity
  8
0
  6
Continuous
100
AcDbLine
 10
3428.245173734471
 20
2319.951545755928
 30
0.0
 11
3469.44517373447
 21
2319.951545755928
 31
0.0
  0
LINE
  5
C9B2
330
1B
100
AcDbEntity
  8
0
  6
Continuous
100
AcDbLine
 10
3465.94517373447
 20
2317.467015809728
 30
0.0
 11
3431.745173734471
 21
2317.467015809728
 31
0.0
  0
LINE
  5
C9B3
330
1B
100
AcDbEntity
  8
0
  6
Continuous
100
AcDbLine
 10
3428.245173734471
 20
2319.951545755928
 30
0.0
 11
3432.54850583407
 21
2317.467015809728
 31
0.0
  0
LINE
  5
C9B4
330
1B
100
AcDbEntity
  8
0
  6
Continuous
100
AcDbLine
 10
3469.64517373447
 20
2322.454513238929
 30
0.0
 11
3469.64517373447
 21
2320.297955917528
 31
0.0
  0
LINE
  5
C9B5
330
1B
100
AcDbEntity
  8
0
  6
Continuous
100
AcDbLine
 10
3466.34517373447
 20
2316.467015809728
 30
0.0
 11
3466.34517373447
 21
2317.067015809728
 31
0.0
  0
LINE
  5
C9B6
330
1B
100
AcDbEntity
  8
0
  6
Continuous
100
AcDbLine
 10
3431.345173734471
 20
2316.467015809728
 30
0.0
 11
3431.345173734471
 21
2317.067015809728
 31
0.0
  0
LINE
  5
C9B7
330
1B
100
AcDbEntity
  8
0
  6
Continuous
100
AcDbLine
 10
3428.045173734471
 20
2322.454513238929
 30
0.0
 11
3428.045173734471
 21
2320.297955917528
 31
0.0
  0
LINE
  5
C9B8
330
1B
100
AcDbEntity
  8
0
  6
Continuous
100
AcDbLine
 10
3469.44517373447
 20
2319.951545755928
 30
0.0
 11
3465.141841634871
 21
2317.467015809728
 31
0.0
  0
LINE
  5
C9C9
330
1B
100
AcDbEntity
  8
0
  6
Continuous
100
AcDbLine
 10
3618.156498599871
 20
2319.951545755928
 30
0.0
 11
3613.853166500271
 21
2317.467015809728
 31
0.0
  0
LINE
  5
C9CA
330
1B
100
AcDbEntity
  8
0
  6
Continuous
100
AcDbLine
 10
3576.756498599871
 20
2322.454513238928
 30
0.0
 11
3576.756498599871
 21
2320.297955917528
 31
0.0
  0
LINE
  5
C9CB
330
1B
100
AcDbEntity
  8
0
  6
Continuous
100
AcDbLine
 10
3580.056498599871
 20
2316.467015809728
 30
0.0
 11
3580.056498599871
 21
2317.067015809728
 31
0.0
  0
LINE
  5
C9CC
330
1B
100
AcDbEntity
  8
0
  6
Continuous
100
AcDbLine
 10
3615.056498599871
 20
2316.467015809728
 30
0.0
 11
3615.056498599871
 21
2317.067015809728
 31
0.0
  0
LINE
  5
C9CD
330
1B
100
AcDbEntity
  8
0
  6
Continuous
100
AcDbLine
 10
3618.356498599871
 20
2322.454513238928
 30
0.0
 11
3618.356498599871
 21
2320.297955917528
 31
0.0
  0
LINE
  5
C9CE
330
1B
100
AcDbEntity
  8
0
  6
Continuous
100
AcDbLine
 10
3576.956498599871
 20
2319.951545755928
 30
0.0
 11
3581.259830699471
 21
2317.467015809728
 31
0.0
  0
LINE
  5
C9CF
330
1B
100
AcDbEntity
  8
0
  6
Continuous
100
AcDbLine
 10
3614.656498599871
 20
2317.467015809728
 30
0.0
 11
3580.456498599871
 21
2317.467015809728
 31
0.0
  0
LINE
  5
C9D0
330
1B
100
AcDbEntity
  8
0
  6
Continuous
100
AcDbLine
 10
3576.956498599871
 20
2319.951545755928
 30
0.0
 11
3618.156498599871
 21
2319.951545755928
 31
0.0
  0
LINE
  5
C9D1
330
1B
100
AcDbEntity
  8
0
  6
Continuous
100
AcDbLine
 10
3576.933547780271
 20
2322.786617035927
 30
0.0
 11
3618.179449419471
 21
2322.786617035927
 31
0.0
  0
ARC
  5
C9D2
330
1B
100
AcDbEntity
  8
0
  6
Continuous
100
AcDbCircle
 10
3597.55649859987
 20
2292.067015809728
 30
0.0
 40
37.0
100
AcDbArc
 50
56.1254033985022
 51
123.8745966014978
  0
ARC
  5
C9D3
330
1B
100
AcDbEntity
  8
0
  6
Continuous
100
AcDbCircle
 10
3577.156498599871
 20
2322.454513238928
 30
0.0
 40
0.4
100
AcDbArc
 50
123.8745965811988
 51
179.9999999998957
  0
ARC
  5
C9D4
330
1B
100
AcDbEntity
  8
0
  6
Continuous
100
AcDbCircle
 10
3617.95649859987
 20
2322.454513238928
 30
0.0
 40
0.4
100
AcDbArc
 50
0.0000000001042204
 51
56.12540340680174
  0
ARC
  5
C9D5
330
1B
100
AcDbEntity
  8
0
  6
Continuous
100
AcDbCircle
 10
3577.156498599871
 20
2320.297955917528
 30
0.0
 40
0.4
100
AcDbArc
 50
180.0
 51
240.0000000075957
  0
ARC
  5
C9D6
330
1B
100
AcDbEntity
  8
0
  6
Continuous
100
AcDbCircle
 10
3617.95649859987
 20
2320.297955917528
 30
0.0
 40
0.4
100
AcDbArc
 50
299.9999999941963
 51
0.0
  0
ARC
  5
C9D7
330
1B
100
AcDbEntity
  8
0
  6
Continuous
100
AcDbCircle
 10
3614.656498599871
 20
2317.067015809728
 30
0.0
 40
0.4
100
AcDbArc
 50
0.0
 51
90.0
  0
ARC
  5
C9D8
330
1B
100
AcDbEntity
  8
0
  6
Continuous
100
AcDbCircle
 10
3580.456498599871
 20
2317.067015809728
 30
0.0
 40
0.4
100
AcDbArc
 50
90.0
 51
180.0
  0
LINE
  5
DF11
330
1B
100
AcDbEntity
  8
DEFAULT_1
  6
CENTER
100
AcDbLine
 10
3546.847609918114
 20
2274.467015809729
 30
0.0
 11
3645.556498599871
 21
2274.467015809728
 31
0.0
  0
LINE
  5
2ADE2
330
1B
100
AcDbEntity
  8
0
100
AcDbLine
 10
2931.735263960271
 20
2226.725132605328
 30
0.0
 11
2933.377432572993
 21
2224.467015809728
 31
0.0
  0
LINE
  5
2ADE3
330
1B
100
AcDbEntity
  8
0
100
AcDbLine
 10
2965.95508350867
 20
2226.725132605328
 30
0.0
 11
2964.312914895949
 21
2224.467015809728
 31
0.0
  0
LINE
  5
2ADE4
330
1B
100
AcDbEntity
  8
0
  6
Continuous
100
AcDbLine
 10
2959.31226502107
 20
2226.725132605328
 30
0.0
 11
2959.704327372104
 21
2224.467015809728
 31
0.0
  0
LINE
  5
2ADE5
330
1B
100
AcDbEntity
  8
0
  6
Continuous
100
AcDbLine
 10
2965.95508350867
 20
2226.725132605328
 30
0.0
 11
2959.31226502087
 21
2226.725132605328
 31
0.0
  0
SPLINE
  5
2ADE6
330
1B
100
AcDbEntity
  8
0
  6
Continuous
100
AcDbSpline
210
0.0
220
0.0
230
1.0
 70
    24
 71
     3
 72
     8
 73
     4
 74
     2
 42
0.0000000001
 43
0.0000000001
 44
0.0000000001
 40
0.0
 40
0.0
 40
0.0
 40
0.0
 40
0.1507490301507442
 40
0.1507490301507442
 40
0.1507490301507442
 40
0.1507490301507442
 10
2965.479845596071
 20
2224.458484909328
 30
0.0
 10
2965.530014747538
 20
2224.461328542795
 30
0.0
 10
2965.580183899005
 20
2224.464172176262
 30
0.0
 10
2965.63035305047
 20
2224.467015809728
 30
0.0
 11
2965.479845596071
 21
2224.458484909328
 31
0.0
 11
2965.63035305047
 21
2224.467015809728
 31
0.0
  0
SPLINE
  5
2ADE7
330
1B
100
AcDbEntity
  8
0
  6
Continuous
100
AcDbSpline
210
0.0
220
0.0
230
1.0
 70
     8
 71
     3
 72
     9
 73
     5
 74
     3
 42
0.0000000001
 43
0.0000000001
 44
0.0000000001
 40
0.0
 40
0.0
 40
0.0
 40
0.0
 40
0.6822169445955251
 40
1.371775149681028
 40
1.371775149681028
 40
1.371775149681028
 40
1.371775149681028
 10
2967.302258106071
 20
2226.467015809729
 30
0.0
 10
2967.078170096271
 20
2226.505834395469
 30
0.0
 10
2966.627582690578
 20
2226.583889289423
 30
0.0
 10
2966.180048251866
 20
2226.677883824741
 30
0.0
 10
2965.95508350867
 20
2226.725132605328
 30
0.0
 11
2967.302258106071
 21
2226.467015809729
 31
0.0
 11
2966.63074917107
 21
2226.587413939728
 31
0.0
 11
2965.95508350867
 21
2226.725132605328
 31
0.0
  0
LINE
  5
2ADE8
330
1B
100
AcDbEntity
  8
0
100
AcDbLine
 10
2963.616131532671
 20
2221.467015809729
 30
0.0
 11
2970.84517373447
 21
2221.467015809729
 31
0.0
  0
LINE
  5
2ADE9
330
1B
100
AcDbEntity
  8
0
100
AcDbLine
 10
2942.11101721727
 20
2221.467015809729
 30
0.0
 11
2926.84517373447
 21
2221.467015809729
 31
0.0
  0
LINE
  5
2ADEA
330
1B
100
AcDbEntity
  8
0
100
AcDbLine
 10
2924.26271584117
 20
2224.469129958228
 30
0.0
 11
2926.84517373447
 21
2221.467015809729
 31
0.0
  0
LINE
  5
2ADEB
330
1B
100
AcDbEntity
  8
0
100
AcDbLine
 10
2970.84517373447
 20
2221.467015809729
 30
0.0
 11
2974.142921123911
 21
2224.484126086981
 31
0.0
  0
LINE
  5
2ADEC
330
1B
100
AcDbEntity
  8
0
100
AcDbLine
 10
2927.81807693067
 20
2224.525470033729
 30
0.0
 11
2924.23427687227
 21
2224.470398588528
 31
0.0
  0
LINE
  5
2ADED
330
1B
100
AcDbEntity
  8
0
100
AcDbLine
 10
2927.720236941127
 20
2224.526056339731
 30
0.0
 11
2932.072014691181
 21
2224.466334489659
 31
0.0
  0
LINE
  5
2ADEE
330
1B
100
AcDbEntity
  8
0
100
AcDbLine
 10
2934.074215936471
 20
2221.467015809729
 30
0.0
 11
2932.21050187287
 21
2224.458484909328
 31
0.0
  0
LINE
  5
2ADF0
330
1B
100
AcDbEntity
  8
0
100
AcDbLine
 10
3034.074215936471
 20
2221.467015809729
 30
0.0
 11
3032.21050187287
 21
2224.458484909328
 31
0.0
  0
LINE
  5
2ADF1
330
1B
100
AcDbEntity
  8
0
100
AcDbLine
 10
3027.720236941127
 20
2224.526056339731
 30
0.0
 11
3032.072014691181
 21
2224.466334489659
 31
0.0
  0
LINE
  5
2ADF2
330
1B
100
AcDbEntity
  8
0
100
AcDbLine
 10
3027.818076930671
 20
2224.525470033729
 30
0.0
 11
3024.23427687227
 21
2224.470398588528
 31
0.0
  0
LINE
  5
2ADF3
330
1B
100
AcDbEntity
  8
0
100
AcDbLine
 10
3070.84517373447
 20
2221.467015809729
 30
0.0
 11
3074.142921123911
 21
2224.484126086981
 31
0.0
  0
LINE
  5
2ADF4
330
1B
100
AcDbEntity
  8
0
100
AcDbLine
 10
3024.26271584117
 20
2224.469129958228
 30
0.0
 11
3026.845173734471
 21
2221.467015809729
 31
0.0
  0
LINE
  5
2ADF5
330
1B
100
AcDbEntity
  8
0
100
AcDbLine
 10
3042.11101721727
 20
2221.467015809729
 30
0.0
 11
3026.845173734471
 21
2221.467015809729
 31
0.0
  0
LINE
  5
2ADF6
330
1B
100
AcDbEntity
  8
0
100
AcDbLine
 10
3063.616131532671
 20
2221.467015809729
 30
0.0
 11
3070.84517373447
 21
2221.467015809729
 31
0.0
  0
SPLINE
  5
2ADF7
330
1B
100
AcDbEntity
  8
0
  6
Continuous
100
AcDbSpline
210
0.0
220
0.0
230
1.0
 70
     8
 71
     3
 72
     9
 73
     5
 74
     3
 42
0.0000000001
 43
0.0000000001
 44
0.0000000001
 40
0.0
 40
0.0
 40
0.0
 40
0.0
 40
0.6822169445955251
 40
1.371775149681028
 40
1.371775149681028
 40
1.371775149681028
 40
1.371775149681028
 10
3067.302258106071
 20
2226.467015809729
 30
0.0
 10
3067.078170096271
 20
2226.505834395469
 30
0.0
 10
3066.627582690577
 20
2226.583889289423
 30
0.0
 10
3066.180048251866
 20
2226.677883824741
 30
0.0
 10
3065.95508350867
 20
2226.725132605328
 30
0.0
 11
3067.302258106071
 21
2226.467015809729
 31
0.0
 11
3066.63074917107
 21
2226.587413939728
 31
0.0
 11
3065.95508350867
 21
2226.725132605328
 31
0.0
  0
SPLINE
  5
2ADF8
330
1B
100
AcDbEntity
  8
0
  6
Continuous
100
AcDbSpline
210
0.0
220
0.0
230
1.0
 70
    24
 71
     3
 72
     8
 73
     4
 74
     2
 42
0.0000000001
 43
0.0000000001
 44
0.0000000001
 40
0.0
 40
0.0
 40
0.0
 40
0.0
 40
0.1507490301507442
 40
0.1507490301507442
 40
0.1507490301507442
 40
0.1507490301507442
 10
3065.479845596071
 20
2224.458484909328
 30
0.0
 10
3065.530014747538
 20
2224.461328542795
 30
0.0
 10
3065.580183899005
 20
2224.464172176262
 30
0.0
 10
3065.63035305047
 20
2224.467015809728
 30
0.0
 11
3065.479845596071
 21
2224.458484909328
 31
0.0
 11
3065.63035305047
 21
2224.467015809728
 31
0.0
  0
LINE
  5
2ADF9
330
1B
100
AcDbEntity
  8
0
  6
Continuous
100
AcDbLine
 10
3065.95508350867
 20
2226.725132605328
 30
0.0
 11
3059.31226502087
 21
2226.725132605328
 31
0.0
  0
LINE
  5
2ADFA
330
1B
100
AcDbEntity
  8
0
  6
Continuous
100
AcDbLine
 10
3059.31226502107
 20
2226.725132605328
 30
0.0
 11
3059.704327372104
 21
2224.467015809728
 31
0.0
  0
LINE
  5
2ADFB
330
1B
100
AcDbEntity
  8
0
100
AcDbLine
 10
3065.95508350867
 20
2226.725132605328
 30
0.0
 11
3064.312914895948
 21
2224.467015809728
 31
0.0
  0
LINE
  5
2ADFC
330
1B
100
AcDbEntity
  8
0
100
AcDbLine
 10
3031.735263960271
 20
2226.725132605328
 30
0.0
 11
3033.377432572992
 21
2224.467015809728
 31
0.0
  0
LINE
  5
2ADFD
330
1B
100
AcDbEntity
  8
0
  6
Continuous
100
AcDbLine
 10
3020.84517373447
 20
2226.725132605328
 30
0.0
 11
3020.84517373447
 21
2232.467015809728
 31
0.0
  0
LINE
  5
2ADFE
330
1B
100
AcDbEntity
  8
0
  6
Continuous
100
AcDbLine
 10
3022.845173734471
 20
2198.832701226528
 30
0.0
 11
3022.845173734471
 21
2205.467015809729
 31
0.0
  0
LINE
  5
2ADFF
330
1B
100
AcDbEntity
  8
0
  6
Continuous
100
AcDbLine
 10
3024.54517373447
 20
2196.967015809728
 30
0.0
 11
3024.54517373447
 21
2207.167015809728
 31
0.0
  0
LINE
  5
2AE00
330
1B
100
AcDbEntity
  8
0
  6
Continuous
100
AcDbLine
 10
3026.845173734471
 20
2210.709656496928
 30
0.0
 11
3026.845173734471
 21
2221.467015809729
 31
0.0
  0
LINE
  5
2AE01
330
1B
100
AcDbEntity
  8
0
  6
Continuous
100
AcDbLine
 10
3031.735263960271
 20
2226.725132605328
 30
0.0
 11
3031.735263960271
 21
2232.467015809728
 31
0.0
  0
LINE
  5
2AE02
330
1B
100
AcDbEntity
  8
0
  6
Continuous
100
AcDbLine
 10
3038.378082448071
 20
2232.467015809728
 30
0.0
 11
3038.378082448071
 21
2226.725132605328
 31
0.0
  0
LINE
  5
2AE03
330
1B
100
AcDbEntity
  8
0
  6
Continuous
100
AcDbLine
 10
3038.37808244787
 20
2226.725132605328
 30
0.0
 11
3037.986020096837
 21
2224.467015809728
 31
0.0
  0
LINE
  5
2AE04
330
1B
100
AcDbEntity
  8
0
  6
Continuous
100
AcDbLine
 10
3060.11742588927
 20
2226.725132605328
 30
0.0
 11
3060.11742588927
 21
2232.467015809728
 31
0.0
  0
LINE
  5
2AE05
330
1B
100
AcDbEntity
  8
0
  6
Continuous
100
AcDbLine
 10
3065.955083508871
 20
2232.467015809728
 30
0.0
 11
3065.955083508871
 21
2226.725132605328
 31
0.0
  0
LINE
  5
2AE06
330
1B
100
AcDbEntity
  8
0
  6
Continuous
100
AcDbLine
 10
3070.845173734471
 20
2210.709656496928
 30
0.0
 11
3070.845173734471
 21
2221.467015809729
 31
0.0
  0
LINE
  5
2AE07
330
1B
100
AcDbEntity
  8
0
  6
Continuous
100
AcDbLine
 10
3073.145173734471
 20
2196.967015809728
 30
0.0
 11
3073.145173734471
 21
2207.167015809728
 31
0.0
  0
LINE
  5
2AE08
330
1B
100
AcDbEntity
  8
0
  6
Continuous
100
AcDbLine
 10
3074.845173734471
 20
2198.832701226528
 30
0.0
 11
3074.845173734471
 21
2205.467015809729
 31
0.0
  0
LINE
  5
2AE09
330
1B
100
AcDbEntity
  8
0
  6
Continuous
100
AcDbLine
 10
3076.845173734471
 20
2226.725132605328
 30
0.0
 11
3076.845173734471
 21
2232.467015809728
 31
0.0
  0
LINE
  5
2AE0A
330
1B
100
AcDbEntity
  8
0
  6
Continuous
100
AcDbLine
 10
3024.928016821871
 20
2196.584172722328
 30
0.0
 11
3022.96233128587
 21
2198.549858258328
 31
0.0
  0
LINE
  5
2AE0B
330
1B
100
AcDbEntity
  8
0
  6
Continuous
100
AcDbLine
 10
3074.845173734471
 20
2205.467015809729
 30
0.0
 11
3071.723853186471
 21
2208.588336357728
 31
0.0
  0
LINE
  5
2AE0C
330
1B
100
AcDbEntity
  8
0
  6
Continuous
100
AcDbLine
 10
3022.845173734471
 20
2205.467015809729
 30
0.0
 11
3025.96649428267
 21
2208.588336357728
 31
0.0
  0
LINE
  5
2AE0D
330
1B
100
AcDbEntity
  8
0
  6
Continuous
100
AcDbLine
 10
3072.76233064727
 20
2196.584172722328
 30
0.0
 11
3074.728016183071
 21
2198.549858258328
 31
0.0
  0
LWPOLYLINE
  5
2AE0E
330
1B
100
AcDbEntity
  8
0
  6
Continuous
100
AcDbPolyline
 90
        4
 70
     0
 43
0.0
 10
3024.008210766871
 20
2224.497400303728
 10
3023.95227641567
 20
2224.508336701128
 10
3023.89669762587
 20
2224.520929033528
 10
3023.84153991907
 20
2224.535164157128
  0
LINE
  5
2AE0F
330
1B
100
AcDbEntity
  8
0
  6
Continuous
100
AcDbLine
 10
3072.479424797871
 20
2196.467015809728
 30
0.0
 11
3025.21092267127
 21
2196.467015809728
 31
0.0
  0
LINE
  5
2AE10
330
1B
100
AcDbEntity
  8
0
  6
Continuous
100
AcDbLine
 10
3024.54517373447
 20
2196.967015809728
 30
0.0
 11
3073.145173734471
 21
2196.967015809728
 31
0.0
  0
LINE
  5
2AE11
330
1B
100
AcDbEntity
  8
0
  6
Continuous
100
AcDbLine
 10
3074.72801616627
 20
2198.549858241728
 30
0.0
 11
3022.96233130287
 21
2198.549858241728
 31
0.0
  0
LINE
  5
2AE12
330
1B
100
AcDbEntity
  8
0
  6
Continuous
100
AcDbLine
 10
3022.845173734471
 20
2205.467015809729
 30
0.0
 11
3074.845173734471
 21
2205.467015809729
 31
0.0
  0
LINE
  5
2AE13
330
1B
100
AcDbEntity
  8
0
  6
Continuous
100
AcDbLine
 10
3024.54517373447
 20
2207.167012757928
 30
0.0
 11
3073.145173734471
 21
2207.167012757928
 31
0.0
  0
LINE
  5
2AE14
330
1B
100
AcDbEntity
  8
0
  6
Continuous
100
AcDbLine
 10
3025.96649429387
 20
2208.588336368928
 30
0.0
 11
3071.723853175271
 21
2208.588336368928
 31
0.0
  0
LINE
  5
2AE15
330
1B
100
AcDbEntity
  8
0
  6
Continuous
100
AcDbLine
 10
3026.845173734671
 20
2210.709656496928
 30
0.0
 11
3070.845173734471
 21
2210.709656496928
 31
0.0
  0
LINE
  5
2AE16
330
1B
100
AcDbEntity
  8
0
  6
Continuous
100
AcDbLine
 10
3024.348022839471
 20
2224.467015809728
 30
0.0
 11
3024.291154810071
 21
2224.467861327928
 31
0.0
  0
LWPOLYLINE
  5
2AE17
330
1B
100
AcDbEntity
  8
0
  6
Continuous
100
AcDbPolyline
 90
        6
 70
     0
 43
0.0
 10
3024.29115481007
 20
2224.467861327928
 10
3024.23427687227
 20
2224.470398588528
 10
3024.17746778967
 20
2224.474626413528
 10
3024.120828182871
 20
2224.480539675528
 10
3024.06440936867
 20
2224.488132316328
 10
3024.008210766871
 20
2224.497400303728
  0
LINE
  5
2AE18
330
1B
100
AcDbEntity
  8
0
  6
Continuous
100
AcDbLine
 10
3055.579330251871
 20
2221.467015809729
 30
0.0
 11
3063.616131532671
 21
2221.467015809729
 31
0.0
  0
LINE
  5
2AE19
330
1B
100
AcDbEntity
  8
0
  6
Continuous
100
AcDbLine
 10
3032.059994418471
 20
2224.467015809728
 30
0.0
 11
3041.19272314667
 21
2224.467015809728
 31
0.0
  0
LINE
  5
2AE1A
330
1B
100
AcDbEntity
  8
0
  6
Continuous
100
AcDbLine
 10
3056.497624322471
 20
2224.467015809728
 30
0.0
 11
3065.63035305067
 21
2224.467015809728
 31
0.0
  0
LINE
  5
2AE1B
330
1B
100
AcDbEntity
  8
0
  6
Continuous
100
AcDbLine
 10
3073.282803638671
 20
2224.467015809728
 30
0.0
 11
3073.838743247871
 21
2224.467015809728
 31
0.0
  0
LINE
  5
2AE1C
330
1B
100
AcDbEntity
  8
0
  6
Continuous
100
AcDbLine
 10
3073.342534836271
 20
2224.467015821328
 30
0.0
 11
3073.34232462967
 21
2224.467015809728
 31
0.0
  0
LINE
  5
2AE1D
330
1B
100
AcDbEntity
  8
0
  6
Continuous
100
AcDbLine
 10
3022.32753565827
 20
2224.793280952729
 30
0.0
 11
3022.485708647471
 21
2224.793280952729
 31
0.0
  0
LINE
  5
2AE1E
330
1B
100
AcDbEntity
  8
0
  6
Continuous
100
AcDbLine
 10
3022.615371604671
 20
2226.467015809729
 30
0.0
 11
3030.38808936287
 21
2226.467015809729
 31
0.0
  0
LINE
  5
2AE1F
330
1B
100
AcDbEntity
  8
0
  6
Continuous
100
AcDbLine
 10
3041.072480137871
 20
2226.467015809729
 30
0.0
 11
3056.617682791271
 21
2226.467015809729
 31
0.0
  0
LINE
  5
2AE20
330
1B
100
AcDbEntity
  8
0
  6
Continuous
100
AcDbLine
 10
3067.30228240807
 20
2226.467015809729
 30
0.0
 11
3075.07515417347
 21
2226.467015809729
 31
0.0
  0
LINE
  5
2AE21
330
1B
100
AcDbEntity
  8
0
  6
Continuous
100
AcDbLine
 10
3031.735263960271
 20
2226.725132605328
 30
0.0
 11
3038.378082448071
 21
2226.725132605328
 31
0.0
  0
LINE
  5
2AE22
330
1B
100
AcDbEntity
  8
0
  6
Continuous
100
AcDbLine
 10
3059.31226502107
 20
2226.725132605328
 30
0.0
 11
3065.955083508871
 21
2226.725132605328
 31
0.0
  0
LINE
  5
2AE23
330
1B
100
AcDbEntity
  8
0
  6
Continuous
100
AcDbLine
 10
3076.42217479547
 20
2226.725132605328
 30
0.0
 11
3076.845173734471
 21
2226.725132605328
 31
0.0
  0
LWPOLYLINE
  5
2AE24
330
1B
100
AcDbEntity
  8
0
  6
Continuous
100
AcDbPolyline
 90
        3
 70
     0
 43
0.0
 10
3073.600232670071
 20
2224.489312278728
 10
3073.471619872671
 20
2224.472596014328
 10
3073.34232462967
 20
2224.467015809728
  0
LINE
  5
2AE25
330
1B
100
AcDbEntity
  8
0
  6
Continuous
100
AcDbLine
 10
3074.399506829671
 20
2224.535164157128
 30
0.0
 11
3075.36281182467
 21
2224.793280952729
 31
0.0
  0
ARC
  5
2AE26
330
1B
100
AcDbEntity
  8
0
  6
Continuous
100
AcDbCircle
 10
3073.881868739471
 20
2226.467015809729
 30
0.0
 40
2.0
100
AcDbArc
 50
270.0000000000006
 51
285.0000000000001
  0
ARC
  5
2AE27
330
1B
100
AcDbEntity
  8
0
  6
Continuous
100
AcDbCircle
 10
3022.845173734471
 20
2226.725132605328
 30
0.0
 40
2.0
100
AcDbArc
 50
180.0
 51
255.0000000000008
  0
ARC
  5
2AE28
330
1B
100
AcDbEntity
  8
0
  6
Continuous
100
AcDbCircle
 10
3074.845173734471
 20
2226.725132605328
 30
0.0
 40
2.0
100
AcDbArc
 50
285.0000000000001
 51
0.0
  0
ARC
  5
2AE29
330
1B
100
AcDbEntity
  8
0
  6
Continuous
100
AcDbCircle
 10
3023.84517373447
 20
2210.709656496928
 30
0.0
 40
3.0
100
AcDbArc
 50
315.0000055227045
 51
0.0
  0
ARC
  5
2AE2A
330
1B
100
AcDbEntity
  8
0
  6
Continuous
100
AcDbCircle
 10
3073.845173734471
 20
2210.709656496928
 30
0.0
 40
3.0
100
AcDbArc
 50
180.0
 51
224.9999944773049
  0
ARC
  5
2AE2B
330
1B
100
AcDbEntity
  8
0
  6
Continuous
100
AcDbCircle
 10
3023.24517373447
 20
2198.832701234728
 30
0.0
 40
0.4
100
AcDbArc
 50
180.0000011678939
 51
225.0000534532973
  0
ARC
  5
2AE2C
330
1B
100
AcDbEntity
  8
0
  6
Continuous
100
AcDbCircle
 10
3074.445173734471
 20
2198.832701234728
 30
0.0
 40
0.4
100
AcDbArc
 50
314.9999465467034
 51
359.999998832106
  0
ARC
  5
2AE2D
330
1B
100
AcDbEntity
  8
0
  6
Continuous
100
AcDbCircle
 10
3072.47948830967
 20
2196.867015809728
 30
0.0
 40
0.4
100
AcDbArc
 50
270.0000000000006
 51
314.9999240540013
  0
ARC
  5
2AE2E
330
1B
100
AcDbEntity
  8
0
  6
Continuous
100
AcDbCircle
 10
3025.21085915947
 20
2196.867015809728
 30
0.0
 40
0.4
100
AcDbArc
 50
225.0000759459997
 51
270.0000000000006
  0
SPLINE
  5
2AE2F
330
1B
100
AcDbEntity
  8
0
  6
Continuous
100
AcDbSpline
210
0.0
220
0.0
230
1.0
 70
     8
 71
     3
 72
     9
 73
     5
 74
     3
 42
0.0000000001
 43
0.0000000001
 44
0.0000000001
 40
0.0
 40
0.0
 40
0.0
 40
0.0
 40
1.358707114578464
 40
2.706782948137132
 40
2.706782948137132
 40
2.706782948137132
 40
2.706782948137132
 10
3038.378082448071
 20
2226.725132605328
 30
0.0
 10
3038.828519302394
 20
2226.67783865407
 30
0.0
 10
3039.725868542279
 20
2226.583620805763
 30
0.0
 10
3040.624786482693
 20
2226.50578223433
 30
0.0
 10
3041.072480137871
 20
2226.467015809729
 30
0.0
 11
3038.378082448071
 21
2226.725132605328
 31
0.0
 11
3039.72978827287
 21
2226.587377799928
 31
0.0
 11
3041.072480137871
 21
2226.467015809729
 31
0.0
  0
SPLINE
  5
2AE30
330
1B
100
AcDbEntity
  8
0
  6
Continuous
100
AcDbSpline
210
0.0
220
0.0
230
1.0
 70
     8
 71
     3
 72
     9
 73
     5
 74
     3
 42
0.0000000001
 43
0.0000000001
 44
0.0000000001
 40
0.0
 40
0.0
 40
0.0
 40
0.0
 40
1.107450757741374
 40
1.789503045044008
 40
1.789503045044008
 40
1.789503045044008
 40
1.789503045044008
 10
3020.84517373447
 20
2226.725132605328
 30
0.0
 10
3021.212362554444
 20
2226.685163606912
 30
0.0
 10
3021.805694137681
 20
2226.620578663634
 30
0.0
 10
3022.391932395721
 20
2226.509393131564
 30
0.0
 10
3022.615371604671
 20
2226.467015809729
 30
0.0
 11
3020.84517373447
 21
2226.725132605328
 31
0.0
 11
3021.944023543471
 21
2226.587378193128
 31
0.0
 11
3022.615371604671
 21
2226.467015809729
 31
0.0
  0
SPLINE
  5
2AE31
330
1B
100
AcDbEntity
  8
0
  6
Continuous
100
AcDbSpline
210
0.0
220
0.0
230
1.0
 70
     8
 71
     3
 72
     9
 73
     5
 74
     3
 42
0.0000000001
 43
0.0000000001
 44
0.0000000001
 40
0.0
 40
0.0
 40
0.0
 40
0.0
 40
0.6923826098101317
 40
1.359874622777951
 40
1.359874622777951
 40
1.359874622777951
 40
1.359874622777951
 10
3022.485708647471
 20
2224.793280952729
 30
0.0
 10
3022.711635624238
 20
2224.746031253215
 30
0.0
 10
3023.155367685027
 20
2224.653230442804
 30
0.0
 10
3023.602117795961
 20
2224.576270166932
 30
0.0
 10
3023.821404284471
 20
2224.538494353928
 30
0.0
 11
3022.485708647471
 21
2224.793280952729
 31
0.0
 11
3023.164271963671
 21
2224.655638283928
 31
0.0
 11
3023.821404284471
 21
2224.538494353928
 31
0.0
  0
SPLINE
  5
2AE32
330
1B
100
AcDbEntity
  8
0
  6
Continuous
100
AcDbSpline
210
0.0
220
0.0
230
1.0
 70
    24
 71
     3
 72
     8
 73
     4
 74
     2
 42
0.0000000001
 43
0.0000000001
 44
0.0000000001
 40
0.0
 40
0.0
 40
0.0
 40
0.0
 40
0.0204091643979551
 40
0.0204091643979551
 40
0.0204091643979551
 40
0.0204091643979551
 10
3023.821404284471
 20
2224.538494353928
 30
0.0
 10
3023.828116162671
 20
2224.537384288328
 30
0.0
 10
3023.83482804087
 20
2224.536274222728
 30
0.0
 10
3023.84153991907
 20
2224.535164157128
 30
0.0
 11
3023.821404284471
 21
2224.538494353928
 31
0.0
 11
3023.84153991907
 21
2224.535164157128
 31
0.0
  0
SPLINE
  5
2AE33
330
1B
100
AcDbEntity
  8
0
  6
Continuous
100
AcDbSpline
210
0.0
220
0.0
230
1.0
 70
     8
 71
     3
 72
     9
 73
     5
 74
     3
 42
0.0000000001
 43
0.0000000001
 44
0.0000000001
 40
0.0
 40
0.0
 40
0.0
 40
0.0
 40
1.346861831339542
 40
2.706966748481889
 40
2.706966748481889
 40
2.706966748481889
 40
2.706966748481889
 10
3056.617682791271
 20
2226.467015809729
 30
0.0
 10
3057.064973999432
 20
2226.505739091797
 30
0.0
 10
3057.963954428757
 20
2226.583566404525
 30
0.0
 10
3058.861364713132
 20
2226.677790217083
 30
0.0
 10
3059.31226502107
 20
2226.725132605328
 30
0.0
 11
3056.617682791271
 21
2226.467015809729
 31
0.0
 11
3057.95916771087
 21
2226.587244771328
 31
0.0
 11
3059.31226502107
 21
2226.725132605328
 31
0.0
  0
SPLINE
  5
2AE34
330
1B
100
AcDbEntity
  8
0
  6
Continuous
100
AcDbSpline
210
0.0
220
0.0
230
1.0
 70
     8
 71
     3
 72
     9
 73
     5
 74
     3
 42
0.0000000001
 43
0.0000000001
 44
0.0000000001
 40
0.0
 40
0.0
 40
0.0
 40
0.0
 40
0.6897479089515592
 40
1.371799076447734
 40
1.371799076447734
 40
1.371799076447734
 40
1.371799076447734
 10
3065.955083508871
 20
2226.725132605328
 30
0.0
 10
3066.180110138505
 20
2226.677870720056
 30
0.0
 10
3066.627652376335
 20
2226.583874334238
 30
0.0
 10
3067.078248449348
 20
2226.505822676641
 30
0.0
 10
3067.30228240807
 20
2226.467015809729
 30
0.0
 11
3065.955083508871
 21
2226.725132605328
 31
0.0
 11
3066.63093544767
 21
2226.587377987528
 31
0.0
 11
3067.30228240807
 21
2226.467015809729
 31
0.0
  0
SPLINE
  5
2AE35
330
1B
100
AcDbEntity
  8
0
  6
Continuous
100
AcDbSpline
210
0.0
220
0.0
230
1.0
 70
     8
 71
     3
 72
     9
 73
     5
 74
     3
 42
0.0000000001
 43
0.0000000001
 44
0.0000000001
 40
0.0
 40
0.0
 40
0.0
 40
0.0
 40
0.6825288090475059
 40
1.371623577951349
 40
1.371623577951349
 40
1.371623577951349
 40
1.371623577951349
 10
3075.07515417347
 20
2226.467015809729
 30
0.0
 10
3075.299342402045
 20
2226.505864622398
 30
0.0
 10
3075.749875560699
 20
2226.583935975175
 30
0.0
 10
3076.197361013165
 20
2226.677917099446
 30
0.0
 10
3076.42217479547
 20
2226.725132605328
 30
0.0
 11
3075.07515417347
 21
2226.467015809729
 31
0.0
 11
3075.746964209871
 21
2226.587501701728
 31
0.0
 11
3076.42217479547
 21
2226.725132605328
 31
0.0
  0
SPLINE
  5
2AE36
330
1B
100
AcDbEntity
  8
0
  6
Continuous
100
AcDbSpline
210
0.0
220
0.0
230
1.0
 70
     8
 71
     3
 72
    14
 73
    10
 74
     8
 42
0.0000000001
 43
0.0000000001
 44
0.0000000001
 40
0.0
 40
0.0
 40
0.0
 40
0.0
 40
0.6694696228350134
 40
1.320821842307002
 40
1.938186584142021
 40
2.510347975521438
 40
3.033413917116411
 40
3.513494323538419
 40
3.81857160607368
 40
3.81857160607368
 40
3.81857160607368
 40
3.81857160607368
 10
3063.616131532671
 20
2221.467015809729
 30
0.0
 10
3063.625731175582
 20
2221.690387031054
 30
0.0
 10
3063.644670672764
 20
2222.1310845295
 30
0.0
 10
3063.796418403023
 20
2222.763194615402
 30
0.0
 10
3064.031501349952
 20
2223.332669785803
 30
0.0
 10
3064.347995236663
 20
2223.813451589629
 30
0.0
 10
3064.731016845108
 20
2224.178090319394
 30
0.0
 10
3065.12078855526
 20
2224.394001367039
 30
0.0
 10
3065.379371954781
 20
2224.440440704029
 30
0.0
 10
3065.47984593847
 20
2224.458484960528
 30
0.0
 11
3063.616131532671
 21
2221.467015809729
 31
0.0
 11
3063.66663190067
 21
2222.134578008128
 31
0.0
 11
3063.81560142067
 21
2222.768666169129
 31
0.0
 11
3064.05557025007
 21
2223.337484404928
 31
0.0
 11
3064.374505420671
 21
2223.812509682928
 31
0.0
 11
3064.756414212871
 21
2224.169922124929
 31
0.0
 11
3065.18214609987
 21
2224.391799471728
 31
0.0
 11
3065.47984593847
 21
2224.458484960528
 31
0.0
  0
SPLINE
  5
2AE37
330
1B
100
AcDbEntity
  8
0
  6
Continuous
100
AcDbSpline
210
0.0
220
0.0
230
1.0
 70
     8
 71
     3
 72
    13
 73
     9
 74
     7
 42
0.0000000001
 43
0.0000000001
 44
0.0000000001
 40
0.0
 40
0.0
 40
0.0
 40
0.0
 40
1.108688474719678
 40
2.332694385887394
 40
3.641209197438073
 40
4.997028471753912
 40
6.353205167167019
 40
7.653455411884396
 40
7.653455411884396
 40
7.653455411884396
 40
7.653455411884396
 10
3065.63035305067
 20
2224.467015809728
 30
0.0
 10
3065.999913276506
 20
2224.46962734021
 30
0.0
 10
3066.777472603325
 20
2224.475122032934
 30
0.0
 10
3067.990890297552
 20
2224.504246648151
 30
0.0
 10
3069.286815040146
 20
2224.526621330976
 30
0.0
 10
3070.627142686516
 20
2224.527140275377
 30
0.0
 10
3071.964122931922
 20
2224.490477225832
 30
0.0
 10
3072.849456455782
 20
2224.474725741725
 30
0.0
 10
3073.282803638671
 20
2224.467015809728
 30
0.0
 11
3065.63035305067
 21
2224.467015809728
 31
0.0
 11
3066.738988841871
 21
2224.477823975329
 31
0.0
 11
3067.962751147871
 21
2224.502243004528
 31
0.0
 11
3069.271105505871
 21
2224.522734123328
 31
0.0
 11
3070.62692348347
 21
2224.520858962928
 31
0.0
 11
3071.982797066271
 21
2224.492187432728
 31
0.0
 11
3073.282803638671
 21
2224.467015809728
 31
0.0
  0
SPLINE
  5
2AE38
330
1B
100
AcDbEntity
  8
0
  6
Continuous
100
AcDbSpline
210
0.0
220
0.0
230
1.0
 70
     8
 71
     3
 72
    14
 73
    10
 74
     8
 42
0.0000000001
 43
0.0000000001
 44
0.0000000001
 40
0.0
 40
0.0
 40
0.0
 40
0.0
 40
0.667959404238433
 40
1.305674417906695
 40
1.884917968381564
 40
2.38169885784395
 40
2.779265605760284
 40
3.074056639517397
 40
3.291800175458873
 40
3.291800175458873
 40
3.291800175458873
 40
3.291800175458873
 10
3055.579330251871
 20
2221.467015809729
 30
0.0
 10
3055.583652633593
 20
2221.689693021977
 30
0.0
 10
3055.592101684842
 20
2222.124964892751
 30
0.0
 10
3055.659770421543
 20
2222.750751015434
 30
0.0
 10
3055.764372603298
 20
2223.312030368733
 30
0.0
 10
3055.902836964225
 20
2223.787314525596
 30
0.0
 10
3056.070239311494
 20
2224.141528969821
 30
0.0
 10
3056.256099794669
 20
2224.403770411368
 30
0.0
 10
3056.42561010721
 20
2224.448158231273
 30
0.0
 10
3056.497624322471
 20
2224.467015809728
 30
0.0
 11
3055.579330251871
 21
2221.467015809729
 31
0.0
 11
3055.60235378007
 21
2222.134578303328
 31
0.0
 11
3055.670269875871
 21
2222.768666501128
 31
0.0
 11
3055.779672963271
 21
2223.337484622529
 31
0.0
 11
3055.92507714187
 21
2223.812509755528
 31
0.0
 11
3056.09919126487
 21
2224.169922110128
 31
0.0
 11
3056.293284539871
 21
2224.391799450528
 31
0.0
 11
3056.497624322471
 21
2224.467015809728
 31
0.0
  0
SPLINE
  5
2AE39
330
1B
100
AcDbEntity
  8
0
  6
Continuous
100
AcDbSpline
210
0.0
220
0.0
230
1.0
 70
     8
 71
     3
 72
    14
 73
    10
 74
     8
 42
0.0000000001
 43
0.0000000001
 44
0.0000000001
 40
0.0
 40
0.0
 40
0.0
 40
0.0
 40
2.461203836382826
 40
4.76176822061809
 40
6.882509365583551
 40
8.813126424719915
 40
10.5517641891518
 40
12.10244291724594
 40
13.47190523280136
 40
13.47190523280136
 40
13.47190523280136
 40
13.47190523280136
 10
3042.11101721727
 20
2221.467015809729
 30
0.0
 10
3042.931306805843
 20
2221.481707742601
 30
0.0
 10
3044.518346788806
 20
2221.510132685715
 30
0.0
 10
3046.810967958927
 20
2221.597699516489
 30
0.0
 10
3048.928432303248
 20
2221.6219471656
 30
0.0
 10
3050.858389880921
 20
2221.593637412087
 30
0.0
 10
3052.597483664833
 20
2221.538257230754
 30
0.0
 10
3054.149482410484
 20
2221.481992025749
 30
0.0
 10
3055.122849180828
 20
2221.471796989188
 30
0.0
 10
3055.579330251871
 20
2221.467015809729
 30
0.0
 11
3042.11101721727
 21
2221.467015809729
 31
0.0
 11
3044.57165747587
 21
2221.519683085928
 31
0.0
 11
3046.871167479271
 21
2221.589326680529
 31
0.0
 11
3048.99177640947
 21
2221.613007244528
 31
0.0
 11
3050.92221678207
 21
2221.586888345928
 31
0.0
 11
3052.66007752367
 21
2221.534914133928
 31
0.0
 11
3054.21001191687
 21
2221.486873582928
 31
0.0
 11
3055.579330251871
 21
2221.467015809729
 31
0.0
  0
SPLINE
  5
2AE3A
330
1B
100
AcDbEntity
  8
0
  6
Continuous
100
AcDbSpline
210
0.0
220
0.0
230
1.0
 70
     8
 71
     3
 72
    14
 73
    10
 74
     8
 42
0.0000000001
 43
0.0000000001
 44
0.0000000001
 40
0.0
 40
0.0
 40
0.0
 40
0.0
 40
0.6679581269926553
 40
1.305672655682402
 40
1.884916350276299
 40
2.381697725625553
 40
2.779264978941915
 40
3.074056267035521
 40
3.291799681662051
 40
3.291799681662051
 40
3.291799681662051
 40
3.291799681662051
 10
3042.111017217071
 20
2221.467015809729
 30
0.0
 10
3042.106694727771
 20
2221.689692593169
 30
0.0
 10
3042.098245461484
 20
2222.124963870578
 30
0.0
 10
3042.030576660323
 20
2222.750749437986
 30
0.0
 10
3041.925974489916
 20
2223.312028835737
 30
0.0
 10
3041.787510188022
 20
2223.787313409779
 30
0.0
 10
3041.620107896753
 20
2224.141528300856
 30
0.0
 10
3041.43424762919
 20
2224.403770202996
 30
0.0
 10
3041.264737307153
 20
2224.448158179953
 30
0.0
 10
3041.19272314667
 20
2224.467015809728
 30
0.0
 11
3042.111017217071
 21
2221.467015809729
 31
0.0
 11
3042.08799342807
 21
2222.134577016328
 31
0.0
 11
3042.02007726087
 21
2222.768664718728
 31
0.0
 11
3041.91067418407
 21
2223.337482988928
 31
0.0
 11
3041.765270035071
 21
2223.812508639128
 31
0.0
 11
3041.591155949471
 21
2224.169921574128
 31
0.0
 11
3041.397062752071
 21
2224.391799320328
 31
0.0
 11
3041.19272314667
 21
2224.467015809728
 31
0.0
  0
SPLINE
  5
2AE3B
330
1B
100
AcDbEntity
  8
0
  6
Continuous
100
AcDbSpline
210
0.0
220
0.0
230
1.0
 70
     8
 71
     3
 72
    14
 73
    10
 74
     8
 42
0.0000000001
 43
0.0000000001
 44
0.0000000001
 40
0.0
 40
0.0
 40
0.0
 40
0.0
 40
2.794856146407469
 40
5.408650417444576
 40
7.818779052094905
 40
10.01263053214355
 40
11.98766004248774
 40
13.74912121973736
 40
15.30540707425804
 40
15.30540707425804
 40
15.30540707425804
 40
15.30540707425804
 10
3041.19272314667
 20
2224.467015809728
 30
0.0
 10
3042.124326175856
 20
2224.472885456303
 30
0.0
 10
3043.927179291991
 20
2224.484244490449
 30
0.0
 10
3046.53322075071
 20
2224.5192870682
 30
0.0
 10
3048.939167621322
 20
2224.528990635082
 30
0.0
 10
3051.132165093699
 20
2224.517674675058
 30
0.0
 10
3053.108821311826
 20
2224.495519099866
 30
0.0
 10
3054.87294951304
 20
2224.473009733397
 30
0.0
 10
3055.978863271182
 20
2224.468929678353
 30
0.0
 10
3056.497624322471
 20
2224.467015809728
 30
0.0
 11
3041.19272314667
 21
2224.467015809728
 31
0.0
 11
3043.987500031471
 21
2224.488064403328
 31
0.0
 11
3046.60114572567
 21
2224.515933319728
 31
0.0
 11
3049.011255708871
 21
2224.525415114728
 31
0.0
 11
3051.205082327871
 21
2224.514970868528
 31
0.0
 11
3053.18000242087
 21
2224.494181616528
 31
0.0
 11
3054.94135876607
 21
2224.474964327928
 31
0.0
 11
3056.497624322471
 21
2224.467015809728
 31
0.0
  0
SPLINE
  5
2AE3C
330
1B
100
AcDbEntity
  8
0
  6
Continuous
100
AcDbSpline
210
0.0
220
0.0
230
1.0
 70
     8
 71
     3
 72
     9
 73
     5
 74
     3
 42
0.0000000001
 43
0.0000000001
 44
0.0000000001
 40
0.0
 40
0.0
 40
0.0
 40
0.0
 40
0.6822169445959727
 40
1.371775149681476
 40
1.371775149681476
 40
1.371775149681476
 40
1.371775149681476
 10
3030.38808936287
 20
2226.467015809729
 30
0.0
 10
3030.61217737267
 20
2226.505834395469
 30
0.0
 10
3031.062764778364
 20
2226.583889289424
 30
0.0
 10
3031.510299217075
 20
2226.677883824741
 30
0.0
 10
3031.735263960271
 20
2226.725132605328
 30
0.0
 11
3030.38808936287
 21
2226.467015809729
 31
0.0
 11
3031.059598297871
 21
2226.587413939728
 31
0.0
 11
3031.735263960271
 21
2226.725132605328
 31
0.0
  0
SPLINE
  5
2AE3D
330
1B
100
AcDbEntity
  8
0
  6
Continuous
100
AcDbSpline
210
0.0
220
0.0
230
1.0
 70
     8
 71
     3
 72
     9
 73
     5
 74
     3
 42
0.0000000001
 43
0.0000000001
 44
0.0000000001
 40
0.0
 40
0.0
 40
0.0
 40
0.0
 40
0.6822169445934475
 40
1.371775149680288
 40
1.371775149680288
 40
1.371775149680288
 40
1.371775149680288
 10
3130.388089362871
 20
2226.467015809729
 30
0.0
 10
3130.61217737267
 20
2226.50583439547
 30
0.0
 10
3131.062764778363
 20
2226.583889289424
 30
0.0
 10
3131.510299217074
 20
2226.677883824742
 30
0.0
 10
3131.735263960271
 20
2226.725132605329
 30
0.0
 11
3130.388089362871
 21
2226.467015809729
 31
0.0
 11
3131.05959829787
 21
2226.587413939729
 31
0.0
 11
3131.735263960271
 21
2226.725132605329
 31
0.0
  0
SPLINE
  5
2AE3E
330
1B
100
AcDbEntity
  8
0
  6
Continuous
100
AcDbSpline
210
0.0
220
0.0
230
1.0
 70
     8
 71
     3
 72
    14
 73
    10
 74
     8
 42
0.0000000001
 43
0.0000000001
 44
0.0000000001
 40
0.0
 40
0.0
 40
0.0
 40
0.0
 40
2.794856146407469
 40
5.408650417445481
 40
7.818779052094902
 40
10.01263053214355
 40
11.98766004248773
 40
13.74912121973737
 40
15.30540707425805
 40
15.30540707425805
 40
15.30540707425805
 40
15.30540707425805
 10
3141.19272314667
 20
2224.467015809729
 30
0.0
 10
3142.124326175856
 20
2224.472885456305
 30
0.0
 10
3143.927179291992
 20
2224.484244490451
 30
0.0
 10
3146.53322075071
 20
2224.5192870682
 30
0.0
 10
3148.939167621322
 20
2224.528990635085
 30
0.0
 10
3151.132165093699
 20
2224.517674675058
 30
0.0
 10
3153.108821311826
 20
2224.495519099867
 30
0.0
 10
3154.872949513041
 20
2224.473009733397
 30
0.0
 10
3155.978863271182
 20
2224.468929678355
 30
0.0
 10
3156.497624322471
 20
2224.467015809729
 30
0.0
 11
3141.19272314667
 21
2224.467015809729
 31
0.0
 11
3143.987500031471
 21
2224.488064403329
 31
0.0
 11
3146.601145725671
 21
2224.515933319729
 31
0.0
 11
3149.011255708871
 21
2224.525415114729
 31
0.0
 11
3151.205082327871
 21
2224.514970868529
 31
0.0
 11
3153.18000242087
 21
2224.494181616529
 31
0.0
 11
3154.94135876607
 21
2224.474964327928
 31
0.0
 11
3156.497624322471
 21
2224.467015809729
 31
0.0
  0
SPLINE
  5
2AE3F
330
1B
100
AcDbEntity
  8
0
  6
Continuous
100
AcDbSpline
210
0.0
220
0.0
230
1.0
 70
     8
 71
     3
 72
    14
 73
    10
 74
     8
 42
0.0000000001
 43
0.0000000001
 44
0.0000000001
 40
0.0
 40
0.0
 40
0.0
 40
0.0
 40
0.667958126992624
 40
1.305672655682274
 40
1.884916350277236
 40
2.381697725626924
 40
2.779264978943885
 40
3.07405626703625
 40
3.291799681662937
 40
3.291799681662937
 40
3.291799681662937
 40
3.291799681662937
 10
3142.11101721707
 20
2221.467015809729
 30
0.0
 10
3142.106694727771
 20
2221.689692593169
 30
0.0
 10
3142.098245461484
 20
2222.124963870578
 30
0.0
 10
3142.030576660325
 20
2222.750749437987
 30
0.0
 10
3141.925974489916
 20
2223.312028835738
 30
0.0
 10
3141.787510188021
 20
2223.78731340978
 30
0.0
 10
3141.620107896751
 20
2224.141528300856
 30
0.0
 10
3141.434247629189
 20
2224.403770202997
 30
0.0
 10
3141.264737307152
 20
2224.448158179954
 30
0.0
 10
3141.19272314667
 20
2224.467015809729
 30
0.0
 11
3142.11101721707
 21
2221.467015809729
 31
0.0
 11
3142.08799342807
 21
2222.134577016328
 31
0.0
 11
3142.020077260871
 21
2222.768664718728
 31
0.0
 11
3141.91067418407
 21
2223.337482988929
 31
0.0
 11
3141.765270035071
 21
2223.812508639129
 31
0.0
 11
3141.59115594947
 21
2224.169921574129
 31
0.0
 11
3141.397062752071
 21
2224.391799320329
 31
0.0
 11
3141.19272314667
 21
2224.467015809729
 31
0.0
  0
SPLINE
  5
2AE40
330
1B
100
AcDbEntity
  8
0
  6
Continuous
100
AcDbSpline
210
0.0
220
0.0
230
1.0
 70
     8
 71
     3
 72
    14
 73
    10
 74
     8
 42
0.0000000001
 43
0.0000000001
 44
0.0000000001
 40
0.0
 40
0.0
 40
0.0
 40
0.0
 40
2.461203836382391
 40
4.761768220615354
 40
6.882509365583553
 40
8.813126424718565
 40
10.55176418915043
 40
12.10244291724548
 40
13.4719052328
 40
13.4719052328
 40
13.4719052328
 40
13.4719052328
 10
3142.111017217271
 20
2221.467015809729
 30
0.0
 10
3142.931306805843
 20
2221.481707742601
 30
0.0
 10
3144.518346788806
 20
2221.510132685716
 30
0.0
 10
3146.810967958928
 20
2221.597699516489
 30
0.0
 10
3148.928432303249
 20
2221.621947165601
 30
0.0
 10
3150.858389880922
 20
2221.593637412087
 30
0.0
 10
3152.597483664833
 20
2221.538257230755
 30
0.0
 10
3154.149482410484
 20
2221.48199202575
 30
0.0
 10
3155.122849180828
 20
2221.471796989188
 30
0.0
 10
3155.579330251871
 20
2221.467015809729
 30
0.0
 11
3142.111017217271
 21
2221.467015809729
 31
0.0
 11
3144.571657475871
 21
2221.519683085929
 31
0.0
 11
3146.87116747927
 21
2221.589326680529
 31
0.0
 11
3148.991776409471
 21
2221.613007244529
 31
0.0
 11
3150.92221678207
 21
2221.586888345928
 31
0.0
 11
3152.66007752367
 21
2221.534914133929
 31
0.0
 11
3154.210011916871
 21
2221.486873582929
 31
0.0
 11
3155.579330251871
 21
2221.467015809729
 31
0.0
  0
SPLINE
  5
2AE41
330
1B
100
AcDbEntity
  8
0
  6
Continuous
100
AcDbSpline
210
0.0
220
0.0
230
1.0
 70
     8
 71
     3
 72
    14
 73
    10
 74
     8
 42
0.0000000001
 43
0.0000000001
 44
0.0000000001
 40
0.0
 40
0.0
 40
0.0
 40
0.0
 40
0.6679594042393421
 40
1.305674417907604
 40
1.88491796838158
 40
2.381698857844836
 40
2.779265605760352
 40
3.074056639518149
 40
3.291800175459783
 40
3.291800175459783
 40
3.291800175459783
 40
3.291800175459783
 10
3155.579330251871
 20
2221.467015809729
 30
0.0
 10
3155.583652633593
 20
2221.689693021977
 30
0.0
 10
3155.592101684842
 20
2222.124964892751
 30
0.0
 10
3155.659770421544
 20
2222.750751015435
 30
0.0
 10
3155.764372603299
 20
2223.312030368734
 30
0.0
 10
3155.902836964224
 20
2223.787314525597
 30
0.0
 10
3156.070239311495
 20
2224.141528969821
 30
0.0
 10
3156.256099794668
 20
2224.403770411369
 30
0.0
 10
3156.42561010721
 20
2224.448158231274
 30
0.0
 10
3156.497624322471
 20
2224.467015809729
 30
0.0
 11
3155.579330251871
 21
2221.467015809729
 31
0.0
 11
3155.60235378007
 21
2222.134578303329
 31
0.0
 11
3155.670269875871
 21
2222.768666501129
 31
0.0
 11
3155.779672963271
 21
2223.337484622529
 31
0.0
 11
3155.92507714187
 21
2223.812509755529
 31
0.0
 11
3156.09919126487
 21
2224.169922110128
 31
0.0
 11
3156.293284539871
 21
2224.391799450529
 31
0.0
 11
3156.497624322471
 21
2224.467015809729
 31
0.0
  0
SPLINE
  5
2AE42
330
1B
100
AcDbEntity
  8
0
  6
Continuous
100
AcDbSpline
210
0.0
220
0.0
230
1.0
 70
     8
 71
     3
 72
    13
 73
     9
 74
     7
 42
0.0000000001
 43
0.0000000001
 44
0.0000000001
 40
0.0
 40
0.0
 40
0.0
 40
0.0
 40
1.108688474718301
 40
2.332694385885134
 40
3.641209197436715
 40
4.997028471752554
 40
6.35320516716569
 40
7.653455411883041
 40
7.653455411883041
 40
7.653455411883041
 40
7.653455411883041
 10
3165.630353050671
 20
2224.467015809729
 30
0.0
 10
3165.999913276507
 20
2224.469627340211
 30
0.0
 10
3166.777472603327
 20
2224.475122032934
 30
0.0
 10
3167.990890297551
 20
2224.504246648153
 30
0.0
 10
3169.286815040145
 20
2224.526621330976
 30
0.0
 10
3170.627142686518
 20
2224.52714027538
 30
0.0
 10
3171.964122931921
 20
2224.49047722583
 30
0.0
 10
3172.849456455782
 20
2224.474725741726
 30
0.0
 10
3173.282803638671
 20
2224.467015809729
 30
0.0
 11
3165.630353050671
 21
2224.467015809729
 31
0.0
 11
3166.738988841871
 21
2224.477823975329
 31
0.0
 11
3167.96275114787
 21
2224.502243004529
 31
0.0
 11
3169.271105505871
 21
2224.522734123329
 31
0.0
 11
3170.62692348347
 21
2224.520858962929
 31
0.0
 11
3171.982797066271
 21
2224.492187432728
 31
0.0
 11
3173.282803638671
 21
2224.467015809729
 31
0.0
  0
SPLINE
  5
2AE43
330
1B
100
AcDbEntity
  8
0
  6
Continuous
100
AcDbSpline
210
0.0
220
0.0
230
1.0
 70
     8
 71
     3
 72
    14
 73
    10
 74
     8
 42
0.0000000001
 43
0.0000000001
 44
0.0000000001
 40
0.0
 40
0.0
 40
0.0
 40
0.0
 40
0.6694696228364424
 40
1.320821842307311
 40
1.938186584143168
 40
2.510347975522078
 40
3.03341391711643
 40
3.513494323539665
 40
3.818571606073839
 40
3.818571606073839
 40
3.818571606073839
 40
3.818571606073839
 10
3163.61613153267
 20
2221.467015809729
 30
0.0
 10
3163.625731175581
 20
2221.690387031055
 30
0.0
 10
3163.644670672763
 20
2222.131084529501
 30
0.0
 10
3163.796418403024
 20
2222.763194615402
 30
0.0
 10
3164.031501349953
 20
2223.332669785804
 30
0.0
 10
3164.347995236662
 20
2223.81345158963
 30
0.0
 10
3164.731016845107
 20
2224.178090319394
 30
0.0
 10
3165.120788555261
 20
2224.39400136704
 30
0.0
 10
3165.379371954781
 20
2224.44044070403
 30
0.0
 10
3165.47984593847
 20
2224.458484960528
 30
0.0
 11
3163.61613153267
 21
2221.467015809729
 31
0.0
 11
3163.66663190067
 21
2222.134578008129
 31
0.0
 11
3163.815601420671
 21
2222.768666169129
 31
0.0
 11
3164.055570250071
 21
2223.337484404929
 31
0.0
 11
3164.374505420671
 21
2223.812509682929
 31
0.0
 11
3164.756414212871
 21
2224.169922124929
 31
0.0
 11
3165.182146099871
 21
2224.391799471729
 31
0.0
 11
3165.47984593847
 21
2224.458484960528
 31
0.0
  0
SPLINE
  5
2AE44
330
1B
100
AcDbEntity
  8
0
  6
Continuous
100
AcDbSpline
210
0.0
220
0.0
230
1.0
 70
     8
 71
     3
 72
     9
 73
     5
 74
     3
 42
0.0000000001
 43
0.0000000001
 44
0.0000000001
 40
0.0
 40
0.0
 40
0.0
 40
0.0
 40
0.6825288090476664
 40
1.371623577952846
 40
1.371623577952846
 40
1.371623577952846
 40
1.371623577952846
 10
3175.07515417347
 20
2226.467015809729
 30
0.0
 10
3175.299342402045
 20
2226.505864622398
 30
0.0
 10
3175.7498755607
 20
2226.583935975176
 30
0.0
 10
3176.197361013168
 20
2226.677917099448
 30
0.0
 10
3176.422174795471
 20
2226.725132605329
 30
0.0
 11
3175.07515417347
 21
2226.467015809729
 31
0.0
 11
3175.746964209871
 21
2226.587501701729
 31
0.0
 11
3176.422174795471
 21
2226.725132605329
 31
0.0
  0
SPLINE
  5
2AE45
330
1B
100
AcDbEntity
  8
0
  6
Continuous
100
AcDbSpline
210
0.0
220
0.0
230
1.0
 70
     8
 71
     3
 72
     9
 73
     5
 74
     3
 42
0.0000000001
 43
0.0000000001
 44
0.0000000001
 40
0.0
 40
0.0
 40
0.0
 40
0.0
 40
0.6897479089514684
 40
1.371799076447883
 40
1.371799076447883
 40
1.371799076447883
 40
1.371799076447883
 10
3165.955083508871
 20
2226.725132605329
 30
0.0
 10
3166.180110138506
 20
2226.677870720057
 30
0.0
 10
3166.627652376335
 20
2226.58387433424
 30
0.0
 10
3167.078248449348
 20
2226.505822676641
 30
0.0
 10
3167.30228240807
 20
2226.467015809729
 30
0.0
 11
3165.955083508871
 21
2226.725132605329
 31
0.0
 11
3166.63093544767
 21
2226.587377987529
 31
0.0
 11
3167.30228240807
 21
2226.467015809729
 31
0.0
  0
SPLINE
  5
2AE46
330
1B
100
AcDbEntity
  8
0
  6
Continuous
100
AcDbSpline
210
0.0
220
0.0
230
1.0
 70
     8
 71
     3
 72
     9
 73
     5
 74
     3
 42
0.0000000001
 43
0.0000000001
 44
0.0000000001
 40
0.0
 40
0.0
 40
0.0
 40
0.0
 40
1.346861831339623
 40
2.706966748481969
 40
2.706966748481969
 40
2.706966748481969
 40
2.706966748481969
 10
3156.617682791271
 20
2226.467015809729
 30
0.0
 10
3157.064973999432
 20
2226.505739091797
 30
0.0
 10
3157.963954428757
 20
2226.583566404526
 30
0.0
 10
3158.861364713132
 20
2226.677790217084
 30
0.0
 10
3159.31226502107
 20
2226.725132605329
 30
0.0
 11
3156.617682791271
 21
2226.467015809729
 31
0.0
 11
3157.95916771087
 21
2226.587244771329
 31
0.0
 11
3159.31226502107
 21
2226.725132605329
 31
0.0
  0
SPLINE
  5
2AE47
330
1B
100
AcDbEntity
  8
0
  6
Continuous
100
AcDbSpline
210
0.0
220
0.0
230
1.0
 70
    24
 71
     3
 72
     8
 73
     4
 74
     2
 42
0.0000000001
 43
0.0000000001
 44
0.0000000001
 40
0.0
 40
0.0
 40
0.0
 40
0.0
 40
0.0204091643987782
 40
0.0204091643987782
 40
0.0204091643987782
 40
0.0204091643987782
 10
3123.82140428447
 20
2224.538494353929
 30
0.0
 10
3123.82811616267
 20
2224.537384288329
 30
0.0
 10
3123.83482804087
 20
2224.536274222729
 30
0.0
 10
3123.84153991907
 20
2224.535164157129
 30
0.0
 11
3123.82140428447
 21
2224.538494353929
 31
0.0
 11
3123.84153991907
 21
2224.535164157129
 31
0.0
  0
SPLINE
  5
2AE48
330
1B
100
AcDbEntity
  8
0
  6
Continuous
100
AcDbSpline
210
0.0
220
0.0
230
1.0
 70
     8
 71
     3
 72
     9
 73
     5
 74
     3
 42
0.0000000001
 43
0.0000000001
 44
0.0000000001
 40
0.0
 40
0.0
 40
0.0
 40
0.0
 40
0.6923826098090595
 40
1.359874622776878
 40
1.359874622776878
 40
1.359874622776878
 40
1.359874622776878
 10
3122.485708647471
 20
2224.793280952729
 30
0.0
 10
3122.711635624237
 20
2224.746031253215
 30
0.0
 10
3123.155367685026
 20
2224.653230442805
 30
0.0
 10
3123.602117795961
 20
2224.576270166933
 30
0.0
 10
3123.82140428447
 20
2224.538494353929
 30
0.0
 11
3122.485708647471
 21
2224.793280952729
 31
0.0
 11
3123.16427196367
 21
2224.655638283929
 31
0.0
 11
3123.82140428447
 21
2224.538494353929
 31
0.0
  0
SPLINE
  5
2AE49
330
1B
100
AcDbEntity
  8
0
  6
Continuous
100
AcDbSpline
210
0.0
220
0.0
230
1.0
 70
     8
 71
     3
 72
     9
 73
     5
 74
     3
 42
0.0000000001
 43
0.0000000001
 44
0.0000000001
 40
0.0
 40
0.0
 40
0.0
 40
0.0
 40
1.107450757740471
 40
1.789503045043266
 40
1.789503045043266
 40
1.789503045043266
 40
1.789503045043266
 10
3120.84517373447
 20
2226.725132605329
 30
0.0
 10
3121.212362554444
 20
2226.685163606913
 30
0.0
 10
3121.805694137681
 20
2226.620578663635
 30
0.0
 10
3122.391932395719
 20
2226.509393131564
 30
0.0
 10
3122.61537160467
 20
2226.467015809729
 30
0.0
 11
3120.84517373447
 21
2226.725132605329
 31
0.0
 11
3121.94402354347
 21
2226.587378193129
 31
0.0
 11
3122.61537160467
 21
2226.467015809729
 31
0.0
  0
SPLINE
  5
2AE4A
330
1B
100
AcDbEntity
  8
0
  6
Continuous
100
AcDbSpline
210
0.0
220
0.0
230
1.0
 70
     8
 71
     3
 72
     9
 73
     5
 74
     3
 42
0.0000000001
 43
0.0000000001
 44
0.0000000001
 40
0.0
 40
0.0
 40
0.0
 40
0.0
 40
1.358707114578556
 40
2.706782948137224
 40
2.706782948137224
 40
2.706782948137224
 40
2.706782948137224
 10
3138.378082448071
 20
2226.725132605329
 30
0.0
 10
3138.828519302394
 20
2226.67783865407
 30
0.0
 10
3139.725868542278
 20
2226.583620805762
 30
0.0
 10
3140.624786482692
 20
2226.505782234329
 30
0.0
 10
3141.072480137871
 20
2226.467015809729
 30
0.0
 11
3138.378082448071
 21
2226.725132605329
 31
0.0
 11
3139.72978827287
 21
2226.587377799928
 31
0.0
 11
3141.072480137871
 21
2226.467015809729
 31
0.0
  0
ARC
  5
2AE4B
330
1B
100
AcDbEntity
  8
0
  6
Continuous
100
AcDbCircle
 10
3125.21085915947
 20
2196.867015809729
 30
0.0
 40
0.4
100
AcDbArc
 50
225.0000759459997
 51
270.0000000000006
  0
ARC
  5
2AE4C
330
1B
100
AcDbEntity
  8
0
  6
Continuous
100
AcDbCircle
 10
3172.47948830967
 20
2196.867015809729
 30
0.0
 40
0.4
100
AcDbArc
 50
270.0000000000006
 51
314.9999240540013
  0
ARC
  5
2AE4D
330
1B
100
AcDbEntity
  8
0
  6
Continuous
100
AcDbCircle
 10
3174.445173734471
 20
2198.832701234729
 30
0.0
 40
0.4
100
AcDbArc
 50
314.9999465467034
 51
359.999998832106
  0
ARC
  5
2AE4E
330
1B
100
AcDbEntity
  8
0
  6
Continuous
100
AcDbCircle
 10
3123.245173734471
 20
2198.832701234729
 30
0.0
 40
0.4
100
AcDbArc
 50
180.0000011678939
 51
225.0000534532973
  0
ARC
  5
2AE4F
330
1B
100
AcDbEntity
  8
0
  6
Continuous
100
AcDbCircle
 10
3173.84517373447
 20
2210.709656496929
 30
0.0
 40
3.0
100
AcDbArc
 50
180.0
 51
224.9999944773049
  0
ARC
  5
2AE50
330
1B
100
AcDbEntity
  8
0
  6
Continuous
100
AcDbCircle
 10
3123.845173734471
 20
2210.709656496929
 30
0.0
 40
3.0
100
AcDbArc
 50
315.0000055227045
 51
0.0
  0
ARC
  5
2AE51
330
1B
100
AcDbEntity
  8
0
  6
Continuous
100
AcDbCircle
 10
3174.845173734471
 20
2226.725132605329
 30
0.0
 40
2.0
100
AcDbArc
 50
285.0000000000001
 51
0.0
  0
ARC
  5
2AE52
330
1B
100
AcDbEntity
  8
0
  6
Continuous
100
AcDbCircle
 10
3122.84517373447
 20
2226.725132605329
 30
0.0
 40
2.0
100
AcDbArc
 50
180.0
 51
255.0000000000008
  0
ARC
  5
2AE53
330
1B
100
AcDbEntity
  8
0
  6
Continuous
100
AcDbCircle
 10
3173.881868739471
 20
2226.467015809729
 30
0.0
 40
2.0
100
AcDbArc
 50
270.0000000000006
 51
285.0000000000001
  0
LINE
  5
2AE54
330
1B
100
AcDbEntity
  8
0
  6
Continuous
100
AcDbLine
 10
3174.399506829671
 20
2224.535164157129
 30
0.0
 11
3175.36281182467
 21
2224.793280952729
 31
0.0
  0
LWPOLYLINE
  5
2AE55
330
1B
100
AcDbEntity
  8
0
  6
Continuous
100
AcDbPolyline
 90
        3
 70
     0
 43
0.0
 10
3173.600232670071
 20
2224.489312278729
 10
3173.471619872671
 20
2224.472596014329
 10
3173.342324629671
 20
2224.467015809729
  0
LINE
  5
2AE56
330
1B
100
AcDbEntity
  8
0
  6
Continuous
100
AcDbLine
 10
3176.422174795471
 20
2226.725132605329
 30
0.0
 11
3176.84517373447
 21
2226.725132605329
 31
0.0
  0
LINE
  5
2AE57
330
1B
100
AcDbEntity
  8
0
  6
Continuous
100
AcDbLine
 10
3159.31226502107
 20
2226.725132605329
 30
0.0
 11
3165.955083508871
 21
2226.725132605329
 31
0.0
  0
LINE
  5
2AE58
330
1B
100
AcDbEntity
  8
0
  6
Continuous
100
AcDbLine
 10
3131.735263960271
 20
2226.725132605329
 30
0.0
 11
3138.378082448071
 21
2226.725132605329
 31
0.0
  0
LINE
  5
2AE59
330
1B
100
AcDbEntity
  8
0
  6
Continuous
100
AcDbLine
 10
3167.30228240807
 20
2226.467015809729
 30
0.0
 11
3175.07515417347
 21
2226.467015809729
 31
0.0
  0
LINE
  5
2AE5A
330
1B
100
AcDbEntity
  8
0
  6
Continuous
100
AcDbLine
 10
3141.072480137871
 20
2226.467015809729
 30
0.0
 11
3156.617682791271
 21
2226.467015809729
 31
0.0
  0
LINE
  5
2AE5B
330
1B
100
AcDbEntity
  8
0
  6
Continuous
100
AcDbLine
 10
3122.61537160467
 20
2226.467015809729
 30
0.0
 11
3130.388089362871
 21
2226.467015809729
 31
0.0
  0
LINE
  5
2AE5C
330
1B
100
AcDbEntity
  8
0
  6
Continuous
100
AcDbLine
 10
3122.32753565827
 20
2224.793280952729
 30
0.0
 11
3122.485708647471
 21
2224.793280952729
 31
0.0
  0
LINE
  5
2AE5D
330
1B
100
AcDbEntity
  8
0
  6
Continuous
100
AcDbLine
 10
3173.342534836271
 20
2224.467015821328
 30
0.0
 11
3173.342324629671
 21
2224.467015809729
 31
0.0
  0
LINE
  5
2AE5E
330
1B
100
AcDbEntity
  8
0
  6
Continuous
100
AcDbLine
 10
3173.282803638671
 20
2224.467015809729
 30
0.0
 11
3173.83874324787
 21
2224.467015809729
 31
0.0
  0
LINE
  5
2AE5F
330
1B
100
AcDbEntity
  8
0
  6
Continuous
100
AcDbLine
 10
3156.497624322471
 20
2224.467015809729
 30
0.0
 11
3165.630353050671
 21
2224.467015809729
 31
0.0
  0
LINE
  5
2AE60
330
1B
100
AcDbEntity
  8
0
  6
Continuous
100
AcDbLine
 10
3132.059994418471
 20
2224.467015809729
 30
0.0
 11
3141.19272314667
 21
2224.467015809729
 31
0.0
  0
LINE
  5
2AE61
330
1B
100
AcDbEntity
  8
0
  6
Continuous
100
AcDbLine
 10
3155.579330251871
 20
2221.467015809729
 30
0.0
 11
3163.61613153267
 21
2221.467015809729
 31
0.0
  0
LWPOLYLINE
  5
2AE62
330
1B
100
AcDbEntity
  8
0
  6
Continuous
100
AcDbPolyline
 90
        6
 70
     0
 43
0.0
 10
3124.29115481007
 20
2224.467861327928
 10
3124.23427687227
 20
2224.470398588529
 10
3124.17746778967
 20
2224.474626413528
 10
3124.120828182871
 20
2224.480539675528
 10
3124.06440936867
 20
2224.488132316329
 10
3124.00821076687
 20
2224.497400303729
  0
LINE
  5
2AE63
330
1B
100
AcDbEntity
  8
0
  6
Continuous
100
AcDbLine
 10
3124.348022839471
 20
2224.467015809729
 30
0.0
 11
3124.291154810071
 21
2224.467861327928
 31
0.0
  0
LINE
  5
2AE64
330
1B
100
AcDbEntity
  8
0
  6
Continuous
100
AcDbLine
 10
3126.84517373467
 20
2210.709656496929
 30
0.0
 11
3170.84517373447
 21
2210.709656496929
 31
0.0
  0
LINE
  5
2AE65
330
1B
100
AcDbEntity
  8
0
  6
Continuous
100
AcDbLine
 10
3125.96649429387
 20
2208.588336368929
 30
0.0
 11
3171.723853175271
 21
2208.588336368929
 31
0.0
  0
LINE
  5
2AE66
330
1B
100
AcDbEntity
  8
0
  6
Continuous
100
AcDbLine
 10
3124.54517373447
 20
2207.167012757929
 30
0.0
 11
3173.145173734471
 21
2207.167012757929
 31
0.0
  0
LINE
  5
2AE67
330
1B
100
AcDbEntity
  8
0
  6
Continuous
100
AcDbLine
 10
3122.84517373447
 20
2205.467015809729
 30
0.0
 11
3174.845173734471
 21
2205.467015809729
 31
0.0
  0
LINE
  5
2AE68
330
1B
100
AcDbEntity
  8
0
  6
Continuous
100
AcDbLine
 10
3174.72801616627
 20
2198.549858241729
 30
0.0
 11
3122.96233130287
 21
2198.549858241729
 31
0.0
  0
LINE
  5
2AE69
330
1B
100
AcDbEntity
  8
0
  6
Continuous
100
AcDbLine
 10
3124.54517373447
 20
2196.967015809729
 30
0.0
 11
3173.145173734471
 21
2196.967015809729
 31
0.0
  0
LINE
  5
2AE6A
330
1B
100
AcDbEntity
  8
0
  6
Continuous
100
AcDbLine
 10
3172.479424797871
 20
2196.467015809729
 30
0.0
 11
3125.21092267127
 21
2196.467015809729
 31
0.0
  0
LWPOLYLINE
  5
2AE6B
330
1B
100
AcDbEntity
  8
0
  6
Continuous
100
AcDbPolyline
 90
        4
 70
     0
 43
0.0
 10
3124.00821076687
 20
2224.497400303729
 10
3123.952276415671
 20
2224.508336701129
 10
3123.89669762587
 20
2224.520929033529
 10
3123.84153991907
 20
2224.535164157129
  0
LINE
  5
2AE6C
330
1B
100
AcDbEntity
  8
0
  6
Continuous
100
AcDbLine
 10
3172.76233064727
 20
2196.584172722329
 30
0.0
 11
3174.728016183071
 21
2198.549858258329
 31
0.0
  0
LINE
  5
2AE6D
330
1B
100
AcDbEntity
  8
0
  6
Continuous
100
AcDbLine
 10
3122.84517373447
 20
2205.467015809729
 30
0.0
 11
3125.96649428267
 21
2208.588336357729
 31
0.0
  0
LINE
  5
2AE6E
330
1B
100
AcDbEntity
  8
0
  6
Continuous
100
AcDbLine
 10
3174.845173734471
 20
2205.467015809729
 30
0.0
 11
3171.723853186471
 21
2208.588336357729
 31
0.0
  0
LINE
  5
2AE6F
330
1B
100
AcDbEntity
  8
0
  6
Continuous
100
AcDbLine
 10
3124.928016821871
 20
2196.584172722329
 30
0.0
 11
3122.96233128587
 21
2198.549858258329
 31
0.0
  0
LINE
  5
2AE70
330
1B
100
AcDbEntity
  8
0
  6
Continuous
100
AcDbLine
 10
3176.84517373447
 20
2226.725132605329
 30
0.0
 11
3176.84517373447
 21
2232.467015809729
 31
0.0
  0
LINE
  5
2AE71
330
1B
100
AcDbEntity
  8
0
  6
Continuous
100
AcDbLine
 10
3174.845173734471
 20
2198.832701226529
 30
0.0
 11
3174.845173734471
 21
2205.467015809729
 31
0.0
  0
LINE
  5
2AE72
330
1B
100
AcDbEntity
  8
0
  6
Continuous
100
AcDbLine
 10
3173.145173734471
 20
2196.967015809729
 30
0.0
 11
3173.145173734471
 21
2207.167015809729
 31
0.0
  0
LINE
  5
2AE73
330
1B
100
AcDbEntity
  8
0
  6
Continuous
100
AcDbLine
 10
3170.84517373447
 20
2210.709656496929
 30
0.0
 11
3170.84517373447
 21
2221.467015809729
 31
0.0
  0
LINE
  5
2AE74
330
1B
100
AcDbEntity
  8
0
  6
Continuous
100
AcDbLine
 10
3165.955083508871
 20
2232.467015809729
 30
0.0
 11
3165.955083508871
 21
2226.725132605329
 31
0.0
  0
LINE
  5
2AE75
330
1B
100
AcDbEntity
  8
0
  6
Continuous
100
AcDbLine
 10
3160.11742588927
 20
2226.725132605329
 30
0.0
 11
3160.11742588927
 21
2232.467015809729
 31
0.0
  0
LINE
  5
2AE76
330
1B
100
AcDbEntity
  8
0
  6
Continuous
100
AcDbLine
 10
3138.378082447871
 20
2226.725132605329
 30
0.0
 11
3137.986020096837
 21
2224.467015809729
 31
0.0
  0
LINE
  5
2AE77
330
1B
100
AcDbEntity
  8
0
  6
Continuous
100
AcDbLine
 10
3138.378082448071
 20
2232.467015809729
 30
0.0
 11
3138.378082448071
 21
2226.725132605329
 31
0.0
  0
LINE
  5
2AE78
330
1B
100
AcDbEntity
  8
0
  6
Continuous
100
AcDbLine
 10
3131.735263960271
 20
2226.725132605329
 30
0.0
 11
3131.735263960271
 21
2232.467015809729
 31
0.0
  0
LINE
  5
2AE79
330
1B
100
AcDbEntity
  8
0
  6
Continuous
100
AcDbLine
 10
3126.845173734471
 20
2210.709656496929
 30
0.0
 11
3126.845173734471
 21
2221.467015809729
 31
0.0
  0
LINE
  5
2AE7A
330
1B
100
AcDbEntity
  8
0
  6
Continuous
100
AcDbLine
 10
3124.54517373447
 20
2196.967015809729
 30
0.0
 11
3124.54517373447
 21
2207.167015809729
 31
0.0
  0
LINE
  5
2AE7B
330
1B
100
AcDbEntity
  8
0
  6
Continuous
100
AcDbLine
 10
3122.84517373447
 20
2198.832701226529
 30
0.0
 11
3122.84517373447
 21
2205.467015809729
 31
0.0
  0
LINE
  5
2AE7C
330
1B
100
AcDbEntity
  8
0
  6
Continuous
100
AcDbLine
 10
3120.84517373447
 20
2226.725132605329
 30
0.0
 11
3120.84517373447
 21
2232.467015809729
 31
0.0
  0
LINE
  5
2AE7D
330
1B
100
AcDbEntity
  8
0
100
AcDbLine
 10
3131.735263960271
 20
2226.725132605329
 30
0.0
 11
3133.377432572992
 21
2224.467015809729
 31
0.0
  0
LINE
  5
2AE7E
330
1B
100
AcDbEntity
  8
0
100
AcDbLine
 10
3165.95508350867
 20
2226.725132605329
 30
0.0
 11
3164.312914895949
 21
2224.467015809729
 31
0.0
  0
LINE
  5
2AE7F
330
1B
100
AcDbEntity
  8
0
  6
Continuous
100
AcDbLine
 10
3159.31226502107
 20
2226.725132605329
 30
0.0
 11
3159.704327372104
 21
2224.467015809729
 31
0.0
  0
LINE
  5
2AE80
330
1B
100
AcDbEntity
  8
0
  6
Continuous
100
AcDbLine
 10
3165.95508350867
 20
2226.725132605329
 30
0.0
 11
3159.31226502087
 21
2226.725132605329
 31
0.0
  0
SPLINE
  5
2AE81
330
1B
100
AcDbEntity
  8
0
  6
Continuous
100
AcDbSpline
210
0.0
220
0.0
230
1.0
 70
    24
 71
     3
 72
     8
 73
     4
 74
     2
 42
0.0000000001
 43
0.0000000001
 44
0.0000000001
 40
0.0
 40
0.0
 40
0.0
 40
0.0
 40
0.1507490301508214
 40
0.1507490301508214
 40
0.1507490301508214
 40
0.1507490301508214
 10
3165.479845596071
 20
2224.458484909328
 30
0.0
 10
3165.530014747538
 20
2224.461328542796
 30
0.0
 10
3165.580183899005
 20
2224.464172176263
 30
0.0
 10
3165.63035305047
 20
2224.467015809729
 30
0.0
 11
3165.479845596071
 21
2224.458484909328
 31
0.0
 11
3165.63035305047
 21
2224.467015809729
 31
0.0
  0
SPLINE
  5
2AE82
330
1B
100
AcDbEntity
  8
0
  6
Continuous
100
AcDbSpline
210
0.0
220
0.0
230
1.0
 70
     8
 71
     3
 72
     9
 73
     5
 74
     3
 42
0.0000000001
 43
0.0000000001
 44
0.0000000001
 40
0.0
 40
0.0
 40
0.0
 40
0.0
 40
0.6822169445947903
 40
1.371775149681185
 40
1.371775149681185
 40
1.371775149681185
 40
1.371775149681185
 10
3167.302258106071
 20
2226.467015809729
 30
0.0
 10
3167.078170096271
 20
2226.50583439547
 30
0.0
 10
3166.627582690579
 20
2226.583889289425
 30
0.0
 10
3166.180048251867
 20
2226.677883824742
 30
0.0
 10
3165.95508350867
 20
2226.725132605329
 30
0.0
 11
3167.302258106071
 21
2226.467015809729
 31
0.0
 11
3166.630749171071
 21
2226.587413939729
 31
0.0
 11
3165.95508350867
 21
2226.725132605329
 31
0.0
  0
LINE
  5
2AE83
330
1B
100
AcDbEntity
  8
0
100
AcDbLine
 10
3163.61613153267
 20
2221.467015809729
 30
0.0
 11
3170.84517373447
 21
2221.467015809729
 31
0.0
  0
LINE
  5
2AE84
330
1B
100
AcDbEntity
  8
0
100
AcDbLine
 10
3142.111017217271
 20
2221.467015809729
 30
0.0
 11
3126.845173734471
 21
2221.467015809729
 31
0.0
  0
LINE
  5
2AE85
330
1B
100
AcDbEntity
  8
0
100
AcDbLine
 10
3124.26271584117
 20
2224.469129958229
 30
0.0
 11
3126.845173734471
 21
2221.467015809729
 31
0.0
  0
LINE
  5
2AE86
330
1B
100
AcDbEntity
  8
0
100
AcDbLine
 10
3170.84517373447
 20
2221.467015809729
 30
0.0
 11
3174.142921123911
 21
2224.484126086981
 31
0.0
  0
LINE
  5
2AE87
330
1B
100
AcDbEntity
  8
0
100
AcDbLine
 10
3127.818076930671
 20
2224.525470033729
 30
0.0
 11
3124.23427687227
 21
2224.470398588529
 31
0.0
  0
LINE
  5
2AE88
330
1B
100
AcDbEntity
  8
0
100
AcDbLine
 10
3127.720236941127
 20
2224.526056339731
 30
0.0
 11
3132.072014691181
 21
2224.466334489659
 31
0.0
  0
LINE
  5
2AE89
330
1B
100
AcDbEntity
  8
0
100
AcDbLine
 10
3134.07421593647
 20
2221.467015809729
 30
0.0
 11
3132.21050187287
 21
2224.458484909328
 31
0.0
  0
LINE
  5
2AE8A
330
1B
100
AcDbEntity
  8
0
100
AcDbLine
 10
3334.07421593647
 20
2221.467015809729
 30
0.0
 11
3332.210501872871
 21
2224.458484909328
 31
0.0
  0
LINE
  5
2AE8B
330
1B
100
AcDbEntity
  8
0
100
AcDbLine
 10
3327.720236941127
 20
2224.526056339731
 30
0.0
 11
3332.072014691181
 21
2224.466334489659
 31
0.0
  0
LINE
  5
2AE8C
330
1B
100
AcDbEntity
  8
0
100
AcDbLine
 10
3327.818076930671
 20
2224.525470033729
 30
0.0
 11
3324.23427687227
 21
2224.470398588529
 31
0.0
  0
LINE
  5
2AE8D
330
1B
100
AcDbEntity
  8
0
100
AcDbLine
 10
3370.84517373447
 20
2221.467015809729
 30
0.0
 11
3374.142921123911
 21
2224.484126086981
 31
0.0
  0
LINE
  5
2AE8E
330
1B
100
AcDbEntity
  8
0
100
AcDbLine
 10
3324.26271584117
 20
2224.469129958229
 30
0.0
 11
3326.845173734471
 21
2221.467015809729
 31
0.0
  0
LINE
  5
2AE8F
330
1B
100
AcDbEntity
  8
0
100
AcDbLine
 10
3342.11101721727
 20
2221.467015809729
 30
0.0
 11
3326.845173734471
 21
2221.467015809729
 31
0.0
  0
LINE
  5
2AE90
330
1B
100
AcDbEntity
  8
0
100
AcDbLine
 10
3363.61613153267
 20
2221.467015809729
 30
0.0
 11
3370.84517373447
 21
2221.467015809729
 31
0.0
  0
SPLINE
  5
2AE91
330
1B
100
AcDbEntity
  8
0
  6
Continuous
100
AcDbSpline
210
0.0
220
0.0
230
1.0
 70
     8
 71
     3
 72
     9
 73
     5
 74
     3
 42
0.0000000001
 43
0.0000000001
 44
0.0000000001
 40
0.0
 40
0.0
 40
0.0
 40
0.0
 40
0.6822169445947903
 40
1.371775149680294
 40
1.371775149680294
 40
1.371775149680294
 40
1.371775149680294
 10
3367.302258106071
 20
2226.467015809729
 30
0.0
 10
3367.078170096271
 20
2226.50583439547
 30
0.0
 10
3366.627582690579
 20
2226.583889289424
 30
0.0
 10
3366.180048251867
 20
2226.677883824742
 30
0.0
 10
3365.955083508671
 20
2226.725132605329
 30
0.0
 11
3367.302258106071
 21
2226.467015809729
 31
0.0
 11
3366.630749171071
 21
2226.587413939729
 31
0.0
 11
3365.955083508671
 21
2226.725132605329
 31
0.0
  0
SPLINE
  5
2AE92
330
1B
100
AcDbEntity
  8
0
  6
Continuous
100
AcDbSpline
210
0.0
220
0.0
230
1.0
 70
    24
 71
     3
 72
     8
 73
     4
 74
     2
 42
0.0000000001
 43
0.0000000001
 44
0.0000000001
 40
0.0
 40
0.0
 40
0.0
 40
0.0
 40
0.1507490301517294
 40
0.1507490301517294
 40
0.1507490301517294
 40
0.1507490301517294
 10
3365.47984559607
 20
2224.458484909328
 30
0.0
 10
3365.530014747536
 20
2224.461328542795
 30
0.0
 10
3365.580183899003
 20
2224.464172176262
 30
0.0
 10
3365.63035305047
 20
2224.467015809729
 30
0.0
 11
3365.47984559607
 21
2224.458484909328
 31
0.0
 11
3365.63035305047
 21
2224.467015809729
 31
0.0
  0
LINE
  5
2AE93
330
1B
100
AcDbEntity
  8
0
  6
Continuous
100
AcDbLine
 10
3365.955083508671
 20
2226.725132605329
 30
0.0
 11
3359.312265020871
 21
2226.725132605329
 31
0.0
  0
LINE
  5
2AE94
330
1B
100
AcDbEntity
  8
0
  6
Continuous
100
AcDbLine
 10
3359.31226502107
 20
2226.725132605329
 30
0.0
 11
3359.704327372104
 21
2224.467015809729
 31
0.0
  0
LINE
  5
2AE95
330
1B
100
AcDbEntity
  8
0
100
AcDbLine
 10
3365.955083508671
 20
2226.725132605329
 30
0.0
 11
3364.312914895948
 21
2224.467015809729
 31
0.0
  0
LINE
  5
2AE96
330
1B
100
AcDbEntity
  8
0
100
AcDbLine
 10
3331.735263960271
 20
2226.725132605329
 30
0.0
 11
3333.377432572993
 21
2224.467015809729
 31
0.0
  0
LINE
  5
2AE97
330
1B
100
AcDbEntity
  8
0
  6
Continuous
100
AcDbLine
 10
3320.845173734471
 20
2226.725132605329
 30
0.0
 11
3320.845173734471
 21
2232.467015809729
 31
0.0
  0
LINE
  5
2AE98
330
1B
100
AcDbEntity
  8
0
  6
Continuous
100
AcDbLine
 10
3322.845173734471
 20
2198.832701226529
 30
0.0
 11
3322.845173734471
 21
2205.467015809729
 31
0.0
  0
LINE
  5
2AE99
330
1B
100
AcDbEntity
  8
0
  6
Continuous
100
AcDbLine
 10
3324.54517373447
 20
2196.967015809729
 30
0.0
 11
3324.54517373447
 21
2207.167015809729
 31
0.0
  0
LINE
  5
2AE9A
330
1B
100
AcDbEntity
  8
0
  6
Continuous
100
AcDbLine
 10
3326.845173734471
 20
2210.709656496929
 30
0.0
 11
3326.845173734471
 21
2221.467015809729
 31
0.0
  0
LINE
  5
2AE9B
330
1B
100
AcDbEntity
  8
0
  6
Continuous
100
AcDbLine
 10
3331.735263960271
 20
2226.725132605329
 30
0.0
 11
3331.735263960271
 21
2232.467015809729
 31
0.0
  0
LINE
  5
2AE9C
330
1B
100
AcDbEntity
  8
0
  6
Continuous
100
AcDbLine
 10
3338.37808244807
 20
2232.467015809729
 30
0.0
 11
3338.37808244807
 21
2226.725132605329
 31
0.0
  0
LINE
  5
2AE9D
330
1B
100
AcDbEntity
  8
0
  6
Continuous
100
AcDbLine
 10
3338.378082447871
 20
2226.725132605329
 30
0.0
 11
3337.986020096837
 21
2224.467015809729
 31
0.0
  0
LINE
  5
2AE9E
330
1B
100
AcDbEntity
  8
0
  6
Continuous
100
AcDbLine
 10
3360.117425889271
 20
2226.725132605329
 30
0.0
 11
3360.117425889271
 21
2232.467015809729
 31
0.0
  0
LINE
  5
2AE9F
330
1B
100
AcDbEntity
  8
0
  6
Continuous
100
AcDbLine
 10
3365.95508350887
 20
2232.467015809729
 30
0.0
 11
3365.95508350887
 21
2226.725132605329
 31
0.0
  0
LINE
  5
2AEA0
330
1B
100
AcDbEntity
  8
0
  6
Continuous
100
AcDbLine
 10
3370.84517373447
 20
2210.709656496929
 30
0.0
 11
3370.84517373447
 21
2221.467015809729
 31
0.0
  0
LINE
  5
2AEA1
330
1B
100
AcDbEntity
  8
0
  6
Continuous
100
AcDbLine
 10
3373.145173734471
 20
2196.967015809729
 30
0.0
 11
3373.145173734471
 21
2207.167015809729
 31
0.0
  0
LINE
  5
2AEA2
330
1B
100
AcDbEntity
  8
0
  6
Continuous
100
AcDbLine
 10
3374.84517373447
 20
2198.832701226529
 30
0.0
 11
3374.84517373447
 21
2205.467015809729
 31
0.0
  0
LINE
  5
2AEA3
330
1B
100
AcDbEntity
  8
0
  6
Continuous
100
AcDbLine
 10
3376.845173734471
 20
2226.725132605329
 30
0.0
 11
3376.845173734471
 21
2232.467015809729
 31
0.0
  0
LINE
  5
2AEA4
330
1B
100
AcDbEntity
  8
0
  6
Continuous
100
AcDbLine
 10
3324.92801682187
 20
2196.584172722329
 30
0.0
 11
3322.962331285871
 21
2198.549858258329
 31
0.0
  0
LINE
  5
2AEA5
330
1B
100
AcDbEntity
  8
0
  6
Continuous
100
AcDbLine
 10
3374.84517373447
 20
2205.467015809729
 30
0.0
 11
3371.723853186471
 21
2208.588336357729
 31
0.0
  0
LINE
  5
2AEA6
330
1B
100
AcDbEntity
  8
0
  6
Continuous
100
AcDbLine
 10
3322.845173734471
 20
2205.467015809729
 30
0.0
 11
3325.96649428267
 21
2208.588336357729
 31
0.0
  0
LINE
  5
2AEA7
330
1B
100
AcDbEntity
  8
0
  6
Continuous
100
AcDbLine
 10
3372.76233064727
 20
2196.584172722329
 30
0.0
 11
3374.72801618307
 21
2198.549858258329
 31
0.0
  0
LWPOLYLINE
  5
2AEA8
330
1B
100
AcDbEntity
  8
0
  6
Continuous
100
AcDbPolyline
 90
        4
 70
     0
 43
0.0
 10
3324.008210766871
 20
2224.497400303729
 10
3323.952276415671
 20
2224.508336701129
 10
3323.89669762587
 20
2224.520929033529
 10
3323.841539919071
 20
2224.535164157129
  0
LINE
  5
2AEA9
330
1B
100
AcDbEntity
  8
0
  6
Continuous
100
AcDbLine
 10
3372.47942479787
 20
2196.467015809729
 30
0.0
 11
3325.210922671271
 21
2196.467015809729
 31
0.0
  0
LINE
  5
2AEAA
330
1B
100
AcDbEntity
  8
0
  6
Continuous
100
AcDbLine
 10
3324.54517373447
 20
2196.967015809729
 30
0.0
 11
3373.145173734471
 21
2196.967015809729
 31
0.0
  0
LINE
  5
2AEAB
330
1B
100
AcDbEntity
  8
0
  6
Continuous
100
AcDbLine
 10
3374.72801616627
 20
2198.549858241729
 30
0.0
 11
3322.96233130287
 21
2198.549858241729
 31
0.0
  0
LINE
  5
2AEAC
330
1B
100
AcDbEntity
  8
0
  6
Continuous
100
AcDbLine
 10
3322.845173734471
 20
2205.467015809729
 30
0.0
 11
3374.84517373447
 21
2205.467015809729
 31
0.0
  0
LINE
  5
2AEAD
330
1B
100
AcDbEntity
  8
0
  6
Continuous
100
AcDbLine
 10
3324.54517373447
 20
2207.167012757929
 30
0.0
 11
3373.145173734471
 21
2207.167012757929
 31
0.0
  0
LINE
  5
2AEAE
330
1B
100
AcDbEntity
  8
0
  6
Continuous
100
AcDbLine
 10
3325.966494293871
 20
2208.588336368929
 30
0.0
 11
3371.723853175271
 21
2208.588336368929
 31
0.0
  0
LINE
  5
2AEAF
330
1B
100
AcDbEntity
  8
0
  6
Continuous
100
AcDbLine
 10
3326.84517373467
 20
2210.709656496929
 30
0.0
 11
3370.84517373447
 21
2210.709656496929
 31
0.0
  0
LINE
  5
2AEB0
330
1B
100
AcDbEntity
  8
0
  6
Continuous
100
AcDbLine
 10
3324.348022839471
 20
2224.467015809729
 30
0.0
 11
3324.291154810071
 21
2224.467861327928
 31
0.0
  0
LWPOLYLINE
  5
2AEB1
330
1B
100
AcDbEntity
  8
0
  6
Continuous
100
AcDbPolyline
 90
        6
 70
     0
 43
0.0
 10
3324.29115481007
 20
2224.467861327928
 10
3324.23427687227
 20
2224.470398588529
 10
3324.17746778967
 20
2224.474626413528
 10
3324.12082818287
 20
2224.480539675528
 10
3324.06440936867
 20
2224.488132316329
 10
3324.008210766871
 20
2224.497400303729
  0
LINE
  5
2AEB2
330
1B
100
AcDbEntity
  8
0
  6
Continuous
100
AcDbLine
 10
3355.579330251871
 20
2221.467015809729
 30
0.0
 11
3363.61613153267
 21
2221.467015809729
 31
0.0
  0
LINE
  5
2AEB3
330
1B
100
AcDbEntity
  8
0
  6
Continuous
100
AcDbLine
 10
3332.059994418471
 20
2224.467015809729
 30
0.0
 11
3341.192723146671
 21
2224.467015809729
 31
0.0
  0
LINE
  5
2AEB4
330
1B
100
AcDbEntity
  8
0
  6
Continuous
100
AcDbLine
 10
3356.497624322471
 20
2224.467015809729
 30
0.0
 11
3365.630353050671
 21
2224.467015809729
 31
0.0
  0
LINE
  5
2AEB5
330
1B
100
AcDbEntity
  8
0
  6
Continuous
100
AcDbLine
 10
3373.282803638671
 20
2224.467015809729
 30
0.0
 11
3373.83874324787
 21
2224.467015809729
 31
0.0
  0
LINE
  5
2AEB6
330
1B
100
AcDbEntity
  8
0
  6
Continuous
100
AcDbLine
 10
3373.34253483627
 20
2224.467015821328
 30
0.0
 11
3373.34232462967
 21
2224.467015809729
 31
0.0
  0
LINE
  5
2AEB7
330
1B
100
AcDbEntity
  8
0
  6
Continuous
100
AcDbLine
 10
3322.327535658271
 20
2224.793280952729
 30
0.0
 11
3322.485708647471
 21
2224.793280952729
 31
0.0
  0
LINE
  5
2AEB8
330
1B
100
AcDbEntity
  8
0
  6
Continuous
100
AcDbLine
 10
3322.61537160467
 20
2226.467015809729
 30
0.0
 11
3330.38808936287
 21
2226.467015809729
 31
0.0
  0
LINE
  5
2AEB9
330
1B
100
AcDbEntity
  8
0
  6
Continuous
100
AcDbLine
 10
3341.072480137871
 20
2226.467015809729
 30
0.0
 11
3356.617682791271
 21
2226.467015809729
 31
0.0
  0
LINE
  5
2AEBA
330
1B
100
AcDbEntity
  8
0
  6
Continuous
100
AcDbLine
 10
3367.302282408071
 20
2226.467015809729
 30
0.0
 11
3375.07515417347
 21
2226.467015809729
 31
0.0
  0
LINE
  5
2AEBB
330
1B
100
AcDbEntity
  8
0
  6
Continuous
100
AcDbLine
 10
3331.735263960271
 20
2226.725132605329
 30
0.0
 11
3338.37808244807
 21
2226.725132605329
 31
0.0
  0
LINE
  5
2AEBC
330
1B
100
AcDbEntity
  8
0
  6
Continuous
100
AcDbLine
 10
3359.31226502107
 20
2226.725132605329
 30
0.0
 11
3365.95508350887
 21
2226.725132605329
 31
0.0
  0
LINE
  5
2AEBD
330
1B
100
AcDbEntity
  8
0
  6
Continuous
100
AcDbLine
 10
3376.42217479547
 20
2226.725132605329
 30
0.0
 11
3376.845173734471
 21
2226.725132605329
 31
0.0
  0
LWPOLYLINE
  5
2AEBE
330
1B
100
AcDbEntity
  8
0
  6
Continuous
100
AcDbPolyline
 90
        3
 70
     0
 43
0.0
 10
3373.600232670071
 20
2224.489312278729
 10
3373.471619872671
 20
2224.472596014329
 10
3373.34232462967
 20
2224.467015809729
  0
LINE
  5
2AEBF
330
1B
100
AcDbEntity
  8
0
  6
Continuous
100
AcDbLine
 10
3374.399506829671
 20
2224.535164157129
 30
0.0
 11
3375.362811824671
 21
2224.793280952729
 31
0.0
  0
ARC
  5
2AEC0
330
1B
100
AcDbEntity
  8
0
  6
Continuous
100
AcDbCircle
 10
3373.88186873947
 20
2226.467015809729
 30
0.0
 40
2.0
100
AcDbArc
 50
270.0000000000006
 51
285.0000000000001
  0
ARC
  5
2AEC1
330
1B
100
AcDbEntity
  8
0
  6
Continuous
100
AcDbCircle
 10
3322.845173734471
 20
2226.725132605329
 30
0.0
 40
2.0
100
AcDbArc
 50
180.0
 51
255.0000000000008
  0
ARC
  5
2AEC2
330
1B
100
AcDbEntity
  8
0
  6
Continuous
100
AcDbCircle
 10
3374.84517373447
 20
2226.725132605329
 30
0.0
 40
2.0
100
AcDbArc
 50
285.0000000000001
 51
0.0
  0
ARC
  5
2AEC3
330
1B
100
AcDbEntity
  8
0
  6
Continuous
100
AcDbCircle
 10
3323.845173734471
 20
2210.709656496929
 30
0.0
 40
3.0
100
AcDbArc
 50
315.0000055227045
 51
0.0
  0
ARC
  5
2AEC4
330
1B
100
AcDbEntity
  8
0
  6
Continuous
100
AcDbCircle
 10
3373.845173734471
 20
2210.709656496929
 30
0.0
 40
3.0
100
AcDbArc
 50
180.0
 51
224.9999944773049
  0
ARC
  5
2AEC5
330
1B
100
AcDbEntity
  8
0
  6
Continuous
100
AcDbCircle
 10
3323.24517373447
 20
2198.832701234729
 30
0.0
 40
0.4
100
AcDbArc
 50
180.0000011678939
 51
225.0000534532973
  0
ARC
  5
2AEC6
330
1B
100
AcDbEntity
  8
0
  6
Continuous
100
AcDbCircle
 10
3374.44517373447
 20
2198.832701234729
 30
0.0
 40
0.4
100
AcDbArc
 50
314.9999465467034
 51
359.999998832106
  0
ARC
  5
2AEC7
330
1B
100
AcDbEntity
  8
0
  6
Continuous
100
AcDbCircle
 10
3372.47948830967
 20
2196.867015809729
 30
0.0
 40
0.4
100
AcDbArc
 50
270.0000000000006
 51
314.9999240540013
  0
ARC
  5
2AEC8
330
1B
100
AcDbEntity
  8
0
  6
Continuous
100
AcDbCircle
 10
3325.210859159471
 20
2196.867015809729
 30
0.0
 40
0.4
100
AcDbArc
 50
225.0000759459997
 51
270.0000000000006
  0
SPLINE
  5
2AEC9
330
1B
100
AcDbEntity
  8
0
  6
Continuous
100
AcDbSpline
210
0.0
220
0.0
230
1.0
 70
     8
 71
     3
 72
     9
 73
     5
 74
     3
 42
0.0000000001
 43
0.0000000001
 44
0.0000000001
 40
0.0
 40
0.0
 40
0.0
 40
0.0
 40
1.358707114579461
 40
2.706782948138129
 40
2.706782948138129
 40
2.706782948138129
 40
2.706782948138129
 10
3338.37808244807
 20
2226.725132605329
 30
0.0
 10
3338.828519302392
 20
2226.67783865407
 30
0.0
 10
3339.725868542277
 20
2226.583620805762
 30
0.0
 10
3340.624786482693
 20
2226.505782234329
 30
0.0
 10
3341.072480137871
 20
2226.467015809729
 30
0.0
 11
3338.37808244807
 21
2226.725132605329
 31
0.0
 11
3339.72978827287
 21
2226.587377799928
 31
0.0
 11
3341.072480137871
 21
2226.467015809729
 31
0.0
  0
SPLINE
  5
2AECA
330
1B
100
AcDbEntity
  8
0
  6
Continuous
100
AcDbSpline
210
0.0
220
0.0
230
1.0
 70
     8
 71
     3
 72
     9
 73
     5
 74
     3
 42
0.0000000001
 43
0.0000000001
 44
0.0000000001
 40
0.0
 40
0.0
 40
0.0
 40
0.0
 40
1.107450757739569
 40
1.789503045042364
 40
1.789503045042364
 40
1.789503045042364
 40
1.789503045042364
 10
3320.845173734471
 20
2226.725132605329
 30
0.0
 10
3321.212362554444
 20
2226.685163606913
 30
0.0
 10
3321.805694137681
 20
2226.620578663635
 30
0.0
 10
3322.391932395719
 20
2226.509393131564
 30
0.0
 10
3322.61537160467
 20
2226.467015809729
 30
0.0
 11
3320.845173734471
 21
2226.725132605329
 31
0.0
 11
3321.94402354347
 21
2226.587378193129
 31
0.0
 11
3322.61537160467
 21
2226.467015809729
 31
0.0
  0
SPLINE
  5
2AECB
330
1B
100
AcDbEntity
  8
0
  6
Continuous
100
AcDbSpline
210
0.0
220
0.0
230
1.0
 70
     8
 71
     3
 72
     9
 73
     5
 74
     3
 42
0.0000000001
 43
0.0000000001
 44
0.0000000001
 40
0.0
 40
0.0
 40
0.0
 40
0.0
 40
0.6923826098090595
 40
1.359874622776878
 40
1.359874622776878
 40
1.359874622776878
 40
1.359874622776878
 10
3322.485708647471
 20
2224.793280952729
 30
0.0
 10
3322.711635624237
 20
2224.746031253215
 30
0.0
 10
3323.155367685025
 20
2224.653230442805
 30
0.0
 10
3323.60211779596
 20
2224.576270166933
 30
0.0
 10
3323.82140428447
 20
2224.538494353929
 30
0.0
 11
3322.485708647471
 21
2224.793280952729
 31
0.0
 11
3323.16427196367
 21
2224.655638283929
 31
0.0
 11
3323.82140428447
 21
2224.538494353929
 31
0.0
  0
SPLINE
  5
2AECC
330
1B
100
AcDbEntity
  8
0
  6
Continuous
100
AcDbSpline
210
0.0
220
0.0
230
1.0
 70
    24
 71
     3
 72
     8
 73
     4
 74
     2
 42
0.0000000001
 43
0.0000000001
 44
0.0000000001
 40
0.0
 40
0.0
 40
0.0
 40
0.0
 40
0.0204091643996756
 40
0.0204091643996756
 40
0.0204091643996756
 40
0.0204091643996756
 10
3323.82140428447
 20
2224.538494353929
 30
0.0
 10
3323.828116162671
 20
2224.537384288329
 30
0.0
 10
3323.834828040871
 20
2224.536274222729
 30
0.0
 10
3323.841539919071
 20
2224.535164157129
 30
0.0
 11
3323.82140428447
 21
2224.538494353929
 31
0.0
 11
3323.841539919071
 21
2224.535164157129
 31
0.0
  0
SPLINE
  5
2AECD
330
1B
100
AcDbEntity
  8
0
  6
Continuous
100
AcDbSpline
210
0.0
220
0.0
230
1.0
 70
     8
 71
     3
 72
     9
 73
     5
 74
     3
 42
0.0000000001
 43
0.0000000001
 44
0.0000000001
 40
0.0
 40
0.0
 40
0.0
 40
0.0
 40
1.346861831339623
 40
2.706966748481969
 40
2.706966748481969
 40
2.706966748481969
 40
2.706966748481969
 10
3356.617682791271
 20
2226.467015809729
 30
0.0
 10
3357.064973999432
 20
2226.505739091797
 30
0.0
 10
3357.963954428757
 20
2226.583566404526
 30
0.0
 10
3358.861364713132
 20
2226.677790217084
 30
0.0
 10
3359.31226502107
 20
2226.725132605329
 30
0.0
 11
3356.617682791271
 21
2226.467015809729
 31
0.0
 11
3357.95916771087
 21
2226.587244771329
 31
0.0
 11
3359.31226502107
 21
2226.725132605329
 31
0.0
  0
SPLINE
  5
2AECE
330
1B
100
AcDbEntity
  8
0
  6
Continuous
100
AcDbSpline
210
0.0
220
0.0
230
1.0
 70
     8
 71
     3
 72
     9
 73
     5
 74
     3
 42
0.0000000001
 43
0.0000000001
 44
0.0000000001
 40
0.0
 40
0.0
 40
0.0
 40
0.0
 40
0.6897479089528052
 40
1.371799076450115
 40
1.371799076450115
 40
1.371799076450115
 40
1.371799076450115
 10
3365.95508350887
 20
2226.725132605329
 30
0.0
 10
3366.180110138505
 20
2226.677870720057
 30
0.0
 10
3366.627652376334
 20
2226.583874334239
 30
0.0
 10
3367.078248449348
 20
2226.505822676641
 30
0.0
 10
3367.302282408071
 20
2226.467015809729
 30
0.0
 11
3365.95508350887
 21
2226.725132605329
 31
0.0
 11
3366.63093544767
 21
2226.587377987529
 31
0.0
 11
3367.302282408071
 21
2226.467015809729
 31
0.0
  0
SPLINE
  5
2AECF
330
1B
100
AcDbEntity
  8
0
  6
Continuous
100
AcDbSpline
210
0.0
220
0.0
230
1.0
 70
     8
 71
     3
 72
     9
 73
     5
 74
     3
 42
0.0000000001
 43
0.0000000001
 44
0.0000000001
 40
0.0
 40
0.0
 40
0.0
 40
0.0
 40
0.6825288090467712
 40
1.371623577951505
 40
1.371623577951505
 40
1.371623577951505
 40
1.371623577951505
 10
3375.07515417347
 20
2226.467015809729
 30
0.0
 10
3375.299342402044
 20
2226.505864622398
 30
0.0
 10
3375.749875560699
 20
2226.583935975176
 30
0.0
 10
3376.197361013166
 20
2226.677917099448
 30
0.0
 10
3376.42217479547
 20
2226.725132605329
 30
0.0
 11
3375.07515417347
 21
2226.467015809729
 31
0.0
 11
3375.74696420987
 21
2226.587501701729
 31
0.0
 11
3376.42217479547
 21
2226.725132605329
 31
0.0
  0
SPLINE
  5
2AED0
330
1B
100
AcDbEntity
  8
0
  6
Continuous
100
AcDbSpline
210
0.0
220
0.0
230
1.0
 70
     8
 71
     3
 72
    14
 73
    10
 74
     8
 42
0.0000000001
 43
0.0000000001
 44
0.0000000001
 40
0.0
 40
0.0
 40
0.0
 40
0.0
 40
0.669469622836511
 40
1.320821842306963
 40
1.93818658414282
 40
2.51034797552173
 40
3.033413917116082
 40
3.513494323540123
 40
3.818571606074298
 40
3.818571606074298
 40
3.818571606074298
 40
3.818571606074298
 10
3363.61613153267
 20
2221.467015809729
 30
0.0
 10
3363.625731175582
 20
2221.690387031055
 30
0.0
 10
3363.644670672766
 20
2222.131084529501
 30
0.0
 10
3363.796418403021
 20
2222.763194615402
 30
0.0
 10
3364.031501349951
 20
2223.332669785803
 30
0.0
 10
3364.347995236662
 20
2223.81345158963
 30
0.0
 10
3364.731016845107
 20
2224.178090319395
 30
0.0
 10
3365.120788555261
 20
2224.39400136704
 30
0.0
 10
3365.379371954781
 20
2224.440440704029
 30
0.0
 10
3365.47984593847
 20
2224.458484960528
 30
0.0
 11
3363.61613153267
 21
2221.467015809729
 31
0.0
 11
3363.666631900671
 21
2222.134578008129
 31
0.0
 11
3363.81560142067
 21
2222.768666169129
 31
0.0
 11
3364.05557025007
 21
2223.337484404929
 31
0.0
 11
3364.37450542067
 21
2223.812509682929
 31
0.0
 11
3364.75641421287
 21
2224.169922124929
 31
0.0
 11
3365.182146099871
 21
2224.391799471729
 31
0.0
 11
3365.47984593847
 21
2224.458484960528
 31
0.0
  0
SPLINE
  5
2AED1
330
1B
100
AcDbEntity
  8
0
  6
Continuous
100
AcDbSpline
210
0.0
220
0.0
230
1.0
 70
     8
 71
     3
 72
    13
 73
     9
 74
     7
 42
0.0000000001
 43
0.0000000001
 44
0.0000000001
 40
0.0
 40
0.0
 40
0.0
 40
0.0
 40
1.108688474717391
 40
2.332694385885134
 40
3.64120919743535
 40
4.997028471753462
 40
6.353205167165689
 40
7.65345541188304
 40
7.65345541188304
 40
7.65345541188304
 40
7.65345541188304
 10
3365.630353050671
 20
2224.467015809729
 30
0.0
 10
3365.999913276506
 20
2224.469627340211
 30
0.0
 10
3366.777472603325
 20
2224.475122032934
 30
0.0
 10
3367.990890297551
 20
2224.504246648152
 30
0.0
 10
3369.286815040145
 20
2224.526621330976
 30
0.0
 10
3370.627142686517
 20
2224.52714027538
 30
0.0
 10
3371.964122931922
 20
2224.49047722583
 30
0.0
 10
3372.849456455781
 20
2224.474725741725
 30
0.0
 10
3373.282803638671
 20
2224.467015809729
 30
0.0
 11
3365.630353050671
 21
2224.467015809729
 31
0.0
 11
3366.73898884187
 21
2224.477823975329
 31
0.0
 11
3367.96275114787
 21
2224.502243004529
 31
0.0
 11
3369.27110550587
 21
2224.522734123329
 31
0.0
 11
3370.626923483471
 21
2224.520858962929
 31
0.0
 11
3371.982797066271
 21
2224.492187432728
 31
0.0
 11
3373.282803638671
 21
2224.467015809729
 31
0.0
  0
SPLINE
  5
2AED2
330
1B
100
AcDbEntity
  8
0
  6
Continuous
100
AcDbSpline
210
0.0
220
0.0
230
1.0
 70
     8
 71
     3
 72
    14
 73
    10
 74
     8
 42
0.0000000001
 43
0.0000000001
 44
0.0000000001
 40
0.0
 40
0.0
 40
0.0
 40
0.0
 40
0.6679594042393734
 40
1.305674417907539
 40
1.884917968381515
 40
2.381698857845036
 40
2.779265605760154
 40
3.074056639517951
 40
3.291800175459585
 40
3.291800175459585
 40
3.291800175459585
 40
3.291800175459585
 10
3355.579330251871
 20
2221.467015809729
 30
0.0
 10
3355.583652633593
 20
2221.689693021978
 30
0.0
 10
3355.592101684843
 20
2222.124964892751
 30
0.0
 10
3355.659770421546
 20
2222.750751015436
 30
0.0
 10
3355.764372603298
 20
2223.312030368734
 30
0.0
 10
3355.902836964225
 20
2223.787314525595
 30
0.0
 10
3356.070239311495
 20
2224.141528969822
 30
0.0
 10
3356.256099794669
 20
2224.403770411369
 30
0.0
 10
3356.42561010721
 20
2224.448158231274
 30
0.0
 10
3356.497624322471
 20
2224.467015809729
 30
0.0
 11
3355.579330251871
 21
2221.467015809729
 31
0.0
 11
3355.602353780071
 21
2222.134578303329
 31
0.0
 11
3355.670269875871
 21
2222.768666501129
 31
0.0
 11
3355.779672963271
 21
2223.337484622529
 31
0.0
 11
3355.925077141871
 21
2223.812509755529
 31
0.0
 11
3356.09919126487
 21
2224.169922110128
 31
0.0
 11
3356.293284539871
 21
2224.391799450529
 31
0.0
 11
3356.497624322471
 21
2224.467015809729
 31
0.0
  0
SPLINE
  5
2AED3
330
1B
100
AcDbEntity
  8
0
  6
Continuous
100
AcDbSpline
210
0.0
220
0.0
230
1.0
 70
     8
 71
     3
 72
    14
 73
    10
 74
     8
 42
0.0000000001
 43
0.0000000001
 44
0.0000000001
 40
0.0
 40
0.0
 40
0.0
 40
0.0
 40
2.461203836383755
 40
4.761768220616718
 40
6.882509365584917
 40
8.813126424719929
 40
10.55176418915179
 40
12.10244291724593
 40
13.47190523280136
 40
13.47190523280136
 40
13.47190523280136
 40
13.47190523280136
 10
3342.11101721727
 20
2221.467015809729
 30
0.0
 10
3342.931306805842
 20
2221.4817077426
 30
0.0
 10
3344.518346788806
 20
2221.510132685716
 30
0.0
 10
3346.810967958928
 20
2221.59769951649
 30
0.0
 10
3348.928432303248
 20
2221.6219471656
 30
0.0
 10
3350.858389880923
 20
2221.593637412087
 30
0.0
 10
3352.597483664832
 20
2221.538257230755
 30
0.0
 10
3354.149482410485
 20
2221.48199202575
 30
0.0
 10
3355.122849180829
 20
2221.471796989189
 30
0.0
 10
3355.579330251871
 20
2221.467015809729
 30
0.0
 11
3342.11101721727
 21
2221.467015809729
 31
0.0
 11
3344.571657475871
 21
2221.519683085929
 31
0.0
 11
3346.87116747927
 21
2221.589326680529
 31
0.0
 11
3348.991776409471
 21
2221.613007244529
 31
0.0
 11
3350.92221678207
 21
2221.586888345928
 31
0.0
 11
3352.66007752367
 21
2221.534914133929
 31
0.0
 11
3354.21001191687
 21
2221.486873582929
 31
0.0
 11
3355.579330251871
 21
2221.467015809729
 31
0.0
  0
SPLINE
  5
2AED4
330
1B
100
AcDbEntity
  8
0
  6
Continuous
100
AcDbSpline
210
0.0
220
0.0
230
1.0
 70
     8
 71
     3
 72
    14
 73
    10
 74
     8
 42
0.0000000001
 43
0.0000000001
 44
0.0000000001
 40
0.0
 40
0.0
 40
0.0
 40
0.0
 40
0.6679581269925926
 40
1.30567265568234
 40
1.884916350277302
 40
2.38169772562699
 40
2.779264978943949
 40
3.074056267036315
 40
3.291799681661721
 40
3.291799681661721
 40
3.291799681661721
 40
3.291799681661721
 10
3342.11101721707
 20
2221.467015809729
 30
0.0
 10
3342.106694727771
 20
2221.689692593169
 30
0.0
 10
3342.098245461486
 20
2222.124963870579
 30
0.0
 10
3342.030576660325
 20
2222.750749437987
 30
0.0
 10
3341.925974489916
 20
2223.312028835738
 30
0.0
 10
3341.787510188023
 20
2223.787313409781
 30
0.0
 10
3341.620107896751
 20
2224.141528300856
 30
0.0
 10
3341.43424762919
 20
2224.403770202997
 30
0.0
 10
3341.264737307153
 20
2224.448158179953
 30
0.0
 10
3341.192723146671
 20
2224.467015809729
 30
0.0
 11
3342.11101721707
 21
2221.467015809729
 31
0.0
 11
3342.087993428071
 21
2222.134577016328
 31
0.0
 11
3342.020077260871
 21
2222.768664718728
 31
0.0
 11
3341.91067418407
 21
2223.337482988929
 31
0.0
 11
3341.765270035071
 21
2223.812508639129
 31
0.0
 11
3341.59115594947
 21
2224.169921574129
 31
0.0
 11
3341.397062752071
 21
2224.391799320329
 31
0.0
 11
3341.192723146671
 21
2224.467015809729
 31
0.0
  0
SPLINE
  5
2AED5
330
1B
100
AcDbEntity
  8
0
  6
Continuous
100
AcDbSpline
210
0.0
220
0.0
230
1.0
 70
     8
 71
     3
 72
    14
 73
    10
 74
     8
 42
0.0000000001
 43
0.0000000001
 44
0.0000000001
 40
0.0
 40
0.0
 40
0.0
 40
0.0
 40
2.794856146406105
 40
5.408650417444117
 40
7.818779052093538
 40
10.01263053214218
 40
11.98766004248637
 40
13.74912121973601
 40
15.30540707425668
 40
15.30540707425668
 40
15.30540707425668
 40
15.30540707425668
 10
3341.192723146671
 20
2224.467015809729
 30
0.0
 10
3342.124326175856
 20
2224.472885456305
 30
0.0
 10
3343.927179291991
 20
2224.484244490451
 30
0.0
 10
3346.533220750711
 20
2224.5192870682
 30
0.0
 10
3348.939167621323
 20
2224.528990635085
 30
0.0
 10
3351.132165093699
 20
2224.517674675058
 30
0.0
 10
3353.108821311826
 20
2224.495519099867
 30
0.0
 10
3354.872949513041
 20
2224.473009733397
 30
0.0
 10
3355.978863271182
 20
2224.468929678355
 30
0.0
 10
3356.497624322471
 20
2224.467015809729
 30
0.0
 11
3341.192723146671
 21
2224.467015809729
 31
0.0
 11
3343.987500031471
 21
2224.488064403329
 31
0.0
 11
3346.601145725671
 21
2224.515933319729
 31
0.0
 11
3349.011255708871
 21
2224.525415114729
 31
0.0
 11
3351.205082327871
 21
2224.514970868529
 31
0.0
 11
3353.18000242087
 21
2224.494181616529
 31
0.0
 11
3354.94135876607
 21
2224.474964327928
 31
0.0
 11
3356.497624322471
 21
2224.467015809729
 31
0.0
  0
SPLINE
  5
2AED6
330
1B
100
AcDbEntity
  8
0
  6
Continuous
100
AcDbSpline
210
0.0
220
0.0
230
1.0
 70
     8
 71
     3
 72
     9
 73
     5
 74
     3
 42
0.0000000001
 43
0.0000000001
 44
0.0000000001
 40
0.0
 40
0.0
 40
0.0
 40
0.0
 40
0.6822169445961331
 40
1.371775149681636
 40
1.371775149681636
 40
1.371775149681636
 40
1.371775149681636
 10
3330.38808936287
 20
2226.467015809729
 30
0.0
 10
3330.61217737267
 20
2226.50583439547
 30
0.0
 10
3331.062764778363
 20
2226.583889289424
 30
0.0
 10
3331.510299217074
 20
2226.677883824742
 30
0.0
 10
3331.735263960271
 20
2226.725132605329
 30
0.0
 11
3330.38808936287
 21
2226.467015809729
 31
0.0
 11
3331.059598297871
 21
2226.587413939729
 31
0.0
 11
3331.735263960271
 21
2226.725132605329
 31
0.0
  0
SPLINE
  5
2AED7
330
1B
100
AcDbEntity
  8
0
  6
Continuous
100
AcDbSpline
210
0.0
220
0.0
230
1.0
 70
     8
 71
     3
 72
     9
 73
     5
 74
     3
 42
0.0000000001
 43
0.0000000001
 44
0.0000000001
 40
0.0
 40
0.0
 40
0.0
 40
0.0
 40
0.6822169445946299
 40
1.371775149680579
 40
1.371775149680579
 40
1.371775149680579
 40
1.371775149680579
 10
3230.38808936287
 20
2226.467015809729
 30
0.0
 10
3230.61217737267
 20
2226.505834395469
 30
0.0
 10
3231.062764778363
 20
2226.583889289423
 30
0.0
 10
3231.510299217073
 20
2226.677883824741
 30
0.0
 10
3231.73526396027
 20
2226.725132605328
 30
0.0
 11
3230.38808936287
 21
2226.467015809729
 31
0.0
 11
3231.05959829787
 21
2226.587413939728
 31
0.0
 11
3231.73526396027
 21
2226.725132605328
 31
0.0
  0
SPLINE
  5
2AED8
330
1B
100
AcDbEntity
  8
0
  6
Continuous
100
AcDbSpline
210
0.0
220
0.0
230
1.0
 70
     8
 71
     3
 72
    14
 73
    10
 74
     8
 42
0.0000000001
 43
0.0000000001
 44
0.0000000001
 40
0.0
 40
0.0
 40
0.0
 40
0.0
 40
2.794856146406105
 40
5.408650417444122
 40
7.818779052093541
 40
10.01263053214218
 40
11.98766004248637
 40
13.749121219736
 40
15.30540707425668
 40
15.30540707425668
 40
15.30540707425668
 40
15.30540707425668
 10
3241.192723146671
 20
2224.467015809728
 30
0.0
 10
3242.124326175857
 20
2224.472885456304
 30
0.0
 10
3243.927179291992
 20
2224.48424449045
 30
0.0
 10
3246.53322075071
 20
2224.519287068199
 30
0.0
 10
3248.939167621323
 20
2224.528990635083
 30
0.0
 10
3251.132165093699
 20
2224.517674675058
 30
0.0
 10
3253.108821311826
 20
2224.495519099865
 30
0.0
 10
3254.872949513041
 20
2224.473009733397
 30
0.0
 10
3255.978863271182
 20
2224.468929678354
 30
0.0
 10
3256.497624322471
 20
2224.467015809728
 30
0.0
 11
3241.192723146671
 21
2224.467015809728
 31
0.0
 11
3243.987500031471
 21
2224.488064403328
 31
0.0
 11
3246.601145725671
 21
2224.515933319728
 31
0.0
 11
3249.011255708871
 21
2224.525415114728
 31
0.0
 11
3251.205082327871
 21
2224.514970868528
 31
0.0
 11
3253.18000242087
 21
2224.494181616528
 31
0.0
 11
3254.94135876607
 21
2224.474964327928
 31
0.0
 11
3256.497624322471
 21
2224.467015809728
 31
0.0
  0
SPLINE
  5
2AED9
330
1B
100
AcDbEntity
  8
0
  6
Continuous
100
AcDbSpline
210
0.0
220
0.0
230
1.0
 70
     8
 71
     3
 72
    14
 73
    10
 74
     8
 42
0.0000000001
 43
0.0000000001
 44
0.0000000001
 40
0.0
 40
0.0
 40
0.0
 40
0.0
 40
0.6679581269925926
 40
1.30567265568234
 40
1.884916350276408
 40
2.381697725625662
 40
2.779264978942622
 40
3.07405626703533
 40
3.291799681660579
 40
3.291799681660579
 40
3.291799681660579
 40
3.291799681660579
 10
3242.11101721707
 20
2221.467015809729
 30
0.0
 10
3242.106694727771
 20
2221.689692593169
 30
0.0
 10
3242.098245461486
 20
2222.124963870578
 30
0.0
 10
3242.030576660324
 20
2222.750749437987
 30
0.0
 10
3241.925974489917
 20
2223.312028835737
 30
0.0
 10
3241.787510188023
 20
2223.78731340978
 30
0.0
 10
3241.620107896751
 20
2224.141528300855
 30
0.0
 10
3241.434247629189
 20
2224.403770202996
 30
0.0
 10
3241.264737307153
 20
2224.448158179953
 30
0.0
 10
3241.192723146671
 20
2224.467015809728
 30
0.0
 11
3242.11101721707
 21
2221.467015809729
 31
0.0
 11
3242.087993428071
 21
2222.134577016328
 31
0.0
 11
3242.020077260871
 21
2222.768664718728
 31
0.0
 11
3241.91067418407
 21
2223.337482988928
 31
0.0
 11
3241.765270035071
 21
2223.812508639128
 31
0.0
 11
3241.59115594947
 21
2224.169921574128
 31
0.0
 11
3241.397062752071
 21
2224.391799320328
 31
0.0
 11
3241.192723146671
 21
2224.467015809728
 31
0.0
  0
SPLINE
  5
2AEDA
330
1B
100
AcDbEntity
  8
0
  6
Continuous
100
AcDbSpline
210
0.0
220
0.0
230
1.0
 70
     8
 71
     3
 72
    14
 73
    10
 74
     8
 42
0.0000000001
 43
0.0000000001
 44
0.0000000001
 40
0.0
 40
0.0
 40
0.0
 40
0.0
 40
2.461203836382371
 40
4.761768220615362
 40
6.882509365583552
 40
8.81312642471946
 40
10.55176418915044
 40
12.10244291724458
 40
13.4719052328
 40
13.4719052328
 40
13.4719052328
 40
13.4719052328
 10
3242.111017217271
 20
2221.467015809729
 30
0.0
 10
3242.931306805843
 20
2221.4817077426
 30
0.0
 10
3244.518346788806
 20
2221.510132685714
 30
0.0
 10
3246.81096795893
 20
2221.59769951649
 30
0.0
 10
3248.928432303248
 20
2221.6219471656
 30
0.0
 10
3250.858389880923
 20
2221.593637412087
 30
0.0
 10
3252.597483664832
 20
2221.538257230754
 30
0.0
 10
3254.149482410484
 20
2221.481992025749
 30
0.0
 10
3255.122849180828
 20
2221.471796989188
 30
0.0
 10
3255.579330251871
 20
2221.467015809729
 30
0.0
 11
3242.111017217271
 21
2221.467015809729
 31
0.0
 11
3244.571657475871
 21
2221.519683085928
 31
0.0
 11
3246.87116747927
 21
2221.589326680529
 31
0.0
 11
3248.991776409471
 21
2221.613007244528
 31
0.0
 11
3250.922216782071
 21
2221.586888345928
 31
0.0
 11
3252.66007752367
 21
2221.534914133928
 31
0.0
 11
3254.21001191687
 21
2221.486873582928
 31
0.0
 11
3255.579330251871
 21
2221.467015809729
 31
0.0
  0
SPLINE
  5
2AEDB
330
1B
100
AcDbEntity
  8
0
  6
Continuous
100
AcDbSpline
210
0.0
220
0.0
230
1.0
 70
     8
 71
     3
 72
    14
 73
    10
 74
     8
 42
0.0000000001
 43
0.0000000001
 44
0.0000000001
 40
0.0
 40
0.0
 40
0.0
 40
0.0
 40
0.6679594042384645
 40
1.30567441790663
 40
1.884917968381499
 40
2.381698857844151
 40
2.779265605760086
 40
3.074056639517199
 40
3.291800175458675
 40
3.291800175458675
 40
3.291800175458675
 40
3.291800175458675
 10
3255.579330251871
 20
2221.467015809729
 30
0.0
 10
3255.583652633593
 20
2221.689693021977
 30
0.0
 10
3255.592101684842
 20
2222.124964892751
 30
0.0
 10
3255.659770421545
 20
2222.750751015435
 30
0.0
 10
3255.764372603298
 20
2223.312030368734
 30
0.0
 10
3255.902836964226
 20
2223.787314525595
 30
0.0
 10
3256.070239311494
 20
2224.141528969822
 30
0.0
 10
3256.25609979467
 20
2224.403770411368
 30
0.0
 10
3256.42561010721
 20
2224.448158231273
 30
0.0
 10
3256.497624322471
 20
2224.467015809728
 30
0.0
 11
3255.579330251871
 21
2221.467015809729
 31
0.0
 11
3255.602353780071
 21
2222.134578303328
 31
0.0
 11
3255.670269875871
 21
2222.768666501128
 31
0.0
 11
3255.779672963271
 21
2223.337484622529
 31
0.0
 11
3255.925077141871
 21
2223.812509755528
 31
0.0
 11
3256.09919126487
 21
2224.169922110128
 31
0.0
 11
3256.293284539871
 21
2224.391799450528
 31
0.0
 11
3256.497624322471
 21
2224.467015809728
 31
0.0
  0
SPLINE
  5
2AEDC
330
1B
100
AcDbEntity
  8
0
  6
Continuous
100
AcDbSpline
210
0.0
220
0.0
230
1.0
 70
     8
 71
     3
 72
    13
 73
     9
 74
     7
 42
0.0000000001
 43
0.0000000001
 44
0.0000000001
 40
0.0
 40
0.0
 40
0.0
 40
0.0
 40
1.108688474718314
 40
2.33269438588512
 40
3.641209197435344
 40
4.997028471753457
 40
6.353205167165656
 40
7.653455411883032
 40
7.653455411883032
 40
7.653455411883032
 40
7.653455411883032
 10
3265.630353050671
 20
2224.467015809728
 30
0.0
 10
3265.999913276507
 20
2224.469627340211
 30
0.0
 10
3266.777472603325
 20
2224.475122032934
 30
0.0
 10
3267.990890297551
 20
2224.504246648151
 30
0.0
 10
3269.286815040146
 20
2224.526621330975
 30
0.0
 10
3270.627142686516
 20
2224.527140275378
 30
0.0
 10
3271.964122931922
 20
2224.490477225831
 30
0.0
 10
3272.849456455782
 20
2224.474725741725
 30
0.0
 10
3273.282803638671
 20
2224.467015809728
 30
0.0
 11
3265.630353050671
 21
2224.467015809728
 31
0.0
 11
3266.738988841871
 21
2224.477823975329
 31
0.0
 11
3267.96275114787
 21
2224.502243004528
 31
0.0
 11
3269.27110550587
 21
2224.522734123328
 31
0.0
 11
3270.626923483471
 21
2224.520858962928
 31
0.0
 11
3271.982797066271
 21
2224.492187432728
 31
0.0
 11
3273.282803638671
 21
2224.467015809728
 31
0.0
  0
SPLINE
  5
2AEDD
330
1B
100
AcDbEntity
  8
0
  6
Continuous
100
AcDbSpline
210
0.0
220
0.0
230
1.0
 70
     8
 71
     3
 72
    14
 73
    10
 74
     8
 42
0.0000000001
 43
0.0000000001
 44
0.0000000001
 40
0.0
 40
0.0
 40
0.0
 40
0.0
 40
0.6694696228351507
 40
1.320821842306931
 40
1.93818658414195
 40
2.510347975521367
 40
3.033413917115677
 40
3.513494323539298
 40
3.818571606073671
 40
3.818571606073671
 40
3.818571606073671
 40
3.818571606073671
 10
3263.61613153267
 20
2221.467015809729
 30
0.0
 10
3263.625731175582
 20
2221.690387031054
 30
0.0
 10
3263.644670672765
 20
2222.131084529499
 30
0.0
 10
3263.796418403021
 20
2222.763194615401
 30
0.0
 10
3264.031501349952
 20
2223.332669785803
 30
0.0
 10
3264.347995236663
 20
2223.813451589629
 30
0.0
 10
3264.731016845106
 20
2224.178090319394
 30
0.0
 10
3265.120788555262
 20
2224.394001367039
 30
0.0
 10
3265.379371954781
 20
2224.440440704029
 30
0.0
 10
3265.47984593847
 20
2224.458484960528
 30
0.0
 11
3263.61613153267
 21
2221.467015809729
 31
0.0
 11
3263.666631900671
 21
2222.134578008128
 31
0.0
 11
3263.81560142067
 21
2222.768666169129
 31
0.0
 11
3264.05557025007
 21
2223.337484404928
 31
0.0
 11
3264.374505420671
 21
2223.812509682928
 31
0.0
 11
3264.75641421287
 21
2224.169922124929
 31
0.0
 11
3265.182146099871
 21
2224.391799471728
 31
0.0
 11
3265.47984593847
 21
2224.458484960528
 31
0.0
  0
SPLINE
  5
2AEDE
330
1B
100
AcDbEntity
  8
0
  6
Continuous
100
AcDbSpline
210
0.0
220
0.0
230
1.0
 70
     8
 71
     3
 72
     9
 73
     5
 74
     3
 42
0.0000000001
 43
0.0000000001
 44
0.0000000001
 40
0.0
 40
0.0
 40
0.0
 40
0.0
 40
0.6825288090475059
 40
1.371623577951349
 40
1.371623577951349
 40
1.371623577951349
 40
1.371623577951349
 10
3275.07515417347
 20
2226.467015809729
 30
0.0
 10
3275.299342402045
 20
2226.505864622398
 30
0.0
 10
3275.749875560699
 20
2226.583935975175
 30
0.0
 10
3276.197361013166
 20
2226.677917099446
 30
0.0
 10
3276.42217479547
 20
2226.725132605328
 30
0.0
 11
3275.07515417347
 21
2226.467015809729
 31
0.0
 11
3275.746964209871
 21
2226.587501701728
 31
0.0
 11
3276.42217479547
 21
2226.725132605328
 31
0.0
  0
SPLINE
  5
2AEDF
330
1B
100
AcDbEntity
  8
0
  6
Continuous
100
AcDbSpline
210
0.0
220
0.0
230
1.0
 70
     8
 71
     3
 72
     9
 73
     5
 74
     3
 42
0.0000000001
 43
0.0000000001
 44
0.0000000001
 40
0.0
 40
0.0
 40
0.0
 40
0.0
 40
0.6897479089542328
 40
1.37179907644996
 40
1.37179907644996
 40
1.37179907644996
 40
1.37179907644996
 10
3265.95508350887
 20
2226.725132605328
 30
0.0
 10
3266.180110138505
 20
2226.677870720056
 30
0.0
 10
3266.627652376335
 20
2226.583874334238
 30
0.0
 10
3267.078248449349
 20
2226.505822676641
 30
0.0
 10
3267.302282408071
 20
2226.467015809729
 30
0.0
 11
3265.95508350887
 21
2226.725132605328
 31
0.0
 11
3266.630935447671
 21
2226.587377987528
 31
0.0
 11
3267.302282408071
 21
2226.467015809729
 31
0.0
  0
SPLINE
  5
2AEE0
330
1B
100
AcDbEntity
  8
0
  6
Continuous
100
AcDbSpline
210
0.0
220
0.0
230
1.0
 70
     8
 71
     3
 72
     9
 73
     5
 74
     3
 42
0.0000000001
 43
0.0000000001
 44
0.0000000001
 40
0.0
 40
0.0
 40
0.0
 40
0.0
 40
1.346861831340448
 40
2.706966748481889
 40
2.706966748481889
 40
2.706966748481889
 40
2.706966748481889
 10
3256.617682791271
 20
2226.467015809729
 30
0.0
 10
3257.064973999432
 20
2226.505739091797
 30
0.0
 10
3257.963954428757
 20
2226.583566404524
 30
0.0
 10
3258.861364713132
 20
2226.677790217083
 30
0.0
 10
3259.31226502107
 20
2226.725132605328
 30
0.0
 11
3256.617682791271
 21
2226.467015809729
 31
0.0
 11
3257.959167710871
 21
2226.587244771328
 31
0.0
 11
3259.31226502107
 21
2226.725132605328
 31
0.0
  0
SPLINE
  5
2AEE1
330
1B
100
AcDbEntity
  8
0
  6
Continuous
100
AcDbSpline
210
0.0
220
0.0
230
1.0
 70
    24
 71
     3
 72
     8
 73
     4
 74
     2
 42
0.0000000001
 43
0.0000000001
 44
0.0000000001
 40
0.0
 40
0.0
 40
0.0
 40
0.0
 40
0.0204091643997498
 40
0.0204091643997498
 40
0.0204091643997498
 40
0.0204091643997498
 10
3223.82140428447
 20
2224.538494353928
 30
0.0
 10
3223.82811616267
 20
2224.537384288328
 30
0.0
 10
3223.83482804087
 20
2224.536274222728
 30
0.0
 10
3223.841539919071
 20
2224.535164157128
 30
0.0
 11
3223.82140428447
 21
2224.538494353928
 31
0.0
 11
3223.841539919071
 21
2224.535164157128
 31
0.0
  0
SPLINE
  5
2AEE2
330
1B
100
AcDbEntity
  8
0
  6
Continuous
100
AcDbSpline
210
0.0
220
0.0
230
1.0
 70
     8
 71
     3
 72
     9
 73
     5
 74
     3
 42
0.0000000001
 43
0.0000000001
 44
0.0000000001
 40
0.0
 40
0.0
 40
0.0
 40
0.0
 40
0.6923826098092404
 40
1.359874622777059
 40
1.359874622777059
 40
1.359874622777059
 40
1.359874622777059
 10
3222.485708647471
 20
2224.793280952729
 30
0.0
 10
3222.711635624237
 20
2224.746031253214
 30
0.0
 10
3223.155367685025
 20
2224.653230442803
 30
0.0
 10
3223.60211779596
 20
2224.576270166932
 30
0.0
 10
3223.82140428447
 20
2224.538494353928
 30
0.0
 11
3222.485708647471
 21
2224.793280952729
 31
0.0
 11
3223.16427196367
 21
2224.655638283928
 31
0.0
 11
3223.82140428447
 21
2224.538494353928
 31
0.0
  0
SPLINE
  5
2AEE3
330
1B
100
AcDbEntity
  8
0
  6
Continuous
100
AcDbSpline
210
0.0
220
0.0
230
1.0
 70
     8
 71
     3
 72
     9
 73
     5
 74
     3
 42
0.0000000001
 43
0.0000000001
 44
0.0000000001
 40
0.0
 40
0.0
 40
0.0
 40
0.0
 40
1.107450757740471
 40
1.789503045043106
 40
1.789503045043106
 40
1.789503045043106
 40
1.789503045043106
 10
3220.84517373447
 20
2226.725132605328
 30
0.0
 10
3221.212362554443
 20
2226.685163606912
 30
0.0
 10
3221.80569413768
 20
2226.620578663633
 30
0.0
 10
3222.39193239572
 20
2226.509393131564
 30
0.0
 10
3222.61537160467
 20
2226.467015809729
 30
0.0
 11
3220.84517373447
 21
2226.725132605328
 31
0.0
 11
3221.94402354347
 21
2226.587378193128
 31
0.0
 11
3222.61537160467
 21
2226.467015809729
 31
0.0
  0
SPLINE
  5
2AEE4
330
1B
100
AcDbEntity
  8
0
  6
Continuous
100
AcDbSpline
210
0.0
220
0.0
230
1.0
 70
     8
 71
     3
 72
     9
 73
     5
 74
     3
 42
0.0000000001
 43
0.0000000001
 44
0.0000000001
 40
0.0
 40
0.0
 40
0.0
 40
0.0
 40
1.358707114578464
 40
2.706782948137132
 40
2.706782948137132
 40
2.706782948137132
 40
2.706782948137132
 10
3238.378082448071
 20
2226.725132605328
 30
0.0
 10
3238.828519302394
 20
2226.67783865407
 30
0.0
 10
3239.725868542279
 20
2226.583620805763
 30
0.0
 10
3240.624786482693
 20
2226.50578223433
 30
0.0
 10
3241.072480137871
 20
2226.467015809729
 30
0.0
 11
3238.378082448071
 21
2226.725132605328
 31
0.0
 11
3239.72978827287
 21
2226.587377799928
 31
0.0
 11
3241.072480137871
 21
2226.467015809729
 31
0.0
  0
ARC
  5
2AEE5
330
1B
100
AcDbEntity
  8
0
  6
Continuous
100
AcDbCircle
 10
3225.210859159471
 20
2196.867015809728
 30
0.0
 40
0.4
100
AcDbArc
 50
225.0000759459997
 51
270.0000000000006
  0
ARC
  5
2AEE6
330
1B
100
AcDbEntity
  8
0
  6
Continuous
100
AcDbCircle
 10
3272.47948830967
 20
2196.867015809728
 30
0.0
 40
0.4
100
AcDbArc
 50
270.0000000000006
 51
314.9999240540013
  0
ARC
  5
2AEE7
330
1B
100
AcDbEntity
  8
0
  6
Continuous
100
AcDbCircle
 10
3274.44517373447
 20
2198.832701234728
 30
0.0
 40
0.4
100
AcDbArc
 50
314.9999465467034
 51
359.999998832106
  0
ARC
  5
2AEE8
330
1B
100
AcDbEntity
  8
0
  6
Continuous
100
AcDbCircle
 10
3223.245173734471
 20
2198.832701234728
 30
0.0
 40
0.4
100
AcDbArc
 50
180.0000011678939
 51
225.0000534532973
  0
ARC
  5
2AEE9
330
1B
100
AcDbEntity
  8
0
  6
Continuous
100
AcDbCircle
 10
3273.84517373447
 20
2210.709656496928
 30
0.0
 40
3.0
100
AcDbArc
 50
180.0
 51
224.9999944773049
  0
ARC
  5
2AEEA
330
1B
100
AcDbEntity
  8
0
  6
Continuous
100
AcDbCircle
 10
3223.845173734471
 20
2210.709656496928
 30
0.0
 40
3.0
100
AcDbArc
 50
315.0000055227045
 51
0.0
  0
ARC
  5
2AEEB
330
1B
100
AcDbEntity
  8
0
  6
Continuous
100
AcDbCircle
 10
3274.84517373447
 20
2226.725132605328
 30
0.0
 40
2.0
100
AcDbArc
 50
285.0000000000001
 51
0.0
  0
ARC
  5
2AEEC
330
1B
100
AcDbEntity
  8
0
  6
Continuous
100
AcDbCircle
 10
3222.845173734471
 20
2226.725132605328
 30
0.0
 40
2.0
100
AcDbArc
 50
180.0
 51
255.0000000000008
  0
ARC
  5
2AEED
330
1B
100
AcDbEntity
  8
0
  6
Continuous
100
AcDbCircle
 10
3273.881868739471
 20
2226.467015809729
 30
0.0
 40
2.0
100
AcDbArc
 50
270.0000000000006
 51
285.0000000000001
  0
LINE
  5
2AEEE
330
1B
100
AcDbEntity
  8
0
  6
Continuous
100
AcDbLine
 10
3274.39950682967
 20
2224.535164157128
 30
0.0
 11
3275.36281182467
 21
2224.793280952729
 31
0.0
  0
LWPOLYLINE
  5
2AEEF
330
1B
100
AcDbEntity
  8
0
  6
Continuous
100
AcDbPolyline
 90
        3
 70
     0
 43
0.0
 10
3273.600232670071
 20
2224.489312278728
 10
3273.471619872671
 20
2224.472596014328
 10
3273.34232462967
 20
2224.467015809728
  0
LINE
  5
2AEF0
330
1B
100
AcDbEntity
  8
0
  6
Continuous
100
AcDbLine
 10
3276.42217479547
 20
2226.725132605328
 30
0.0
 11
3276.845173734471
 21
2226.725132605328
 31
0.0
  0
LINE
  5
2AEF1
330
1B
100
AcDbEntity
  8
0
  6
Continuous
100
AcDbLine
 10
3259.31226502107
 20
2226.725132605328
 30
0.0
 11
3265.95508350887
 21
2226.725132605328
 31
0.0
  0
LINE
  5
2AEF2
330
1B
100
AcDbEntity
  8
0
  6
Continuous
100
AcDbLine
 10
3231.73526396027
 20
2226.725132605328
 30
0.0
 11
3238.378082448071
 21
2226.725132605328
 31
0.0
  0
LINE
  5
2AEF3
330
1B
100
AcDbEntity
  8
0
  6
Continuous
100
AcDbLine
 10
3267.302282408071
 20
2226.467015809729
 30
0.0
 11
3275.07515417347
 21
2226.467015809729
 31
0.0
  0
LINE
  5
2AEF4
330
1B
100
AcDbEntity
  8
0
  6
Continuous
100
AcDbLine
 10
3241.072480137871
 20
2226.467015809729
 30
0.0
 11
3256.617682791271
 21
2226.467015809729
 31
0.0
  0
LINE
  5
2AEF5
330
1B
100
AcDbEntity
  8
0
  6
Continuous
100
AcDbLine
 10
3222.61537160467
 20
2226.467015809729
 30
0.0
 11
3230.38808936287
 21
2226.467015809729
 31
0.0
  0
LINE
  5
2AEF6
330
1B
100
AcDbEntity
  8
0
  6
Continuous
100
AcDbLine
 10
3222.327535658271
 20
2224.793280952729
 30
0.0
 11
3222.485708647471
 21
2224.793280952729
 31
0.0
  0
LINE
  5
2AEF7
330
1B
100
AcDbEntity
  8
0
  6
Continuous
100
AcDbLine
 10
3273.34253483627
 20
2224.467015821328
 30
0.0
 11
3273.34232462967
 21
2224.467015809728
 31
0.0
  0
LINE
  5
2AEF8
330
1B
100
AcDbEntity
  8
0
  6
Continuous
100
AcDbLine
 10
3273.282803638671
 20
2224.467015809728
 30
0.0
 11
3273.83874324787
 21
2224.467015809728
 31
0.0
  0
LINE
  5
2AEF9
330
1B
100
AcDbEntity
  8
0
  6
Continuous
100
AcDbLine
 10
3256.497624322471
 20
2224.467015809728
 30
0.0
 11
3265.630353050671
 21
2224.467015809728
 31
0.0
  0
LINE
  5
2AEFA
330
1B
100
AcDbEntity
  8
0
  6
Continuous
100
AcDbLine
 10
3232.059994418471
 20
2224.467015809728
 30
0.0
 11
3241.192723146671
 21
2224.467015809728
 31
0.0
  0
LINE
  5
2AEFB
330
1B
100
AcDbEntity
  8
0
  6
Continuous
100
AcDbLine
 10
3255.579330251871
 20
2221.467015809729
 30
0.0
 11
3263.61613153267
 21
2221.467015809729
 31
0.0
  0
LWPOLYLINE
  5
2AEFC
330
1B
100
AcDbEntity
  8
0
  6
Continuous
100
AcDbPolyline
 90
        6
 70
     0
 43
0.0
 10
3224.29115481007
 20
2224.467861327928
 10
3224.23427687227
 20
2224.470398588528
 10
3224.17746778967
 20
2224.474626413528
 10
3224.120828182871
 20
2224.480539675528
 10
3224.064409368671
 20
2224.488132316328
 10
3224.008210766871
 20
2224.497400303728
  0
LINE
  5
2AEFD
330
1B
100
AcDbEntity
  8
0
  6
Continuous
100
AcDbLine
 10
3224.348022839471
 20
2224.467015809728
 30
0.0
 11
3224.291154810071
 21
2224.467861327928
 31
0.0
  0
LINE
  5
2AEFE
330
1B
100
AcDbEntity
  8
0
  6
Continuous
100
AcDbLine
 10
3226.84517373467
 20
2210.709656496928
 30
0.0
 11
3270.84517373447
 21
2210.709656496928
 31
0.0
  0
LINE
  5
2AEFF
330
1B
100
AcDbEntity
  8
0
  6
Continuous
100
AcDbLine
 10
3225.966494293871
 20
2208.588336368928
 30
0.0
 11
3271.723853175271
 21
2208.588336368928
 31
0.0
  0
LINE
  5
2AF00
330
1B
100
AcDbEntity
  8
0
  6
Continuous
100
AcDbLine
 10
3224.54517373447
 20
2207.167012757928
 30
0.0
 11
3273.145173734471
 21
2207.167012757928
 31
0.0
  0
LINE
  5
2AF01
330
1B
100
AcDbEntity
  8
0
  6
Continuous
100
AcDbLine
 10
3222.845173734471
 20
2205.467015809729
 30
0.0
 11
3274.84517373447
 21
2205.467015809729
 31
0.0
  0
LINE
  5
2AF02
330
1B
100
AcDbEntity
  8
0
  6
Continuous
100
AcDbLine
 10
3274.72801616627
 20
2198.549858241728
 30
0.0
 11
3222.96233130287
 21
2198.549858241728
 31
0.0
  0
LINE
  5
2AF03
330
1B
100
AcDbEntity
  8
0
  6
Continuous
100
AcDbLine
 10
3224.54517373447
 20
2196.967015809728
 30
0.0
 11
3273.145173734471
 21
2196.967015809728
 31
0.0
  0
LINE
  5
2AF04
330
1B
100
AcDbEntity
  8
0
  6
Continuous
100
AcDbLine
 10
3272.47942479787
 20
2196.467015809728
 30
0.0
 11
3225.210922671271
 21
2196.467015809728
 31
0.0
  0
LWPOLYLINE
  5
2AF05
330
1B
100
AcDbEntity
  8
0
  6
Continuous
100
AcDbPolyline
 90
        4
 70
     0
 43
0.0
 10
3224.008210766871
 20
2224.497400303728
 10
3223.95227641567
 20
2224.508336701128
 10
3223.89669762587
 20
2224.520929033528
 10
3223.841539919071
 20
2224.535164157128
  0
LINE
  5
2AF06
330
1B
100
AcDbEntity
  8
0
  6
Continuous
100
AcDbLine
 10
3272.76233064727
 20
2196.584172722328
 30
0.0
 11
3274.72801618307
 21
2198.549858258328
 31
0.0
  0
LINE
  5
2AF07
330
1B
100
AcDbEntity
  8
0
  6
Continuous
100
AcDbLine
 10
3222.845173734471
 20
2205.467015809729
 30
0.0
 11
3225.96649428267
 21
2208.588336357728
 31
0.0
  0
LINE
  5
2AF08
330
1B
100
AcDbEntity
  8
0
  6
Continuous
100
AcDbLine
 10
3274.84517373447
 20
2205.467015809729
 30
0.0
 11
3271.723853186471
 21
2208.588336357728
 31
0.0
  0
LINE
  5
2AF09
330
1B
100
AcDbEntity
  8
0
  6
Continuous
100
AcDbLine
 10
3224.92801682187
 20
2196.584172722328
 30
0.0
 11
3222.962331285871
 21
2198.549858258328
 31
0.0
  0
LINE
  5
2AF0A
330
1B
100
AcDbEntity
  8
0
  6
Continuous
100
AcDbLine
 10
3276.845173734471
 20
2226.725132605328
 30
0.0
 11
3276.845173734471
 21
2232.467015809728
 31
0.0
  0
LINE
  5
2AF0B
330
1B
100
AcDbEntity
  8
0
  6
Continuous
100
AcDbLine
 10
3274.84517373447
 20
2198.832701226528
 30
0.0
 11
3274.84517373447
 21
2205.467015809729
 31
0.0
  0
LINE
  5
2AF0C
330
1B
100
AcDbEntity
  8
0
  6
Continuous
100
AcDbLine
 10
3273.145173734471
 20
2196.967015809728
 30
0.0
 11
3273.145173734471
 21
2207.167015809728
 31
0.0
  0
LINE
  5
2AF0D
330
1B
100
AcDbEntity
  8
0
  6
Continuous
100
AcDbLine
 10
3270.84517373447
 20
2210.709656496928
 30
0.0
 11
3270.84517373447
 21
2221.467015809729
 31
0.0
  0
LINE
  5
2AF0E
330
1B
100
AcDbEntity
  8
0
  6
Continuous
100
AcDbLine
 10
3265.95508350887
 20
2232.467015809728
 30
0.0
 11
3265.95508350887
 21
2226.725132605328
 31
0.0
  0
LINE
  5
2AF0F
330
1B
100
AcDbEntity
  8
0
  6
Continuous
100
AcDbLine
 10
3260.117425889271
 20
2226.725132605328
 30
0.0
 11
3260.117425889271
 21
2232.467015809728
 31
0.0
  0
LINE
  5
2AF10
330
1B
100
AcDbEntity
  8
0
  6
Continuous
100
AcDbLine
 10
3238.378082447871
 20
2226.725132605328
 30
0.0
 11
3237.986020096837
 21
2224.467015809728
 31
0.0
  0
LINE
  5
2AF11
330
1B
100
AcDbEntity
  8
0
  6
Continuous
100
AcDbLine
 10
3238.378082448071
 20
2232.467015809728
 30
0.0
 11
3238.378082448071
 21
2226.725132605328
 31
0.0
  0
LINE
  5
2AF12
330
1B
100
AcDbEntity
  8
0
  6
Continuous
100
AcDbLine
 10
3231.73526396027
 20
2226.725132605328
 30
0.0
 11
3231.73526396027
 21
2232.467015809728
 31
0.0
  0
LINE
  5
2AF13
330
1B
100
AcDbEntity
  8
0
  6
Continuous
100
AcDbLine
 10
3226.845173734471
 20
2210.709656496928
 30
0.0
 11
3226.845173734471
 21
2221.467015809729
 31
0.0
  0
LINE
  5
2AF14
330
1B
100
AcDbEntity
  8
0
  6
Continuous
100
AcDbLine
 10
3224.54517373447
 20
2196.967015809728
 30
0.0
 11
3224.54517373447
 21
2207.167015809728
 31
0.0
  0
LINE
  5
2AF15
330
1B
100
AcDbEntity
  8
0
  6
Continuous
100
AcDbLine
 10
3222.845173734471
 20
2198.832701226528
 30
0.0
 11
3222.845173734471
 21
2205.467015809729
 31
0.0
  0
LINE
  5
2AF16
330
1B
100
AcDbEntity
  8
0
  6
Continuous
100
AcDbLine
 10
3220.84517373447
 20
2226.725132605328
 30
0.0
 11
3220.84517373447
 21
2232.467015809728
 31
0.0
  0
LINE
  5
2AF17
330
1B
100
AcDbEntity
  8
0
100
AcDbLine
 10
3231.73526396027
 20
2226.725132605328
 30
0.0
 11
3233.377432572993
 21
2224.467015809728
 31
0.0
  0
LINE
  5
2AF18
330
1B
100
AcDbEntity
  8
0
100
AcDbLine
 10
3265.955083508671
 20
2226.725132605328
 30
0.0
 11
3264.312914895948
 21
2224.467015809728
 31
0.0
  0
LINE
  5
2AF19
330
1B
100
AcDbEntity
  8
0
  6
Continuous
100
AcDbLine
 10
3259.31226502107
 20
2226.725132605328
 30
0.0
 11
3259.704327372104
 21
2224.467015809728
 31
0.0
  0
LINE
  5
2AF1A
330
1B
100
AcDbEntity
  8
0
  6
Continuous
100
AcDbLine
 10
3265.955083508671
 20
2226.725132605328
 30
0.0
 11
3259.312265020871
 21
2226.725132605328
 31
0.0
  0
SPLINE
  5
2AF1B
330
1B
100
AcDbEntity
  8
0
  6
Continuous
100
AcDbSpline
210
0.0
220
0.0
230
1.0
 70
    24
 71
     3
 72
     8
 73
     4
 74
     2
 42
0.0000000001
 43
0.0000000001
 44
0.0000000001
 40
0.0
 40
0.0
 40
0.0
 40
0.0
 40
0.1507490301516522
 40
0.1507490301516522
 40
0.1507490301516522
 40
0.1507490301516522
 10
3265.47984559607
 20
2224.458484909328
 30
0.0
 10
3265.530014747537
 20
2224.461328542795
 30
0.0
 10
3265.580183899004
 20
2224.464172176261
 30
0.0
 10
3265.63035305047
 20
2224.467015809728
 30
0.0
 11
3265.47984559607
 21
2224.458484909328
 31
0.0
 11
3265.63035305047
 21
2224.467015809728
 31
0.0
  0
SPLINE
  5
2AF1C
330
1B
100
AcDbEntity
  8
0
  6
Continuous
100
AcDbSpline
210
0.0
220
0.0
230
1.0
 70
     8
 71
     3
 72
     9
 73
     5
 74
     3
 42
0.0000000001
 43
0.0000000001
 44
0.0000000001
 40
0.0
 40
0.0
 40
0.0
 40
0.0
 40
0.6822169445946299
 40
1.371775149680133
 40
1.371775149680133
 40
1.371775149680133
 40
1.371775149680133
 10
3267.302258106071
 20
2226.467015809729
 30
0.0
 10
3267.078170096271
 20
2226.505834395469
 30
0.0
 10
3266.627582690577
 20
2226.583889289423
 30
0.0
 10
3266.180048251868
 20
2226.677883824742
 30
0.0
 10
3265.955083508671
 20
2226.725132605328
 30
0.0
 11
3267.302258106071
 21
2226.467015809729
 31
0.0
 11
3266.630749171071
 21
2226.587413939728
 31
0.0
 11
3265.955083508671
 21
2226.725132605328
 31
0.0
  0
LINE
  5
2AF1D
330
1B
100
AcDbEntity
  8
0
100
AcDbLine
 10
3263.61613153267
 20
2221.467015809729
 30
0.0
 11
3270.84517373447
 21
2221.467015809729
 31
0.0
  0
LINE
  5
2AF1E
330
1B
100
AcDbEntity
  8
0
100
AcDbLine
 10
3242.111017217271
 20
2221.467015809729
 30
0.0
 11
3226.845173734471
 21
2221.467015809729
 31
0.0
  0
LINE
  5
2AF1F
330
1B
100
AcDbEntity
  8
0
100
AcDbLine
 10
3224.26271584117
 20
2224.469129958228
 30
0.0
 11
3226.845173734471
 21
2221.467015809729
 31
0.0
  0
LINE
  5
2AF20
330
1B
100
AcDbEntity
  8
0
100
AcDbLine
 10
3270.84517373447
 20
2221.467015809729
 30
0.0
 11
3274.142921123911
 21
2224.484126086981
 31
0.0
  0
LINE
  5
2AF21
330
1B
100
AcDbEntity
  8
0
100
AcDbLine
 10
3227.818076930671
 20
2224.525470033729
 30
0.0
 11
3224.23427687227
 21
2224.470398588528
 31
0.0
  0
LINE
  5
2AF22
330
1B
100
AcDbEntity
  8
0
100
AcDbLine
 10
3227.720236941127
 20
2224.526056339731
 30
0.0
 11
3232.072014691181
 21
2224.466334489659
 31
0.0
  0
LINE
  5
2AF23
330
1B
100
AcDbEntity
  8
0
100
AcDbLine
 10
3234.07421593647
 20
2221.467015809729
 30
0.0
 11
3232.210501872871
 21
2224.458484909328
 31
0.0
  0
SPLINE
  5
2AF24
330
1B
100
AcDbEntity
  8
0
  6
Continuous
100
AcDbSpline
210
0.0
220
0.0
230
1.0
 70
     8
 71
     3
 72
     9
 73
     5
 74
     3
 42
0.0000000001
 43
0.0000000001
 44
0.0000000001
 40
0.0
 40
0.0
 40
0.0
 40
0.0
 40
0.6822169445947903
 40
1.371775149680294
 40
1.371775149680294
 40
1.371775149680294
 40
1.371775149680294
 10
3430.388089362871
 20
2226.467015809729
 30
0.0
 10
3430.612177372671
 20
2226.50583439547
 30
0.0
 10
3431.062764778364
 20
2226.583889289424
 30
0.0
 10
3431.510299217074
 20
2226.677883824742
 30
0.0
 10
3431.735263960271
 20
2226.725132605329
 30
0.0
 11
3430.388089362871
 21
2226.467015809729
 31
0.0
 11
3431.059598297871
 21
2226.587413939729
 31
0.0
 11
3431.735263960271
 21
2226.725132605329
 31
0.0
  0
SPLINE
  5
2AF25
330
1B
100
AcDbEntity
  8
0
  6
Continuous
100
AcDbSpline
210
0.0
220
0.0
230
1.0
 70
     8
 71
     3
 72
    14
 73
    10
 74
     8
 42
0.0000000001
 43
0.0000000001
 44
0.0000000001
 40
0.0
 40
0.0
 40
0.0
 40
0.0
 40
2.794856146406105
 40
5.408650417444117
 40
7.818779052093541
 40
10.01263053214219
 40
11.98766004248729
 40
13.74912121973691
 40
15.30540707425759
 40
15.30540707425759
 40
15.30540707425759
 40
15.30540707425759
 10
3441.192723146671
 20
2224.467015809729
 30
0.0
 10
3442.124326175856
 20
2224.472885456305
 30
0.0
 10
3443.927179291993
 20
2224.484244490451
 30
0.0
 10
3446.533220750711
 20
2224.519287068199
 30
0.0
 10
3448.939167621322
 20
2224.528990635086
 30
0.0
 10
3451.132165093699
 20
2224.517674675057
 30
0.0
 10
3453.108821311826
 20
2224.495519099868
 30
0.0
 10
3454.872949513042
 20
2224.473009733398
 30
0.0
 10
3455.978863271182
 20
2224.468929678354
 30
0.0
 10
3456.497624322472
 20
2224.467015809729
 30
0.0
 11
3441.192723146671
 21
2224.467015809729
 31
0.0
 11
3443.987500031471
 21
2224.488064403329
 31
0.0
 11
3446.601145725671
 21
2224.515933319729
 31
0.0
 11
3449.011255708871
 21
2224.52541511473
 31
0.0
 11
3451.205082327871
 21
2224.514970868529
 31
0.0
 11
3453.180002420871
 21
2224.494181616529
 31
0.0
 11
3454.941358766071
 21
2224.474964327929
 31
0.0
 11
3456.497624322472
 21
2224.467015809729
 31
0.0
  0
SPLINE
  5
2AF26
330
1B
100
AcDbEntity
  8
0
  6
Continuous
100
AcDbSpline
210
0.0
220
0.0
230
1.0
 70
     8
 71
     3
 72
    14
 73
    10
 74
     8
 42
0.0000000001
 43
0.0000000001
 44
0.0000000001
 40
0.0
 40
0.0
 40
0.0
 40
0.0
 40
0.667958126993533
 40
1.30567265568328
 40
1.884916350277177
 40
2.381697725627131
 40
2.779264978943494
 40
3.074056267037656
 40
3.291799681661782
 40
3.291799681661782
 40
3.291799681661782
 40
3.291799681661782
 10
3442.111017217071
 20
2221.467015809729
 30
0.0
 10
3442.106694727772
 20
2221.689692593169
 30
0.0
 10
3442.098245461485
 20
2222.124963870579
 30
0.0
 10
3442.030576660325
 20
2222.750749437987
 30
0.0
 10
3441.925974489918
 20
2223.312028835739
 30
0.0
 10
3441.787510188022
 20
2223.78731340978
 30
0.0
 10
3441.620107896753
 20
2224.141528300857
 30
0.0
 10
3441.434247629189
 20
2224.403770202996
 30
0.0
 10
3441.264737307153
 20
2224.448158179954
 30
0.0
 10
3441.192723146671
 20
2224.467015809729
 30
0.0
 11
3442.111017217071
 21
2221.467015809729
 31
0.0
 11
3442.087993428071
 21
2222.134577016329
 31
0.0
 11
3442.020077260871
 21
2222.768664718729
 31
0.0
 11
3441.910674184071
 21
2223.337482988929
 31
0.0
 11
3441.765270035071
 21
2223.812508639129
 31
0.0
 11
3441.591155949471
 21
2224.169921574129
 31
0.0
 11
3441.39706275207
 21
2224.391799320329
 31
0.0
 11
3441.192723146671
 21
2224.467015809729
 31
0.0
  0
SPLINE
  5
2AF27
330
1B
100
AcDbEntity
  8
0
  6
Continuous
100
AcDbSpline
210
0.0
220
0.0
230
1.0
 70
     8
 71
     3
 72
    14
 73
    10
 74
     8
 42
0.0000000001
 43
0.0000000001
 44
0.0000000001
 40
0.0
 40
0.0
 40
0.0
 40
0.0
 40
2.461203836382391
 40
4.761768220616718
 40
6.882509365583553
 40
8.813126424719462
 40
10.55176418915135
 40
12.10244291724549
 40
13.47190523280001
 40
13.47190523280001
 40
13.47190523280001
 40
13.47190523280001
 10
3442.111017217271
 20
2221.467015809729
 30
0.0
 10
3442.931306805843
 20
2221.481707742601
 30
0.0
 10
3444.518346788806
 20
2221.510132685716
 30
0.0
 10
3446.810967958928
 20
2221.597699516489
 30
0.0
 10
3448.928432303249
 20
2221.6219471656
 30
0.0
 10
3450.858389880923
 20
2221.593637412089
 30
0.0
 10
3452.597483664834
 20
2221.538257230755
 30
0.0
 10
3454.149482410484
 20
2221.48199202575
 30
0.0
 10
3455.122849180828
 20
2221.471796989189
 30
0.0
 10
3455.579330251871
 20
2221.467015809729
 30
0.0
 11
3442.111017217271
 21
2221.467015809729
 31
0.0
 11
3444.571657475871
 21
2221.519683085929
 31
0.0
 11
3446.871167479271
 21
2221.589326680529
 31
0.0
 11
3448.991776409471
 21
2221.613007244529
 31
0.0
 11
3450.922216782071
 21
2221.586888345929
 31
0.0
 11
3452.660077523671
 21
2221.534914133929
 31
0.0
 11
3454.210011916871
 21
2221.486873582929
 31
0.0
 11
3455.579330251871
 21
2221.467015809729
 31
0.0
  0
SPLINE
  5
2AF28
330
1B
100
AcDbEntity
  8
0
  6
Continuous
100
AcDbSpline
210
0.0
220
0.0
230
1.0
 70
     8
 71
     3
 72
    14
 73
    10
 74
     8
 42
0.0000000001
 43
0.0000000001
 44
0.0000000001
 40
0.0
 40
0.0
 40
0.0
 40
0.0
 40
0.6679594042393734
 40
1.305674417908895
 40
1.884917968381532
 40
2.381698857844787
 40
2.779265605761519
 40
3.074056639518033
 40
3.29180017546052
 40
3.29180017546052
 40
3.29180017546052
 40
3.29180017546052
 10
3455.579330251871
 20
2221.467015809729
 30
0.0
 10
3455.583652633593
 20
2221.689693021977
 30
0.0
 10
3455.592101684842
 20
2222.124964892751
 30
0.0
 10
3455.659770421546
 20
2222.750751015437
 30
0.0
 10
3455.764372603298
 20
2223.312030368733
 30
0.0
 10
3455.902836964225
 20
2223.787314525598
 30
0.0
 10
3456.070239311496
 20
2224.141528969821
 30
0.0
 10
3456.25609979467
 20
2224.40377041137
 30
0.0
 10
3456.42561010721
 20
2224.448158231274
 30
0.0
 10
3456.497624322472
 20
2224.467015809729
 30
0.0
 11
3455.579330251871
 21
2221.467015809729
 31
0.0
 11
3455.602353780071
 21
2222.134578303329
 31
0.0
 11
3455.670269875871
 21
2222.76866650113
 31
0.0
 11
3455.779672963271
 21
2223.337484622529
 31
0.0
 11
3455.92507714187
 21
2223.812509755529
 31
0.0
 11
3456.099191264871
 21
2224.169922110129
 31
0.0
 11
3456.293284539871
 21
2224.391799450529
 31
0.0
 11
3456.497624322472
 21
2224.467015809729
 31
0.0
  0
SPLINE
  5
2AF29
330
1B
100
AcDbEntity
  8
0
  6
Continuous
100
AcDbSpline
210
0.0
220
0.0
230
1.0
 70
     8
 71
     3
 72
    13
 73
     9
 74
     7
 42
0.0000000001
 43
0.0000000001
 44
0.0000000001
 40
0.0
 40
0.0
 40
0.0
 40
0.0
 40
1.108688474718756
 40
2.332694385887407
 40
3.641209197438079
 40
4.997028471754827
 40
6.353205167167025
 40
7.653455411884401
 40
7.653455411884401
 40
7.653455411884401
 40
7.653455411884401
 10
3465.63035305067
 20
2224.467015809729
 30
0.0
 10
3465.999913276505
 20
2224.469627340211
 30
0.0
 10
3466.777472603324
 20
2224.475122032933
 30
0.0
 10
3467.990890297553
 20
2224.504246648153
 30
0.0
 10
3469.286815040146
 20
2224.526621330976
 30
0.0
 10
3470.627142686517
 20
2224.527140275379
 30
0.0
 10
3471.964122931923
 20
2224.490477225833
 30
0.0
 10
3472.849456455782
 20
2224.474725741727
 30
0.0
 10
3473.282803638671
 20
2224.467015809729
 30
0.0
 11
3465.63035305067
 21
2224.467015809729
 31
0.0
 11
3466.73898884187
 21
2224.477823975329
 31
0.0
 11
3467.962751147871
 21
2224.502243004529
 31
0.0
 11
3469.271105505871
 21
2224.522734123329
 31
0.0
 11
3470.626923483471
 21
2224.520858962929
 31
0.0
 11
3471.982797066271
 21
2224.492187432729
 31
0.0
 11
3473.282803638671
 21
2224.467015809729
 31
0.0
  0
SPLINE
  5
2AF2A
330
1B
100
AcDbEntity
  8
0
  6
Continuous
100
AcDbSpline
210
0.0
220
0.0
230
1.0
 70
     8
 71
     3
 72
    14
 73
    10
 74
     8
 42
0.0000000001
 43
0.0000000001
 44
0.0000000001
 40
0.0
 40
0.0
 40
0.0
 40
0.0
 40
0.6694696228364424
 40
1.320821842307103
 40
1.938186584142959
 40
2.510347975521362
 40
3.033413917116378
 40
3.513494323539613
 40
3.818571606074874
 40
3.818571606074874
 40
3.818571606074874
 40
3.818571606074874
 10
3463.616131532671
 20
2221.467015809729
 30
0.0
 10
3463.625731175583
 20
2221.690387031055
 30
0.0
 10
3463.644670672765
 20
2222.131084529501
 30
0.0
 10
3463.796418403024
 20
2222.763194615403
 30
0.0
 10
3464.031501349953
 20
2223.332669785803
 30
0.0
 10
3464.347995236662
 20
2223.813451589631
 30
0.0
 10
3464.731016845108
 20
2224.178090319394
 30
0.0
 10
3465.120788555261
 20
2224.39400136704
 30
0.0
 10
3465.379371954782
 20
2224.44044070403
 30
0.0
 10
3465.479845938471
 20
2224.458484960529
 30
0.0
 11
3463.616131532671
 21
2221.467015809729
 31
0.0
 11
3463.666631900671
 21
2222.134578008129
 31
0.0
 11
3463.815601420671
 21
2222.768666169129
 31
0.0
 11
3464.055570250071
 21
2223.337484404929
 31
0.0
 11
3464.37450542067
 21
2223.812509682929
 31
0.0
 11
3464.756414212871
 21
2224.169922124929
 31
0.0
 11
3465.182146099871
 21
2224.391799471729
 31
0.0
 11
3465.479845938471
 21
2224.458484960529
 31
0.0
  0
SPLINE
  5
2AF2B
330
1B
100
AcDbEntity
  8
0
  6
Continuous
100
AcDbSpline
210
0.0
220
0.0
230
1.0
 70
     8
 71
     3
 72
     9
 73
     5
 74
     3
 42
0.0000000001
 43
0.0000000001
 44
0.0000000001
 40
0.0
 40
0.0
 40
0.0
 40
0.0
 40
0.6825288090463236
 40
1.371623577951503
 40
1.371623577951503
 40
1.371623577951503
 40
1.371623577951503
 10
3475.075154173471
 20
2226.467015809729
 30
0.0
 10
3475.299342402046
 20
2226.505864622398
 30
0.0
 10
3475.7498755607
 20
2226.583935975176
 30
0.0
 10
3476.197361013167
 20
2226.677917099448
 30
0.0
 10
3476.422174795471
 20
2226.725132605329
 30
0.0
 11
3475.075154173471
 21
2226.467015809729
 31
0.0
 11
3475.746964209871
 21
2226.587501701729
 31
0.0
 11
3476.422174795471
 21
2226.725132605329
 31
0.0
  0
SPLINE
  5
2AF2C
330
1B
100
AcDbEntity
  8
0
  6
Continuous
100
AcDbSpline
210
0.0
220
0.0
230
1.0
 70
     8
 71
     3
 72
     9
 73
     5
 74
     3
 42
0.0000000001
 43
0.0000000001
 44
0.0000000001
 40
0.0
 40
0.0
 40
0.0
 40
0.0
 40
0.6897479089528052
 40
1.371799076448773
 40
1.371799076448773
 40
1.371799076448773
 40
1.371799076448773
 10
3465.955083508871
 20
2226.725132605329
 30
0.0
 10
3466.180110138507
 20
2226.677870720057
 30
0.0
 10
3466.627652376336
 20
2226.58387433424
 30
0.0
 10
3467.078248449349
 20
2226.505822676641
 30
0.0
 10
3467.302282408071
 20
2226.467015809729
 30
0.0
 11
3465.955083508871
 21
2226.725132605329
 31
0.0
 11
3466.630935447671
 21
2226.587377987529
 31
0.0
 11
3467.302282408071
 21
2226.467015809729
 31
0.0
  0
SPLINE
  5
2AF2D
330
1B
100
AcDbEntity
  8
0
  6
Continuous
100
AcDbSpline
210
0.0
220
0.0
230
1.0
 70
     8
 71
     3
 72
     9
 73
     5
 74
     3
 42
0.0000000001
 43
0.0000000001
 44
0.0000000001
 40
0.0
 40
0.0
 40
0.0
 40
0.0
 40
1.346861831339623
 40
2.706966748482422
 40
2.706966748482422
 40
2.706966748482422
 40
2.706966748482422
 10
3456.617682791272
 20
2226.467015809729
 30
0.0
 10
3457.064973999432
 20
2226.505739091797
 30
0.0
 10
3457.963954428758
 20
2226.583566404526
 30
0.0
 10
3458.861364713132
 20
2226.677790217084
 30
0.0
 10
3459.312265021071
 20
2226.725132605329
 30
0.0
 11
3456.617682791272
 21
2226.467015809729
 31
0.0
 11
3457.959167710871
 21
2226.587244771329
 31
0.0
 11
3459.312265021071
 21
2226.725132605329
 31
0.0
  0
SPLINE
  5
2AF2E
330
1B
100
AcDbEntity
  8
0
  6
Continuous
100
AcDbSpline
210
0.0
220
0.0
230
1.0
 70
    24
 71
     3
 72
     8
 73
     4
 74
     2
 42
0.0000000001
 43
0.0000000001
 44
0.0000000001
 40
0.0
 40
0.0
 40
0.0
 40
0.0
 40
0.0204091643986298
 40
0.0204091643986298
 40
0.0204091643986298
 40
0.0204091643986298
 10
3423.821404284471
 20
2224.538494353929
 30
0.0
 10
3423.828116162671
 20
2224.537384288329
 30
0.0
 10
3423.834828040871
 20
2224.536274222729
 30
0.0
 10
3423.841539919071
 20
2224.53516415713
 30
0.0
 11
3423.821404284471
 21
2224.538494353929
 31
0.0
 11
3423.841539919071
 21
2224.53516415713
 31
0.0
  0
SPLINE
  5
2AF2F
330
1B
100
AcDbEntity
  8
0
  6
Continuous
100
AcDbSpline
210
0.0
220
0.0
230
1.0
 70
     8
 71
     3
 72
     9
 73
     5
 74
     3
 42
0.0000000001
 43
0.0000000001
 44
0.0000000001
 40
0.0
 40
0.0
 40
0.0
 40
0.0
 40
0.6923826098099509
 40
1.35987462277777
 40
1.35987462277777
 40
1.35987462277777
 40
1.35987462277777
 10
3422.485708647471
 20
2224.793280952729
 30
0.0
 10
3422.711635624237
 20
2224.746031253215
 30
0.0
 10
3423.155367685026
 20
2224.653230442805
 30
0.0
 10
3423.602117795962
 20
2224.576270166934
 30
0.0
 10
3423.821404284471
 20
2224.538494353929
 30
0.0
 11
3422.485708647471
 21
2224.793280952729
 31
0.0
 11
3423.164271963671
 21
2224.655638283929
 31
0.0
 11
3423.821404284471
 21
2224.538494353929
 31
0.0
  0
SPLINE
  5
2AF30
330
1B
100
AcDbEntity
  8
0
  6
Continuous
100
AcDbSpline
210
0.0
220
0.0
230
1.0
 70
     8
 71
     3
 72
     9
 73
     5
 74
     3
 42
0.0000000001
 43
0.0000000001
 44
0.0000000001
 40
0.0
 40
0.0
 40
0.0
 40
0.0
 40
1.107450757740471
 40
1.789503045043266
 40
1.789503045043266
 40
1.789503045043266
 40
1.789503045043266
 10
3420.845173734471
 20
2226.725132605329
 30
0.0
 10
3421.212362554445
 20
2226.685163606913
 30
0.0
 10
3421.805694137682
 20
2226.620578663635
 30
0.0
 10
3422.39193239572
 20
2226.509393131564
 30
0.0
 10
3422.615371604671
 20
2226.467015809729
 30
0.0
 11
3420.845173734471
 21
2226.725132605329
 31
0.0
 11
3421.944023543471
 21
2226.587378193129
 31
0.0
 11
3422.615371604671
 21
2226.467015809729
 31
0.0
  0
SPLINE
  5
2AF31
330
1B
100
AcDbEntity
  8
0
  6
Continuous
100
AcDbSpline
210
0.0
220
0.0
230
1.0
 70
     8
 71
     3
 72
     9
 73
     5
 74
     3
 42
0.0000000001
 43
0.0000000001
 44
0.0000000001
 40
0.0
 40
0.0
 40
0.0
 40
0.0
 40
1.358707114579369
 40
2.706782948137213
 40
2.706782948137213
 40
2.706782948137213
 40
2.706782948137213
 10
3438.378082448071
 20
2226.725132605329
 30
0.0
 10
3438.828519302394
 20
2226.677838654071
 30
0.0
 10
3439.725868542279
 20
2226.583620805764
 30
0.0
 10
3440.624786482693
 20
2226.505782234329
 30
0.0
 10
3441.072480137871
 20
2226.467015809729
 30
0.0
 11
3438.378082448071
 21
2226.725132605329
 31
0.0
 11
3439.729788272871
 21
2226.587377799929
 31
0.0
 11
3441.072480137871
 21
2226.467015809729
 31
0.0
  0
ARC
  5
2AF32
330
1B
100
AcDbEntity
  8
0
  6
Continuous
100
AcDbCircle
 10
3425.21085915947
 20
2196.867015809729
 30
0.0
 40
0.4
100
AcDbArc
 50
225.0000759459997
 51
270.0000000000006
  0
ARC
  5
2AF33
330
1B
100
AcDbEntity
  8
0
  6
Continuous
100
AcDbCircle
 10
3472.479488309671
 20
2196.867015809729
 30
0.0
 40
0.4
100
AcDbArc
 50
270.0000000000006
 51
314.9999240540013
  0
ARC
  5
2AF34
330
1B
100
AcDbEntity
  8
0
  6
Continuous
100
AcDbCircle
 10
3474.445173734471
 20
2198.832701234729
 30
0.0
 40
0.4
100
AcDbArc
 50
314.9999465467034
 51
359.999998832106
  0
ARC
  5
2AF35
330
1B
100
AcDbEntity
  8
0
  6
Continuous
100
AcDbCircle
 10
3423.245173734471
 20
2198.832701234729
 30
0.0
 40
0.4
100
AcDbArc
 50
180.0000011678939
 51
225.0000534532973
  0
ARC
  5
2AF36
330
1B
100
AcDbEntity
  8
0
  6
Continuous
100
AcDbCircle
 10
3473.845173734471
 20
2210.709656496929
 30
0.0
 40
3.0
100
AcDbArc
 50
180.0
 51
224.9999944773049
  0
ARC
  5
2AF37
330
1B
100
AcDbEntity
  8
0
  6
Continuous
100
AcDbCircle
 10
3423.845173734471
 20
2210.709656496929
 30
0.0
 40
3.0
100
AcDbArc
 50
315.0000055227045
 51
0.0
  0
ARC
  5
2AF38
330
1B
100
AcDbEntity
  8
0
  6
Continuous
100
AcDbCircle
 10
3474.845173734471
 20
2226.725132605329
 30
0.0
 40
2.0
100
AcDbArc
 50
285.0000000000001
 51
0.0
  0
ARC
  5
2AF39
330
1B
100
AcDbEntity
  8
0
  6
Continuous
100
AcDbCircle
 10
3422.845173734471
 20
2226.725132605329
 30
0.0
 40
2.0
100
AcDbArc
 50
180.0
 51
255.0000000000008
  0
ARC
  5
2AF3A
330
1B
100
AcDbEntity
  8
0
  6
Continuous
100
AcDbCircle
 10
3473.881868739471
 20
2226.467015809729
 30
0.0
 40
2.0
100
AcDbArc
 50
270.0000000000006
 51
285.0000000000001
  0
LINE
  5
2AF3B
330
1B
100
AcDbEntity
  8
0
  6
Continuous
100
AcDbLine
 10
3474.399506829672
 20
2224.53516415713
 30
0.0
 11
3475.362811824671
 21
2224.793280952729
 31
0.0
  0
LWPOLYLINE
  5
2AF3C
330
1B
100
AcDbEntity
  8
0
  6
Continuous
100
AcDbPolyline
 90
        3
 70
     0
 43
0.0
 10
3473.600232670071
 20
2224.489312278729
 10
3473.471619872671
 20
2224.472596014329
 10
3473.342324629671
 20
2224.467015809729
  0
LINE
  5
2AF3D
330
1B
100
AcDbEntity
  8
0
  6
Continuous
100
AcDbLine
 10
3476.422174795471
 20
2226.725132605329
 30
0.0
 11
3476.845173734471
 21
2226.725132605329
 31
0.0
  0
LINE
  5
2AF3E
330
1B
100
AcDbEntity
  8
0
  6
Continuous
100
AcDbLine
 10
3459.312265021071
 20
2226.725132605329
 30
0.0
 11
3465.955083508871
 21
2226.725132605329
 31
0.0
  0
LINE
  5
2AF3F
330
1B
100
AcDbEntity
  8
0
  6
Continuous
100
AcDbLine
 10
3431.735263960271
 20
2226.725132605329
 30
0.0
 11
3438.378082448071
 21
2226.725132605329
 31
0.0
  0
LINE
  5
2AF40
330
1B
100
AcDbEntity
  8
0
  6
Continuous
100
AcDbLine
 10
3467.302282408071
 20
2226.467015809729
 30
0.0
 11
3475.075154173471
 21
2226.467015809729
 31
0.0
  0
LINE
  5
2AF41
330
1B
100
AcDbEntity
  8
0
  6
Continuous
100
AcDbLine
 10
3441.072480137871
 20
2226.467015809729
 30
0.0
 11
3456.617682791272
 21
2226.467015809729
 31
0.0
  0
LINE
  5
2AF42
330
1B
100
AcDbEntity
  8
0
  6
Continuous
100
AcDbLine
 10
3422.615371604671
 20
2226.467015809729
 30
0.0
 11
3430.388089362871
 21
2226.467015809729
 31
0.0
  0
LINE
  5
2AF43
330
1B
100
AcDbEntity
  8
0
  6
Continuous
100
AcDbLine
 10
3422.327535658271
 20
2224.793280952729
 30
0.0
 11
3422.485708647471
 21
2224.793280952729
 31
0.0
  0
LINE
  5
2AF44
330
1B
100
AcDbEntity
  8
0
  6
Continuous
100
AcDbLine
 10
3473.342534836271
 20
2224.467015821329
 30
0.0
 11
3473.342324629671
 21
2224.467015809729
 31
0.0
  0
LINE
  5
2AF45
330
1B
100
AcDbEntity
  8
0
  6
Continuous
100
AcDbLine
 10
3473.282803638671
 20
2224.467015809729
 30
0.0
 11
3473.838743247871
 21
2224.467015809729
 31
0.0
  0
LINE
  5
2AF46
330
1B
100
AcDbEntity
  8
0
  6
Continuous
100
AcDbLine
 10
3456.497624322472
 20
2224.467015809729
 30
0.0
 11
3465.63035305067
 21
2224.467015809729
 31
0.0
  0
LINE
  5
2AF47
330
1B
100
AcDbEntity
  8
0
  6
Continuous
100
AcDbLine
 10
3432.059994418472
 20
2224.467015809729
 30
0.0
 11
3441.192723146671
 21
2224.467015809729
 31
0.0
  0
LINE
  5
2AF48
330
1B
100
AcDbEntity
  8
0
  6
Continuous
100
AcDbLine
 10
3455.579330251871
 20
2221.467015809729
 30
0.0
 11
3463.616131532671
 21
2221.467015809729
 31
0.0
  0
LWPOLYLINE
  5
2AF49
330
1B
100
AcDbEntity
  8
0
  6
Continuous
100
AcDbPolyline
 90
        6
 70
     0
 43
0.0
 10
3424.291154810071
 20
2224.467861327929
 10
3424.234276872271
 20
2224.470398588529
 10
3424.177467789671
 20
2224.474626413529
 10
3424.120828182871
 20
2224.480539675529
 10
3424.06440936867
 20
2224.488132316329
 10
3424.008210766871
 20
2224.497400303729
  0
LINE
  5
2AF4A
330
1B
100
AcDbEntity
  8
0
  6
Continuous
100
AcDbLine
 10
3424.348022839471
 20
2224.467015809729
 30
0.0
 11
3424.291154810072
 21
2224.467861327929
 31
0.0
  0
LINE
  5
2AF4B
330
1B
100
AcDbEntity
  8
0
  6
Continuous
100
AcDbLine
 10
3426.845173734671
 20
2210.709656496929
 30
0.0
 11
3470.845173734471
 21
2210.709656496929
 31
0.0
  0
LINE
  5
2AF4C
330
1B
100
AcDbEntity
  8
0
  6
Continuous
100
AcDbLine
 10
3425.966494293871
 20
2208.588336368929
 30
0.0
 11
3471.723853175272
 21
2208.588336368929
 31
0.0
  0
LINE
  5
2AF4D
330
1B
100
AcDbEntity
  8
0
  6
Continuous
100
AcDbLine
 10
3424.545173734471
 20
2207.167012757929
 30
0.0
 11
3473.145173734471
 21
2207.167012757929
 31
0.0
  0
LINE
  5
2AF4E
330
1B
100
AcDbEntity
  8
0
  6
Continuous
100
AcDbLine
 10
3422.845173734471
 20
2205.467015809729
 30
0.0
 11
3474.845173734471
 21
2205.467015809729
 31
0.0
  0
LINE
  5
2AF4F
330
1B
100
AcDbEntity
  8
0
  6
Continuous
100
AcDbLine
 10
3474.728016166271
 20
2198.549858241729
 30
0.0
 11
3422.96233130287
 21
2198.549858241729
 31
0.0
  0
LINE
  5
2AF50
330
1B
100
AcDbEntity
  8
0
  6
Continuous
100
AcDbLine
 10
3424.545173734471
 20
2196.967015809729
 30
0.0
 11
3473.145173734471
 21
2196.967015809729
 31
0.0
  0
LINE
  5
2AF51
330
1B
100
AcDbEntity
  8
0
  6
Continuous
100
AcDbLine
 10
3472.479424797871
 20
2196.467015809729
 30
0.0
 11
3425.210922671271
 21
2196.467015809729
 31
0.0
  0
LWPOLYLINE
  5
2AF52
330
1B
100
AcDbEntity
  8
0
  6
Continuous
100
AcDbPolyline
 90
        4
 70
     0
 43
0.0
 10
3424.008210766871
 20
2224.497400303729
 10
3423.952276415671
 20
2224.508336701129
 10
3423.896697625871
 20
2224.520929033529
 10
3423.841539919071
 20
2224.53516415713
  0
LINE
  5
2AF53
330
1B
100
AcDbEntity
  8
0
  6
Continuous
100
AcDbLine
 10
3472.762330647271
 20
2196.584172722329
 30
0.0
 11
3474.728016183071
 21
2198.549858258329
 31
0.0
  0
LINE
  5
2AF54
330
1B
100
AcDbEntity
  8
0
  6
Continuous
100
AcDbLine
 10
3422.845173734471
 20
2205.467015809729
 30
0.0
 11
3425.966494282671
 21
2208.588336357729
 31
0.0
  0
LINE
  5
2AF55
330
1B
100
AcDbEntity
  8
0
  6
Continuous
100
AcDbLine
 10
3474.845173734471
 20
2205.467015809729
 30
0.0
 11
3471.723853186471
 21
2208.588336357729
 31
0.0
  0
LINE
  5
2AF56
330
1B
100
AcDbEntity
  8
0
  6
Continuous
100
AcDbLine
 10
3424.928016821871
 20
2196.584172722329
 30
0.0
 11
3422.962331285871
 21
2198.549858258329
 31
0.0
  0
LINE
  5
2AF57
330
1B
100
AcDbEntity
  8
0
  6
Continuous
100
AcDbLine
 10
3476.845173734471
 20
2226.725132605329
 30
0.0
 11
3476.845173734471
 21
2232.467015809729
 31
0.0
  0
LINE
  5
2AF58
330
1B
100
AcDbEntity
  8
0
  6
Continuous
100
AcDbLine
 10
3474.845173734471
 20
2198.832701226529
 30
0.0
 11
3474.845173734471
 21
2205.467015809729
 31
0.0
  0
LINE
  5
2AF59
330
1B
100
AcDbEntity
  8
0
  6
Continuous
100
AcDbLine
 10
3473.145173734471
 20
2196.967015809729
 30
0.0
 11
3473.145173734471
 21
2207.167015809729
 31
0.0
  0
LINE
  5
2AF5A
330
1B
100
AcDbEntity
  8
0
  6
Continuous
100
AcDbLine
 10
3470.845173734471
 20
2210.709656496929
 30
0.0
 11
3470.845173734471
 21
2221.467015809729
 31
0.0
  0
LINE
  5
2AF5B
330
1B
100
AcDbEntity
  8
0
  6
Continuous
100
AcDbLine
 10
3465.955083508871
 20
2232.467015809729
 30
0.0
 11
3465.955083508871
 21
2226.725132605329
 31
0.0
  0
LINE
  5
2AF5C
330
1B
100
AcDbEntity
  8
0
  6
Continuous
100
AcDbLine
 10
3460.117425889271
 20
2226.725132605329
 30
0.0
 11
3460.117425889271
 21
2232.467015809729
 31
0.0
  0
LINE
  5
2AF5D
330
1B
100
AcDbEntity
  8
0
  6
Continuous
100
AcDbLine
 10
3438.378082447871
 20
2226.725132605329
 30
0.0
 11
3437.986020096837
 21
2224.467015809729
 31
0.0
  0
LINE
  5
2AF5E
330
1B
100
AcDbEntity
  8
0
  6
Continuous
100
AcDbLine
 10
3438.378082448071
 20
2232.467015809729
 30
0.0
 11
3438.378082448071
 21
2226.725132605329
 31
0.0
  0
LINE
  5
2AF5F
330
1B
100
AcDbEntity
  8
0
  6
Continuous
100
AcDbLine
 10
3431.735263960271
 20
2226.725132605329
 30
0.0
 11
3431.735263960271
 21
2232.467015809729
 31
0.0
  0
LINE
  5
2AF60
330
1B
100
AcDbEntity
  8
0
  6
Continuous
100
AcDbLine
 10
3426.845173734471
 20
2210.709656496929
 30
0.0
 11
3426.845173734471
 21
2221.467015809729
 31
0.0
  0
LINE
  5
2AF61
330
1B
100
AcDbEntity
  8
0
  6
Continuous
100
AcDbLine
 10
3424.545173734471
 20
2196.967015809729
 30
0.0
 11
3424.545173734471
 21
2207.167015809729
 31
0.0
  0
LINE
  5
2AF62
330
1B
100
AcDbEntity
  8
0
  6
Continuous
100
AcDbLine
 10
3422.845173734471
 20
2198.832701226529
 30
0.0
 11
3422.845173734471
 21
2205.467015809729
 31
0.0
  0
LINE
  5
2AF63
330
1B
100
AcDbEntity
  8
0
  6
Continuous
100
AcDbLine
 10
3420.845173734471
 20
2226.725132605329
 30
0.0
 11
3420.845173734471
 21
2232.467015809729
 31
0.0
  0
LINE
  5
2AF64
330
1B
100
AcDbEntity
  8
0
100
AcDbLine
 10
3431.735263960271
 20
2226.725132605329
 30
0.0
 11
3433.377432572993
 21
2224.467015809729
 31
0.0
  0
LINE
  5
2AF65
330
1B
100
AcDbEntity
  8
0
100
AcDbLine
 10
3465.955083508671
 20
2226.725132605329
 30
0.0
 11
3464.312914895949
 21
2224.467015809729
 31
0.0
  0
LINE
  5
2AF66
330
1B
100
AcDbEntity
  8
0
  6
Continuous
100
AcDbLine
 10
3459.312265021071
 20
2226.725132605329
 30
0.0
 11
3459.704327372104
 21
2224.467015809729
 31
0.0
  0
LINE
  5
2AF67
330
1B
100
AcDbEntity
  8
0
  6
Continuous
100
AcDbLine
 10
3465.955083508671
 20
2226.725132605329
 30
0.0
 11
3459.312265020871
 21
2226.725132605329
 31
0.0
  0
SPLINE
  5
2AF68
330
1B
100
AcDbEntity
  8
0
  6
Continuous
100
AcDbSpline
210
0.0
220
0.0
230
1.0
 70
    24
 71
     3
 72
     8
 73
     4
 74
     2
 42
0.0000000001
 43
0.0000000001
 44
0.0000000001
 40
0.0
 40
0.0
 40
0.0
 40
0.0
 40
0.150749030151678
 40
0.150749030151678
 40
0.150749030151678
 40
0.150749030151678
 10
3465.479845596071
 20
2224.458484909329
 30
0.0
 10
3465.530014747538
 20
2224.461328542796
 30
0.0
 10
3465.580183899005
 20
2224.464172176263
 30
0.0
 10
3465.630353050471
 20
2224.467015809729
 30
0.0
 11
3465.479845596071
 21
2224.458484909329
 31
0.0
 11
3465.630353050471
 21
2224.467015809729
 31
0.0
  0
SPLINE
  5
2AF69
330
1B
100
AcDbEntity
  8
0
  6
Continuous
100
AcDbSpline
210
0.0
220
0.0
230
1.0
 70
     8
 71
     3
 72
     9
 73
     5
 74
     3
 42
0.0000000001
 43
0.0000000001
 44
0.0000000001
 40
0.0
 40
0.0
 40
0.0
 40
0.0
 40
0.6822169445947903
 40
1.371775149680294
 40
1.371775149680294
 40
1.371775149680294
 40
1.371775149680294
 10
3467.302258106071
 20
2226.467015809729
 30
0.0
 10
3467.078170096271
 20
2226.50583439547
 30
0.0
 10
3466.627582690578
 20
2226.583889289424
 30
0.0
 10
3466.180048251867
 20
2226.677883824742
 30
0.0
 10
3465.955083508671
 20
2226.725132605329
 30
0.0
 11
3467.302258106071
 21
2226.467015809729
 31
0.0
 11
3466.630749171071
 21
2226.587413939729
 31
0.0
 11
3465.955083508671
 21
2226.725132605329
 31
0.0
  0
LINE
  5
2AF6A
330
1B
100
AcDbEntity
  8
0
100
AcDbLine
 10
3463.616131532671
 20
2221.467015809729
 30
0.0
 11
3470.84517373447
 21
2221.467015809729
 31
0.0
  0
LINE
  5
2AF6B
330
1B
100
AcDbEntity
  8
0
100
AcDbLine
 10
3442.111017217271
 20
2221.467015809729
 30
0.0
 11
3426.845173734471
 21
2221.467015809729
 31
0.0
  0
LINE
  5
2AF6C
330
1B
100
AcDbEntity
  8
0
100
AcDbLine
 10
3424.262715841171
 20
2224.469129958229
 30
0.0
 11
3426.845173734471
 21
2221.467015809729
 31
0.0
  0
LINE
  5
2AF6D
330
1B
100
AcDbEntity
  8
0
100
AcDbLine
 10
3470.84517373447
 20
2221.467015809729
 30
0.0
 11
3474.142921123911
 21
2224.484126086982
 31
0.0
  0
LINE
  5
2AF6E
330
1B
100
AcDbEntity
  8
0
100
AcDbLine
 10
3427.818076930671
 20
2224.52547003373
 30
0.0
 11
3424.234276872271
 21
2224.470398588529
 31
0.0
  0
LINE
  5
2AF6F
330
1B
100
AcDbEntity
  8
0
100
AcDbLine
 10
3427.720236941128
 20
2224.526056339732
 30
0.0
 11
3432.072014691181
 21
2224.46633448966
 31
0.0
  0
LINE
  5
2AF70
330
1B
100
AcDbEntity
  8
0
100
AcDbLine
 10
3434.074215936471
 20
2221.467015809729
 30
0.0
 11
3432.210501872871
 21
2224.458484909329
 31
0.0
  0
LINE
  5
2AF75
330
1B
100
AcDbEntity
  8
0
100
AcDbLine
 10
3574.591746328192
 20
2226.372831896531
 30
0.0
 11
3575.556498599871
 21
2221.467015809729
 31
0.0
  0
LINE
  5
2AF76
330
1B
100
AcDbEntity
  8
0
100
AcDbLine
 10
3590.822342082671
 20
2221.467015809729
 30
0.0
 11
3575.556498599871
 21
2221.467015809729
 31
0.0
  0
LINE
  5
2AF77
330
1B
100
AcDbEntity
  8
0
100
AcDbLine
 10
3612.327456398071
 20
2221.467015809729
 30
0.0
 11
3619.556498599871
 21
2221.467015809729
 31
0.0
  0
LINE
  5
2AF7D
330
1B
100
AcDbEntity
  8
0
100
AcDbLine
 10
3588.261879399349
 20
2226.725132605329
 30
0.0
 11
3589.904048012071
 21
2224.467015809729
 31
0.0
  0
LINE
  5
2AF7E
330
1B
100
AcDbEntity
  8
0
  6
Continuous
100
AcDbLine
 10
3574.572957028571
 20
2226.56300326704
 30
0.0
 11
3574.55649859987
 21
2232.467015809729
 31
0.0
  0
LINE
  5
2AF7F
330
1B
100
AcDbEntity
  8
0
  6
Continuous
100
AcDbLine
 10
3571.556498599871
 20
2198.832701226529
 30
0.0
 11
3571.556498599871
 21
2205.467015809729
 31
0.0
  0
LINE
  5
2AF80
330
1B
100
AcDbEntity
  8
0
  6
Continuous
100
AcDbLine
 10
3573.256498599871
 20
2196.967015809729
 30
0.0
 11
3573.256498599871
 21
2207.167015809729
 31
0.0
  0
LINE
  5
2AF81
330
1B
100
AcDbEntity
  8
0
  6
Continuous
100
AcDbLine
 10
3575.556498599871
 20
2210.709656496929
 30
0.0
 11
3575.556498599871
 21
2221.467015809729
 31
0.0
  0
LINE
  5
2AF82
330
1B
100
AcDbEntity
  8
0
  6
Continuous
100
AcDbLine
 10
3588.261879399349
 20
2226.725132605329
 30
0.0
 11
3588.261879399349
 21
2232.467015809729
 31
0.0
  0
LINE
  5
2AF87
330
1B
100
AcDbEntity
  8
0
  6
Continuous
100
AcDbLine
 10
3619.556498599871
 20
2210.709656496929
 30
0.0
 11
3619.556498599871
 21
2221.467015809729
 31
0.0
  0
LINE
  5
2AF88
330
1B
100
AcDbEntity
  8
0
  6
Continuous
100
AcDbLine
 10
3621.856498599871
 20
2196.967015809729
 30
0.0
 11
3621.856498599871
 21
2207.167015809729
 31
0.0
  0
LINE
  5
2AF89
330
1B
100
AcDbEntity
  8
0
  6
Continuous
100
AcDbLine
 10
3623.556498599871
 20
2198.832701226529
 30
0.0
 11
3623.556498599871
 21
2205.467015809729
 31
0.0
  0
LINE
  5
2AF8B
330
1B
100
AcDbEntity
  8
0
  6
Continuous
100
AcDbLine
 10
3573.639341687271
 20
2196.584172722329
 30
0.0
 11
3571.673656151271
 21
2198.549858258329
 31
0.0
  0
LINE
  5
2AF8C
330
1B
100
AcDbEntity
  8
0
  6
Continuous
100
AcDbLine
 10
3623.556498599871
 20
2205.467015809729
 30
0.0
 11
3620.435178051871
 21
2208.588336357729
 31
0.0
  0
LINE
  5
2AF8D
330
1B
100
AcDbEntity
  8
0
  6
Continuous
100
AcDbLine
 10
3571.556498599871
 20
2205.467015809729
 30
0.0
 11
3574.677819148071
 21
2208.588336357729
 31
0.0
  0
LINE
  5
2AF8E
330
1B
100
AcDbEntity
  8
0
  6
Continuous
100
AcDbLine
 10
3621.473655512671
 20
2196.584172722329
 30
0.0
 11
3623.439341048471
 21
2198.549858258329
 31
0.0
  0
LINE
  5
2AF90
330
1B
100
AcDbEntity
  8
0
  6
Continuous
100
AcDbLine
 10
3621.19074966327
 20
2196.467015809729
 30
0.0
 11
3573.922247536671
 21
2196.467015809729
 31
0.0
  0
LINE
  5
2AF91
330
1B
100
AcDbEntity
  8
0
  6
Continuous
100
AcDbLine
 10
3573.256498599871
 20
2196.967015809729
 30
0.0
 11
3621.856498599871
 21
2196.967015809729
 31
0.0
  0
LINE
  5
2AF92
330
1B
100
AcDbEntity
  8
0
  6
Continuous
100
AcDbLine
 10
3623.439341031671
 20
2198.549858241729
 30
0.0
 11
3571.673656168271
 21
2198.549858241729
 31
0.0
  0
LINE
  5
2AF93
330
1B
100
AcDbEntity
  8
0
  6
Continuous
100
AcDbLine
 10
3571.556498599871
 20
2205.467015809729
 30
0.0
 11
3623.556498599871
 21
2205.467015809729
 31
0.0
  0
LINE
  5
2AF94
330
1B
100
AcDbEntity
  8
0
  6
Continuous
100
AcDbLine
 10
3573.256498599871
 20
2207.167012757929
 30
0.0
 11
3621.856498599871
 21
2207.167012757929
 31
0.0
  0
LINE
  5
2AF95
330
1B
100
AcDbEntity
  8
0
  6
Continuous
100
AcDbLine
 10
3574.677819159271
 20
2208.588336368929
 30
0.0
 11
3620.435178040671
 21
2208.588336368929
 31
0.0
  0
LINE
  5
2AF96
330
1B
100
AcDbEntity
  8
0
  6
Continuous
100
AcDbLine
 10
3575.556498600071
 20
2210.709656496929
 30
0.0
 11
3619.556498599871
 21
2210.709656496929
 31
0.0
  0
LINE
  5
2AF9A
330
1B
100
AcDbEntity
  8
0
  6
Continuous
100
AcDbLine
 10
3578.153950392245
 20
2224.467015809729
 30
0.0
 11
3589.904048012071
 21
2224.467015809729
 31
0.0
  0
LINE
  5
2AFA0
330
1B
100
AcDbEntity
  8
0
  6
Continuous
100
AcDbLine
 10
3588.261879399349
 20
2226.725132605329
 30
0.0
 11
3597.556498599871
 21
2226.467015809729
 31
0.0
  0
LINE
  5
2AFA2
330
1B
100
AcDbEntity
  8
0
  6
Continuous
100
AcDbLine
 10
3578.153950392402
 20
2226.725132605329
 30
0.0
 11
3588.261879399349
 21
2226.725132605329
 31
0.0
  0
ARC
  5
2AFAA
330
1B
100
AcDbEntity
  8
0
  6
Continuous
100
AcDbCircle
 10
3572.556498599871
 20
2210.709656496929
 30
0.0
 40
3.0
100
AcDbArc
 50
315.0000055227045
 51
0.0
  0
ARC
  5
2AFAB
330
1B
100
AcDbEntity
  8
0
  6
Continuous
100
AcDbCircle
 10
3622.556498599871
 20
2210.709656496929
 30
0.0
 40
3.0
100
AcDbArc
 50
180.0
 51
224.9999944773049
  0
ARC
  5
2AFAC
330
1B
100
AcDbEntity
  8
0
  6
Continuous
100
AcDbCircle
 10
3571.956498599871
 20
2198.832701234729
 30
0.0
 40
0.4
100
AcDbArc
 50
180.0000011678939
 51
225.0000534532973
  0
ARC
  5
2AFAD
330
1B
100
AcDbEntity
  8
0
  6
Continuous
100
AcDbCircle
 10
3623.156498599871
 20
2198.832701234729
 30
0.0
 40
0.4
100
AcDbArc
 50
314.9999465467034
 51
359.999998832106
  0
ARC
  5
2AFAE
330
1B
100
AcDbEntity
  8
0
  6
Continuous
100
AcDbCircle
 10
3621.190813175071
 20
2196.867015809729
 30
0.0
 40
0.4
100
AcDbArc
 50
270.0000000000006
 51
314.9999240540013
  0
ARC
  5
2AFAF
330
1B
100
AcDbEntity
  8
0
  6
Continuous
100
AcDbCircle
 10
3573.922184024871
 20
2196.867015809729
 30
0.0
 40
0.4
100
AcDbArc
 50
225.0000759459997
 51
270.0000000000006
  0
SPLINE
  5
2AFBA
330
1B
100
AcDbEntity
  8
0
  6
Continuous
100
AcDbSpline
210
0.0
220
0.0
230
1.0
 70
     8
 71
     3
 72
    14
 73
    10
 74
     8
 42
0.0000000001
 43
0.0000000001
 44
0.0000000001
 40
0.0
 40
0.0
 40
0.0
 40
0.0
 40
2.461203836382391
 40
4.761768220616718
 40
6.882509365583553
 40
8.813126424719462
 40
10.55176418915135
 40
12.10244291724549
 40
13.47190523280001
 40
13.47190523280001
 40
13.47190523280001
 40
13.47190523280001
 10
3590.822342082671
 20
2221.467015809729
 30
0.0
 10
3591.642631671243
 20
2221.481707742601
 30
0.0
 10
3593.229671654207
 20
2221.510132685716
 30
0.0
 10
3595.522292824328
 20
2221.597699516489
 30
0.0
 10
3597.639757168648
 20
2221.6219471656
 30
0.0
 10
3599.569714746323
 20
2221.593637412089
 30
0.0
 10
3601.308808530234
 20
2221.538257230755
 30
0.0
 10
3602.860807275885
 20
2221.48199202575
 30
0.0
 10
3603.834174046228
 20
2221.471796989189
 30
0.0
 10
3604.290655117271
 20
2221.467015809729
 30
0.0
 11
3590.822342082671
 21
2221.467015809729
 31
0.0
 11
3593.282982341271
 21
2221.519683085929
 31
0.0
 11
3595.582492344671
 21
2221.589326680529
 31
0.0
 11
3597.703101274871
 21
2221.613007244529
 31
0.0
 11
3599.633541647471
 21
2221.586888345929
 31
0.0
 11
3601.371402389071
 21
2221.534914133929
 31
0.0
 11
3602.921336782271
 21
2221.486873582929
 31
0.0
 11
3604.290655117271
 21
2221.467015809729
 31
0.0
  0
SPLINE
  5
2AFBB
330
1B
100
AcDbEntity
  8
0
  6
Continuous
100
AcDbSpline
210
0.0
220
0.0
230
1.0
 70
     8
 71
     3
 72
    14
 73
    10
 74
     8
 42
0.0000000001
 43
0.0000000001
 44
0.0000000001
 40
0.0
 40
0.0
 40
0.0
 40
0.0
 40
0.6679581269935017
 40
1.305672655683152
 40
1.884916350277221
 40
2.381697725627175
 40
2.779264978943537
 40
3.074056267036801
 40
3.291799681662208
 40
3.291799681662208
 40
3.291799681662208
 40
3.291799681662208
 10
3590.82234208247
 20
2221.467015809729
 30
0.0
 10
3590.81801959317
 20
2221.689692593168
 30
0.0
 10
3590.809570326885
 20
2222.124963870578
 30
0.0
 10
3590.741901525726
 20
2222.750749437988
 30
0.0
 10
3590.637299355318
 20
2223.312028835739
 30
0.0
 10
3590.498835053421
 20
2223.78731340978
 30
0.0
 10
3590.331432762152
 20
2224.141528300857
 30
0.0
 10
3590.14557249459
 20
2224.403770202997
 30
0.0
 10
3589.976062172554
 20
2224.448158179954
 30
0.0
 10
3589.904048012071
 20
2224.467015809729
 30
0.0
 11
3590.82234208247
 21
2221.467015809729
 31
0.0
 11
3590.799318293471
 21
2222.134577016329
 31
0.0
 11
3590.731402126272
 21
2222.768664718729
 31
0.0
 11
3590.621999049471
 21
2223.337482988929
 31
0.0
 11
3590.476594900471
 21
2223.812508639129
 31
0.0
 11
3590.302480814871
 21
2224.169921574129
 31
0.0
 11
3590.108387617471
 21
2224.391799320329
 31
0.0
 11
3589.904048012071
 21
2224.467015809729
 31
0.0
  0
LINE
  5
2AFBE
330
1B
100
AcDbEntity
  8
0
100
AcDbLine
 10
3597.556498599871
 20
2232.467015809729
 30
0.0
 11
3574.55649859987
 21
2232.467015809729
 31
0.0
  0
ARC
  5
2AFBF
330
1B
100
AcDbEntity
  8
0
  6
Continuous
100
AcDbCircle
 10
3574.55649859987
 20
2234.46701580973
 30
0.0
 40
2.0
100
AcDbArc
 50
179.9999999999995
 51
269.9999999999993
  0
LINE
  5
2AFC1
330
1B
100
AcDbEntity
  8
0
100
AcDbLine
 10
3589.904048012071
 20
2224.467015809729
 30
0.0
 11
3597.55649859987
 21
2224.468493912466
 31
0.0
  0
ARC
  5
2AFC3
330
1B
100
AcDbEntity
  8
0
100
AcDbCircle
 10
3578.171632816552
 20
2230.468255102177
 30
0.0
 40
3.743164262296918
100
AcDbArc
 50
195.5146484575343
 51
270.270661926708
  0
ARC
  5
2AFC8
330
1B
100
AcDbEntity
  8
0
100
AcDbCircle
 10
3578.171632816551
 20
2228.210138306577
 30
0.0
 40
3.743164262296918
100
AcDbArc
 50
195.5146484575343
 51
270.270661926708
  0
ARC
  5
2AFC9
330
1B
100
AcDbEntity
  8
0
100
AcDbCircle
 10
3575.572953143047
 20
2226.565790924521
 30
0.0
 40
1.0
100
AcDbArc
 50
180.1597212154368
 51
191.1255202890684
  0
ARC
  5
2AFCA
330
1B
100
AcDbEntity
  8
0
100
AcDbCircle
 10
3575.572953143047
 20
2226.565790924524
 30
0.0
 40
1.0
100
AcDbArc
 50
180.1597212154418
 51
191.1255202890565
  0
ARC
  5
2AFCB
330
1B
100
AcDbEntity
  8
0
100
AcDbCircle
 10
3619.540085826368
 20
2226.565946529253
 30
0.0
 40
1.0
100
AcDbArc
 50
348.8748852636267
 51
359.8406843372413
  0
ARC
  5
2AFCC
330
1B
100
AcDbEntity
  8
0
100
AcDbCircle
 10
3619.540085826368
 20
2226.565946529251
 30
0.0
 40
1.0
100
AcDbArc
 50
348.8748852636147
 51
359.8406843372463
  0
ARC
  5
2AFCD
330
1B
100
AcDbEntity
  8
0
100
AcDbCircle
 10
3616.941394513861
 20
2228.210275517215
 30
0.0
 40
3.743164262296918
100
AcDbArc
 50
269.7297436259751
 51
344.4857570951488
  0
ARC
  5
2AFCE
330
1B
100
AcDbEntity
  8
0
100
AcDbCircle
 10
3616.941378530391
 20
2230.468392312758
 30
0.0
 40
3.743164262296918
100
AcDbArc
 50
269.7297436259751
 51
344.4857570951488
  0
LINE
  5
2AFCF
330
1B
100
AcDbEntity
  8
0
100
AcDbLine
 10
3605.209005813315
 20
2224.467069975732
 30
0.0
 11
3597.556555215245
 21
2224.468493912667
 31
0.0
  0
ARC
  5
2AFD0
330
1B
100
AcDbEntity
  8
0
  6
Continuous
100
AcDbCircle
 10
3620.556484442835
 20
2234.46717860896
 30
0.0
 40
2.0
100
AcDbArc
 50
270.0004055526838
 51
0.0004055526836384
  0
LINE
  5
2AFD1
330
1B
100
AcDbEntity
  8
0
100
AcDbLine
 10
3597.55649859987
 20
2232.467015809729
 30
0.0
 11
3620.556498599295
 21
2232.46717860901
 31
0.0
  0
SPLINE
  5
2AFD2
330
1B
100
AcDbEntity
  8
0
  6
Continuous
100
AcDbSpline
210
0.0
220
0.0
230
1.0
 70
     8
 71
     3
 72
    14
 73
    10
 74
     8
 42
0.0000000001
 43
0.0000000001
 44
0.0000000001
 40
0.0
 40
0.0
 40
0.0
 40
0.0
 40
0.6679581269931548
 40
1.305672655683575
 40
1.884916350277274
 40
2.381697725627146
 40
2.779264978943211
 40
3.074056267036458
 40
3.291799681661582
 40
3.291799681661582
 40
3.291799681661582
 40
3.291799681661582
 10
3604.290732977627
 20
2221.467063475911
 30
0.0
 10
3604.29505389077
 20
2221.68974028994
 30
0.0
 10
3604.303500076107
 20
2222.125011627144
 30
0.0
 10
3604.371164447809
 20
2222.750797673514
 30
0.0
 10
3604.475762645351
 20
2223.312077811649
 30
0.0
 10
3604.614223583069
 20
2223.78736336576
 30
0.0
 10
3604.781623367121
 20
2224.141579441739
 30
0.0
 10
3604.96748177847
 20
2224.403822659435
 30
0.0
 10
3605.136991786313
 20
2224.448211836224
 30
0.0
 10
3605.209005813315
 20
2224.467069975732
 30
0.0
 11
3604.290732977627
 21
2221.467063475911
 31
0.0
 11
3604.313752041476
 21
2222.134624845461
 31
0.0
 11
3604.381663720455
 21
2222.768713028572
 31
0.0
 11
3604.491062771026
 21
2223.337532073138
 31
0.0
 11
3604.636463557682
 21
2223.81255875253
 31
0.0
 11
3604.810575113427
 21
2224.16997291994
 31
0.0
 11
3605.00466674032
 21
2224.391852039971
 31
0.0
 11
3605.209005813315
 21
2224.467069975732
 31
0.0
  0
LINE
  5
2AFD3
330
1B
100
AcDbEntity
  8
0
  6
Continuous
100
AcDbLine
 10
3616.959087449221
 20
2226.725269941164
 30
0.0
 11
3606.851158442527
 21
2226.725198394922
 31
0.0
  0
LINE
  5
2AFD4
330
1B
100
AcDbEntity
  8
0
  6
Continuous
100
AcDbLine
 10
3606.851158442527
 20
2226.725198394922
 30
0.0
 11
3597.556541069248
 21
2226.46701580988
 31
0.0
  0
LINE
  5
2AFD5
330
1B
100
AcDbEntity
  8
0
  6
Continuous
100
AcDbLine
 10
3616.959103432846
 20
2224.467153145621
 30
0.0
 11
3605.209005813315
 21
2224.467069975732
 31
0.0
  0
LINE
  5
2AFD6
330
1B
100
AcDbEntity
  8
0
  6
Continuous
100
AcDbLine
 10
3606.851158442527
 20
2226.725198394922
 30
0.0
 11
3606.85111780016
 21
2232.467081599178
 31
0.0
  0
LINE
  5
2AFD7
330
1B
100
AcDbEntity
  8
0
  6
Continuous
100
AcDbLine
 10
3620.54008196055
 20
2226.563165949972
 30
0.0
 11
3620.556498599295
 21
2232.46717860901
 31
0.0
  0
LINE
  5
2AFD8
330
1B
100
AcDbEntity
  8
0
100
AcDbLine
 10
3606.851158442527
 20
2226.725198394922
 30
0.0
 11
3605.209005813315
 21
2224.467069975732
 31
0.0
  0
LINE
  5
2AFD9
330
1B
100
AcDbEntity
  8
0
100
AcDbLine
 10
3604.290732977427
 20
2221.467063475911
 30
0.0
 11
3619.556576459845
 21
2221.467171531056
 31
0.0
  0
LINE
  5
2AFDA
330
1B
100
AcDbEntity
  8
0
100
AcDbLine
 10
3620.521294007006
 20
2226.372994446474
 30
0.0
 11
3619.556576459845
 21
2221.467171531056
 31
0.0
  0
LINE
  5
2AFDB
330
1B
100
AcDbEntity
  8
0
100
AcDbLine
 10
3578.17163281655
 20
2224.466974044283
 30
0.0
 11
3578.761588997238
 21
2221.467015809729
 31
0.0
  0
LINE
  5
2AFDC
330
1B
100
AcDbEntity
  8
0
100
AcDbLine
 10
3616.941364417068
 20
2224.467495621308
 30
0.0
 11
3616.351488954681
 21
2221.467521514241
 31
0.0
  0
ENDSEC
  0
SECTION
  2
OBJECTS
  0
DICTIONARY
  5
412
330
0
100
AcDbDictionary
281
     1
  3
ACAD_COLOR
350
41D
  3
ACAD_GROUP
350
413
  3
ACAD_LAYOUT
350
41E
  3
ACAD_MATERIAL
350
41C
  3
ACAD_MLINESTYLE
350
414
  3
ACAD_PLOTSETTINGS
350
41F
  3
ACAD_PLOTSTYLENAME
350
41A
  3
ACDBHEADERROUNDTRIPXREC
350
2AFEC
  3
AcDbVariableDictionary
350
2AFE4
  0
DICTIONARY
  5
41D
102
{ACAD_REACTORS
330
412
102
}
330
412
100
AcDbDictionary
281
     1
  0
DICTIONARY
  5
413
102
{ACAD_REACTORS
330
412
102
}
330
412
100
AcDbDictionary
281
     1
  0
DICTIONARY
  5
41E
102
{ACAD_REACTORS
330
412
102
}
330
412
100
AcDbDictionary
281
     1
  3
Layout1
350
421
  3
Model
350
420
  0
DICTIONARY
  5
41C
102
{ACAD_REACTORS
330
412
102
}
330
412
100
AcDbDictionary
281
     1
  0
DICTIONARY
  5
414
102
{ACAD_REACTORS
330
412
102
}
330
412
100
AcDbDictionary
281
     1
  3
STANDARD
350
415
  0
DICTIONARY
  5
41F
102
{ACAD_REACTORS
330
412
102
}
330
412
100
AcDbDictionary
281
     1
  0
ACDBDICTIONARYWDFLT
  5
41A
102
{ACAD_REACTORS
330
412
102
}
330
412
100
AcDbDictionary
281
     1
  3
Normal
350
41B
100
AcDbDictionaryWithDefault
340
41B
  0
DICTIONARY
  5
2AFEC
102
{ACAD_REACTORS
330
412
102
}
330
412
100
AcDbDictionary
281
     1
  3
COLORDICT
350
2AFED
  3
MATERIALDICT
350
2AFEE
  0
DICTIONARY
  5
2AFE4
102
{ACAD_REACTORS
330
412
102
}
330
412
100
AcDbDictionary
281
     1
  0
LAYOUT
  5
421
102
{ACAD_REACTORS
330
41E
102
}
330
41E
100
AcDbPlotSettings
  1

  2
\\alderaan\HP LaserJet 4050 Ricerca
  4

  6

 40
0.0
 41
0.0
 42
0.0
 43
0.0
 44
0.0
 45
0.0
 46
0.0
 47
0.0
 48
0.0
 49
0.0
140
0.0
141
0.0
142
1.0
143
1.0
 70
   688
 72
     0
 73
     0
 74
     5
  7

 75
    16
147
1.0
148
0.0
149
0.0
100
AcDbLayout
  1
Layout1
 70
     0
 71
     1
 10
0.0
 20
0.0
 11
12.0
 21
9.0
 12
0.0
 22
0.0
 32
0.0
 14
1.000000000000000E+20
 24
1.000000000000000E+20
 34
1.000000000000000E+20
 15
-1.000000000000000E+20
 25
-1.000000000000000E+20
 35
-1.000000000000000E+20
146
0.0
 13
0.0
 23
0.0
 33
0.0
 16
1.0
 26
0.0
 36
0.0
 17
0.0
 27
1.0
 37
0.0
 76
     0
330
1C
  0
LAYOUT
  5
420
102
{ACAD_REACTORS
330
41E
102
}
330
41E
100
AcDbPlotSettings
  1

  2
\\alderaan\HP LaserJet 4050 Ricerca
  4
A4
  6

 40
5.027083396911621
 41
5.069430828094482
 42
5.365737915039062
 43
5.365753173828125
 44
209.8886566162109
 45
297.0530090332031
 46
49.784
 47
-1.016
 48
-230.9841981638419
 49
1816.890201395042
140
904.7601850852935
141
2209.683276104576
142
1.0
143
100.0
 70
 11956
 72
     0
 73
     1
 74
     4
  7

 75
    26
147
0.01
148
5866.998633361586
149
-46149.01111543406
100
AcDbLayout
  1
Model
 70
     1
 71
     0
 10
0.0
 20
0.0
 11
12.0
 21
9.0
 12
0.0
 22
0.0
 32
0.0
 14
0.0
 24
0.0
 34
0.0
 15
0.0
 25
0.0
 35
0.0
146
0.0
 13
0.0
 23
0.0
 33
0.0
 16
1.0
 26
0.0
 36
0.0
 17
0.0
 27
1.0
 37
0.0
 76
     0
330
1B
  0
MLINESTYLE
  5
415
102
{ACAD_REACTORS
330
414
102
}
330
414
100
AcDbMlineStyle
  2
STANDARD
 70
     0
  3

 62
   256
 51
90.00000000000019
 52
90.00000000000019
 71
     2
 49
0.5
 62
   256
  6
BYLAYER
 49
-0.5
 62
   256
  6
BYLAYER
  0
ACDBPLACEHOLDER
  5
41B
102
{ACAD_REACTORS
330
41A
102
}
330
41A
  0
XRECORD
  5
2AFED
102
{ACAD_REACTORS
330
2AFEC
102
}
330
2AFEC
100
AcDbXrecord
280
     1
340
41D
  0
XRECORD
  5
2AFEE
102
{ACAD_REACTORS
330
2AFEC
102
}
330
2AFEC
100
AcDbXrecord
280
     1
340
41C
  0
ENDSEC
  0
EOF
