  0
SECTION
  2
HEADER
  9
$ACADVER
  1
AC1015
  9
$ACADMAINTVER
 70
     6
  9
$DWGCODEPAGE
  3
ANSI_1252
  9
$INSBASE
 10
0.0
 20
0.0
 30
0.0
  9
$EXTMIN
 10
284.3190627940706
 20
-451.816176746759
 30
-40.73332500000001
  9
$EXTMAX
 10
4800.663162093308
 20
246.9266154161779
 30
20.8
  9
$LIMMIN
 10
0.0
 20
0.0
  9
$LIMMAX
 10
420.0
 20
297.0
  9
$ORTHOMODE
 70
     1
  9
$REGENMODE
 70
     1
  9
$FILLMODE
 70
     1
  9
$QTEXTMODE
 70
     0
  9
$MIRRTEXT
 70
     1
  9
$LTSCALE
 40
23.1
  9
$ATTMODE
 70
     1
  9
$TEXTSIZE
 40
0.2
  9
$TRACEWID
 40
0.05
  9
$TEXTSTYLE
  7
STANDARD
  9
$CLAYER
  8
0
  9
$CELTYPE
  6
BYLAYER
  9
$CECOLOR
 62
   256
  9
$CELTSCALE
 40
1.0
  9
$DISPSILH
 70
     0
  9
$DIMSCALE
 40
1.0
  9
$DIMASZ
 40
3.0
  9
$DIMEXO
 40
2.625
  9
$DIMDLI
 40
15.96
  9
$DIMRND
 40
0.0
  9
$DIMDLE
 40
0.0
  9
$DIMEXE
 40
7.559999999999999
  9
$DIMTP
 40
0.0
  9
$DIMTM
 40
0.0
  9
$DIMTXT
 40
0.18
  9
$DIMCEN
 40
3.779999999999999
  9
$DIMTSZ
 40
0.0
  9
$DIMTOL
 70
     0
  9
$DIMLIM
 70
     0
  9
$DIMTIH
 70
     1
  9
$DIMTOH
 70
     1
  9
$DIMSE1
 70
     0
  9
$DIMSE2
 70
     0
  9
$DIMTAD
 70
     0
  9
$DIMZIN
 70
     0
  9
$DIMBLK
  1

  9
$DIMASO
 70
     1
  9
$DIMSHO
 70
     1
  9
$DIMPOST
  1

  9
$DIMAPOST
  1

  9
$DIMALT
 70
     0
  9
$DIMALTD
 70
     2
  9
$DIMALTF
 40
25.4
  9
$DIMLFAC
 40
1.0
  9
$DIMTOFL
 70
     0
  9
$DIMTVP
 40
0.0
  9
$DIMTIX
 70
     0
  9
$DIMSOXD
 70
     0
  9
$DIMSAH
 70
     0
  9
$DIMBLK1
  1

  9
$DIMBLK2
  1

  9
$DIMSTYLE
  2
STANDARD
  9
$DIMCLRD
 70
     0
  9
$DIMCLRE
 70
     0
  9
$DIMCLRT
 70
     0
  9
$DIMTFAC
 40
1.0
  9
$DIMGAP
 40
0.09
  9
$DIMJUST
 70
     0
  9
$DIMSD1
 70
     0
  9
$DIMSD2
 70
     0
  9
$DIMTOLJ
 70
     1
  9
$DIMTZIN
 70
     0
  9
$DIMALTZ
 70
     0
  9
$DIMALTTZ
 70
     0
  9
$DIMUPT
 70
     0
  9
$DIMDEC
 70
     4
  9
$DIMTDEC
 70
     4
  9
$DIMALTU
 70
     2
  9
$DIMALTTD
 70
     2
  9
$DIMTXSTY
  7
STANDARD
  9
$DIMAUNIT
 70
     0
  9
$DIMADEC
 70
     0
  9
$DIMALTRND
 40
0.0
  9
$DIMAZIN
 70
     0
  9
$DIMDSEP
 70
    46
  9
$DIMATFIT
 70
     3
  9
$DIMFRAC
 70
     0
  9
$DIMLDRBLK
  1

  9
$DIMLUNIT
 70
     2
  9
$DIMLWD
 70
    -2
  9
$DIMLWE
 70
    -2
  9
$DIMTMOVE
 70
     0
  9
$LUNITS
 70
     2
  9
$LUPREC
 70
     4
  9
$SKETCHINC
 40
0.1
  9
$FILLETRAD
 40
0.0
  9
$AUNITS
 70
     0
  9
$AUPREC
 70
     0
  9
$MENU
  1
acad
  9
$ELEVATION
 40
0.0
  9
$PELEVATION
 40
0.0
  9
$THICKNESS
 40
0.0
  9
$LIMCHECK
 70
     0
  9
$CHAMFERA
 40
0.0
  9
$CHAMFERB
 40
0.0
  9
$CHAMFERC
 40
0.0
  9
$CHAMFERD
 40
0.0
  9
$SKPOLY
 70
     0
  9
$TDCREATE
 40
2444972.041666667
  9
$TDUCREATE
 40
2444972.0
  9
$TDUPDATE
 40
2453410.437337037
  9
$TDUUPDATE
 40
2453410.39567037
  9
$TDINDWG
 40
1.2649997338
  9
$TDUSRTIMER
 40
1.2649997338
  9
$USRTIMER
 70
     1
  9
$ANGBASE
 50
0.0
  9
$ANGDIR
 70
     0
  9
$PDMODE
 70
     0
  9
$PDSIZE
 40
0.0
  9
$PLINEWID
 40
0.0
  9
$SPLFRAME
 70
     0
  9
$SPLINETYPE
 70
     6
  9
$SPLINESEGS
 70
     8
  9
$HANDSEED
  5
5F7E
  9
$SURFTAB1
 70
     6
  9
$SURFTAB2
 70
     6
  9
$SURFTYPE
 70
     6
  9
$SURFU
 70
     6
  9
$SURFV
 70
     6
  9
$UCSBASE
  2

  9
$UCSNAME
  2

  9
$UCSORG
 10
0.0
 20
0.0
 30
0.0
  9
$UCSXDIR
 10
1.0
 20
0.0
 30
0.0
  9
$UCSYDIR
 10
0.0
 20
1.0
 30
0.0
  9
$UCSORTHOREF
  2

  9
$UCSORTHOVIEW
 70
     0
  9
$UCSORGTOP
 10
0.0
 20
0.0
 30
0.0
  9
$UCSORGBOTTOM
 10
0.0
 20
0.0
 30
0.0
  9
$UCSORGLEFT
 10
0.0
 20
0.0
 30
0.0
  9
$UCSORGRIGHT
 10
0.0
 20
0.0
 30
0.0
  9
$UCSORGFRONT
 10
0.0
 20
0.0
 30
0.0
  9
$UCSORGBACK
 10
0.0
 20
0.0
 30
0.0
  9
$PUCSBASE
  2

  9
$PUCSNAME
  2

  9
$PUCSORG
 10
0.0
 20
0.0
 30
0.0
  9
$PUCSXDIR
 10
1.0
 20
0.0
 30
0.0
  9
$PUCSYDIR
 10
0.0
 20
1.0
 30
0.0
  9
$PUCSORTHOREF
  2

  9
$PUCSORTHOVIEW
 70
     0
  9
$PUCSORGTOP
 10
0.0
 20
0.0
 30
0.0
  9
$PUCSORGBOTTOM
 10
0.0
 20
0.0
 30
0.0
  9
$PUCSORGLEFT
 10
0.0
 20
0.0
 30
0.0
  9
$PUCSORGRIGHT
 10
0.0
 20
0.0
 30
0.0
  9
$PUCSORGFRONT
 10
0.0
 20
0.0
 30
0.0
  9
$PUCSORGBACK
 10
0.0
 20
0.0
 30
0.0
  9
$USERI1
 70
     0
  9
$USERI2
 70
     0
  9
$USERI3
 70
     0
  9
$USERI4
 70
     0
  9
$USERI5
 70
     0
  9
$USERR1
 40
0.0
  9
$USERR2
 40
0.0
  9
$USERR3
 40
0.0
  9
$USERR4
 40
0.0
  9
$USERR5
 40
0.0
  9
$WORLDVIEW
 70
     1
  9
$SHADEDGE
 70
     3
  9
$SHADEDIF
 70
    70
  9
$TILEMODE
 70
     1
  9
$MAXACTVP
 70
    16
  9
$PINSBASE
 10
0.0
 20
0.0
 30
0.0
  9
$PLIMCHECK
 70
     0
  9
$PEXTMIN
 10
1.000000000000000E+20
 20
1.000000000000000E+20
 30
1.000000000000000E+20
  9
$PEXTMAX
 10
-1.000000000000000E+20
 20
-1.000000000000000E+20
 30
-1.000000000000000E+20
  9
$PLIMMIN
 10
0.0
 20
0.0
  9
$PLIMMAX
 10
12.0
 20
9.0
  9
$UNITMODE
 70
     0
  9
$VISRETAIN
 70
     0
  9
$PLINEGEN
 70
     1
  9
$PSLTSCALE
 70
     0
  9
$TREEDEPTH
 70
  3020
  9
$CMLSTYLE
  2
STANDARD
  9
$CMLJUST
 70
     0
  9
$CMLSCALE
 40
1.0
  9
$PROXYGRAPHICS
 70
     1
  9
$MEASUREMENT
 70
     0
  9
$CELWEIGHT
370
    -1
  9
$ENDCAPS
280
     0
  9
$JOINSTYLE
280
     0
  9
$LWDISPLAY
290
     0
  9
$INSUNITS
 70
     0
  9
$HYPERLINKBASE
  1

  9
$STYLESHEET
  1

  9
$XEDIT
290
     1
  9
$CEPSNTYPE
380
     0
  9
$PSTYLEMODE
290
     1
  9
$FINGERPRINTGUID
  2
{0BC36D6C-D7C2-4D71-98D4-CB92CFD2B5E3}
  9
$VERSIONGUID
  2
{34FC22C5-246B-441E-8C90-4EE3F3F6EC62}
  9
$EXTNAMES
290
     1
  9
$PSVPSCALE
 40
0.0
  9
$OLESTARTUP
290
     0
  0
ENDSEC
  0
SECTION
  2
CLASSES
  0
CLASS
  1
IMAGE
  2
AcDbRasterImage
  3
ISM
 90
      127
280
     0
281
     1
  0
CLASS
  1
DICTIONARYVAR
  2
AcDbDictionaryVar
  3
ObjectDBX Classes
 90
        0
280
     0
281
     0
  0
CLASS
  1
RASTERVARIABLES
  2
AcDbRasterVariables
  3
ISM
 90
        0
280
     0
281
     0
  0
CLASS
  1
IMAGEDEF
  2
AcDbRasterImageDef
  3
ISM
 90
        0
280
     0
281
     0
  0
CLASS
  1
IMAGEDEF_REACTOR
  2
AcDbRasterImageDefReactor
  3
ISM
 90
        1
280
     0
281
     0
  0
CLASS
  1
IDBUFFER
  2
AcDbIdBuffer
  3
ObjectDBX Classes
 90
        0
280
     0
281
     0
  0
CLASS
  1
SPATIAL_FILTER
  2
AcDbSpatialFilter
  3
ObjectDBX Classes
 90
        0
280
     0
281
     0
  0
CLASS
  1
SORTENTSTABLE
  2
AcDbSortentsTable
  3
ObjectDBX Classes
 90
        0
280
     0
281
     0
  0
CLASS
  1
LAYER_INDEX
  2
AcDbLayerIndex
  3
ObjectDBX Classes
 90
        0
280
     0
281
     0
  0
CLASS
  1
SPATIAL_INDEX
  2
AcDbSpatialIndex
  3
AutoCAD 2000
 90
        0
280
     0
281
     0
  0
CLASS
  1
OBJECT_PTR
  2
CAseDLPNTableRecord
  3
ASE-LPNTableRecord
 90
        1
280
     0
281
     0
  0
CLASS
  1
PLOTSETTINGS
  2
AcDbPlotSettings
  3
ObjectDBX Classes
 90
        0
280
     0
281
     0
  0
CLASS
  1
ACDBDICTIONARYWDFLT
  2
AcDbDictionaryWithDefault
  3
ObjectDBX Classes
 90
        0
280
     0
281
     0
  0
CLASS
  1
WIPEOUT
  2
AcDbWipeout
  3
WipeOut|AutoCAD Express Tool|expresstools@autodesk.com
 90
      127
280
     0
281
     1
  0
CLASS
  1
WIPEOUTVARIABLES
  2
AcDbWipeoutVariables
  3
WipeOut|AutoCAD Express Tool|expresstools@autodesk.com
 90
        0
280
     0
281
     0
  0
CLASS
  1
RTEXT
  2
RText
  3
RText|AutoCAD Express Tool|expresstools@autodesk.com
 90
        0
280
     0
281
     1
  0
CLASS
  1
ARCALIGNEDTEXT
  2
AcDbArcAlignedText
  3
ATEXT|AutoCAD Express Tool|expresstools@autodesk.com
 90
        0
280
     0
281
     1
  0
CLASS
  1
ACDBPLACEHOLDER
  2
AcDbPlaceHolder
  3
ObjectDBX Classes
 90
        0
280
     0
281
     0
  0
CLASS
  1
LAYOUT
  2
AcDbLayout
  3
ObjectDBX Classes
 90
        0
280
     0
281
     0
  0
ENDSEC
  0
SECTION
  2
TABLES
  0
TABLE
  2
VPORT
  5
6
330
0
100
AcDbSymbolTable
 70
     1
  0
VPORT
  5
5F72
330
6
100
AcDbSymbolTableRecord
100
AcDbViewportTableRecord
  2
*Active
 70
     0
 10
0.0
 20
0.0
 11
1.0
 21
1.0
 12
1217.991587536657
 22
95.11764452577063
 13
0.0
 23
0.0
 14
1.0
 24
1.0
 15
0.0
 25
0.0
 16
0.0
 26
0.0
 36
1.0
 17
0.0
 27
0.0
 37
0.0
 40
228.4559713573581
 41
1.888667992047713
 42
50.0
 43
0.0
 44
0.0
 50
0.0
 51
0.0
 71
     0
 72
   100
 73
     1
 74
     1
 75
     0
 76
     0
 77
     0
 78
     0
281
     0
 65
     1
110
0.0
120
0.0
130
0.0
111
1.0
121
0.0
131
0.0
112
0.0
122
1.0
132
0.0
 79
     0
146
0.0
  0
ENDTAB
  0
TABLE
  2
LTYPE
  5
3
330
0
100
AcDbSymbolTable
 70
     2
  0
LTYPE
  5
C
330
3
100
AcDbSymbolTableRecord
100
AcDbLinetypeTableRecord
  2
BYBLOCK
 70
     0
  3

 72
    65
 73
     0
 40
0.0
  0
LTYPE
  5
D
330
3
100
AcDbSymbolTableRecord
100
AcDbLinetypeTableRecord
  2
BYLAYER
 70
     0
  3

 72
    65
 73
     0
 40
0.0
  0
LTYPE
  5
E
330
3
100
AcDbSymbolTableRecord
100
AcDbLinetypeTableRecord
  2
CONTINUOUS
 70
     0
  3
Solid line
 72
    65
 73
     0
 40
0.0
  0
LTYPE
  5
F
330
3
100
AcDbSymbolTableRecord
100
AcDbLinetypeTableRecord
  2
CENTER
 70
     0
  3
____ _ ____ _ ____ _ ____ _ ____ _ ____ _ ____
 72
    65
 73
     4
 40
0.6
 49
0.375
 74
     0
 49
-0.075
 74
     0
 49
0.075
 74
     0
 49
-0.075
 74
     0
  0
ENDTAB
  0
TABLE
  2
LAYER
  5
1
330
0
100
AcDbSymbolTable
 70
     2
  0
LAYER
  5
14
330
1
100
AcDbSymbolTableRecord
100
AcDbLayerTableRecord
  2
0
 70
     0
 62
     7
  6
CONTINUOUS
370
    -3
390
616
  0
LAYER
  5
61F
330
1
100
AcDbSymbolTableRecord
100
AcDbLayerTableRecord
  2
Defpoints
 70
     0
 62
     7
  6
CONTINUOUS
290
     0
370
    -3
390
616
  0
ENDTAB
  0
TABLE
  2
STYLE
  5
2
330
0
100
AcDbSymbolTable
 70
     3
  0
STYLE
  5
1D
330
2
100
AcDbSymbolTableRecord
100
AcDbTextStyleTableRecord
  2
STANDARD
 70
     0
 40
0.0
 41
1.0
 50
0.0
 71
     0
 42
0.2
  3
VERDANA.TTF
  4

1001
ACAD
1000
Verdana
1071
       34
  0
STYLE
  5
1A
330
2
100
AcDbSymbolTableRecord
100
AcDbTextStyleTableRecord
  2
TEXTSTYLE_0
 70
     0
 40
0.0
 41
0.8
 50
0.0
 71
     0
 42
0.2
  3
txt
  4

  0
STYLE
  5
1B
330
2
100
AcDbSymbolTableRecord
100
AcDbTextStyleTableRecord
  2
TEXTSTYLE_1
 70
     0
 40
0.0
 41
0.8
 50
0.0
 71
     0
 42
0.2
  3
txt
  4

  0
ENDTAB
  0
TABLE
  2
VIEW
  5
4
330
0
100
AcDbSymbolTable
 70
     0
  0
ENDTAB
  0
TABLE
  2
UCS
  5
5
330
0
100
AcDbSymbolTable
 70
     0
  0
ENDTAB
  0
TABLE
  2
APPID
  5
7
330
0
100
AcDbSymbolTable
 70
     1
  0
APPID
  5
19
330
7
100
AcDbSymbolTableRecord
100
AcDbRegAppTableRecord
  2
ACAD
 70
     0
  0
ENDTAB
  0
TABLE
  2
DIMSTYLE
  5
8
330
0
100
AcDbSymbolTable
 70
     2
100
AcDbDimStyleTable
  0
DIMSTYLE
105
2D
330
8
100
AcDbSymbolTableRecord
100
AcDbDimStyleTableRecord
  2
STANDARD
 70
     0
 47
0.003
 48
0.003
 71
     1
140
1.5
289
     0
340
1D
  0
DIMSTYLE
105
784
330
8
100
AcDbSymbolTableRecord
100
AcDbDimStyleTableRecord
  2
dimensionali
 70
     0
 41
6.0
 42
5.0
 43
31.958
 44
0.0
 47
0.003
 48
0.003
 71
     1
 73
     0
 74
     0
140
8.0
141
7.568999999999999
147
5.0
340
1D
341
785
342
785
  0
ENDTAB
  0
TABLE
  2
BLOCK_RECORD
  5
28
330
0
100
AcDbSymbolTable
 70
     1
  0
BLOCK_RECORD
  5
26
330
28
100
AcDbSymbolTableRecord
100
AcDbBlockTableRecord
  2
*MODEL_SPACE
340
61B
  0
BLOCK_RECORD
  5
27
330
28
100
AcDbSymbolTableRecord
100
AcDbBlockTableRecord
  2
*PAPER_SPACE
340
61C
  0
BLOCK_RECORD
  5
785
330
28
100
AcDbSymbolTableRecord
100
AcDbBlockTableRecord
  2
_Dot
340
0
  0
ENDTAB
  0
ENDSEC
  0
SECTION
  2
BLOCKS
  0
BLOCK
  5
29
330
26
100
AcDbEntity
  8
0
100
AcDbBlockBegin
  2
*MODEL_SPACE
 70
     0
 71
     0
 10
0.0
 20
0.0
 30
0.0
  3
*MODEL_SPACE
  1

  0
ENDBLK
  5
2A
330
26
100
AcDbEntity
  8
0
100
AcDbBlockEnd
  0
BLOCK
  5
2B
330
27
100
AcDbEntity
 67
     1
  8
0
100
AcDbBlockBegin
  2
*PAPER_SPACE
 70
     0
 71
     0
 10
0.0
 20
0.0
 30
0.0
  3
*PAPER_SPACE
  1

  0
ENDBLK
  5
2C
330
27
100
AcDbEntity
 67
     1
  8
0
100
AcDbBlockEnd
  0
BLOCK
  5
786
330
785
100
AcDbEntity
  8
0
100
AcDbBlockBegin
  2
_Dot
 70
     0
 71
     0
 10
0.0
 20
0.0
 30
0.0
  3
_Dot
  1

  0
LWPOLYLINE
  5
787
330
785
100
AcDbEntity
  8
0
  6
ByBlock
 62
     0
100
AcDbPolyline
 90
        2
 70
     1
 43
0.5
 10
-0.25
 20
0.0
 42
1.0
 10
0.25
 20
0.0
 42
1.0
  0
LINE
  5
788
330
785
100
AcDbEntity
  8
0
  6
ByBlock
 62
     0
370
    -2
100
AcDbLine
 10
-0.5
 20
0.0
 30
0.0
 11
-1.0
 21
0.0
 31
0.0
  0
ENDBLK
  5
789
330
785
100
AcDbEntity
  8
0
100
AcDbBlockEnd
  0
ENDSEC
  0
SECTION
  2
ENTITIES
  0
TEXT
  5
E5
330
26
100
AcDbEntity
  8
0
  6
Continuous
 62
     2
100
AcDbText
 10
98.4898777622
 20
41.38631207849999
 30
0.0
 40
1.8
  1
 
  7
TEXTSTYLE_1
 72
     5
 11
100.8041634764
 21
41.38631207849999
 31
0.0
100
AcDbText
  0
TEXT
  5
11D
330
26
100
AcDbEntity
  8
0
  6
Continuous
 62
     1
100
AcDbText
 10
328.1631333629
 20
32.0853596703
 30
0.0
 40
1.5
  1
 
  7
TEXTSTYLE_0
 72
     5
 11
330.0092872091
 21
32.0853596703
 31
0.0
100
AcDbText
  0
TEXT
  5
11E
330
26
100
AcDbEntity
  8
0
  6
Continuous
 62
     1
100
AcDbText
 10
330.0092872091
 20
32.0853596703
 30
0.0
 40
1.5
  1
 
  7
TEXTSTYLE_0
 72
     5
 11
331.8554410552
 21
32.0853596703
 31
0.0
100
AcDbText
  0
TEXT
  5
120
330
26
100
AcDbEntity
  8
0
  6
Continuous
 62
     1
100
AcDbText
 10
352.836210286
 20
32.0853596703
 30
0.0
 40
1.5
  1
 
  7
TEXTSTYLE_0
 72
     5
 11
354.6823641321
 21
32.0853596703
 31
0.0
100
AcDbText
  0
TEXT
  5
12A
330
26
100
AcDbEntity
  8
0
  6
Continuous
 62
     1
100
AcDbText
 10
401.5862102859999
 20
20.9420904395
 30
0.0
 40
1.5
  1
 
  7
TEXTSTYLE_0
 72
     5
 11
403.4323641321
 21
20.9420904395
 31
0.0
100
AcDbText
  0
SPLINE
  5
19FA
330
26
100
AcDbEntity
  8
0
  6
Continuous
100
AcDbSpline
210
0.0
220
0.0
230
1.0
 70
     8
 71
     3
 72
    10
 73
     6
 74
     4
 42
0.0000000001
 43
0.0000000001
 44
0.0000000001
 40
0.0
 40
0.0
 40
0.0
 40
0.0
 40
0.0406015220260797
 40
0.1383922998902644
 40
0.2937917700786695
 40
0.2937917700786695
 40
0.2937917700786695
 40
0.2937917700786695
 10
1163.464970505437
 20
154.2624295902952
 30
0.0
 10
1163.469349483191
 20
154.2496143315956
 30
0.0
 10
1163.484275445871
 20
154.2059328872401
 30
0.0
 10
1163.528502616843
 20
154.1182807946891
 30
0.0
 10
1163.565730463415
 20
154.0425986107978
 30
0.0
 10
1163.588579635837
 20
153.9961474880952
 30
0.0
 11
1163.464970505437
 21
154.2624295902952
 31
0.0
 11
1163.478615907737
 21
154.2241897342952
 31
0.0
 11
1163.519697901237
 21
154.1354468131952
 31
0.0
 11
1163.588579635837
 21
153.9961474880952
 31
0.0
  0
SPLINE
  5
19FB
330
26
100
AcDbEntity
  8
0
  6
Continuous
100
AcDbSpline
210
0.0
220
0.0
230
1.0
 70
     8
 71
     3
 72
    10
 73
     6
 74
     4
 42
0.0000000001
 43
0.0000000001
 44
0.0000000001
 40
0.0
 40
0.0
 40
0.0
 40
0.0
 40
0.1975943167477285
 40
0.4238829328415368
 40
0.6787003532945855
 40
0.6787003532945855
 40
0.6787003532945855
 40
0.6787003532945855
 10
1163.588579635837
 20
140.9976860406952
 30
0.0
 10
1163.563375799368
 20
140.9366497112403
 30
0.0
 10
1163.509308069603
 20
140.8057134638569
 30
0.0
 10
1163.472325390341
 20
140.5806617165709
 30
0.0
 10
1163.467517173546
 20
140.4203928733089
 30
0.0
 10
1163.464970505437
 20
140.3355066109952
 30
0.0
 11
1163.588579635837
 21
140.9976860406952
 31
0.0
 11
1163.519697901237
 21
140.8124866328952
 31
0.0
 11
1163.478615907737
 21
140.5899584153952
 31
0.0
 11
1163.464970505437
 21
140.3355066109952
 31
0.0
  0
SPLINE
  5
19FC
330
26
100
AcDbEntity
  8
0
  6
Continuous
100
AcDbSpline
210
0.0
220
0.0
230
1.0
 70
     8
 71
     3
 72
    10
 73
     6
 74
     4
 42
0.0000000001
 43
0.0000000001
 44
0.0000000001
 40
0.0
 40
0.0
 40
0.0
 40
0.0
 40
0.2930095649124445
 40
0.6069800283564788
 40
0.9387090155588629
 40
0.9387090155588629
 40
0.9387090155588629
 40
0.9387090155588629
 10
1163.464970505437
 20
138.2143589222952
 30
0.0
 10
1163.467868598443
 20
138.1166867738365
 30
0.0
 10
1163.473872104081
 20
137.9143553466736
 30
0.0
 10
1163.516015001685
 20
137.6036004420994
 30
0.0
 10
1163.563951958084
 20
137.3937224827415
 30
0.0
 10
1163.588579635837
 20
137.2858973903952
 30
0.0
 11
1163.464970505437
 21
138.2143589222952
 31
0.0
 11
1163.478615907737
 21
137.9216672617952
 31
0.0
 11
1163.519697901237
 21
137.6103961231952
 31
0.0
 11
1163.588579635837
 21
137.2858973903952
 31
0.0
  0
SPLINE
  5
19FD
330
26
100
AcDbEntity
  8
0
  6
Continuous
100
AcDbSpline
210
0.0
220
0.0
230
1.0
 70
     8
 71
     3
 72
    15
 73
    11
 74
     9
 42
0.0000000001
 43
0.0000000001
 44
0.0000000001
 40
0.0
 40
0.0
 40
0.0
 40
0.0
 40
1.856058265086443
 40
3.581360121084574
 40
5.220082541999497
 40
6.816741461036124
 40
8.415110048598292
 40
10.05834807888928
 40
11.78764770465455
 40
13.64579436850982
 40
13.64579436850982
 40
13.64579436850982
 40
13.64579436850982
 10
1148.019968554437
 20
153.9961474880952
 30
0.0
 10
1147.740311125534
 20
153.4437240096608
 30
0.0
 10
1147.200697697295
 20
152.3777944249967
 30
0.0
 10
1146.616674369122
 20
150.733304160879
 30
0.0
 10
1146.254315090044
 20
149.1152601764929
 30
0.0
 10
1146.132540898012
 20
147.5025408971645
 30
0.0
 10
1146.252706913272
 20
145.8881660612996
 30
0.0
 10
1146.614727830182
 20
144.2665074975393
 30
0.0
 10
1147.199509860948
 20
142.6184978154441
 30
0.0
 10
1147.740011421925
 20
141.5507398619627
 30
0.0
 10
1148.019968553337
 20
140.9976860406952
 30
0.0
 11
1148.019968554437
 21
153.9961474880952
 31
0.0
 11
1147.218311391237
 21
152.3221408942952
 31
0.0
 11
1146.641350096637
 21
150.6961697509952
 31
0.0
 11
1146.290961787037
 21
149.0953452117952
 31
0.0
 11
1146.172502284237
 21
147.5030867371952
 31
0.0
 11
1146.289415566837
 21
145.9089997175952
 31
0.0
 11
1146.639661917437
 21
144.3035219948952
 31
0.0
 11
1147.217503750037
 21
142.6736213806952
 31
0.0
 11
1148.019968553337
 21
140.9976860406952
 31
0.0
  0
SPLINE
  5
19FE
330
26
100
AcDbEntity
  8
0
  6
Continuous
100
AcDbSpline
210
0.0
220
0.0
230
1.0
 70
     8
 71
     3
 72
    11
 73
     7
 74
     5
 42
0.0000000001
 43
0.0000000001
 44
0.0000000001
 40
0.0
 40
0.0
 40
0.0
 40
0.0
 40
0.5477020493715711
 40
1.102068671956533
 40
1.650312893880494
 40
2.18101909093966
 40
2.18101909093966
 40
2.18101909093966
 40
2.18101909093966
 10
1148.019968654737
 20
140.9976860381952
 30
0.0
 10
1147.84024680112
 20
140.9605142734521
 30
0.0
 10
1147.478616194177
 20
140.8857184287923
 30
0.0
 10
1146.991570068753
 20
140.6165811999898
 30
0.0
 10
1146.570655091747
 20
140.2601966472539
 30
0.0
 10
1146.381136736917
 20
139.9521102088347
 30
0.0
 10
1146.287917842337
 20
139.8005709172952
 30
0.0
 11
1148.019968654737
 21
140.9976860381952
 31
0.0
 11
1147.489789472237
 21
140.8602539846952
 31
0.0
 11
1147.000192408137
 21
140.6002211654952
 31
0.0
 11
1146.588994140437
 21
140.2376088221952
 31
0.0
 11
1146.287917842337
 21
139.8005709172952
 31
0.0
  0
SPLINE
  5
19FF
330
26
100
AcDbEntity
  8
0
  6
Continuous
100
AcDbSpline
210
0.0
220
0.0
230
1.0
 70
     8
 71
     3
 72
    16
 73
    12
 74
    10
 42
0.0000000001
 43
0.0000000001
 44
0.0000000001
 40
0.0
 40
0.0
 40
0.0
 40
0.0
 40
1.665086023059194
 40
3.233698854524347
 40
4.738542085419964
 40
6.211854389058875
 40
7.683850364089461
 40
9.182192381946297
 40
10.73305952619996
 40
12.36079910286212
 40
14.09301282048032
 40
14.09301282048032
 40
14.09301282048032
 40
14.09301282048032
 10
1146.287917847437
 20
153.2632638445952
 30
0.0
 10
1146.036775252067
 20
152.7679031572706
 30
0.0
 10
1145.549040977846
 20
151.8058824178047
 30
0.0
 10
1144.998946454998
 20
150.3213666682358
 30
0.0
 10
1144.622272141521
 20
148.8502500655763
 30
0.0
 10
1144.432846648232
 20
147.3748992998412
 30
0.0
 10
1144.432675956394
 20
145.889739778708
 30
0.0
 10
1144.621981968027
 20
144.3906699407687
 30
0.0
 10
1144.998825479841
 20
142.875051964037
 30
0.0
 10
1145.54915812302
 20
141.3298308693197
 30
0.0
 10
1146.036612317656
 20
140.320772903133
 30
0.0
 10
1146.287917847437
 20
139.8005561328952
 30
0.0
 11
1146.287917847437
 21
153.2632638445952
 31
0.0
 11
1145.564274784137
 21
151.7636464996952
 31
0.0
 11
1145.018158748537
 21
150.2931691993952
 31
0.0
 11
1144.650287128737
 21
148.8339832547952
 31
0.0
 11
1144.464132884537
 21
147.3724786391952
 31
0.0
 11
1144.463248402437
 21
145.9004829298952
 31
0.0
 11
1144.648279106537
 21
144.4136095522952
 31
0.0
 11
1145.016459874337
 21
142.9070798242952
 31
0.0
 11
1145.563482528937
 21
141.3740102417952
 31
0.0
 11
1146.287917847437
 21
139.8005561328952
 31
0.0
  0
SPLINE
  5
1A00
330
26
100
AcDbEntity
  8
0
  6
Continuous
100
AcDbSpline
210
0.0
220
0.0
230
1.0
 70
     8
 71
     3
 72
    11
 73
     7
 74
     5
 42
0.0000000001
 43
0.0000000001
 44
0.0000000001
 40
0.0
 40
0.0
 40
0.0
 40
0.0
 40
0.5302564337385852
 40
1.036409323315995
 40
1.518737043237169
 40
1.985229177847456
 40
1.985229177847456
 40
1.985229177847456
 40
1.985229177847456
 10
1148.019968654637
 20
153.9961474914952
 30
0.0
 10
1147.842449742778
 20
154.0076111510303
 30
0.0
 10
1147.495481288253
 20
154.0300173735022
 30
0.0
 10
1147.000019181661
 20
153.8949771491039
 30
0.0
 10
1146.570312608302
 20
153.6467990731585
 30
0.0
 10
1146.380996214022
 20
153.3896780094963
 30
0.0
 10
1146.287917840437
 20
153.2632631233952
 30
0.0
 11
1148.019968654637
 21
153.9961474914952
 31
0.0
 11
1147.489730504837
 21
154.0005509012952
 31
0.0
 11
1147.000254257437
 21
153.8716953586952
 31
0.0
 11
1146.589126889537
 21
153.6194765711952
 31
0.0
 11
1146.287917840437
 21
153.2632631233952
 31
0.0
  0
SPLINE
  5
1A01
330
26
100
AcDbEntity
  8
0
  6
Continuous
100
AcDbSpline
210
0.0
220
0.0
230
1.0
 70
     8
 71
     3
 72
    12
 73
     8
 74
     0
 42
0.0000000001
 43
0.0000000001
 40
0.0
 40
0.0
 40
0.0
 40
0.0
 40
3.447212312868728
 40
6.755067647124549
 40
9.974718923116386
 40
13.1651923830185
 40
13.16519666941013
 40
13.16519666941013
 40
13.16519666941013
 40
13.16519666941013
 10
1148.019968552637
 20
137.2858973903952
 30
0.0
 10
1147.738475635996
 20
136.1715229302796
 30
0.0
 10
1147.186869433212
 20
133.9878237034559
 30
0.0
 10
1146.609854701402
 20
130.7102631434833
 30
0.0
 10
1146.251847356166
 20
127.4884670973154
 30
0.0
 10
1146.172502225592
 20
125.3512049422064
 30
0.0
 10
1146.172502173437
 20
124.2874373720618
 30
0.0
 10
1146.172502173437
 20
124.2874359428952
 30
0.0
  0
SPLINE
  5
1A02
330
26
100
AcDbEntity
  8
0
  6
Continuous
100
AcDbSpline
210
0.0
220
0.0
230
1.0
 70
     8
 71
     3
 72
    12
 73
     8
 74
     0
 42
0.0000000001
 43
0.0000000001
 40
0.0
 40
0.0
 40
0.0
 40
0.0
 40
3.159206423653368
 40
6.214163034868217
 40
9.198647566540682
 40
12.15012254408512
 40
13.62476192017824
 40
13.62476192017824
 40
13.62476192017824
 40
13.62476192017824
 10
1146.287917847437
 20
137.7501436879952
 30
0.0
 10
1146.035356107491
 20
136.727589945729
 30
0.0
 10
1145.538566845276
 20
134.7162254401425
 30
0.0
 10
1144.993497818323
 20
131.6967135477292
 30
0.0
 10
1144.619889808694
 20
128.7216368816714
 30
0.0
 10
1144.463782250628
 20
126.2546758175487
 30
0.0
 10
1144.440481322056
 20
124.7790628662678
 30
0.0
 10
1144.440481307045
 20
124.2874359428952
 30
0.0
  0
SPLINE
  5
1A03
330
26
100
AcDbEntity
  8
0
  6
Continuous
100
AcDbSpline
210
0.0
220
0.0
230
1.0
 70
     8
 71
     3
 72
    15
 73
    11
 74
     9
 42
0.0000000001
 43
0.0000000001
 44
0.0000000001
 40
0.0
 40
0.0
 40
0.0
 40
0.0
 40
1.820050273770423
 40
3.528213202197232
 40
5.170831148144663
 40
6.782657774184099
 40
8.394525050513018
 40
10.03723893261097
 40
11.74591186543862
 40
13.5663024128759
 40
13.5663024128759
 40
13.5663024128759
 40
13.5663024128759
 10
1163.588579635837
 20
140.9976860406952
 30
0.0
 10
1163.849106265692
 20
141.5460875730211
 30
0.0
 10
1164.354143685935
 20
142.6091777273655
 30
0.0
 10
1164.897837058493
 20
144.2496994909289
 30
0.0
 10
1165.236570310064
 20
145.8729494648131
 30
0.0
 10
1165.350059441699
 20
147.4964342874747
 30
0.0
 10
1165.236703441429
 20
149.1199613044672
 30
0.0
 10
1164.898038829967
 20
150.7434473156252
 30
0.0
 10
1164.354307136791
 20
152.3842932589519
 30
0.0
 10
1163.849152602243
 20
153.4476421289718
 30
0.0
 10
1163.588579635837
 20
153.9961474880952
 30
0.0
 11
1163.588579635837
 21
140.9976860406952
 31
0.0
 11
1164.334485386337
 21
142.6578690457952
 31
0.0
 11
1164.872606259737
 21
144.2790558072952
 31
0.0
 11
1165.201416741137
 21
145.8884275429952
 31
0.0
 11
1165.312491356337
 21
147.4964224130952
 31
0.0
 11
1165.201545932537
 21
149.1044669489952
 31
0.0
 11
1164.872827925137
 21
150.7139554919952
 31
0.0
 11
1164.334609770737
 21
152.3356473275953
 31
0.0
 11
1163.588579635837
 21
153.9961474880952
 31
0.0
  0
SPLINE
  5
1A04
330
26
100
AcDbEntity
  8
0
  6
Continuous
100
AcDbSpline
210
0.0
220
0.0
230
1.0
 70
     8
 71
     3
 72
    11
 73
     7
 74
     0
 42
0.0000000001
 43
0.0000000001
 40
13.14423240269636
 40
13.14423240269636
 40
13.14423240269636
 40
13.14423240269636
 40
16.36124607087705
 40
19.59696376693492
 40
22.88470104663544
 40
26.28846427198781
 40
26.28846427198781
 40
26.28846427198781
 40
26.28846427198781
 10
1165.312491366882
 20
124.2874359428952
 30
0.0
 10
1165.312491402242
 20
125.3600187288042
 30
0.0
 10
1165.238043858491
 20
127.5114204261827
 30
0.0
 10
1164.902694682606
 20
130.7429029228183
 30
0.0
 10
1164.365102119715
 20
134.010785846421
 30
0.0
 10
1163.850395349112
 20
136.1816464733309
 30
0.0
 10
1163.588579635837
 20
137.2858973903952
 30
0.0
  0
SPLINE
  5
1A05
330
26
100
AcDbEntity
  8
0
  6
Continuous
100
AcDbSpline
210
0.0
220
0.0
230
1.0
 70
     8
 71
     3
 72
    10
 73
     6
 74
     4
 42
0.0000000001
 43
0.0000000001
 44
0.0000000001
 40
0.0
 40
0.0
 40
0.0
 40
0.0
 40
0.1553994701883044
 40
0.2531902480525845
 40
0.2937917700785878
 40
0.2937917700785878
 40
0.2937917700785878
 40
0.2937917700785878
 10
1194.937513797737
 20
153.9961474880952
 30
0.0
 10
1194.960362970159
 20
154.0425986107978
 30
0.0
 10
1194.997590816731
 20
154.1182807946891
 30
0.0
 10
1195.041817987702
 20
154.2059328872401
 30
0.0
 10
1195.056743950383
 20
154.2496143315956
 30
0.0
 10
1195.061122928137
 20
154.2624295902952
 30
0.0
 11
1194.937513797737
 21
153.9961474880952
 31
0.0
 11
1195.006395532337
 21
154.1354468131952
 31
0.0
 11
1195.047477525837
 21
154.2241897342952
 31
0.0
 11
1195.061122928137
 21
154.2624295902952
 31
0.0
  0
SPLINE
  5
1A06
330
26
100
AcDbEntity
  8
0
  6
Continuous
100
AcDbSpline
210
0.0
220
0.0
230
1.0
 70
     8
 71
     3
 72
    10
 73
     6
 74
     4
 42
0.0000000001
 43
0.0000000001
 44
0.0000000001
 40
0.0
 40
0.0
 40
0.0
 40
0.0
 40
0.3317289872023368
 40
0.6456994506464009
 40
0.9387090155588348
 40
0.9387090155588348
 40
0.9387090155588348
 40
0.9387090155588348
 10
1194.937513797737
 20
137.2858973903952
 30
0.0
 10
1194.96214147549
 20
137.3937224827415
 30
0.0
 10
1195.010078431889
 20
137.6036004420995
 30
0.0
 10
1195.052221329493
 20
137.9143553466735
 30
0.0
 10
1195.058224835131
 20
138.1166867738365
 30
0.0
 10
1195.061122928137
 20
138.2143589222952
 30
0.0
 11
1194.937513797737
 21
137.2858973903952
 31
0.0
 11
1195.006395532337
 21
137.6103961231952
 31
0.0
 11
1195.047477525837
 21
137.9216672617952
 31
0.0
 11
1195.061122928137
 21
138.2143589222952
 31
0.0
  0
SPLINE
  5
1A07
330
26
100
AcDbEntity
  8
0
  6
Continuous
100
AcDbSpline
210
0.0
220
0.0
230
1.0
 70
     8
 71
     3
 72
    10
 73
     6
 74
     4
 42
0.0000000001
 43
0.0000000001
 44
0.0000000001
 40
0.0
 40
0.0
 40
0.0
 40
0.0
 40
0.2548174204530365
 40
0.481106036546886
 40
0.6787003532945353
 40
0.6787003532945353
 40
0.6787003532945353
 40
0.6787003532945353
 10
1195.061122928137
 20
140.3355066109952
 30
0.0
 10
1195.058576260028
 20
140.4203928733089
 30
0.0
 10
1195.053768043233
 20
140.5806617165709
 30
0.0
 10
1195.016785363971
 20
140.8057134638569
 30
0.0
 10
1194.962717634206
 20
140.9366497112403
 30
0.0
 10
1194.937513797737
 20
140.9976860406952
 30
0.0
 11
1195.061122928137
 21
140.3355066109952
 31
0.0
 11
1195.047477525837
 21
140.5899584153952
 31
0.0
 11
1195.006395532337
 21
140.8124866328952
 31
0.0
 11
1194.937513797737
 21
140.9976860406952
 31
0.0
  0
SPLINE
  5
1A08
330
26
100
AcDbEntity
  8
0
  6
Continuous
100
AcDbSpline
210
0.0
220
0.0
230
1.0
 70
     8
 71
     3
 72
    15
 73
    11
 74
     9
 42
0.0000000001
 43
0.0000000001
 44
0.0000000001
 40
0.0
 40
0.0
 40
0.0
 40
0.0
 40
1.85814631369879
 40
3.587445568076253
 40
5.230683577032185
 40
6.829052957312753
 40
8.425712886349153
 40
10.06443588585832
 40
11.78973789470662
 40
13.64579436663769
 40
13.64579436663769
 40
13.64579436663769
 40
13.64579436663769
 10
1210.506124880337
 20
140.9976860406952
 30
0.0
 10
1210.786081962681
 20
141.5507397557589
 30
0.0
 10
1211.326583422067
 20
142.618497490651
 30
0.0
 10
1211.911365419999
 20
144.2665069176677
 30
0.0
 10
1212.273386469172
 20
145.8881655874915
 30
0.0
 10
1212.393552581046
 20
147.5025410202984
 30
0.0
 10
1212.271778241114
 20
149.1152610947094
 30
0.0
 10
1211.909418654638
 20
150.733305609361
 30
0.0
 10
1211.3253952466
 20
152.37779546554
 30
0.0
 10
1210.785782047298
 20
153.4437245497228
 30
0.0
 10
1210.506124879137
 20
153.9961474880952
 30
0.0
 11
1210.506124880337
 21
140.9976860406952
 31
0.0
 11
1211.308589550337
 21
142.6736210562952
 31
0.0
 11
1211.886431315137
 21
144.3035213004952
 31
0.0
 11
1212.236677759537
 21
145.9089989808952
 31
0.0
 11
1212.353591149137
 21
147.5030867874952
 31
0.0
 11
1212.235131490537
 21
149.0953462632952
 31
0.0
 11
1211.884742882637
 21
150.6961713294952
 31
0.0
 11
1211.307781346837
 21
152.3221425493952
 31
0.0
 11
1210.506124879137
 21
153.9961474880952
 31
0.0
  0
SPLINE
  5
1A09
330
26
100
AcDbEntity
  8
0
  6
Continuous
100
AcDbSpline
210
0.0
220
0.0
230
1.0
 70
     8
 71
     3
 72
    11
 73
     7
 74
     5
 42
0.0000000001
 43
0.0000000001
 44
0.0000000001
 40
0.0
 40
0.0
 40
0.0
 40
0.0
 40
0.5302564314728273
 40
1.03640931999135
 40
1.518737041378715
 40
1.985229180540325
 40
1.985229180540325
 40
1.985229180540325
 40
1.985229180540325
 10
1210.506124778937
 20
153.9961474914952
 30
0.0
 10
1210.683643689973
 20
154.0076111525525
 30
0.0
 10
1211.030612143257
 20
154.0300173780236
 30
0.0
 10
1211.526074249946
 20
153.8949771547815
 30
0.0
 10
1211.955780824001
 20
153.64679907661
 30
0.0
 10
1212.145097218921
 20
153.3896780109233
 30
0.0
 10
1212.238175593137
 20
153.2632631233952
 30
0.0
 11
1210.506124778937
 21
153.9961474914952
 31
0.0
 11
1211.036362926437
 21
154.0005509053952
 31
0.0
 11
1211.525839173137
 21
153.8716953642952
 31
0.0
 11
1211.936966541837
 21
153.6194765752952
 31
0.0
 11
1212.238175593137
 21
153.2632631233952
 31
0.0
  0
SPLINE
  5
1A0A
330
26
100
AcDbEntity
  8
0
  6
Continuous
100
AcDbSpline
210
0.0
220
0.0
230
1.0
 70
     8
 71
     3
 72
    16
 73
    12
 74
    10
 42
0.0000000001
 43
0.0000000001
 44
0.0000000001
 40
0.0
 40
0.0
 40
0.0
 40
0.0
 40
1.732213093600062
 40
3.359952238948319
 40
4.910819306964683
 40
6.409161743427577
 40
7.881158803545376
 40
9.354471796568422
 40
10.85931561048896
 40
12.42792839429734
 40
14.09301281793996
 40
14.09301281793996
 40
14.09301281793996
 40
14.09301281793996
 10
1212.238175586237
 20
139.8005561341952
 30
0.0
 10
1212.489481029995
 20
140.3207727145927
 30
0.0
 10
1212.97693508027
 20
141.3298303591182
 30
0.0
 10
1213.527267668192
 20
142.8750510695629
 30
0.0
 10
1213.904111291446
 20
144.3906689869264
 30
0.0
 10
1214.093417476425
 20
145.8897392852033
 30
0.0
 10
1214.093246808309
 20
147.3748995457178
 30
0.0
 10
1213.903821121348
 20
148.8502510843258
 30
0.0
 10
1213.527146550554
 20
150.3213680455709
 30
0.0
 10
1212.977051992649
 20
151.8058834001457
 30
0.0
 10
1212.489317949372
 20
152.7679036387742
 30
0.0
 10
1212.238175586237
 20
153.2632638446952
 30
0.0
 11
1212.238175586237
 21
139.8005561341952
 31
0.0
 11
1212.962610669337
 21
141.3740096644952
 31
0.0
 11
1213.509633253737
 21
142.9070788140952
 31
0.0
 11
1213.877814120637
 21
144.4136084393952
 31
0.0
 11
1214.062844986537
 21
145.9004822186952
 31
0.0
 11
1214.061960525337
 21
147.3724790130952
 31
0.0
 11
1213.875806105637
 21
148.8339843012952
 31
0.0
 11
1213.507934192837
 21
150.2931707732952
 31
0.0
 11
1212.961818018937
 21
151.7636479713952
 31
0.0
 11
1212.238175586237
 21
153.2632638446952
 31
0.0
  0
SPLINE
  5
1A0B
330
26
100
AcDbEntity
  8
0
  6
Continuous
100
AcDbSpline
210
0.0
220
0.0
230
1.0
 70
     8
 71
     3
 72
    11
 73
     7
 74
     5
 42
0.0000000001
 43
0.0000000001
 44
0.0000000001
 40
0.0
 40
0.0
 40
0.0
 40
0.0
 40
0.5477423643103494
 40
1.10195976968387
 40
1.650083108441383
 40
2.181018975299458
 40
2.181018975299458
 40
2.181018975299458
 40
2.181018975299458
 10
1210.506124778937
 20
140.9976860381952
 30
0.0
 10
1210.685859920476
 20
140.9605108765578
 30
0.0
 10
1211.04745491126
 20
140.8857210935774
 30
0.0
 10
1211.534434439096
 20
140.6166303699509
 30
0.0
 10
1211.955363785905
 20
140.2602869658819
 30
0.0
 10
1212.144911373483
 20
139.9521737031661
 30
0.0
 10
1212.238175591237
 20
139.8005709167952
 30
0.0
 11
1210.506124778937
 21
140.9976860381952
 31
0.0
 11
1211.036341785537
 21
140.8602392354952
 31
0.0
 11
1211.525810825237
 21
140.6002834861952
 31
0.0
 11
1211.936945427837
 21
140.2377817164952
 31
0.0
 11
1212.238175591237
 21
139.8005709167952
 31
0.0
  0
SPLINE
  5
1A0C
330
26
100
AcDbEntity
  8
0
  6
Continuous
100
AcDbSpline
210
0.0
220
0.0
230
1.0
 70
     8
 71
     3
 72
    11
 73
     7
 74
     0
 42
0.0000000001
 43
0.0000000001
 40
13.16519666932258
 40
13.16519666932258
 40
13.16519666932258
 40
13.16519666932258
 40
16.35567096635198
 40
19.57532230768941
 40
22.88317230608145
 40
26.33039333578433
 40
26.33039333578433
 40
26.33039333578433
 40
26.33039333578433
 10
1212.353591260137
 20
124.2874359428952
 30
0.0
 10
1212.353591259271
 20
125.3512023629886
 30
0.0
 10
1212.274246361237
 20
127.4884634008464
 30
0.0
 10
1211.916239423735
 20
130.7102580039759
 30
0.0
 10
1211.339224877378
 20
133.9878197580836
 30
0.0
 10
1210.787618471917
 20
136.1715201007343
 30
0.0
 10
1210.506124880937
 20
137.2858973903952
 30
0.0
  0
SPLINE
  5
1A0D
330
26
100
AcDbEntity
  8
0
  6
Continuous
100
AcDbSpline
210
0.0
220
0.0
230
1.0
 70
     8
 71
     3
 72
    12
 73
     8
 74
     0
 42
0.0000000001
 43
0.0000000001
 40
13.62476192005529
 40
13.62476192005529
 40
13.62476192005529
 40
13.62476192005529
 40
15.09869224714855
 40
18.05051167680154
 40
21.03495393607976
 40
24.09010001704184
 40
27.24952362346269
 40
27.24952362346269
 40
27.24952362346269
 40
27.24952362346269
 10
1214.085612126592
 20
124.2874359428952
 30
0.0
 10
1214.085612141619
 20
124.7788264779117
 30
0.0
 10
1214.062324425413
 20
126.2543179045822
 30
0.0
 10
1213.906253266706
 20
128.7211457596149
 30
0.0
 10
1213.532647534043
 20
131.6963878631422
 30
0.0
 10
1212.987573832871
 20
134.7160227807973
 30
0.0
 10
1212.490753803099
 20
136.727519399608
 30
0.0
 10
1212.238175586237
 20
137.7501436875952
 30
0.0
  0
SPLINE
  5
1A0E
330
26
100
AcDbEntity
  8
0
  6
Continuous
100
AcDbSpline
210
0.0
220
0.0
230
1.0
 70
     8
 71
     3
 72
    15
 73
    11
 74
     9
 42
0.0000000001
 43
0.0000000001
 44
0.0000000001
 40
0.0
 40
0.0
 40
0.0
 40
0.0
 40
1.820050273820653
 40
3.528213202247462
 40
5.17083114821492
 40
6.782657774254356
 40
8.394525050583273
 40
10.03723893258326
 40
11.74591186553717
 40
13.56630241284239
 40
13.56630241284239
 40
13.56630241284239
 40
13.56630241284239
 10
1194.937513797737
 20
153.9961474880952
 30
0.0
 10
1194.676987167923
 20
153.4477459557319
 30
0.0
 10
1194.171949747765
 20
152.384655801329
 30
0.0
 10
1193.628256375209
 20
150.7441340377511
 30
0.0
 10
1193.289523123478
 20
149.1208840638901
 30
0.0
 10
1193.176033991885
 20
147.4973992412141
 30
0.0
 10
1193.289389992138
 20
145.8738722242566
 30
0.0
 10
1193.628054603612
 20
144.2503862130865
 30
0.0
 10
1194.171786296883
 20
142.6095402698307
 30
0.0
 10
1194.676940831377
 20
141.5461913997904
 30
0.0
 10
1194.937513797737
 20
140.9976860406952
 30
0.0
 11
1194.937513797737
 21
153.9961474880952
 31
0.0
 11
1194.191608047337
 21
152.3359644828952
 31
0.0
 11
1193.653487173937
 21
150.7147777213952
 31
0.0
 11
1193.324676692437
 21
149.1054059856952
 31
0.0
 11
1193.213602077237
 21
147.4974111155952
 31
0.0
 11
1193.324547501037
 21
145.8893665796952
 31
0.0
 11
1193.653265508437
 21
144.2798780367952
 31
0.0
 11
1194.191483662937
 21
142.6581862010952
 31
0.0
 11
1194.937513797737
 21
140.9976860406952
 31
0.0
  0
SPLINE
  5
1A0F
330
26
100
AcDbEntity
  8
0
  6
Continuous
100
AcDbSpline
210
0.0
220
0.0
230
1.0
 70
     8
 71
     3
 72
    12
 73
     8
 74
     0
 42
0.0000000001
 43
0.0000000001
 40
0.0
 40
0.0
 40
0.0
 40
0.0
 40
3.403117075785013
 40
6.689841910083075
 40
9.925336596845543
 40
13.14324392602914
 40
13.14423240278458
 40
13.14423240278458
 40
13.14423240278458
 40
13.14423240278458
 10
1194.937513797737
 20
137.2858973903952
 30
0.0
 10
1194.675744766955
 20
136.1818569129132
 30
0.0
 10
1194.161159639882
 20
134.0115359711971
 30
0.0
 10
1193.623600151344
 20
130.7442857409699
 30
0.0
 10
1193.288147037231
 20
127.5129290004087
 30
0.0
 10
1193.21361351318
 20
125.3609758188319
 30
0.0
 10
1193.213602066703
 20
124.2877655103952
 30
0.0
 10
1193.213602066691
 20
124.2874359428952
 30
0.0
  0
ARC
  5
1A36
330
26
100
AcDbEntity
  8
0
  6
Continuous
100
AcDbCircle
 10
1192.628732141737
 20
147.8874359428952
 30
0.0
 40
0.4
100
AcDbArc
 50
90.0
 51
135.0000000093984
  0
ARC
  5
1A37
330
26
100
AcDbEntity
  8
0
  6
Continuous
100
AcDbCircle
 10
1165.897361291837
 20
147.8874359428952
 30
0.0
 40
0.4
100
AcDbArc
 50
44.9999973810002
 51
89.99999993720068
  0
ARC
  5
1A38
330
26
100
AcDbEntity
  8
0
  6
Continuous
100
AcDbCircle
 10
1171.263046716837
 20
147.0874359428952
 30
0.0
 40
1.0
100
AcDbArc
 50
270.0
 51
359.9999996269007
  0
ARC
  5
1A39
330
26
100
AcDbEntity
  8
0
  6
Continuous
100
AcDbCircle
 10
1168.677260279137
 20
147.0874359428952
 30
0.0
 40
1.0
100
AcDbArc
 50
225.0000004327
 51
270.0
  0
ARC
  5
1A3A
330
26
100
AcDbEntity
  8
0
  6
Continuous
100
AcDbCircle
 10
1189.848833154437
 20
147.0874359428952
 30
0.0
 40
1.0
100
AcDbArc
 50
270.000000021502
 51
314.9999996527015
  0
ARC
  5
1A3B
330
26
100
AcDbEntity
  8
0
  6
Continuous
100
AcDbCircle
 10
1187.263046716837
 20
147.0874359428952
 30
0.0
 40
1.0
100
AcDbArc
 50
180.0000044178
 51
270.0
  0
ARC
  5
1A3C
330
26
100
AcDbEntity
  8
0
  6
Continuous
100
AcDbCircle
 10
1141.601166501437
 20
147.2874359428952
 30
0.0
 40
1.0
100
AcDbArc
 50
90.0
 51
180.0
  0
ARC
  5
1A3D
330
26
100
AcDbEntity
  8
0
  6
Continuous
100
AcDbCircle
 10
1141.669115693837
 20
151.2874359428952
 30
0.0
 40
3.0
100
AcDbArc
 50
270.0
 51
329.9999999999995
  0
ARC
  5
1A3E
330
26
100
AcDbEntity
  8
0
  6
Continuous
100
AcDbCircle
 10
1165.201166501437
 20
150.4802562659952
 30
0.0
 40
0.4
100
AcDbArc
 50
0.0
 51
29.99999999510007
  0
ARC
  5
1A3F
330
26
100
AcDbEntity
  8
0
  6
Continuous
100
AcDbCircle
 10
1148.019968654937
 20
152.2874359428952
 30
0.0
 40
2.0
100
AcDbArc
 50
90.0
 51
149.9999999999987
  0
ARC
  5
1A40
330
26
100
AcDbEntity
  8
0
  6
Continuous
100
AcDbCircle
 10
1216.924926932137
 20
147.2874359428952
 30
0.0
 40
1.0
100
AcDbArc
 50
0.0
 51
90.0
  0
ARC
  5
1A41
330
26
100
AcDbEntity
  8
0
  6
Continuous
100
AcDbCircle
 10
1216.856977739737
 20
151.2874359428952
 30
0.0
 40
3.0
100
AcDbArc
 50
210.0000000000012
 51
270.0
  0
ARC
  5
1A42
330
26
100
AcDbEntity
  8
0
  6
Continuous
100
AcDbCircle
 10
1193.324926932137
 20
150.4802562659952
 30
0.0
 40
0.4
100
AcDbArc
 50
150.0000000026988
 51
180.0
  0
ARC
  5
1A43
330
26
100
AcDbEntity
  8
0
  6
Continuous
100
AcDbCircle
 10
1210.506124778637
 20
152.2874359428952
 30
0.0
 40
2.0
100
AcDbArc
 50
30.00000000000125
 51
90.0
  0
LINE
  5
1AB3
330
26
100
AcDbEntity
  8
0
  6
CENTER
100
AcDbLine
 10
1226.853174013501
 20
124.2874359428952
 30
0.0
 11
1131.984516667743
 21
124.2874359428952
 31
0.0
  0
LINE
  5
1B4E
330
26
100
AcDbEntity
  8
0
  6
Continuous
100
AcDbLine
 10
1214.258901528337
 20
149.7874359428952
 30
0.0
 11
1212.238175586237
 21
153.2874359428952
 31
0.0
  0
LINE
  5
1B4F
330
26
100
AcDbEntity
  8
0
  6
Continuous
100
AcDbLine
 10
1217.924926932137
 20
147.2874359428952
 30
0.0
 11
1217.924926932137
 21
124.2874359428952
 31
0.0
  0
LINE
  5
1B50
330
26
100
AcDbEntity
  8
0
  6
Continuous
100
AcDbLine
 10
1216.924926932137
 20
148.2874359428952
 30
0.0
 11
1216.924926932137
 21
124.2874359428952
 31
0.0
  0
LINE
  5
1B51
330
26
100
AcDbEntity
  8
0
  6
Continuous
100
AcDbLine
 10
1216.856977739737
 20
124.2874359428952
 30
0.0
 11
1216.856977739737
 21
148.2874359428952
 31
0.0
  0
LWPOLYLINE
  5
1B52
330
26
100
AcDbEntity
  8
0
  6
Continuous
100
AcDbPolyline
 90
        5
 70
     0
 43
0.0
 10
1210.506124778637
 20
154.2624295902952
 10
1211.023865259537
 20
154.1943106305952
 10
1211.506334216837
 20
153.9945829139952
 10
1211.920571431437
 20
153.6768984876952
 10
1212.238175586237
 20
153.2632631353952
  0
LWPOLYLINE
  5
1B53
330
26
100
AcDbEntity
  8
0
  6
Continuous
100
AcDbPolyline
 90
        5
 70
     0
 43
0.0
 10
1148.019968654937
 20
154.2624295902952
 10
1147.502228174137
 20
154.1943106305952
 10
1147.019759216737
 20
153.9945829139952
 10
1146.605522002137
 20
153.6768984876952
 10
1146.287917847437
 20
153.2632631353952
  0
LINE
  5
1B54
330
26
100
AcDbEntity
  8
0
  6
Continuous
100
AcDbLine
 10
1214.258901528337
 20
124.2874359428952
 30
0.0
 11
1214.258901528337
 21
149.7874359428952
 31
0.0
  0
LINE
  5
1B55
330
26
100
AcDbEntity
  8
0
  6
Continuous
100
AcDbLine
 10
1195.061122928137
 20
154.2874359428952
 30
0.0
 11
1210.506124778637
 21
154.2874359428952
 31
0.0
  0
LINE
  5
1B56
330
26
100
AcDbEntity
  8
0
  6
Continuous
100
AcDbLine
 10
1163.464970505437
 20
154.2874359428952
 30
0.0
 11
1148.019968654937
 21
154.2874359428952
 31
0.0
  0
LINE
  5
1B57
330
26
100
AcDbEntity
  8
0
  6
Continuous
100
AcDbLine
 10
1163.464970505437
 20
154.2624295902952
 30
0.0
 11
1148.019968654937
 21
154.2624295902952
 31
0.0
  0
LINE
  5
1B58
330
26
100
AcDbEntity
  8
0
  6
Continuous
100
AcDbLine
 10
1210.506124778637
 20
154.2624295902952
 30
0.0
 11
1195.061122928137
 21
154.2624295902952
 31
0.0
  0
LINE
  5
1B59
330
26
100
AcDbEntity
  8
0
  6
Continuous
100
AcDbLine
 10
1212.238175586237
 20
153.2632638446952
 30
0.0
 11
1212.238175586237
 21
153.2874359428952
 31
0.0
  0
LINE
  5
1B5A
330
26
100
AcDbEntity
  8
0
  6
Continuous
100
AcDbLine
 10
1212.238175586237
 20
137.7501436875952
 30
0.0
 11
1212.238175586237
 21
139.8005561341952
 31
0.0
  0
LINE
  5
1B5B
330
26
100
AcDbEntity
  8
0
  6
Continuous
100
AcDbLine
 10
1210.506124778637
 20
153.9961474880952
 30
0.0
 11
1210.506124778637
 21
154.2874359428952
 31
0.0
  0
LINE
  5
1B5C
330
26
100
AcDbEntity
  8
0
  6
Continuous
100
AcDbLine
 10
1210.506124778637
 20
137.2858973903952
 30
0.0
 11
1210.506124778637
 21
140.9976860406952
 31
0.0
  0
LINE
  5
1B5D
330
26
100
AcDbEntity
  8
0
  6
Continuous
100
AcDbLine
 10
1163.588579635837
 20
153.9961474880952
 30
0.0
 11
1148.019968554437
 21
153.9961474880952
 31
0.0
  0
LINE
  5
1B5E
330
26
100
AcDbEntity
  8
0
  6
Continuous
100
AcDbLine
 10
1210.506124879137
 20
153.9961474880952
 30
0.0
 11
1194.937513797737
 21
153.9961474880952
 31
0.0
  0
LINE
  5
1B5F
330
26
100
AcDbEntity
  8
0
  6
Continuous
100
AcDbLine
 10
1172.263046716837
 20
151.2874359428952
 30
0.0
 11
1186.263046716837
 21
151.2874359428952
 31
0.0
  0
LINE
  5
1B60
330
26
100
AcDbEntity
  8
0
  6
Continuous
100
AcDbLine
 10
1186.263046716837
 20
151.1500131827952
 30
0.0
 11
1172.263046716837
 21
151.1500131827952
 31
0.0
  0
LINE
  5
1B61
330
26
100
AcDbEntity
  8
0
  6
Continuous
100
AcDbLine
 10
1186.263046716837
 20
150.8922434540952
 30
0.0
 11
1172.263046716837
 21
150.8922434540952
 31
0.0
  0
LINE
  5
1B62
330
26
100
AcDbEntity
  8
0
  6
Continuous
100
AcDbLine
 10
1192.628732141737
 20
148.2874359428952
 30
0.0
 11
1192.924926932137
 21
148.2874359428952
 31
0.0
  0
LINE
  5
1B63
330
26
100
AcDbEntity
  8
0
  6
Continuous
100
AcDbLine
 10
1165.601166501437
 20
148.2874359428952
 30
0.0
 11
1165.897361292337
 21
148.2874359428952
 31
0.0
  0
LINE
  5
1B64
330
26
100
AcDbEntity
  8
0
  6
Continuous
100
AcDbLine
 10
1141.601166501437
 20
148.2874359428952
 30
0.0
 11
1141.669115693837
 21
148.2874359428952
 31
0.0
  0
LINE
  5
1B65
330
26
100
AcDbEntity
  8
0
  6
Continuous
100
AcDbLine
 10
1216.924926932137
 20
148.2874359428952
 30
0.0
 11
1216.856977739737
 21
148.2874359428952
 31
0.0
  0
LINE
  5
1B66
330
26
100
AcDbEntity
  8
0
  6
Continuous
100
AcDbLine
 10
1165.601166501437
 20
146.5874359428952
 30
0.0
 11
1167.763046716837
 21
146.5874359428952
 31
0.0
  0
LINE
  5
1B67
330
26
100
AcDbEntity
  8
0
  6
Continuous
100
AcDbLine
 10
1192.924926932137
 20
146.5874359428952
 30
0.0
 11
1190.763046716837
 21
146.5874359428952
 31
0.0
  0
LINE
  5
1B68
330
26
100
AcDbEntity
  8
0
  6
Continuous
100
AcDbLine
 10
1187.263046716837
 20
146.0874359428952
 30
0.0
 11
1189.848833154837
 21
146.0874359428952
 31
0.0
  0
LINE
  5
1B69
330
26
100
AcDbEntity
  8
0
  6
Continuous
100
AcDbLine
 10
1168.677260279137
 20
146.0874359428952
 30
0.0
 11
1171.263046716837
 21
146.0874359428952
 31
0.0
  0
LWPOLYLINE
  5
1B6A
330
26
100
AcDbEntity
  8
0
  6
Continuous
100
AcDbPolyline
 90
        5
 70
     0
 43
0.0
 10
1210.506124778637
 20
140.3355066109952
 10
1211.023865259537
 20
140.2990369813952
 10
1211.506334216837
 20
140.1921062569952
 10
1211.920571431437
 20
140.0220240339952
 10
1212.238175586237
 20
139.8005709219952
  0
LWPOLYLINE
  5
1B6B
330
26
100
AcDbEntity
  8
0
  6
Continuous
100
AcDbPolyline
 90
        5
 70
     0
 43
0.0
 10
1148.019968654937
 20
140.3355066109952
 10
1147.502330564737
 20
140.2990516277952
 10
1147.019968654937
 20
140.1921710250952
 10
1146.605755092637
 20
140.0221485393952
 10
1146.287917847437
 20
139.8005709219952
  0
LWPOLYLINE
  5
1B6C
330
26
100
AcDbEntity
  8
0
  6
Continuous
100
AcDbPolyline
 90
        5
 70
     0
 43
0.0
 10
1210.506124778637
 20
138.2143589222952
 10
1211.023762868837
 20
138.1827223627952
 10
1211.506124778637
 20
138.0899686634952
 10
1211.920338341037
 20
137.9424188356952
 10
1212.238175586237
 20
137.7501281562952
  0
LINE
  5
1B6D
330
26
100
AcDbEntity
  8
0
  6
Continuous
100
AcDbLine
 10
1194.937513797737
 20
140.9976860406952
 30
0.0
 11
1210.506124880337
 21
140.9976860406952
 31
0.0
  0
LINE
  5
1B6E
330
26
100
AcDbEntity
  8
0
  6
Continuous
100
AcDbLine
 10
1148.019968553337
 20
140.9976860406952
 30
0.0
 11
1163.588579635837
 21
140.9976860406952
 31
0.0
  0
LINE
  5
1B6F
330
26
100
AcDbEntity
  8
0
  6
Continuous
100
AcDbLine
 10
1172.263046716837
 20
140.6374884594952
 30
0.0
 11
1186.263046716837
 21
140.6374884594952
 31
0.0
  0
LINE
  5
1B70
330
26
100
AcDbEntity
  8
0
  6
Continuous
100
AcDbLine
 10
1195.061122928137
 20
140.3355066109952
 30
0.0
 11
1210.506124778637
 21
140.3355066109952
 31
0.0
  0
LINE
  5
1B71
330
26
100
AcDbEntity
  8
0
  6
Continuous
100
AcDbLine
 10
1148.019968654937
 20
140.3355066109952
 30
0.0
 11
1163.464970505437
 21
140.3355066109952
 31
0.0
  0
LINE
  5
1B72
330
26
100
AcDbEntity
  8
0
  6
Continuous
100
AcDbLine
 10
1172.263046716837
 20
140.0748777885952
 30
0.0
 11
1186.263046716837
 21
140.0748777885952
 31
0.0
  0
LINE
  5
1B73
330
26
100
AcDbEntity
  8
0
  6
Continuous
100
AcDbLine
 10
1163.464970505437
 20
138.2143589222952
 30
0.0
 11
1148.019968654937
 21
138.2143589222952
 31
0.0
  0
LINE
  5
1B74
330
26
100
AcDbEntity
  8
0
  6
Continuous
100
AcDbLine
 10
1210.506124778637
 20
138.2143589222952
 30
0.0
 11
1195.061122928137
 21
138.2143589222952
 31
0.0
  0
LWPOLYLINE
  5
1B75
330
26
100
AcDbEntity
  8
0
  6
Continuous
100
AcDbPolyline
 90
        5
 70
     0
 43
0.0
 10
1148.019968654937
 20
138.2143589222952
 10
1147.502228174137
 20
138.1827095921952
 10
1147.019759216737
 20
138.0899125998952
 10
1146.605522002137
 20
137.9423103966952
 10
1146.287917847437
 20
137.7501281562952
  0
LINE
  5
1B76
330
26
100
AcDbEntity
  8
0
  6
Continuous
100
AcDbLine
 10
1195.061122928137
 20
154.2624295902952
 30
0.0
 11
1195.061122928137
 21
154.2874359428952
 31
0.0
  0
LINE
  5
1B77
330
26
100
AcDbEntity
  8
0
  6
Continuous
100
AcDbLine
 10
1195.061122928137
 20
138.2143589222952
 30
0.0
 11
1195.061122928137
 21
140.3355066109952
 31
0.0
  0
LINE
  5
1B78
330
26
100
AcDbEntity
  8
0
  6
Continuous
100
AcDbLine
 10
1192.978516770637
 20
124.2874359428952
 30
0.0
 11
1192.978516770637
 21
150.6802562659952
 31
0.0
  0
LINE
  5
1B79
330
26
100
AcDbEntity
  8
0
  6
Continuous
100
AcDbLine
 10
1192.924926932137
 20
124.2874359428952
 30
0.0
 11
1192.924926932137
 21
150.4802562659952
 31
0.0
  0
LINE
  5
1B7A
330
26
100
AcDbEntity
  8
0
  6
Continuous
100
AcDbLine
 10
1163.588579635837
 20
137.2858973903952
 30
0.0
 11
1148.019968552637
 21
137.2858973903952
 31
0.0
  0
LINE
  5
1B7B
330
26
100
AcDbEntity
  8
0
  6
Continuous
100
AcDbLine
 10
1210.506124880937
 20
137.2858973903952
 30
0.0
 11
1194.937513797737
 21
137.2858973903952
 31
0.0
  0
LINE
  5
1B7C
330
26
100
AcDbEntity
  8
0
  6
Continuous
100
AcDbLine
 10
1186.263046716837
 20
135.3625713370952
 30
0.0
 11
1172.263046716837
 21
135.3625713370952
 31
0.0
  0
LINE
  5
1B7D
330
26
100
AcDbEntity
  8
0
  6
Continuous
100
AcDbLine
 10
1186.263046716837
 20
134.5421909375952
 30
0.0
 11
1172.263046716837
 21
134.5421909375952
 31
0.0
  0
LINE
  5
1B7E
330
26
100
AcDbEntity
  8
0
  6
Continuous
100
AcDbLine
 10
1192.628732141737
 20
124.2874359428952
 30
0.0
 11
1192.628732141737
 21
148.2874359428952
 31
0.0
  0
LINE
  5
1B7F
330
26
100
AcDbEntity
  8
0
  6
Continuous
100
AcDbLine
 10
1192.345889429237
 20
124.2874359428952
 30
0.0
 11
1192.345889429237
 21
148.1702786553952
 31
0.0
  0
LINE
  5
1B80
330
26
100
AcDbEntity
  8
0
  6
Continuous
100
AcDbLine
 10
1190.763045190937
 20
124.2874359428952
 30
0.0
 11
1190.763045190937
 21
146.5874351799952
 31
0.0
  0
LINE
  5
1B81
330
26
100
AcDbEntity
  8
0
  6
Continuous
100
AcDbLine
 10
1190.555939930537
 20
146.3803291566953
 30
0.0
 11
1190.555939930537
 21
124.2874359428952
 31
0.0
  0
LINE
  5
1B82
330
26
100
AcDbEntity
  8
0
  6
Continuous
100
AcDbLine
 10
1189.848833154837
 20
146.0874359428952
 30
0.0
 11
1189.848833154837
 21
124.2874359428952
 31
0.0
  0
LINE
  5
1B83
330
26
100
AcDbEntity
  8
0
  6
Continuous
100
AcDbLine
 10
1166.180204017237
 20
148.1702786424952
 30
0.0
 11
1167.970153503337
 21
146.3803291563952
 31
0.0
  0
LINE
  5
1B84
330
26
100
AcDbEntity
  8
0
  6
Continuous
100
AcDbLine
 10
1187.263046716837
 20
146.0874359428952
 30
0.0
 11
1187.263046716837
 21
124.2874359428952
 31
0.0
  0
LINE
  5
1B85
330
26
100
AcDbEntity
  8
0
  6
Continuous
100
AcDbLine
 10
1186.263046716837
 20
124.2874359428952
 30
0.0
 11
1186.263046716837
 21
151.2874359428952
 31
0.0
  0
LINE
  5
1B86
330
26
100
AcDbEntity
  8
0
  6
Continuous
100
AcDbLine
 10
1148.019968654637
 20
137.2858973967952
 30
0.0
 11
1146.287917840837
 21
137.7501281516952
 31
0.0
  0
LINE
  5
1B87
330
26
100
AcDbEntity
  8
0
  6
Continuous
100
AcDbLine
 10
1210.506124778837
 20
137.2858973951952
 30
0.0
 11
1212.238175591237
 21
137.7501281522952
 31
0.0
  0
LINE
  5
1B88
330
26
100
AcDbEntity
  8
0
  6
Continuous
100
AcDbLine
 10
1163.464970505437
 20
154.2874359428952
 30
0.0
 11
1165.547576662937
 21
150.6802562659952
 31
0.0
  0
LINE
  5
1B8A
330
26
100
AcDbEntity
  8
0
  6
Continuous
100
AcDbLine
 10
1195.050294859837
 20
154.2686811784952
 30
0.0
 11
1192.978516770637
 21
150.6802562659952
 31
0.0
  0
LINE
  5
1B8B
330
26
100
AcDbEntity
  8
0
  6
Continuous
100
AcDbLine
 10
1190.555939931337
 20
146.3803291574952
 30
0.0
 11
1192.345889429237
 21
148.1702786553952
 31
0.0
  0
LINE
  5
1B8C
330
26
100
AcDbEntity
  8
0
  6
Continuous
100
AcDbLine
 10
1172.263046716837
 20
124.2874359428952
 30
0.0
 11
1172.263046716837
 21
151.2874359428952
 31
0.0
  0
LINE
  5
1B8D
330
26
100
AcDbEntity
  8
0
  6
Continuous
100
AcDbLine
 10
1171.263046716837
 20
146.0874359428952
 30
0.0
 11
1171.263046716837
 21
124.2874359428952
 31
0.0
  0
LINE
  5
1B8E
330
26
100
AcDbEntity
  8
0
  6
Continuous
100
AcDbLine
 10
1168.677260279137
 20
146.0874359428952
 30
0.0
 11
1168.677260279137
 21
124.2874359428952
 31
0.0
  0
LINE
  5
1B8F
330
26
100
AcDbEntity
  8
0
  6
Continuous
100
AcDbLine
 10
1167.970153504137
 20
146.3803291555952
 30
0.0
 11
1167.970153504136
 21
124.2874359428952
 31
0.0
  0
LINE
  5
1B90
330
26
100
AcDbEntity
  8
0
  6
Continuous
100
AcDbLine
 10
1167.763047098237
 20
146.5874351799952
 30
0.0
 11
1167.763047098237
 21
124.2874359428952
 31
0.0
  0
LINE
  5
1B91
330
26
100
AcDbEntity
  8
0
  6
Continuous
100
AcDbLine
 10
1166.180204016837
 20
124.2874359428952
 30
0.0
 11
1166.180204016837
 21
148.1702786428952
 31
0.0
  0
LINE
  5
1B92
330
26
100
AcDbEntity
  8
0
  6
Continuous
100
AcDbLine
 10
1165.897361292237
 20
124.2874359428952
 30
0.0
 11
1165.897361292237
 21
148.2874359428952
 31
0.0
  0
LINE
  5
1B93
330
26
100
AcDbEntity
  8
0
  6
Continuous
100
AcDbLine
 10
1165.601166501437
 20
150.4802562659952
 30
0.0
 11
1165.601166501437
 21
124.2874359428952
 31
0.0
  0
LINE
  5
1B94
330
26
100
AcDbEntity
  8
0
  6
Continuous
100
AcDbLine
 10
1165.547576662937
 20
150.6802562659952
 30
0.0
 11
1165.547576662937
 21
124.2874359428952
 31
0.0
  0
LINE
  5
1B95
330
26
100
AcDbEntity
  8
0
  6
Continuous
100
AcDbLine
 10
1163.464970505437
 20
140.3355066109952
 30
0.0
 11
1163.464970505437
 21
138.2143589222952
 31
0.0
  0
LINE
  5
1B96
330
26
100
AcDbEntity
  8
0
  6
Continuous
100
AcDbLine
 10
1163.464970505437
 20
154.2874359428952
 30
0.0
 11
1163.464970505437
 21
154.2624295902952
 31
0.0
  0
LINE
  5
1B97
330
26
100
AcDbEntity
  8
0
  6
Continuous
100
AcDbLine
 10
1148.019968654937
 20
140.9976860406952
 30
0.0
 11
1148.019968654937
 21
137.2858973903952
 31
0.0
  0
LINE
  5
1B98
330
26
100
AcDbEntity
  8
0
  6
Continuous
100
AcDbLine
 10
1148.019968654937
 20
154.2874359428952
 30
0.0
 11
1148.019968654937
 21
153.9961474880952
 31
0.0
  0
LINE
  5
1B99
330
26
100
AcDbEntity
  8
0
  6
Continuous
100
AcDbLine
 10
1146.287917847437
 20
139.8005561328952
 30
0.0
 11
1146.287917847437
 21
137.7501436879952
 31
0.0
  0
LINE
  5
1B9A
330
26
100
AcDbEntity
  8
0
  6
Continuous
100
AcDbLine
 10
1146.287917847437
 20
153.2874359428952
 30
0.0
 11
1146.287917847437
 21
153.2632638445952
 31
0.0
  0
LINE
  5
1B9B
330
26
100
AcDbEntity
  8
0
  6
Continuous
100
AcDbLine
 10
1144.267191905237
 20
149.7874359428952
 30
0.0
 11
1144.267191905237
 21
124.2874359428952
 31
0.0
  0
LINE
  5
1B9C
330
26
100
AcDbEntity
  8
0
  6
Continuous
100
AcDbLine
 10
1141.669115693837
 20
148.2874359428952
 30
0.0
 11
1141.669115693837
 21
124.2874359428952
 31
0.0
  0
LINE
  5
1B9D
330
26
100
AcDbEntity
  8
0
  6
Continuous
100
AcDbLine
 10
1141.601166501437
 20
124.2874359428952
 30
0.0
 11
1141.601166501437
 21
148.2874359428952
 31
0.0
  0
LINE
  5
1B9E
330
26
100
AcDbEntity
  8
0
  6
Continuous
100
AcDbLine
 10
1140.601166501437
 20
147.2874359428952
 30
0.0
 11
1140.601166501437
 21
124.2874359428952
 31
0.0
  0
LINE
  5
1B9F
330
26
100
AcDbEntity
  8
0
  6
Continuous
100
AcDbLine
 10
1144.267191905237
 20
149.7874359428952
 30
0.0
 11
1146.287917847437
 21
153.2874359428952
 31
0.0
  0
LEADER
  5
3C1A
330
26
100
AcDbEntity
  8
0
  6
Continuous
100
AcDbLeader
  3
dimensionali
 76
     3
 10
4742.343203675238
 20
155.8380403142116
 30
0.0
 10
4757.902017335047
 20
136.8901693944412
 30
0.0
 10
4783.479369618905
 20
136.7947445882755
 30
0.0
  0
TEXT
  5
3C1B
330
26
100
AcDbEntity
  8
0
100
AcDbText
 10
4784.238716156438
 20
235.8641573906574
 30
0.0
 40
8.0
  1
Ex'
100
AcDbText
  0
LINE
  5
5EFD
330
26
100
AcDbEntity
  8
0
  6
Continuous
100
AcDbLine
 10
1144.267191905237
 20
98.78743594289524
 30
0.0
 11
1146.287917847437
 21
95.28743594289522
 31
0.0
  0
LINE
  5
5EFE
330
26
100
AcDbEntity
  8
0
  6
Continuous
100
AcDbLine
 10
1140.601166501437
 20
101.2874359428952
 30
0.0
 11
1140.601166501437
 21
124.2874359428952
 31
0.0
  0
LINE
  5
5EFF
330
26
100
AcDbEntity
  8
0
  6
Continuous
100
AcDbLine
 10
1141.601166501437
 20
124.2874359428952
 30
0.0
 11
1141.601166501437
 21
100.2874359428952
 31
0.0
  0
LINE
  5
5F00
330
26
100
AcDbEntity
  8
0
  6
Continuous
100
AcDbLine
 10
1141.669115693837
 20
100.2874359428952
 30
0.0
 11
1141.669115693837
 21
124.2874359428952
 31
0.0
  0
LINE
  5
5F01
330
26
100
AcDbEntity
  8
0
  6
Continuous
100
AcDbLine
 10
1144.267191905237
 20
98.78743594289524
 30
0.0
 11
1144.267191905237
 21
124.2874359428952
 31
0.0
  0
LINE
  5
5F02
330
26
100
AcDbEntity
  8
0
  6
Continuous
100
AcDbLine
 10
1146.287917847437
 20
95.28743594289522
 30
0.0
 11
1146.287917847437
 21
95.31160804119521
 31
0.0
  0
LINE
  5
5F03
330
26
100
AcDbEntity
  8
0
  6
Continuous
100
AcDbLine
 10
1146.287917847437
 20
108.7743157528952
 30
0.0
 11
1146.287917847437
 21
110.8247281977952
 31
0.0
  0
LINE
  5
5F04
330
26
100
AcDbEntity
  8
0
  6
Continuous
100
AcDbLine
 10
1148.019968654937
 20
94.28743594289523
 30
0.0
 11
1148.019968654937
 21
94.57872439769523
 31
0.0
  0
LINE
  5
5F05
330
26
100
AcDbEntity
  8
0
  6
Continuous
100
AcDbLine
 10
1148.019968654937
 20
107.5771858450952
 30
0.0
 11
1148.019968654937
 21
111.2889744953952
 31
0.0
  0
LINE
  5
5F06
330
26
100
AcDbEntity
  8
0
  6
Continuous
100
AcDbLine
 10
1163.464970505437
 20
94.28743594289523
 30
0.0
 11
1163.464970505437
 21
94.3124422954952
 31
0.0
  0
LINE
  5
5F07
330
26
100
AcDbEntity
  8
0
  6
Continuous
100
AcDbLine
 10
1163.464970505437
 20
108.2393652747952
 30
0.0
 11
1163.464970505437
 21
110.3605129634952
 31
0.0
  0
LINE
  5
5F08
330
26
100
AcDbEntity
  8
0
  6
Continuous
100
AcDbLine
 10
1165.547576662937
 20
97.8946156197952
 30
0.0
 11
1165.547576662937
 21
124.2874359428952
 31
0.0
  0
LINE
  5
5F09
330
26
100
AcDbEntity
  8
0
  6
Continuous
100
AcDbLine
 10
1165.601166501437
 20
98.09461561979521
 30
0.0
 11
1165.601166501437
 21
124.2874359428952
 31
0.0
  0
LINE
  5
5F0A
330
26
100
AcDbEntity
  8
0
  6
Continuous
100
AcDbLine
 10
1165.897361292237
 20
124.2874359428952
 30
0.0
 11
1165.897361292237
 21
100.2874359428952
 31
0.0
  0
LINE
  5
5F0B
330
26
100
AcDbEntity
  8
0
  6
Continuous
100
AcDbLine
 10
1166.180204016837
 20
124.2874359428952
 30
0.0
 11
1166.180204016837
 21
100.4045932428952
 31
0.0
  0
LINE
  5
5F0C
330
26
100
AcDbEntity
  8
0
  6
Continuous
100
AcDbLine
 10
1167.763047098237
 20
101.9874367057952
 30
0.0
 11
1167.763047098237
 21
124.2874359428952
 31
0.0
  0
LINE
  5
5F0D
330
26
100
AcDbEntity
  8
0
  6
Continuous
100
AcDbLine
 10
1167.970153504137
 20
102.1945427301952
 30
0.0
 11
1167.970153504136
 21
124.2874359428952
 31
0.0
  0
LINE
  5
5F0E
330
26
100
AcDbEntity
  8
0
  6
Continuous
100
AcDbLine
 10
1168.677260279137
 20
102.4874359428952
 30
0.0
 11
1168.677260279137
 21
124.2874359428952
 31
0.0
  0
LINE
  5
5F0F
330
26
100
AcDbEntity
  8
0
  6
Continuous
100
AcDbLine
 10
1171.263046716837
 20
102.4874359428952
 30
0.0
 11
1171.263046716837
 21
124.2874359428952
 31
0.0
  0
LINE
  5
5F10
330
26
100
AcDbEntity
  8
0
  6
Continuous
100
AcDbLine
 10
1172.263046716837
 20
124.2874359428952
 30
0.0
 11
1172.263046716837
 21
97.28743594289523
 31
0.0
  0
LINE
  5
5F11
330
26
100
AcDbEntity
  8
0
  6
Continuous
100
AcDbLine
 10
1190.555939931337
 20
102.1945427282952
 30
0.0
 11
1192.345889429237
 21
100.4045932303952
 31
0.0
  0
LINE
  5
5F12
330
26
100
AcDbEntity
  8
0
  6
Continuous
100
AcDbLine
 10
1195.050294859837
 20
94.30619070729523
 30
0.0
 11
1192.978516770637
 21
97.8946156197952
 31
0.0
  0
LINE
  5
5F13
330
26
100
AcDbEntity
  8
0
  6
Continuous
100
AcDbLine
 10
1163.464970505437
 20
94.28743594289523
 30
0.0
 11
1165.547576662937
 21
97.8946156197952
 31
0.0
  0
LINE
  5
5F14
330
26
100
AcDbEntity
  8
0
  6
Continuous
100
AcDbLine
 10
1210.506124778837
 20
111.2889744905952
 30
0.0
 11
1212.238175591237
 21
110.8247437334952
 31
0.0
  0
LINE
  5
5F15
330
26
100
AcDbEntity
  8
0
  6
Continuous
100
AcDbLine
 10
1148.019968654637
 20
111.2889744889952
 30
0.0
 11
1146.287917840837
 21
110.8247437340952
 31
0.0
  0
LINE
  5
5F16
330
26
100
AcDbEntity
  8
0
  6
Continuous
100
AcDbLine
 10
1186.263046716837
 20
124.2874359428952
 30
0.0
 11
1186.263046716837
 21
97.28743594289523
 31
0.0
  0
LINE
  5
5F17
330
26
100
AcDbEntity
  8
0
  6
Continuous
100
AcDbLine
 10
1187.263046716837
 20
102.4874359428952
 30
0.0
 11
1187.263046716837
 21
124.2874359428952
 31
0.0
  0
LINE
  5
5F18
330
26
100
AcDbEntity
  8
0
  6
Continuous
100
AcDbLine
 10
1166.180204017237
 20
100.4045932432952
 30
0.0
 11
1167.970153503337
 21
102.1945427293952
 31
0.0
  0
LINE
  5
5F19
330
26
100
AcDbEntity
  8
0
  6
Continuous
100
AcDbLine
 10
1189.848833154837
 20
102.4874359428952
 30
0.0
 11
1189.848833154837
 21
124.2874359428952
 31
0.0
  0
LINE
  5
5F1A
330
26
100
AcDbEntity
  8
0
  6
Continuous
100
AcDbLine
 10
1190.555939930537
 20
102.1945427290952
 30
0.0
 11
1190.555939930537
 21
124.2874359428952
 31
0.0
  0
LINE
  5
5F1B
330
26
100
AcDbEntity
  8
0
  6
Continuous
100
AcDbLine
 10
1190.763045190937
 20
124.2874359428952
 30
0.0
 11
1190.763045190937
 21
101.9874367057952
 31
0.0
  0
LINE
  5
5F1C
330
26
100
AcDbEntity
  8
0
  6
Continuous
100
AcDbLine
 10
1192.345889429237
 20
124.2874359428952
 30
0.0
 11
1192.345889429237
 21
100.4045932303952
 31
0.0
  0
LINE
  5
5F1D
330
26
100
AcDbEntity
  8
0
  6
Continuous
100
AcDbLine
 10
1192.628732141737
 20
124.2874359428952
 30
0.0
 11
1192.628732141737
 21
100.2874359428952
 31
0.0
  0
LINE
  5
5F1E
330
26
100
AcDbEntity
  8
0
  6
Continuous
100
AcDbLine
 10
1186.263046716837
 20
114.0326809481952
 30
0.0
 11
1172.263046716837
 21
114.0326809481952
 31
0.0
  0
LINE
  5
5F1F
330
26
100
AcDbEntity
  8
0
  6
Continuous
100
AcDbLine
 10
1186.263046716837
 20
113.2123005486952
 30
0.0
 11
1172.263046716837
 21
113.2123005486952
 31
0.0
  0
LINE
  5
5F20
330
26
100
AcDbEntity
  8
0
  6
Continuous
100
AcDbLine
 10
1210.506124880937
 20
111.2889744953952
 30
0.0
 11
1194.937513797737
 21
111.2889744953952
 31
0.0
  0
LINE
  5
5F21
330
26
100
AcDbEntity
  8
0
  6
Continuous
100
AcDbLine
 10
1163.588579635837
 20
111.2889744953952
 30
0.0
 11
1148.019968552637
 21
111.2889744953952
 31
0.0
  0
LINE
  5
5F22
330
26
100
AcDbEntity
  8
0
  6
Continuous
100
AcDbLine
 10
1192.924926932137
 20
124.2874359428952
 30
0.0
 11
1192.924926932137
 21
98.09461561979521
 31
0.0
  0
LINE
  5
5F23
330
26
100
AcDbEntity
  8
0
  6
Continuous
100
AcDbLine
 10
1192.978516770637
 20
124.2874359428952
 30
0.0
 11
1192.978516770637
 21
97.8946156197952
 31
0.0
  0
LINE
  5
5F24
330
26
100
AcDbEntity
  8
0
  6
Continuous
100
AcDbLine
 10
1195.061122928137
 20
110.3605129634952
 30
0.0
 11
1195.061122928137
 21
108.2393652747952
 31
0.0
  0
LINE
  5
5F25
330
26
100
AcDbEntity
  8
0
  6
Continuous
100
AcDbLine
 10
1195.061122928137
 20
94.3124422954952
 30
0.0
 11
1195.061122928137
 21
94.28743594289523
 31
0.0
  0
LWPOLYLINE
  5
5F26
330
26
100
AcDbEntity
  8
0
  6
Continuous
100
AcDbPolyline
 90
        5
 70
     0
 43
0.0
 10
1148.019968654937
 20
110.3605129634952
 10
1147.502228174137
 20
110.3921622935952
 10
1147.019759216737
 20
110.4849592858952
 10
1146.605522002137
 20
110.6325614890952
 10
1146.287917847437
 20
110.8247437294952
  0
LINE
  5
5F27
330
26
100
AcDbEntity
  8
0
  6
Continuous
100
AcDbLine
 10
1210.506124778637
 20
110.3605129634952
 30
0.0
 11
1195.061122928137
 21
110.3605129634952
 31
0.0
  0
LINE
  5
5F28
330
26
100
AcDbEntity
  8
0
  6
Continuous
100
AcDbLine
 10
1163.464970505437
 20
110.3605129634952
 30
0.0
 11
1148.019968654937
 21
110.3605129634952
 31
0.0
  0
LINE
  5
5F29
330
26
100
AcDbEntity
  8
0
  6
Continuous
100
AcDbLine
 10
1172.263046716837
 20
108.4999940971952
 30
0.0
 11
1186.263046716837
 21
108.4999940971952
 31
0.0
  0
LINE
  5
5F2A
330
26
100
AcDbEntity
  8
0
  6
Continuous
100
AcDbLine
 10
1148.019968654937
 20
108.2393652747952
 30
0.0
 11
1163.464970505437
 21
108.2393652747952
 31
0.0
  0
LINE
  5
5F2B
330
26
100
AcDbEntity
  8
0
  6
Continuous
100
AcDbLine
 10
1195.061122928137
 20
108.2393652747952
 30
0.0
 11
1210.506124778637
 21
108.2393652747952
 31
0.0
  0
LINE
  5
5F2C
330
26
100
AcDbEntity
  8
0
  6
Continuous
100
AcDbLine
 10
1172.263046716837
 20
107.9373834262952
 30
0.0
 11
1186.263046716837
 21
107.9373834262952
 31
0.0
  0
LINE
  5
5F2D
330
26
100
AcDbEntity
  8
0
  6
Continuous
100
AcDbLine
 10
1148.019968553337
 20
107.5771858450952
 30
0.0
 11
1163.588579635837
 21
107.5771858450952
 31
0.0
  0
LINE
  5
5F2E
330
26
100
AcDbEntity
  8
0
  6
Continuous
100
AcDbLine
 10
1194.937513797737
 20
107.5771858450952
 30
0.0
 11
1210.506124880337
 21
107.5771858450952
 31
0.0
  0
LWPOLYLINE
  5
5F2F
330
26
100
AcDbEntity
  8
0
  6
Continuous
100
AcDbPolyline
 90
        5
 70
     0
 43
0.0
 10
1210.506124778637
 20
110.3605129634952
 10
1211.023762868837
 20
110.3921495229952
 10
1211.506124778637
 20
110.4849032222952
 10
1211.920338341037
 20
110.6324530500952
 10
1212.238175586237
 20
110.8247437294952
  0
LWPOLYLINE
  5
5F30
330
26
100
AcDbEntity
  8
0
  6
Continuous
100
AcDbPolyline
 90
        5
 70
     0
 43
0.0
 10
1148.019968654937
 20
108.2393652747952
 10
1147.502330564737
 20
108.2758202579952
 10
1147.019968654937
 20
108.3827008606952
 10
1146.605755092637
 20
108.5527233463952
 10
1146.287917847437
 20
108.7743009637952
  0
LWPOLYLINE
  5
5F31
330
26
100
AcDbEntity
  8
0
  6
Continuous
100
AcDbPolyline
 90
        5
 70
     0
 43
0.0
 10
1210.506124778637
 20
108.2393652747952
 10
1211.023865259537
 20
108.2758349043952
 10
1211.506334216837
 20
108.3827656287952
 10
1211.920571431437
 20
108.5528478517952
 10
1212.238175586237
 20
108.7743009637952
  0
LINE
  5
5F32
330
26
100
AcDbEntity
  8
0
  6
Continuous
100
AcDbLine
 10
1168.677260279137
 20
102.4874359428952
 30
0.0
 11
1171.263046716837
 21
102.4874359428952
 31
0.0
  0
LINE
  5
5F33
330
26
100
AcDbEntity
  8
0
  6
Continuous
100
AcDbLine
 10
1187.263046716837
 20
102.4874359428952
 30
0.0
 11
1189.848833154837
 21
102.4874359428952
 31
0.0
  0
LINE
  5
5F34
330
26
100
AcDbEntity
  8
0
  6
Continuous
100
AcDbLine
 10
1192.924926932137
 20
101.9874359428952
 30
0.0
 11
1190.763046716837
 21
101.9874359428952
 31
0.0
  0
LINE
  5
5F35
330
26
100
AcDbEntity
  8
0
  6
Continuous
100
AcDbLine
 10
1165.601166501437
 20
101.9874359428952
 30
0.0
 11
1167.763046716837
 21
101.9874359428952
 31
0.0
  0
LINE
  5
5F36
330
26
100
AcDbEntity
  8
0
  6
Continuous
100
AcDbLine
 10
1216.924926932137
 20
100.2874359428952
 30
0.0
 11
1216.856977739737
 21
100.2874359428952
 31
0.0
  0
LINE
  5
5F37
330
26
100
AcDbEntity
  8
0
  6
Continuous
100
AcDbLine
 10
1141.601166501437
 20
100.2874359428952
 30
0.0
 11
1141.669115693837
 21
100.2874359428952
 31
0.0
  0
LINE
  5
5F38
330
26
100
AcDbEntity
  8
0
  6
Continuous
100
AcDbLine
 10
1165.601166501437
 20
100.2874359428952
 30
0.0
 11
1165.897361292337
 21
100.2874359428952
 31
0.0
  0
LINE
  5
5F39
330
26
100
AcDbEntity
  8
0
  6
Continuous
100
AcDbLine
 10
1192.628732141737
 20
100.2874359428952
 30
0.0
 11
1192.924926932137
 21
100.2874359428952
 31
0.0
  0
LINE
  5
5F3A
330
26
100
AcDbEntity
  8
0
  6
Continuous
100
AcDbLine
 10
1186.263046716837
 20
97.68262843169521
 30
0.0
 11
1172.263046716837
 21
97.68262843169521
 31
0.0
  0
LINE
  5
5F3B
330
26
100
AcDbEntity
  8
0
  6
Continuous
100
AcDbLine
 10
1186.263046716837
 20
97.42485870299521
 30
0.0
 11
1172.263046716837
 21
97.42485870299521
 31
0.0
  0
LINE
  5
5F3C
330
26
100
AcDbEntity
  8
0
  6
Continuous
100
AcDbLine
 10
1172.263046716837
 20
97.28743594289523
 30
0.0
 11
1186.263046716837
 21
97.28743594289523
 31
0.0
  0
LINE
  5
5F3D
330
26
100
AcDbEntity
  8
0
  6
Continuous
100
AcDbLine
 10
1210.506124879137
 20
94.57872439769523
 30
0.0
 11
1194.937513797737
 21
94.57872439769523
 31
0.0
  0
LINE
  5
5F3E
330
26
100
AcDbEntity
  8
0
  6
Continuous
100
AcDbLine
 10
1163.588579635837
 20
94.57872439769523
 30
0.0
 11
1148.019968554437
 21
94.57872439769523
 31
0.0
  0
LINE
  5
5F3F
330
26
100
AcDbEntity
  8
0
  6
Continuous
100
AcDbLine
 10
1210.506124778637
 20
111.2889744953952
 30
0.0
 11
1210.506124778637
 21
107.5771858450952
 31
0.0
  0
LINE
  5
5F40
330
26
100
AcDbEntity
  8
0
  6
Continuous
100
AcDbLine
 10
1210.506124778637
 20
94.57872439769523
 30
0.0
 11
1210.506124778637
 21
94.28743594289523
 31
0.0
  0
LINE
  5
5F41
330
26
100
AcDbEntity
  8
0
  6
Continuous
100
AcDbLine
 10
1212.238175586237
 20
110.8247281981952
 30
0.0
 11
1212.238175586237
 21
108.7743157515952
 31
0.0
  0
LINE
  5
5F42
330
26
100
AcDbEntity
  8
0
  6
Continuous
100
AcDbLine
 10
1212.238175586237
 20
95.31160804109521
 30
0.0
 11
1212.238175586237
 21
95.28743594289522
 31
0.0
  0
LINE
  5
5F43
330
26
100
AcDbEntity
  8
0
  6
Continuous
100
AcDbLine
 10
1210.506124778637
 20
94.3124422954952
 30
0.0
 11
1195.061122928137
 21
94.3124422954952
 31
0.0
  0
LINE
  5
5F44
330
26
100
AcDbEntity
  8
0
  6
Continuous
100
AcDbLine
 10
1163.464970505437
 20
94.3124422954952
 30
0.0
 11
1148.019968654937
 21
94.3124422954952
 31
0.0
  0
LINE
  5
5F45
330
26
100
AcDbEntity
  8
0
  6
Continuous
100
AcDbLine
 10
1163.464970505437
 20
94.28743594289523
 30
0.0
 11
1148.019968654937
 21
94.28743594289523
 31
0.0
  0
LINE
  5
5F46
330
26
100
AcDbEntity
  8
0
  6
Continuous
100
AcDbLine
 10
1195.061122928137
 20
94.28743594289523
 30
0.0
 11
1210.506124778637
 21
94.28743594289523
 31
0.0
  0
LINE
  5
5F47
330
26
100
AcDbEntity
  8
0
  6
Continuous
100
AcDbLine
 10
1214.258901528337
 20
124.2874359428952
 30
0.0
 11
1214.258901528337
 21
98.78743594289524
 31
0.0
  0
LWPOLYLINE
  5
5F48
330
26
100
AcDbEntity
  8
0
  6
Continuous
100
AcDbPolyline
 90
        5
 70
     0
 43
0.0
 10
1148.019968654937
 20
94.3124422954952
 10
1147.502228174137
 20
94.38056125519523
 10
1147.019759216737
 20
94.5802889717952
 10
1146.605522002137
 20
94.89797339809518
 10
1146.287917847437
 20
95.31160875039522
  0
LWPOLYLINE
  5
5F49
330
26
100
AcDbEntity
  8
0
  6
Continuous
100
AcDbPolyline
 90
        5
 70
     0
 43
0.0
 10
1210.506124778637
 20
94.3124422954952
 10
1211.023865259537
 20
94.38056125519523
 10
1211.506334216837
 20
94.5802889717952
 10
1211.920571431437
 20
94.89797339809518
 10
1212.238175586237
 20
95.31160875039522
  0
LINE
  5
5F4A
330
26
100
AcDbEntity
  8
0
  6
Continuous
100
AcDbLine
 10
1216.856977739737
 20
124.2874359428952
 30
0.0
 11
1216.856977739737
 21
100.2874359428952
 31
0.0
  0
LINE
  5
5F4B
330
26
100
AcDbEntity
  8
0
  6
Continuous
100
AcDbLine
 10
1216.924926932137
 20
100.2874359428952
 30
0.0
 11
1216.924926932137
 21
124.2874359428952
 31
0.0
  0
LINE
  5
5F4C
330
26
100
AcDbEntity
  8
0
  6
Continuous
100
AcDbLine
 10
1217.924926932137
 20
101.2874359428952
 30
0.0
 11
1217.924926932137
 21
124.2874359428952
 31
0.0
  0
LINE
  5
5F4D
330
26
100
AcDbEntity
  8
0
  6
Continuous
100
AcDbLine
 10
1214.258901528337
 20
98.78743594289524
 30
0.0
 11
1212.238175586237
 21
95.28743594289522
 31
0.0
  0
ARC
  5
5F4E
330
26
100
AcDbEntity
  8
0
  6
Continuous
100
AcDbCircle
 10
1210.506124778637
 20
96.28743594289524
 30
0.0
 40
2.0
100
AcDbArc
 50
270.0
 51
329.9999999999987
  0
ARC
  5
5F4F
330
26
100
AcDbEntity
  8
0
  6
Continuous
100
AcDbCircle
 10
1193.324926932137
 20
98.09461561979521
 30
0.0
 40
0.4
100
AcDbArc
 50
180.0
 51
209.9999999973012
  0
ARC
  5
5F50
330
26
100
AcDbEntity
  8
0
  6
Continuous
100
AcDbCircle
 10
1216.856977739737
 20
97.28743594289523
 30
0.0
 40
3.0
100
AcDbArc
 50
90.00000000000003
 51
149.9999999999987
  0
ARC
  5
5F51
330
26
100
AcDbEntity
  8
0
  6
Continuous
100
AcDbCircle
 10
1216.924926932137
 20
101.2874359428952
 30
0.0
 40
1.0
100
AcDbArc
 50
270.0
 51
0.0
  0
ARC
  5
5F52
330
26
100
AcDbEntity
  8
0
  6
Continuous
100
AcDbCircle
 10
1148.019968654937
 20
96.28743594289524
 30
0.0
 40
2.0
100
AcDbArc
 50
210.0000000000012
 51
270.0
  0
ARC
  5
5F53
330
26
100
AcDbEntity
  8
0
  6
Continuous
100
AcDbCircle
 10
1165.201166501437
 20
98.09461561979521
 30
0.0
 40
0.4
100
AcDbArc
 50
330.0000000048999
 51
0.0
  0
ARC
  5
5F54
330
26
100
AcDbEntity
  8
0
  6
Continuous
100
AcDbCircle
 10
1141.669115693837
 20
97.28743594289523
 30
0.0
 40
3.0
100
AcDbArc
 50
30.00000000000053
 51
90.00000000000003
  0
ARC
  5
5F55
330
26
100
AcDbEntity
  8
0
  6
Continuous
100
AcDbCircle
 10
1141.601166501437
 20
101.2874359428952
 30
0.0
 40
1.0
100
AcDbArc
 50
180.0
 51
270.0
  0
ARC
  5
5F56
330
26
100
AcDbEntity
  8
0
  6
Continuous
100
AcDbCircle
 10
1187.263046716837
 20
101.4874359428952
 30
0.0
 40
1.0
100
AcDbArc
 50
90.00000000000003
 51
179.9999955822
  0
ARC
  5
5F57
330
26
100
AcDbEntity
  8
0
  6
Continuous
100
AcDbCircle
 10
1189.848833154437
 20
101.4874359428952
 30
0.0
 40
1.0
100
AcDbArc
 50
45.00000034729846
 51
89.99999997849803
  0
ARC
  5
5F58
330
26
100
AcDbEntity
  8
0
  6
Continuous
100
AcDbCircle
 10
1168.677260279137
 20
101.4874359428952
 30
0.0
 40
1.0
100
AcDbArc
 50
90.00000000000003
 51
134.9999995673
  0
ARC
  5
5F59
330
26
100
AcDbEntity
  8
0
  6
Continuous
100
AcDbCircle
 10
1171.263046716837
 20
101.4874359428952
 30
0.0
 40
1.0
100
AcDbArc
 50
0.0000003730993319
 51
90.00000000000003
  0
ARC
  5
5F5A
330
26
100
AcDbEntity
  8
0
  6
Continuous
100
AcDbCircle
 10
1165.897361291837
 20
100.6874359428952
 30
0.0
 40
0.4
100
AcDbArc
 50
270.0000000627993
 51
315.0000026189998
  0
ARC
  5
5F5B
330
26
100
AcDbEntity
  8
0
  6
Continuous
100
AcDbCircle
 10
1192.628732141737
 20
100.6874359428952
 30
0.0
 40
0.4
100
AcDbArc
 50
224.9999999906016
 51
270.0
  0
SPLINE
  5
5F5C
330
26
100
AcDbEntity
  8
0
  6
Continuous
100
AcDbSpline
210
0.0
220
0.0
230
1.0
 70
     8
 71
     3
 72
    12
 73
     8
 74
     0
 42
0.0000000001
 43
0.0000000001
 40
0.0
 40
0.0
 40
0.0
 40
0.0
 40
3.403117075785013
 40
6.689841910083075
 40
9.925336596845543
 40
13.14324392602914
 40
13.14423240278458
 40
13.14423240278458
 40
13.14423240278458
 40
13.14423240278458
 10
1194.937513797737
 20
111.2889744953952
 30
0.0
 10
1194.675744766955
 20
112.3930149728773
 30
0.0
 10
1194.161159639882
 20
114.5633359145934
 30
0.0
 10
1193.623600151344
 20
117.8305861448206
 30
0.0
 10
1193.288147037231
 20
121.0619428853817
 30
0.0
 10
1193.21361351318
 20
123.2138960669585
 30
0.0
 10
1193.213602066703
 20
124.2871063753952
 30
0.0
 10
1193.213602066691
 20
124.2874359428952
 30
0.0
  0
SPLINE
  5
5F5D
330
26
100
AcDbEntity
  8
0
  6
Continuous
100
AcDbSpline
210
0.0
220
0.0
230
1.0
 70
     8
 71
     3
 72
    15
 73
    11
 74
     9
 42
0.0000000001
 43
0.0000000001
 44
0.0000000001
 40
0.0
 40
0.0
 40
0.0
 40
0.0
 40
1.820050273820666
 40
3.528213202247435
 40
5.170831148214893
 40
6.782657774254343
 40
8.394525050583246
 40
10.03723893258324
 40
11.74591186553713
 40
13.56630241284237
 40
13.56630241284237
 40
13.56630241284237
 40
13.56630241284237
 10
1194.937513797737
 20
94.57872439769523
 30
0.0
 10
1194.676987167923
 20
95.12712593005851
 30
0.0
 10
1194.171949747765
 20
96.19021608446136
 30
0.0
 10
1193.628256375209
 20
97.83073784803933
 30
0.0
 10
1193.289523123478
 20
99.45398782190033
 30
0.0
 10
1193.176033991885
 20
101.0774726445763
 30
0.0
 10
1193.289389992138
 20
102.7009996615338
 30
0.0
 10
1193.628054603611
 20
104.324485672704
 30
0.0
 10
1194.171786296883
 20
105.9653316159597
 30
0.0
 10
1194.676940831378
 20
107.028680486
 30
0.0
 10
1194.937513797737
 20
107.5771858450952
 30
0.0
 11
1194.937513797737
 21
94.57872439769523
 31
0.0
 11
1194.191608047337
 21
96.23890740289524
 31
0.0
 11
1193.653487173937
 21
97.86009416439521
 31
0.0
 11
1193.324676692437
 21
99.4694659000952
 31
0.0
 11
1193.213602077237
 21
101.0774607701952
 31
0.0
 11
1193.324547501037
 21
102.6855053060952
 31
0.0
 11
1193.653265508437
 21
104.2949938489952
 31
0.0
 11
1194.191483662937
 21
105.9166856846952
 31
0.0
 11
1194.937513797737
 21
107.5771858450952
 31
0.0
  0
SPLINE
  5
5F5E
330
26
100
AcDbEntity
  8
0
  6
Continuous
100
AcDbSpline
210
0.0
220
0.0
230
1.0
 70
     8
 71
     3
 72
    12
 73
     8
 74
     0
 42
0.0000000001
 43
0.0000000001
 40
13.62476192005529
 40
13.62476192005529
 40
13.62476192005529
 40
13.62476192005529
 40
15.09869224714855
 40
18.05051167680154
 40
21.03495393607976
 40
24.09010001704184
 40
27.24952362346269
 40
27.24952362346269
 40
27.24952362346269
 40
27.24952362346269
 10
1214.085612126592
 20
124.2874359428952
 30
0.0
 10
1214.085612141619
 20
123.7960454078787
 30
0.0
 10
1214.062324425413
 20
122.3205539812082
 30
0.0
 10
1213.906253266706
 20
119.8537261261755
 30
0.0
 10
1213.532647534043
 20
116.8784840226482
 30
0.0
 10
1212.987573832871
 20
113.8588491049931
 30
0.0
 10
1212.490753803099
 20
111.8473524861824
 30
0.0
 10
1212.238175586237
 20
110.8247281981952
 30
0.0
  0
SPLINE
  5
5F5F
330
26
100
AcDbEntity
  8
0
  6
Continuous
100
AcDbSpline
210
0.0
220
0.0
230
1.0
 70
     8
 71
     3
 72
    11
 73
     7
 74
     0
 42
0.0000000001
 43
0.0000000001
 40
13.16519666932258
 40
13.16519666932258
 40
13.16519666932258
 40
13.16519666932258
 40
16.35567096635198
 40
19.57532230768941
 40
22.88317230608145
 40
26.33039333578433
 40
26.33039333578433
 40
26.33039333578433
 40
26.33039333578433
 10
1212.353591260137
 20
124.2874359428952
 30
0.0
 10
1212.353591259271
 20
123.2236695228018
 30
0.0
 10
1212.274246361237
 20
121.086408484944
 30
0.0
 10
1211.916239423735
 20
117.8646138818145
 30
0.0
 10
1211.339224877378
 20
114.5870521277068
 30
0.0
 10
1210.787618471917
 20
112.4033517850561
 30
0.0
 10
1210.506124880937
 20
111.2889744953952
 30
0.0
  0
SPLINE
  5
5F60
330
26
100
AcDbEntity
  8
0
  6
Continuous
100
AcDbSpline
210
0.0
220
0.0
230
1.0
 70
     8
 71
     3
 72
    11
 73
     7
 74
     5
 42
0.0000000001
 43
0.0000000001
 44
0.0000000001
 40
0.0
 40
0.0
 40
0.0
 40
0.0
 40
0.5477423643103422
 40
1.10195976968387
 40
1.650083108441373
 40
2.181018975299472
 40
2.181018975299472
 40
2.181018975299472
 40
2.181018975299472
 10
1210.506124778937
 20
107.5771858475952
 30
0.0
 10
1210.685859920476
 20
107.6143610092326
 30
0.0
 10
1211.04745491126
 20
107.6891507922129
 30
0.0
 10
1211.534434439097
 20
107.9582415158395
 30
0.0
 10
1211.955363785904
 20
108.3145849199084
 30
0.0
 10
1212.144911373483
 20
108.6226981826243
 30
0.0
 10
1212.238175591237
 20
108.7743009689952
 30
0.0
 11
1210.506124778937
 21
107.5771858475952
 31
0.0
 11
1211.036341785537
 21
107.7146326502952
 31
0.0
 11
1211.525810825237
 21
107.9745883995952
 31
0.0
 11
1211.936945427837
 21
108.3370901692952
 31
0.0
 11
1212.238175591237
 21
108.7743009689952
 31
0.0
  0
SPLINE
  5
5F61
330
26
100
AcDbEntity
  8
0
  6
Continuous
100
AcDbSpline
210
0.0
220
0.0
230
1.0
 70
     8
 71
     3
 72
    16
 73
    12
 74
    10
 42
0.0000000001
 43
0.0000000001
 44
0.0000000001
 40
0.0
 40
0.0
 40
0.0
 40
0.0
 40
1.732213093600075
 40
3.359952238948318
 40
4.910819306964682
 40
6.409161743427576
 40
7.881158803545389
 40
9.354471796568392
 40
10.85931561048893
 40
12.42792839429733
 40
14.09301281793996
 40
14.09301281793996
 40
14.09301281793996
 40
14.09301281793996
 10
1212.238175586237
 20
108.7743157515952
 30
0.0
 10
1212.489481029995
 20
108.2540991711978
 30
0.0
 10
1212.97693508027
 20
107.2450415266722
 30
0.0
 10
1213.527267668192
 20
105.6998208162276
 30
0.0
 10
1213.904111291447
 20
104.184202898864
 30
0.0
 10
1214.093417476425
 20
102.685132600587
 30
0.0
 10
1214.093246808309
 20
101.1999723400726
 30
0.0
 10
1213.903821121348
 20
99.72462080146464
 30
0.0
 10
1213.527146550554
 20
98.25350384021957
 30
0.0
 10
1212.977051992649
 20
96.76898848564471
 30
0.0
 10
1212.489317949372
 20
95.80696824701623
 30
0.0
 10
1212.238175586237
 20
95.31160804109521
 30
0.0
 11
1212.238175586237
 21
108.7743157515952
 31
0.0
 11
1212.962610669337
 21
107.2008622212952
 31
0.0
 11
1213.509633253737
 21
105.6677930716952
 31
0.0
 11
1213.877814120637
 21
104.1612634463952
 31
0.0
 11
1214.062844986537
 21
102.6743896670952
 31
0.0
 11
1214.061960525337
 21
101.2023928726952
 31
0.0
 11
1213.875806105637
 21
99.74088758449523
 31
0.0
 11
1213.507934192837
 21
98.28170111249523
 31
0.0
 11
1212.961818018937
 21
96.81122391439521
 31
0.0
 11
1212.238175586237
 21
95.31160804109521
 31
0.0
  0
SPLINE
  5
5F62
330
26
100
AcDbEntity
  8
0
  6
Continuous
100
AcDbSpline
210
0.0
220
0.0
230
1.0
 70
     8
 71
     3
 72
    11
 73
     7
 74
     5
 42
0.0000000001
 43
0.0000000001
 44
0.0000000001
 40
0.0
 40
0.0
 40
0.0
 40
0.0
 40
0.5302564314728273
 40
1.03640931999135
 40
1.518737041378715
 40
1.985229180540347
 40
1.985229180540347
 40
1.985229180540347
 40
1.985229180540347
 10
1210.506124778937
 20
94.57872439429519
 30
0.0
 10
1210.683643689973
 20
94.56726073323782
 30
0.0
 10
1211.030612143257
 20
94.54485450776676
 30
0.0
 10
1211.526074249945
 20
94.67989473100887
 30
0.0
 10
1211.955780824001
 20
94.92807280918045
 30
0.0
 10
1212.14509721892
 20
95.18519387486714
 30
0.0
 10
1212.238175593137
 20
95.31160876239522
 30
0.0
 11
1210.506124778937
 21
94.57872439429519
 31
0.0
 11
1211.036362926437
 21
94.57432098039521
 31
0.0
 11
1211.525839173137
 21
94.70317652149521
 31
0.0
 11
1211.936966541837
 21
94.95539531049519
 31
0.0
 11
1212.238175593137
 21
95.31160876239522
 31
0.0
  0
SPLINE
  5
5F63
330
26
100
AcDbEntity
  8
0
  6
Continuous
100
AcDbSpline
210
0.0
220
0.0
230
1.0
 70
     8
 71
     3
 72
    15
 73
    11
 74
     9
 42
0.0000000001
 43
0.0000000001
 44
0.0000000001
 40
0.0
 40
0.0
 40
0.0
 40
0.0
 40
1.858146313698815
 40
3.587445568076279
 40
5.230683577032195
 40
6.829052957312777
 40
8.425712886349164
 40
10.06443588585833
 40
11.78973789470662
 40
13.64579436663768
 40
13.64579436663768
 40
13.64579436663768
 40
13.64579436663768
 10
1210.506124880337
 20
107.5771858450952
 30
0.0
 10
1210.786081962681
 20
107.0241321300316
 30
0.0
 10
1211.326583422067
 20
105.9563743951394
 30
0.0
 10
1211.911365419998
 20
104.3083649681228
 30
0.0
 10
1212.273386469172
 20
102.6867062982989
 30
0.0
 10
1212.393552581046
 20
101.072330865492
 30
0.0
 10
1212.271778241114
 20
99.45961079108108
 30
0.0
 10
1211.909418654638
 20
97.84156627642939
 30
0.0
 10
1211.325395246601
 20
96.19707642025043
 30
0.0
 10
1210.785782047298
 20
95.13114733606761
 30
0.0
 10
1210.506124879137
 20
94.57872439769523
 30
0.0
 11
1210.506124880337
 21
107.5771858450952
 31
0.0
 11
1211.308589550337
 21
105.9012508294952
 31
0.0
 11
1211.886431315137
 21
104.2713505852952
 31
0.0
 11
1212.236677759537
 21
102.6658729048952
 31
0.0
 11
1212.353591149137
 21
101.0717850982952
 31
0.0
 11
1212.235131490537
 21
99.4795256224952
 31
0.0
 11
1211.884742882637
 21
97.8787005562952
 31
0.0
 11
1211.307781346837
 21
96.25272933639521
 31
0.0
 11
1210.506124879137
 21
94.57872439769523
 31
0.0
  0
SPLINE
  5
5F64
330
26
100
AcDbEntity
  8
0
  6
Continuous
100
AcDbSpline
210
0.0
220
0.0
230
1.0
 70
     8
 71
     3
 72
    10
 73
     6
 74
     4
 42
0.0000000001
 43
0.0000000001
 44
0.0000000001
 40
0.0
 40
0.0
 40
0.0
 40
0.0
 40
0.2548174204530507
 40
0.4811060365468862
 40
0.6787003532945222
 40
0.6787003532945222
 40
0.6787003532945222
 40
0.6787003532945222
 10
1195.061122928137
 20
108.2393652747952
 30
0.0
 10
1195.058576260028
 20
108.1544790124815
 30
0.0
 10
1195.053768043233
 20
107.9942101692195
 30
0.0
 10
1195.016785363971
 20
107.7691584219335
 30
0.0
 10
1194.962717634206
 20
107.6382221745501
 30
0.0
 10
1194.937513797737
 20
107.5771858450952
 30
0.0
 11
1195.061122928137
 21
108.2393652747952
 31
0.0
 11
1195.047477525837
 21
107.9849134703952
 31
0.0
 11
1195.006395532337
 21
107.7623852528952
 31
0.0
 11
1194.937513797737
 21
107.5771858450952
 31
0.0
  0
SPLINE
  5
5F65
330
26
100
AcDbEntity
  8
0
  6
Continuous
100
AcDbSpline
210
0.0
220
0.0
230
1.0
 70
     8
 71
     3
 72
    10
 73
     6
 74
     4
 42
0.0000000001
 43
0.0000000001
 44
0.0000000001
 40
0.0
 40
0.0
 40
0.0
 40
0.0
 40
0.3317289872023507
 40
0.6456994506464149
 40
0.9387090155588488
 40
0.9387090155588488
 40
0.9387090155588488
 40
0.9387090155588488
 10
1194.937513797737
 20
111.2889744953952
 30
0.0
 10
1194.96214147549
 20
111.1811494030489
 30
0.0
 10
1195.010078431889
 20
110.9712714436909
 30
0.0
 10
1195.052221329493
 20
110.6605165391169
 30
0.0
 10
1195.058224835131
 20
110.4581851119539
 30
0.0
 10
1195.061122928137
 20
110.3605129634952
 30
0.0
 11
1194.937513797737
 21
111.2889744953952
 31
0.0
 11
1195.006395532337
 21
110.9644757625952
 31
0.0
 11
1195.047477525837
 21
110.6532046239952
 31
0.0
 11
1195.061122928137
 21
110.3605129634952
 31
0.0
  0
SPLINE
  5
5F66
330
26
100
AcDbEntity
  8
0
  6
Continuous
100
AcDbSpline
210
0.0
220
0.0
230
1.0
 70
     8
 71
     3
 72
    10
 73
     6
 74
     4
 42
0.0000000001
 43
0.0000000001
 44
0.0000000001
 40
0.0
 40
0.0
 40
0.0
 40
0.0
 40
0.1553994701883298
 40
0.2531902480525842
 40
0.2937917700786142
 40
0.2937917700786142
 40
0.2937917700786142
 40
0.2937917700786142
 10
1194.937513797737
 20
94.57872439769523
 30
0.0
 10
1194.96036297016
 20
94.53227327499258
 30
0.0
 10
1194.997590816732
 20
94.45659109110132
 30
0.0
 10
1195.041817987702
 20
94.36893899855036
 30
0.0
 10
1195.056743950383
 20
94.32525755419482
 30
0.0
 10
1195.061122928137
 20
94.3124422954952
 30
0.0
 11
1194.937513797737
 21
94.57872439769523
 31
0.0
 11
1195.006395532337
 21
94.43942507259521
 31
0.0
 11
1195.047477525837
 21
94.35068215149522
 31
0.0
 11
1195.061122928137
 21
94.3124422954952
 31
0.0
  0
SPLINE
  5
5F67
330
26
100
AcDbEntity
  8
0
  6
Continuous
100
AcDbSpline
210
0.0
220
0.0
230
1.0
 70
     8
 71
     3
 72
    11
 73
     7
 74
     0
 42
0.0000000001
 43
0.0000000001
 40
13.14423240269636
 40
13.14423240269636
 40
13.14423240269636
 40
13.14423240269636
 40
16.36124607087705
 40
19.59696376693492
 40
22.88470104663544
 40
26.28846427198781
 40
26.28846427198781
 40
26.28846427198781
 40
26.28846427198781
 10
1165.312491366882
 20
124.2874359428952
 30
0.0
 10
1165.312491402242
 20
123.2148531569862
 30
0.0
 10
1165.238043858491
 20
121.0634514596077
 30
0.0
 10
1164.902694682606
 20
117.8319689629721
 30
0.0
 10
1164.365102119715
 20
114.5640860393694
 30
0.0
 10
1163.850395349112
 20
112.3932254124595
 30
0.0
 10
1163.588579635837
 20
111.2889744953952
 30
0.0
  0
SPLINE
  5
5F68
330
26
100
AcDbEntity
  8
0
  6
Continuous
100
AcDbSpline
210
0.0
220
0.0
230
1.0
 70
     8
 71
     3
 72
    15
 73
    11
 74
     9
 42
0.0000000001
 43
0.0000000001
 44
0.0000000001
 40
0.0
 40
0.0
 40
0.0
 40
0.0
 40
1.820050273770436
 40
3.528213202197232
 40
5.170831148144678
 40
6.782657774184127
 40
8.39452505051303
 40
10.037238932611
 40
11.74591186543855
 40
13.56630241287589
 40
13.56630241287589
 40
13.56630241287589
 40
13.56630241287589
 10
1163.588579635837
 20
107.5771858450952
 30
0.0
 10
1163.849106265692
 20
107.0287843127693
 30
0.0
 10
1164.354143685935
 20
105.9656941584248
 30
0.0
 10
1164.897837058492
 20
104.3251723948615
 30
0.0
 10
1165.236570310064
 20
102.7019224209774
 30
0.0
 10
1165.350059441698
 20
101.0784375983158
 30
0.0
 10
1165.236703441429
 20
99.45491058132319
 30
0.0
 10
1164.898038829967
 20
97.83142457016528
 30
0.0
 10
1164.354307136791
 20
96.19057862683852
 30
0.0
 10
1163.849152602243
 20
95.12722975681872
 30
0.0
 10
1163.588579635837
 20
94.57872439769523
 30
0.0
 11
1163.588579635837
 21
107.5771858450952
 31
0.0
 11
1164.334485386337
 21
105.9170028399952
 31
0.0
 11
1164.872606259737
 21
104.2958160784952
 31
0.0
 11
1165.201416741137
 21
102.6864443427952
 31
0.0
 11
1165.312491356337
 21
101.0784494726952
 31
0.0
 11
1165.201545932537
 21
99.47040493679521
 31
0.0
 11
1164.872827925137
 21
97.86091639379519
 31
0.0
 11
1164.334609770737
 21
96.23922455819519
 31
0.0
 11
1163.588579635837
 21
94.57872439769523
 31
0.0
  0
SPLINE
  5
5F69
330
26
100
AcDbEntity
  8
0
  6
Continuous
100
AcDbSpline
210
0.0
220
0.0
230
1.0
 70
     8
 71
     3
 72
    12
 73
     8
 74
     0
 42
0.0000000001
 43
0.0000000001
 40
0.0
 40
0.0
 40
0.0
 40
0.0
 40
3.159206423653368
 40
6.214163034868217
 40
9.198647566540682
 40
12.15012254408512
 40
13.62476192017824
 40
13.62476192017824
 40
13.62476192017824
 40
13.62476192017824
 10
1146.287917847437
 20
110.8247281977952
 30
0.0
 10
1146.035356107491
 20
111.8472819400614
 30
0.0
 10
1145.538566845276
 20
113.8586464456479
 30
0.0
 10
1144.993497818323
 20
116.8781583380612
 30
0.0
 10
1144.619889808694
 20
119.853235004119
 30
0.0
 10
1144.463782250628
 20
122.3201960682418
 30
0.0
 10
1144.440481322056
 20
123.7958090195226
 30
0.0
 10
1144.440481307045
 20
124.2874359428952
 30
0.0
  0
SPLINE
  5
5F6A
330
26
100
AcDbEntity
  8
0
  6
Continuous
100
AcDbSpline
210
0.0
220
0.0
230
1.0
 70
     8
 71
     3
 72
    12
 73
     8
 74
     0
 42
0.0000000001
 43
0.0000000001
 40
0.0
 40
0.0
 40
0.0
 40
0.0
 40
3.447212312868728
 40
6.755067647124549
 40
9.974718923116386
 40
13.1651923830185
 40
13.16519666941013
 40
13.16519666941013
 40
13.16519666941013
 40
13.16519666941013
 10
1148.019968552637
 20
111.2889744953952
 30
0.0
 10
1147.738475635996
 20
112.4033489555108
 30
0.0
 10
1147.186869433212
 20
114.5870481823345
 30
0.0
 10
1146.609854701402
 20
117.8646087423071
 30
0.0
 10
1146.251847356166
 20
121.086404788475
 30
0.0
 10
1146.172502225592
 20
123.223666943584
 30
0.0
 10
1146.172502173437
 20
124.2874345137286
 30
0.0
 10
1146.172502173437
 20
124.2874359428952
 30
0.0
  0
SPLINE
  5
5F6B
330
26
100
AcDbEntity
  8
0
  6
Continuous
100
AcDbSpline
210
0.0
220
0.0
230
1.0
 70
     8
 71
     3
 72
    11
 73
     7
 74
     5
 42
0.0000000001
 43
0.0000000001
 44
0.0000000001
 40
0.0
 40
0.0
 40
0.0
 40
0.0
 40
0.530256433738585
 40
1.036409323315988
 40
1.518737043237161
 40
1.98522917784747
 40
1.98522917784747
 40
1.98522917784747
 40
1.98522917784747
 10
1148.019968654637
 20
94.57872439429519
 30
0.0
 10
1147.842449742778
 20
94.5672607347601
 30
0.0
 10
1147.495481288253
 20
94.54485451228825
 30
0.0
 10
1147.000019181661
 20
94.67989473668648
 30
0.0
 10
1146.570312608302
 20
94.92807281263193
 30
0.0
 10
1146.380996214022
 20
95.18519387629414
 30
0.0
 10
1146.287917840437
 20
95.31160876239522
 30
0.0
 11
1148.019968654637
 21
94.57872439429519
 31
0.0
 11
1147.489730504837
 21
94.57432098449522
 31
0.0
 11
1147.000254257437
 21
94.7031765270952
 31
0.0
 11
1146.589126889537
 21
94.95539531459519
 31
0.0
 11
1146.287917840437
 21
95.31160876239522
 31
0.0
  0
SPLINE
  5
5F6C
330
26
100
AcDbEntity
  8
0
  6
Continuous
100
AcDbSpline
210
0.0
220
0.0
230
1.0
 70
     8
 71
     3
 72
    16
 73
    12
 74
    10
 42
0.0000000001
 43
0.0000000001
 44
0.0000000001
 40
0.0
 40
0.0
 40
0.0
 40
0.0
 40
1.665086023059194
 40
3.233698854524334
 40
4.738542085420006
 40
6.21185438905886
 40
7.683850364089433
 40
9.182192381946297
 40
10.73305952619996
 40
12.36079910286209
 40
14.0930128204803
 40
14.0930128204803
 40
14.0930128204803
 40
14.0930128204803
 10
1146.287917847437
 20
95.31160804119521
 30
0.0
 10
1146.036775252067
 20
95.80696872851976
 30
0.0
 10
1145.549040977846
 20
96.76898946798571
 30
0.0
 10
1144.998946454999
 20
98.25350521755459
 30
0.0
 10
1144.622272141521
 20
99.7246218202141
 30
0.0
 10
1144.432846648232
 20
101.1999725859492
 30
0.0
 10
1144.432675956395
 20
102.6851321070823
 30
0.0
 10
1144.621981968026
 20
104.1842019450218
 30
0.0
 10
1144.998825479842
 20
105.6998199217534
 30
0.0
 10
1145.54915812302
 20
107.2450410164707
 30
0.0
 10
1146.036612317656
 20
108.2540989826574
 30
0.0
 10
1146.287917847437
 20
108.7743157528952
 30
0.0
 11
1146.287917847437
 21
95.31160804119521
 31
0.0
 11
1145.564274784137
 21
96.81122538609522
 31
0.0
 11
1145.018158748537
 21
98.28170268639519
 31
0.0
 11
1144.650287128737
 21
99.74088863099524
 31
0.0
 11
1144.464132884537
 21
101.2023932465952
 31
0.0
 11
1144.463248402437
 21
102.6743889558952
 31
0.0
 11
1144.648279106537
 21
104.1612623334952
 31
0.0
 11
1145.016459874337
 21
105.6677920614952
 31
0.0
 11
1145.563482528937
 21
107.2008616439952
 31
0.0
 11
1146.287917847437
 21
108.7743157528952
 31
0.0
  0
SPLINE
  5
5F6D
330
26
100
AcDbEntity
  8
0
  6
Continuous
100
AcDbSpline
210
0.0
220
0.0
230
1.0
 70
     8
 71
     3
 72
    11
 73
     7
 74
     5
 42
0.0000000001
 43
0.0000000001
 44
0.0000000001
 40
0.0
 40
0.0
 40
0.0
 40
0.0
 40
0.547702049371564
 40
1.102068671956539
 40
1.650312893880491
 40
2.181019090939657
 40
2.181019090939657
 40
2.181019090939657
 40
2.181019090939657
 10
1148.019968654737
 20
107.5771858475952
 30
0.0
 10
1147.84024680112
 20
107.6143576123382
 30
0.0
 10
1147.478616194177
 20
107.689153456998
 30
0.0
 10
1146.991570068753
 20
107.9582906858007
 30
0.0
 10
1146.570655091747
 20
108.3146752385365
 30
0.0
 10
1146.381136736917
 20
108.6227616769557
 30
0.0
 10
1146.287917842337
 20
108.7743009684952
 30
0.0
 11
1148.019968654737
 21
107.5771858475952
 31
0.0
 11
1147.489789472237
 21
107.7146179010952
 31
0.0
 11
1147.000192408137
 21
107.9746507202952
 31
0.0
 11
1146.588994140437
 21
108.3372630635952
 31
0.0
 11
1146.287917842337
 21
108.7743009684952
 31
0.0
  0
SPLINE
  5
5F6E
330
26
100
AcDbEntity
  8
0
  6
Continuous
100
AcDbSpline
210
0.0
220
0.0
230
1.0
 70
     8
 71
     3
 72
    15
 73
    11
 74
     9
 42
0.0000000001
 43
0.0000000001
 44
0.0000000001
 40
0.0
 40
0.0
 40
0.0
 40
0.0
 40
1.856058265086443
 40
3.58136012108456
 40
5.220082541999497
 40
6.816741461036082
 40
8.415110048598264
 40
10.05834807888924
 40
11.78764770465454
 40
13.6457943685098
 40
13.6457943685098
 40
13.6457943685098
 40
13.6457943685098
 10
1148.019968554437
 20
94.57872439769523
 30
0.0
 10
1147.740311125534
 20
95.13114787612966
 30
0.0
 10
1147.200697697295
 20
96.19707746079374
 30
0.0
 10
1146.616674369122
 20
97.84156772491146
 30
0.0
 10
1146.254315090045
 20
99.45961170929752
 30
0.0
 10
1146.132540898012
 20
101.072330988626
 30
0.0
 10
1146.252706913272
 20
102.6867058244907
 30
0.0
 10
1146.614727830182
 20
104.3083643882511
 30
0.0
 10
1147.199509860948
 20
105.9563740703464
 30
0.0
 10
1147.740011421925
 20
107.0241320238278
 30
0.0
 10
1148.019968553337
 20
107.5771858450952
 30
0.0
 11
1148.019968554437
 21
94.57872439769523
 31
0.0
 11
1147.218311391237
 21
96.25273099149524
 31
0.0
 11
1146.641350096637
 21
97.87870213479521
 31
0.0
 11
1146.290961787037
 21
99.47952667399522
 31
0.0
 11
1146.172502284237
 21
101.0717851485952
 31
0.0
 11
1146.289415566837
 21
102.6658721681952
 31
0.0
 11
1146.639661917437
 21
104.2713498908952
 31
0.0
 11
1147.217503750037
 21
105.9012505050952
 31
0.0
 11
1148.019968553337
 21
107.5771858450952
 31
0.0
  0
SPLINE
  5
5F6F
330
26
100
AcDbEntity
  8
0
  6
Continuous
100
AcDbSpline
210
0.0
220
0.0
230
1.0
 70
     8
 71
     3
 72
    10
 73
     6
 74
     4
 42
0.0000000001
 43
0.0000000001
 44
0.0000000001
 40
0.0
 40
0.0
 40
0.0
 40
0.0
 40
0.2930095649124445
 40
0.6069800283564788
 40
0.9387090155588767
 40
0.9387090155588767
 40
0.9387090155588767
 40
0.9387090155588767
 10
1163.464970505437
 20
110.3605129634952
 30
0.0
 10
1163.467868598443
 20
110.4581851119539
 30
0.0
 10
1163.473872104082
 20
110.6605165391168
 30
0.0
 10
1163.516015001684
 20
110.9712714436909
 30
0.0
 10
1163.563951958084
 20
111.1811494030489
 30
0.0
 10
1163.588579635837
 20
111.2889744953952
 30
0.0
 11
1163.464970505437
 21
110.3605129634952
 31
0.0
 11
1163.478615907737
 21
110.6532046239952
 31
0.0
 11
1163.519697901237
 21
110.9644757625952
 31
0.0
 11
1163.588579635837
 21
111.2889744953952
 31
0.0
  0
SPLINE
  5
5F70
330
26
100
AcDbEntity
  8
0
  6
Continuous
100
AcDbSpline
210
0.0
220
0.0
230
1.0
 70
     8
 71
     3
 72
    10
 73
     6
 74
     4
 42
0.0000000001
 43
0.0000000001
 44
0.0000000001
 40
0.0
 40
0.0
 40
0.0
 40
0.0
 40
0.1975943167477152
 40
0.4238829328415095
 40
0.6787003532945723
 40
0.6787003532945723
 40
0.6787003532945723
 40
0.6787003532945723
 10
1163.588579635837
 20
107.5771858450952
 30
0.0
 10
1163.563375799369
 20
107.6382221745501
 30
0.0
 10
1163.509308069603
 20
107.7691584219335
 30
0.0
 10
1163.472325390341
 20
107.9942101692195
 30
0.0
 10
1163.467517173546
 20
108.1544790124815
 30
0.0
 10
1163.464970505437
 20
108.2393652747952
 30
0.0
 11
1163.588579635837
 21
107.5771858450952
 31
0.0
 11
1163.519697901237
 21
107.7623852528952
 31
0.0
 11
1163.478615907737
 21
107.9849134703952
 31
0.0
 11
1163.464970505437
 21
108.2393652747952
 31
0.0
  0
SPLINE
  5
5F71
330
26
100
AcDbEntity
  8
0
  6
Continuous
100
AcDbSpline
210
0.0
220
0.0
230
1.0
 70
     8
 71
     3
 72
    10
 73
     6
 74
     4
 42
0.0000000001
 43
0.0000000001
 44
0.0000000001
 40
0.0
 40
0.0
 40
0.0
 40
0.0
 40
0.0406015220261065
 40
0.1383922998902653
 40
0.293791770078696
 40
0.293791770078696
 40
0.293791770078696
 40
0.293791770078696
 10
1163.464970505437
 20
94.3124422954952
 30
0.0
 10
1163.469349483191
 20
94.32525755419481
 30
0.0
 10
1163.484275445872
 20
94.36893899855022
 30
0.0
 10
1163.528502616842
 20
94.45659109110144
 30
0.0
 10
1163.565730463414
 20
94.53227327499261
 30
0.0
 10
1163.588579635837
 20
94.57872439769523
 30
0.0
 11
1163.464970505437
 21
94.3124422954952
 31
0.0
 11
1163.478615907737
 21
94.35068215149522
 31
0.0
 11
1163.519697901237
 21
94.43942507259521
 31
0.0
 11
1163.588579635837
 21
94.57872439769523
 31
0.0
  0
ENDSEC
  0
SECTION
  2
OBJECTS
  0
DICTIONARY
  5
593
330
0
100
AcDbDictionary
281
     1
  3
ACAD_COLOR
350
618
  3
ACAD_GROUP
350
594
  3
ACAD_LAYOUT
350
619
  3
ACAD_MATERIAL
350
617
  3
ACAD_MLINESTYLE
350
595
  3
ACAD_PLOTSETTINGS
350
61A
  3
ACAD_PLOTSTYLENAME
350
615
  3
AcadDim
350
3268
  3
ACDBHEADERROUNDTRIPXREC
350
5F7B
  3
AcDbVariableDictionary
350
5F73
  0
DICTIONARY
  5
618
102
{ACAD_REACTORS
330
593
102
}
330
593
100
AcDbDictionary
281
     1
  0
DICTIONARY
  5
594
102
{ACAD_REACTORS
330
593
102
}
330
593
100
AcDbDictionary
281
     1
  0
DICTIONARY
  5
619
102
{ACAD_REACTORS
330
593
102
}
330
593
100
AcDbDictionary
281
     1
  3
Layout1
350
61C
  3
Model
350
61B
  0
DICTIONARY
  5
617
102
{ACAD_REACTORS
330
593
102
}
330
593
100
AcDbDictionary
281
     1
  0
DICTIONARY
  5
595
102
{ACAD_REACTORS
330
593
102
}
330
593
100
AcDbDictionary
281
     1
  3
STANDARD
350
596
  0
DICTIONARY
  5
61A
102
{ACAD_REACTORS
330
593
102
}
330
593
100
AcDbDictionary
281
     1
  0
ACDBDICTIONARYWDFLT
  5
615
102
{ACAD_REACTORS
330
593
102
}
330
593
100
AcDbDictionary
281
     1
  3
Normal
350
616
100
AcDbDictionaryWithDefault
340
616
  0
XRECORD
  5
3268
102
{ACAD_REACTORS
330
593
102
}
330
593
100
AcDbXrecord
280
     1
 90
   990106
  3

 60
     0
 61
     0
 62
     1
 63
     3
 64
     0
 65
     0
 66
     0
 67
     3
 68
     1
 69
     0
 70
     0
 71
     0
 72
     0
 40
25.0445657995416
170
     0
  0
DICTIONARY
  5
5F7B
102
{ACAD_REACTORS
330
593
102
}
330
593
100
AcDbDictionary
281
     1
  3
COLORDICT
350
5F7C
  3
MATERIALDICT
350
5F7D
  0
DICTIONARY
  5
5F73
102
{ACAD_REACTORS
330
593
102
}
330
593
100
AcDbDictionary
281
     1
  0
LAYOUT
  5
61C
102
{ACAD_REACTORS
330
619
102
}
330
619
100
AcDbPlotSettings
  1

  2
\\alderaan\HP LaserJet 4050 Ricerca
  4

  6

 40
0.0
 41
0.0
 42
0.0
 43
0.0
 44
0.0
 45
0.0
 46
0.0
 47
0.0
 48
0.0
 49
0.0
140
0.0
141
0.0
142
1.0
143
1.0
 70
   688
 72
     0
 73
     0
 74
     5
  7

 75
    16
147
1.0
148
0.0
149
0.0
100
AcDbLayout
  1
Layout1
 70
     0
 71
     1
 10
0.0
 20
0.0
 11
12.0
 21
9.0
 12
0.0
 22
0.0
 32
0.0
 14
1.000000000000000E+20
 24
1.000000000000000E+20
 34
1.000000000000000E+20
 15
-1.000000000000000E+20
 25
-1.000000000000000E+20
 35
-1.000000000000000E+20
146
0.0
 13
0.0
 23
0.0
 33
0.0
 16
1.0
 26
0.0
 36
0.0
 17
0.0
 27
1.0
 37
0.0
 76
     0
330
27
  0
LAYOUT
  5
61B
102
{ACAD_REACTORS
330
619
102
}
330
619
100
AcDbPlotSettings
  1

  2
\\alderaan\HP LaserJet 4050 Ricerca
  4
A4
  6

 40
5.027083396911621
 41
5.069430828094482
 42
5.365737915039062
 43
5.365753173828125
 44
209.8886566162109
 45
297.0530090332031
 46
0.254
 47
0.0
 48
259.215225634116
 49
-488.3976836719121
140
1317.037973125747
141
245.6809236204426
142
1.0
143
93.74398742770123
 70
 11956
 72
     0
 73
     1
 74
     4
  7

 75
     0
147
0.0106673508076583
148
-6584.066731106545
149
12405.30116526656
100
AcDbLayout
  1
Model
 70
     1
 71
     0
 10
0.0
 20
0.0
 11
12.0
 21
9.0
 12
0.0
 22
0.0
 32
0.0
 14
0.0
 24
0.0
 34
0.0
 15
0.0
 25
0.0
 35
0.0
146
0.0
 13
0.0
 23
0.0
 33
0.0
 16
1.0
 26
0.0
 36
0.0
 17
0.0
 27
1.0
 37
0.0
 76
     0
330
26
  0
MLINESTYLE
  5
596
102
{ACAD_REACTORS
330
595
102
}
330
595
100
AcDbMlineStyle
  2
STANDARD
 70
     0
  3

 62
     0
 51
90.00000000000019
 52
90.00000000000019
 71
     2
 49
0.5
 62
   256
  6
BYLAYER
 49
-0.5
 62
   256
  6
BYLAYER
  0
ACDBPLACEHOLDER
  5
616
102
{ACAD_REACTORS
330
615
102
}
330
615
  0
XRECORD
  5
5F7C
102
{ACAD_REACTORS
330
5F7B
102
}
330
5F7B
100
AcDbXrecord
280
     1
340
618
  0
XRECORD
  5
5F7D
102
{ACAD_REACTORS
330
5F7B
102
}
330
5F7B
100
AcDbXrecord
280
     1
340
617
  0
ENDSEC
  0
EOF
