  0
SECTION
  2
HEADER
  9
$ACADVER
  1
AC1015
  9
$ACADMAINTVER
 70
     6
  9
$DWGCODEPAGE
  3
ANSI_1252
  9
$INSBASE
 10
0.0
 20
0.0
 30
0.0
  9
$EXTMIN
 10
80.46286980856489
 20
-370.773169833776
 30
-18.8
  9
$EXTMAX
 10
1760.060663696097
 20
334.946701594559
 30
1.038894055499999
  9
$LIMMIN
 10
0.0
 20
0.0
  9
$LIMMAX
 10
420.0
 20
297.0
  9
$ORTHOMODE
 70
     0
  9
$REGENMODE
 70
     1
  9
$FILLMODE
 70
     1
  9
$QTEXTMODE
 70
     0
  9
$MIRRTEXT
 70
     1
  9
$LTSCALE
 40
23.1
  9
$ATTMODE
 70
     1
  9
$TEXTSIZE
 40
35.06651165617814
  9
$TRACEWID
 40
0.05
  9
$TEXTSTYLE
  7
STANDARD
  9
$CLAYER
  8
0
  9
$CELTYPE
  6
BYLAYER
  9
$CECOLOR
 62
   256
  9
$CELTSCALE
 40
1.0
  9
$DISPSILH
 70
     0
  9
$DIMSCALE
 40
1.0
  9
$DIMASZ
 40
0.18
  9
$DIMEXO
 40
0.0625
  9
$DIMDLI
 40
0.38
  9
$DIMRND
 40
0.0
  9
$DIMDLE
 40
0.0
  9
$DIMEXE
 40
0.18
  9
$DIMTP
 40
0.003
  9
$DIMTM
 40
0.003
  9
$DIMTXT
 40
1.5
  9
$DIMCEN
 40
0.09
  9
$DIMTSZ
 40
0.0
  9
$DIMTOL
 70
     1
  9
$DIMLIM
 70
     0
  9
$DIMTIH
 70
     1
  9
$DIMTOH
 70
     1
  9
$DIMSE1
 70
     0
  9
$DIMSE2
 70
     0
  9
$DIMTAD
 70
     0
  9
$DIMZIN
 70
     0
  9
$DIMBLK
  1

  9
$DIMASO
 70
     1
  9
$DIMSHO
 70
     1
  9
$DIMPOST
  1

  9
$DIMAPOST
  1

  9
$DIMALT
 70
     0
  9
$DIMALTD
 70
     2
  9
$DIMALTF
 40
25.4
  9
$DIMLFAC
 40
1.0
  9
$DIMTOFL
 70
     0
  9
$DIMTVP
 40
0.0
  9
$DIMTIX
 70
     0
  9
$DIMSOXD
 70
     0
  9
$DIMSAH
 70
     0
  9
$DIMBLK1
  1

  9
$DIMBLK2
  1

  9
$DIMSTYLE
  2
STANDARD
  9
$DIMCLRD
 70
     0
  9
$DIMCLRE
 70
     0
  9
$DIMCLRT
 70
     0
  9
$DIMTFAC
 40
1.0
  9
$DIMGAP
 40
0.09
  9
$DIMJUST
 70
     0
  9
$DIMSD1
 70
     0
  9
$DIMSD2
 70
     0
  9
$DIMTOLJ
 70
     1
  9
$DIMTZIN
 70
     0
  9
$DIMALTZ
 70
     0
  9
$DIMALTTZ
 70
     0
  9
$DIMUPT
 70
     0
  9
$DIMDEC
 70
     4
  9
$DIMTDEC
 70
     4
  9
$DIMALTU
 70
     2
  9
$DIMALTTD
 70
     2
  9
$DIMTXSTY
  7
STANDARD
  9
$DIMAUNIT
 70
     0
  9
$DIMADEC
 70
     0
  9
$DIMALTRND
 40
0.0
  9
$DIMAZIN
 70
     0
  9
$DIMDSEP
 70
    46
  9
$DIMATFIT
 70
     0
  9
$DIMFRAC
 70
     0
  9
$DIMLDRBLK
  1

  9
$DIMLUNIT
 70
     2
  9
$DIMLWD
 70
    -2
  9
$DIMLWE
 70
    -2
  9
$DIMTMOVE
 70
     0
  9
$LUNITS
 70
     2
  9
$LUPREC
 70
     4
  9
$SKETCHINC
 40
0.1
  9
$FILLETRAD
 40
0.0
  9
$AUNITS
 70
     0
  9
$AUPREC
 70
     0
  9
$MENU
  1
acad
  9
$ELEVATION
 40
0.0
  9
$PELEVATION
 40
0.0
  9
$THICKNESS
 40
0.0
  9
$LIMCHECK
 70
     0
  9
$CHAMFERA
 40
0.0
  9
$CHAMFERB
 40
0.0
  9
$CHAMFERC
 40
0.0
  9
$CHAMFERD
 40
0.0
  9
$SKPOLY
 70
     0
  9
$TDCREATE
 40
2444972.041666667
  9
$TDUCREATE
 40
2444972.0
  9
$TDUPDATE
 40
2453410.424062952
  9
$TDUUPDATE
 40
2453410.382396285
  9
$TDINDWG
 40
2.3157560069
  9
$TDUSRTIMER
 40
2.3157560069
  9
$USRTIMER
 70
     1
  9
$ANGBASE
 50
0.0
  9
$ANGDIR
 70
     0
  9
$PDMODE
 70
     0
  9
$PDSIZE
 40
0.0
  9
$PLINEWID
 40
0.0
  9
$SPLFRAME
 70
     0
  9
$SPLINETYPE
 70
     6
  9
$SPLINESEGS
 70
     8
  9
$HANDSEED
  5
5E55
  9
$SURFTAB1
 70
     6
  9
$SURFTAB2
 70
     6
  9
$SURFTYPE
 70
     6
  9
$SURFU
 70
     6
  9
$SURFV
 70
     6
  9
$UCSBASE
  2

  9
$UCSNAME
  2

  9
$UCSORG
 10
0.0
 20
0.0
 30
0.0
  9
$UCSXDIR
 10
1.0
 20
0.0
 30
0.0
  9
$UCSYDIR
 10
0.0
 20
1.0
 30
0.0
  9
$UCSORTHOREF
  2

  9
$UCSORTHOVIEW
 70
     0
  9
$UCSORGTOP
 10
0.0
 20
0.0
 30
0.0
  9
$UCSORGBOTTOM
 10
0.0
 20
0.0
 30
0.0
  9
$UCSORGLEFT
 10
0.0
 20
0.0
 30
0.0
  9
$UCSORGRIGHT
 10
0.0
 20
0.0
 30
0.0
  9
$UCSORGFRONT
 10
0.0
 20
0.0
 30
0.0
  9
$UCSORGBACK
 10
0.0
 20
0.0
 30
0.0
  9
$PUCSBASE
  2

  9
$PUCSNAME
  2

  9
$PUCSORG
 10
0.0
 20
0.0
 30
0.0
  9
$PUCSXDIR
 10
1.0
 20
0.0
 30
0.0
  9
$PUCSYDIR
 10
0.0
 20
1.0
 30
0.0
  9
$PUCSORTHOREF
  2

  9
$PUCSORTHOVIEW
 70
     0
  9
$PUCSORGTOP
 10
0.0
 20
0.0
 30
0.0
  9
$PUCSORGBOTTOM
 10
0.0
 20
0.0
 30
0.0
  9
$PUCSORGLEFT
 10
0.0
 20
0.0
 30
0.0
  9
$PUCSORGRIGHT
 10
0.0
 20
0.0
 30
0.0
  9
$PUCSORGFRONT
 10
0.0
 20
0.0
 30
0.0
  9
$PUCSORGBACK
 10
0.0
 20
0.0
 30
0.0
  9
$USERI1
 70
     0
  9
$USERI2
 70
     0
  9
$USERI3
 70
     0
  9
$USERI4
 70
     0
  9
$USERI5
 70
     0
  9
$USERR1
 40
0.0
  9
$USERR2
 40
0.0
  9
$USERR3
 40
0.0
  9
$USERR4
 40
0.0
  9
$USERR5
 40
0.0
  9
$WORLDVIEW
 70
     1
  9
$SHADEDGE
 70
     3
  9
$SHADEDIF
 70
    70
  9
$TILEMODE
 70
     1
  9
$MAXACTVP
 70
    16
  9
$PINSBASE
 10
0.0
 20
0.0
 30
0.0
  9
$PLIMCHECK
 70
     0
  9
$PEXTMIN
 10
1.000000000000000E+20
 20
1.000000000000000E+20
 30
1.000000000000000E+20
  9
$PEXTMAX
 10
-1.000000000000000E+20
 20
-1.000000000000000E+20
 30
-1.000000000000000E+20
  9
$PLIMMIN
 10
0.0
 20
0.0
  9
$PLIMMAX
 10
12.0
 20
9.0
  9
$UNITMODE
 70
     0
  9
$VISRETAIN
 70
     0
  9
$PLINEGEN
 70
     1
  9
$PSLTSCALE
 70
     0
  9
$TREEDEPTH
 70
  3020
  9
$CMLSTYLE
  2
STANDARD
  9
$CMLJUST
 70
     0
  9
$CMLSCALE
 40
1.0
  9
$PROXYGRAPHICS
 70
     1
  9
$MEASUREMENT
 70
     0
  9
$CELWEIGHT
370
    -1
  9
$ENDCAPS
280
     0
  9
$JOINSTYLE
280
     0
  9
$LWDISPLAY
290
     0
  9
$INSUNITS
 70
     0
  9
$HYPERLINKBASE
  1

  9
$STYLESHEET
  1

  9
$XEDIT
290
     1
  9
$CEPSNTYPE
380
     0
  9
$PSTYLEMODE
290
     1
  9
$FINGERPRINTGUID
  2
{9C19D7CE-BE25-492F-B456-B99F77E59DF7}
  9
$VERSIONGUID
  2
{2A2FE3F5-BDD9-4B15-A9D7-F5A7D4CB1E78}
  9
$EXTNAMES
290
     1
  9
$PSVPSCALE
 40
0.0
  9
$OLESTARTUP
290
     0
  0
ENDSEC
  0
SECTION
  2
CLASSES
  0
CLASS
  1
IMAGE
  2
AcDbRasterImage
  3
ISM
 90
      127
280
     0
281
     1
  0
CLASS
  1
DICTIONARYVAR
  2
AcDbDictionaryVar
  3
ObjectDBX Classes
 90
        0
280
     0
281
     0
  0
CLASS
  1
RASTERVARIABLES
  2
AcDbRasterVariables
  3
ISM
 90
        0
280
     0
281
     0
  0
CLASS
  1
IMAGEDEF
  2
AcDbRasterImageDef
  3
ISM
 90
        0
280
     0
281
     0
  0
CLASS
  1
IMAGEDEF_REACTOR
  2
AcDbRasterImageDefReactor
  3
ISM
 90
        1
280
     0
281
     0
  0
CLASS
  1
IDBUFFER
  2
AcDbIdBuffer
  3
ObjectDBX Classes
 90
        0
280
     0
281
     0
  0
CLASS
  1
SPATIAL_FILTER
  2
AcDbSpatialFilter
  3
ObjectDBX Classes
 90
        0
280
     0
281
     0
  0
CLASS
  1
SORTENTSTABLE
  2
AcDbSortentsTable
  3
ObjectDBX Classes
 90
        0
280
     0
281
     0
  0
CLASS
  1
LAYER_INDEX
  2
AcDbLayerIndex
  3
ObjectDBX Classes
 90
        0
280
     0
281
     0
  0
CLASS
  1
SPATIAL_INDEX
  2
AcDbSpatialIndex
  3
AutoCAD 2000
 90
        0
280
     0
281
     0
  0
CLASS
  1
OBJECT_PTR
  2
CAseDLPNTableRecord
  3
ASE-LPNTableRecord
 90
        1
280
     0
281
     0
  0
CLASS
  1
PLOTSETTINGS
  2
AcDbPlotSettings
  3
ObjectDBX Classes
 90
        0
280
     0
281
     0
  0
CLASS
  1
ACDBDICTIONARYWDFLT
  2
AcDbDictionaryWithDefault
  3
ObjectDBX Classes
 90
        0
280
     0
281
     0
  0
CLASS
  1
WIPEOUT
  2
AcDbWipeout
  3
WipeOut|AutoCAD Express Tool|expresstools@autodesk.com
 90
      127
280
     0
281
     1
  0
CLASS
  1
WIPEOUTVARIABLES
  2
AcDbWipeoutVariables
  3
WipeOut|AutoCAD Express Tool|expresstools@autodesk.com
 90
        0
280
     0
281
     0
  0
CLASS
  1
RTEXT
  2
RText
  3
RText|AutoCAD Express Tool|expresstools@autodesk.com
 90
        0
280
     0
281
     1
  0
CLASS
  1
ARCALIGNEDTEXT
  2
AcDbArcAlignedText
  3
ATEXT|AutoCAD Express Tool|expresstools@autodesk.com
 90
        0
280
     0
281
     1
  0
CLASS
  1
ACDBPLACEHOLDER
  2
AcDbPlaceHolder
  3
ObjectDBX Classes
 90
        0
280
     0
281
     0
  0
CLASS
  1
LAYOUT
  2
AcDbLayout
  3
ObjectDBX Classes
 90
        0
280
     0
281
     0
  0
ENDSEC
  0
SECTION
  2
TABLES
  0
TABLE
  2
VPORT
  5
6
330
0
100
AcDbSymbolTable
 70
     1
  0
VPORT
  5
5E4B
330
6
100
AcDbSymbolTableRecord
100
AcDbViewportTableRecord
  2
*Active
 70
     0
 10
0.0
 20
0.0
 11
1.0
 21
1.0
 12
530.4279855084697
 22
224.1872301753701
 13
0.0
 23
0.0
 14
1.0
 24
1.0
 15
0.0
 25
0.0
 16
0.0
 26
0.0
 36
1.0
 17
0.0
 27
0.0
 37
0.0
 40
116.5049700415075
 41
1.888667992047713
 42
50.0
 43
0.0
 44
0.0
 50
0.0
 51
0.0
 71
     0
 72
   100
 73
     1
 74
     1
 75
     0
 76
     0
 77
     0
 78
     0
281
     0
 65
     1
110
0.0
120
0.0
130
0.0
111
1.0
121
0.0
131
0.0
112
0.0
122
1.0
132
0.0
 79
     0
146
0.0
  0
ENDTAB
  0
TABLE
  2
LTYPE
  5
3
330
0
100
AcDbSymbolTable
 70
     2
  0
LTYPE
  5
C
330
3
100
AcDbSymbolTableRecord
100
AcDbLinetypeTableRecord
  2
BYBLOCK
 70
     0
  3

 72
    65
 73
     0
 40
0.0
  0
LTYPE
  5
D
330
3
100
AcDbSymbolTableRecord
100
AcDbLinetypeTableRecord
  2
BYLAYER
 70
     0
  3

 72
    65
 73
     0
 40
0.0
  0
LTYPE
  5
E
330
3
100
AcDbSymbolTableRecord
100
AcDbLinetypeTableRecord
  2
CONTINUOUS
 70
     0
  3
Solid line
 72
    65
 73
     0
 40
0.0
  0
LTYPE
  5
F
330
3
100
AcDbSymbolTableRecord
100
AcDbLinetypeTableRecord
  2
CENTER
 70
     0
  3
____ _ ____ _ ____ _ ____ _ ____ _ ____ _ ____
 72
    65
 73
     4
 40
0.6
 49
0.375
 74
     0
 49
-0.075
 74
     0
 49
0.075
 74
     0
 49
-0.075
 74
     0
  0
ENDTAB
  0
TABLE
  2
LAYER
  5
1
330
0
100
AcDbSymbolTable
 70
     2
  0
LAYER
  5
14
330
1
100
AcDbSymbolTableRecord
100
AcDbLayerTableRecord
  2
0
 70
     0
 62
     7
  6
CONTINUOUS
370
    -3
390
273
  0
LAYER
  5
27A
330
1
100
AcDbSymbolTableRecord
100
AcDbLayerTableRecord
  2
Defpoints
 70
     0
 62
     7
  6
CONTINUOUS
290
     0
370
    -3
390
273
  0
ENDTAB
  0
TABLE
  2
STYLE
  5
2
330
0
100
AcDbSymbolTable
 70
     1
  0
STYLE
  5
1B
330
2
100
AcDbSymbolTableRecord
100
AcDbTextStyleTableRecord
  2
STANDARD
 70
     0
 40
0.0
 41
1.0
 50
0.0
 71
     0
 42
35.06651165617814
  3
VERDANA.TTF
  4

1001
ACAD
1000
Verdana
1071
       34
  0
ENDTAB
  0
TABLE
  2
VIEW
  5
4
330
0
100
AcDbSymbolTable
 70
     0
  0
ENDTAB
  0
TABLE
  2
UCS
  5
5
330
0
100
AcDbSymbolTable
 70
     0
  0
ENDTAB
  0
TABLE
  2
APPID
  5
7
330
0
100
AcDbSymbolTable
 70
     1
  0
APPID
  5
19
330
7
100
AcDbSymbolTableRecord
100
AcDbRegAppTableRecord
  2
ACAD
 70
     0
  0
ENDTAB
  0
TABLE
  2
DIMSTYLE
  5
8
330
0
100
AcDbSymbolTable
 70
     1
100
AcDbDimStyleTable
  0
DIMSTYLE
105
28
330
8
100
AcDbSymbolTableRecord
100
AcDbDimStyleTableRecord
  2
STANDARD
 70
     0
 47
0.003
 48
0.003
 71
     1
140
1.5
289
     0
340
1B
  0
ENDTAB
  0
TABLE
  2
BLOCK_RECORD
  5
23
330
0
100
AcDbSymbolTable
 70
     0
  0
BLOCK_RECORD
  5
21
330
23
100
AcDbSymbolTableRecord
100
AcDbBlockTableRecord
  2
*MODEL_SPACE
340
276
  0
BLOCK_RECORD
  5
22
330
23
100
AcDbSymbolTableRecord
100
AcDbBlockTableRecord
  2
*PAPER_SPACE
340
277
  0
ENDTAB
  0
ENDSEC
  0
SECTION
  2
BLOCKS
  0
BLOCK
  5
24
330
21
100
AcDbEntity
  8
0
100
AcDbBlockBegin
  2
*MODEL_SPACE
 70
     0
 71
     0
 10
0.0
 20
0.0
 30
0.0
  3
*MODEL_SPACE
  1

  0
ENDBLK
  5
25
330
21
100
AcDbEntity
  8
0
100
AcDbBlockEnd
  0
BLOCK
  5
26
330
22
100
AcDbEntity
 67
     1
  8
0
100
AcDbBlockBegin
  2
*PAPER_SPACE
 70
     0
 71
     0
 10
0.0
 20
0.0
 30
0.0
  3
*PAPER_SPACE
  1

  0
ENDBLK
  5
27
330
22
100
AcDbEntity
 67
     1
  8
0
100
AcDbBlockEnd
  0
ENDSEC
  0
SECTION
  2
ENTITIES
  0
LINE
  5
4A9
330
21
100
AcDbEntity
  8
0
  6
Continuous
100
AcDbLine
 10
522.9440932481029
 20
203.2815751711765
 30
0.0
 11
524.4237205680362
 21
204.7612024911099
 31
0.0
  0
LINE
  5
4AA
330
21
100
AcDbEntity
  8
0
  6
Continuous
100
AcDbLine
 10
510.4237205680363
 20
203.2815751711765
 30
0.0
 11
524.4237205680364
 21
203.2815751711765
 31
0.0
  0
LINE
  5
4AB
330
21
100
AcDbEntity
  8
0
  6
CENTER
100
AcDbLine
 10
556.0571645573045
 20
230.28157550401
 30
0.0
 11
478.8579415578133
 21
230.28157550401
 31
0.0
  0
ARC
  5
4AC
330
21
100
AcDbEntity
  8
0
  6
Continuous
100
AcDbCircle
 10
495.2894059929364
 20
206.6815755040099
 30
0.0
 40
0.4
100
AcDbArc
 50
224.9999999966008
 51
270.0
  0
ARC
  5
4AD
330
21
100
AcDbEntity
  8
0
  6
Continuous
100
AcDbCircle
 10
504.0580351430363
 20
206.6815755040099
 30
0.0
 40
0.4
100
AcDbArc
 50
269.9999999999023
 51
315.0000000071023
  0
ARC
  5
4AE
330
21
100
AcDbEntity
  8
0
  6
Continuous
100
AcDbCircle
 10
506.8379341303364
 20
207.4815755040099
 30
0.0
 40
1.0
100
AcDbArc
 50
90.0
 51
135.000000003299
  0
ARC
  5
4AF
330
21
100
AcDbEntity
  8
0
  6
Continuous
100
AcDbCircle
 10
525.4237205680363
 20
207.4815755040099
 30
0.0
 40
1.0
100
AcDbArc
 50
90.0
 51
179.9999999999006
  0
ARC
  5
4B0
330
21
100
AcDbEntity
  8
0
  6
Continuous
100
AcDbCircle
 10
528.0095070056364
 20
207.4815755040099
 30
0.0
 40
1.0
100
AcDbArc
 50
44.99999999680118
 51
90.00000000009769
  0
ARC
  5
4B1
330
21
100
AcDbEntity
  8
0
  6
Continuous
100
AcDbCircle
 10
530.7894059929363
 20
206.6815755040099
 30
0.0
 40
0.4
100
AcDbArc
 50
224.9999999966008
 51
270.0
  0
ARC
  5
4B2
330
21
100
AcDbEntity
  8
0
  6
Continuous
100
AcDbCircle
 10
539.5580351430363
 20
206.6815755040099
 30
0.0
 40
0.4
100
AcDbArc
 50
269.9999999999023
 51
315.0000000071023
  0
ARC
  5
4B3
330
21
100
AcDbEntity
  8
0
  6
Continuous
100
AcDbCircle
 10
541.6237205680363
 20
208.7472609290099
 30
0.0
 40
0.4
100
AcDbArc
 50
314.9999999962991
 51
0.0
  0
ARC
  5
4B4
330
21
100
AcDbEntity
  8
0
  6
Continuous
100
AcDbCircle
 10
493.2237205680364
 20
208.7472609290099
 30
0.0
 40
0.4
100
AcDbArc
 50
180.0000000002996
 51
225.000000003299
  0
ARC
  5
4B5
330
21
100
AcDbEntity
  8
0
  6
Continuous
100
AcDbCircle
 10
509.4237205680363
 20
207.4815755040099
 30
0.0
 40
1.0
100
AcDbArc
 50
0.0000000000993351
 51
90.0
  0
ARC
  5
4B6
330
21
100
AcDbEntity
  8
0
  6
Continuous
100
AcDbCircle
 10
541.0237205680362
 20
209.2815755040099
 30
0.0
 40
1.0
100
AcDbArc
 50
0.0
 51
90.0
  0
ARC
  5
4B7
330
21
100
AcDbEntity
  8
0
  6
Continuous
100
AcDbCircle
 10
536.6237205680363
 20
211.2815755040099
 30
0.0
 40
1.0
100
AcDbArc
 50
180.0000000002002
 51
270.0
  0
ARC
  5
4B8
330
21
100
AcDbEntity
  8
0
  6
Continuous
100
AcDbCircle
 10
534.6237205680363
 20
213.2815755040099
 30
0.0
 40
1.0
100
AcDbArc
 50
0.0
 51
90.0
  0
ARC
  5
4B9
330
21
100
AcDbEntity
  8
0
  6
Continuous
100
AcDbCircle
 10
493.8237205680364
 20
209.2815755040099
 30
0.0
 40
1.0
100
AcDbArc
 50
90.0
 51
180.0
  0
ARC
  5
4BA
330
21
100
AcDbEntity
  8
0
  6
Continuous
100
AcDbCircle
 10
498.2237205680363
 20
211.2815755040099
 30
0.0
 40
1.0
100
AcDbArc
 50
270.0
 51
0.0
  0
ARC
  5
4BB
330
21
100
AcDbEntity
  8
0
  6
Continuous
100
AcDbCircle
 10
500.2237205680363
 20
213.2815755040099
 30
0.0
 40
1.0
100
AcDbArc
 50
90.0
 51
180.0
  0
ARC
  5
4BC
330
21
100
AcDbEntity
  8
0
  6
Continuous
100
AcDbCircle
 10
541.6237205680363
 20
251.8158904119434
 30
0.0
 40
0.4
100
AcDbArc
 50
0.0
 51
44.99999964970021
  0
ARC
  5
4BD
330
21
100
AcDbEntity
  8
0
  6
Continuous
100
AcDbCircle
 10
539.5580351430363
 20
253.8815758368433
 30
0.0
 40
0.4
100
AcDbArc
 50
44.99999738450013
 51
89.9999999372984
  0
ARC
  5
4BE
330
21
100
AcDbEntity
  8
0
  6
Continuous
100
AcDbCircle
 10
495.2894059929364
 20
253.8815758368433
 30
0.0
 40
0.4
100
AcDbArc
 50
90.0
 51
135.0000000097001
  0
ARC
  5
4BF
330
21
100
AcDbEntity
  8
0
  6
Continuous
100
AcDbCircle
 10
493.2237205680364
 20
251.8158904119434
 30
0.0
 40
0.4
100
AcDbArc
 50
135.0000036170984
 51
180.0
  0
ARC
  5
4C0
330
21
100
AcDbEntity
  8
0
  6
Continuous
100
AcDbCircle
 10
530.7894059929363
 20
253.8815758368433
 30
0.0
 40
0.4
100
AcDbArc
 50
90.0
 51
135.0000000093984
  0
ARC
  5
4C1
330
21
100
AcDbEntity
  8
0
  6
Continuous
100
AcDbCircle
 10
504.0580351430363
 20
253.8815758368433
 30
0.0
 40
0.4
100
AcDbArc
 50
44.99999738099962
 51
89.99999993720068
  0
ARC
  5
4C2
330
21
100
AcDbEntity
  8
0
  6
Continuous
100
AcDbCircle
 10
509.4237205680363
 20
253.0815758368434
 30
0.0
 40
1.0
100
AcDbArc
 50
270.0
 51
359.9999996269007
  0
ARC
  5
4C3
330
21
100
AcDbEntity
  8
0
  6
Continuous
100
AcDbCircle
 10
506.8379341303364
 20
253.0815758368434
 30
0.0
 40
1.0
100
AcDbArc
 50
225.0000004327
 51
270.0
  0
ARC
  5
4C4
330
21
100
AcDbEntity
  8
0
  6
Continuous
100
AcDbCircle
 10
528.0095070056364
 20
253.0815758368434
 30
0.0
 40
1.0
100
AcDbArc
 50
270.000000021502
 51
314.9999996527021
  0
ARC
  5
4C5
330
21
100
AcDbEntity
  8
0
  6
Continuous
100
AcDbCircle
 10
525.4237205680364
 20
253.0815758368434
 30
0.0
 40
1.0
100
AcDbArc
 50
180.0000044178008
 51
270.0
  0
LINE
  5
4C6
330
21
100
AcDbEntity
  8
0
  6
Continuous
100
AcDbLine
 10
539.8408778555363
 20
206.3987327915099
 30
0.0
 11
541.9065632804363
 21
208.4644182165099
 31
0.0
  0
LINE
  5
4C7
330
21
100
AcDbEntity
  8
0
  6
Continuous
100
AcDbLine
 10
537.0418751706363
 20
206.2815755040099
 30
0.0
 11
541.0393929147363
 21
210.27909324811
 31
0.0
  0
LINE
  5
4C8
330
21
100
AcDbEntity
  8
0
  6
Continuous
100
AcDbLine
 10
534.2674297732362
 20
206.2815755040099
 30
0.0
 11
538.2674297732362
 21
210.2815755040099
 31
0.0
  0
LINE
  5
4C9
330
21
100
AcDbEntity
  8
0
  6
Continuous
100
AcDbLine
 10
531.4929843758363
 20
206.2815755040099
 30
0.0
 11
535.8599513532363
 21
210.6485424815099
 31
0.0
  0
LINE
  5
4CA
330
21
100
AcDbEntity
  8
0
  6
Continuous
100
AcDbLine
 10
529.6711297732363
 20
207.23416629881
 30
0.0
 11
535.6237205680363
 21
213.1867570936099
 31
0.0
  0
LINE
  5
4CB
330
21
100
AcDbEntity
  8
0
  6
Continuous
100
AcDbLine
 10
542.0237205680363
 20
230.28157550401
 30
0.0
 11
542.0237205680363
 21
208.7472609290099
 31
0.0
  0
LINE
  5
4CC
330
21
100
AcDbEntity
  8
0
  6
Continuous
100
AcDbLine
 10
528.1284362477363
 20
208.4659181707099
 30
0.0
 11
533.9440935809363
 21
214.2815755040099
 31
0.0
  0
LINE
  5
4CD
330
21
100
AcDbEntity
  8
0
  6
Continuous
100
AcDbLine
 10
541.0237205680364
 20
230.28157550401
 30
0.0
 11
541.0237205680362
 21
210.2815755040099
 31
0.0
  0
LINE
  5
4CE
330
21
100
AcDbEntity
  8
0
  6
Continuous
100
AcDbLine
 10
525.3594722494362
 20
208.4713995699099
 30
0.0
 11
531.1696481835363
 21
214.2815755040099
 31
0.0
  0
LINE
  5
4CF
330
21
100
AcDbEntity
  8
0
  6
Continuous
100
AcDbLine
 10
520.1696478507029
 20
203.2815751711765
 30
0.0
 11
524.4338965011364
 21
207.5458238216099
 31
0.0
  0
LINE
  5
4D0
330
21
100
AcDbEntity
  8
0
  6
Continuous
100
AcDbLine
 10
517.3952024533029
 20
203.2815751711765
 30
0.0
 11
528.3952027861363
 21
214.2815755040099
 31
0.0
  0
LINE
  5
4D1
330
21
100
AcDbEntity
  8
0
  6
Continuous
100
AcDbLine
 10
536.6237205680363
 20
230.28157550401
 30
0.0
 11
536.6237205680363
 21
210.2815755040099
 31
0.0
  0
LINE
  5
4D2
330
21
100
AcDbEntity
  8
0
  6
Continuous
100
AcDbLine
 10
514.6207570559028
 20
203.2815751711765
 30
0.0
 11
525.6207573887364
 21
214.2815755040099
 31
0.0
  0
LINE
  5
4D3
330
21
100
AcDbEntity
  8
0
  6
Continuous
100
AcDbLine
 10
535.6237205680363
 20
211.2815755040099
 30
0.0
 11
535.6237205680363
 21
230.28157550401
 31
0.0
  0
LINE
  5
4D4
330
21
100
AcDbEntity
  8
0
  6
Continuous
100
AcDbLine
 10
534.6237205680363
 20
214.2815755040099
 30
0.0
 11
534.6237205680363
 21
230.28157550401
 31
0.0
  0
LINE
  5
4D5
330
21
100
AcDbEntity
  8
0
  6
Continuous
100
AcDbLine
 10
511.8463116585029
 20
203.2815751711765
 30
0.0
 11
522.8463119913364
 21
214.2815755040099
 31
0.0
  0
LINE
  5
4D6
330
21
100
AcDbEntity
  8
0
  6
Continuous
100
AcDbLine
 10
510.4237205680362
 20
204.6334294781099
 30
0.0
 11
520.0718665939364
 21
214.2815755040099
 31
0.0
  0
LINE
  5
4D7
330
21
100
AcDbEntity
  8
0
  6
Continuous
100
AcDbLine
 10
510.4237205680362
 20
207.4078748755099
 30
0.0
 11
517.2974211965363
 21
214.2815755040099
 31
0.0
  0
LINE
  5
4D8
330
21
100
AcDbEntity
  8
0
  6
Continuous
100
AcDbLine
 10
508.7229757991362
 20
208.4815755040099
 30
0.0
 11
514.5229757991363
 21
214.2815755040099
 31
0.0
  0
LINE
  5
4D9
330
21
100
AcDbEntity
  8
0
  6
Continuous
100
AcDbLine
 10
504.3408778555362
 20
206.3987327915099
 30
0.0
 11
506.1308273492364
 21
208.18868228521
 31
0.0
  0
LINE
  5
4DA
330
21
100
AcDbEntity
  8
0
  6
Continuous
100
AcDbLine
 10
503.7485304017364
 20
206.2815755040099
 30
0.0
 11
511.7485304017363
 21
214.2815755040099
 31
0.0
  0
LINE
  5
4DB
330
21
100
AcDbEntity
  8
0
  6
Continuous
100
AcDbLine
 10
500.9740850043363
 20
206.2815755040099
 30
0.0
 11
508.9740850043362
 21
214.2815755040099
 31
0.0
  0
LINE
  5
4DC
330
21
100
AcDbEntity
  8
0
  6
Continuous
100
AcDbLine
 10
524.4237205680362
 20
207.4815755040099
 30
0.0
 11
524.4237205680362
 21
203.2815751711765
 31
0.0
  0
LINE
  5
4DD
330
21
100
AcDbEntity
  8
0
  6
Continuous
100
AcDbLine
 10
498.1996396069363
 20
206.2815755040099
 30
0.0
 11
506.1996396069363
 21
214.2815755040099
 31
0.0
  0
LINE
  5
4DE
330
21
100
AcDbEntity
  8
0
  6
Continuous
100
AcDbLine
 10
495.4251942095363
 20
206.2815755040099
 30
0.0
 11
503.4251942095363
 21
214.2815755040099
 31
0.0
  0
LINE
  5
4DF
330
21
100
AcDbEntity
  8
0
  6
Continuous
100
AcDbLine
 10
499.2237205680363
 20
212.8545472599099
 30
0.0
 11
500.6507488121363
 21
214.2815755040099
 31
0.0
  0
LINE
  5
4E0
330
21
100
AcDbEntity
  8
0
  6
Continuous
100
AcDbLine
 10
493.8872346900364
 20
207.5180613820099
 30
0.0
 11
496.6507488121363
 21
210.2815755040099
 31
0.0
  0
LINE
  5
4E1
330
21
100
AcDbEntity
  8
0
  6
Continuous
100
AcDbLine
 10
492.8237205680363
 20
209.22899265731
 30
0.0
 11
493.8763034147363
 21
210.2815755040099
 31
0.0
  0
LINE
  5
4E2
330
21
100
AcDbEntity
  8
0
  6
Continuous
100
AcDbLine
 10
528.7166137868362
 20
208.18868228521
 30
0.0
 11
530.5065632804364
 21
206.3987327915099
 31
0.0
  0
LINE
  5
4E3
330
21
100
AcDbEntity
  8
0
  6
Continuous
100
AcDbLine
 10
510.4237205680362
 20
207.4815755040099
 30
0.0
 11
510.4237205680362
 21
203.2815751711765
 31
0.0
  0
LINE
  5
4E4
330
21
100
AcDbEntity
  8
0
  6
Continuous
100
AcDbLine
 10
534.6237205680363
 20
214.2815755040099
 30
0.0
 11
500.2237205680363
 21
214.2815755040099
 31
0.0
  0
LINE
  5
4E5
330
21
100
AcDbEntity
  8
0
  6
Continuous
100
AcDbLine
 10
500.2237205680363
 20
214.2815755040099
 30
0.0
 11
500.2237205680363
 21
230.28157550401
 31
0.0
  0
LINE
  5
4E6
330
21
100
AcDbEntity
  8
0
  6
Continuous
100
AcDbLine
 10
499.2237205680363
 20
211.2815755040099
 30
0.0
 11
499.2237205680363
 21
230.28157550401
 31
0.0
  0
LINE
  5
4E7
330
21
100
AcDbEntity
  8
0
  6
Continuous
100
AcDbLine
 10
498.2237205680363
 20
210.2815755040099
 30
0.0
 11
493.8237205680364
 21
210.2815755040099
 31
0.0
  0
LINE
  5
4E8
330
21
100
AcDbEntity
  8
0
  6
Continuous
100
AcDbLine
 10
541.0237205680362
 20
210.2815755040099
 30
0.0
 11
536.6237205680363
 21
210.2815755040099
 31
0.0
  0
LINE
  5
4E9
330
21
100
AcDbEntity
  8
0
  6
Continuous
100
AcDbLine
 10
498.2237205680363
 20
230.28157550401
 30
0.0
 11
498.2237205680363
 21
210.2815755040099
 31
0.0
  0
LINE
  5
4EA
330
21
100
AcDbEntity
  8
0
  6
Continuous
100
AcDbLine
 10
525.4237205680363
 20
208.4815755040099
 30
0.0
 11
528.0095070056364
 21
208.4815755040099
 31
0.0
  0
LINE
  5
4EB
330
21
100
AcDbEntity
  8
0
  6
Continuous
100
AcDbLine
 10
506.8379341303364
 20
208.4815755040099
 30
0.0
 11
509.4237205680363
 21
208.4815755040099
 31
0.0
  0
LINE
  5
4EC
330
21
100
AcDbEntity
  8
0
  6
Continuous
100
AcDbLine
 10
493.4237205680362
 20
207.9815755040099
 30
0.0
 11
505.9237205680362
 21
207.9815755040099
 31
0.0
  0
LINE
  5
4ED
330
21
100
AcDbEntity
  8
0
  6
Continuous
100
AcDbLine
 10
541.4237205680363
 20
207.9815755040099
 30
0.0
 11
528.9237205680363
 21
207.9815755040099
 31
0.0
  0
LINE
  5
4EE
330
21
100
AcDbEntity
  8
0
  6
Continuous
100
AcDbLine
 10
530.7894059929363
 20
206.2815755040099
 30
0.0
 11
539.5580351430363
 21
206.2815755040099
 31
0.0
  0
LINE
  5
4EF
330
21
100
AcDbEntity
  8
0
  6
Continuous
100
AcDbLine
 10
495.2894059929364
 20
206.2815755040099
 30
0.0
 11
504.0580351430363
 21
206.2815755040099
 31
0.0
  0
LINE
  5
4F0
330
21
100
AcDbEntity
  8
0
  6
Continuous
100
AcDbLine
 10
493.8237205680364
 20
210.2815755040099
 30
0.0
 11
493.8237205680364
 21
230.28157550401
 31
0.0
  0
LINE
  5
4F1
330
21
100
AcDbEntity
  8
0
  6
Continuous
100
AcDbLine
 10
492.8237205680363
 20
230.28157550401
 30
0.0
 11
492.8237205680363
 21
208.7472609290099
 31
0.0
  0
LINE
  5
4F2
330
21
100
AcDbEntity
  8
0
  6
Continuous
100
AcDbLine
 10
492.9408778555362
 20
208.4644182165099
 30
0.0
 11
495.0065632804363
 21
206.3987327915099
 31
0.0
  0
LINE
  5
4F3
330
21
100
AcDbEntity
  8
0
  6
Continuous
100
AcDbLine
 10
539.8408778684363
 20
254.1644185364433
 30
0.0
 11
541.9065632822365
 21
252.0987331226434
 31
0.0
  0
LINE
  5
4F4
330
21
100
AcDbEntity
  8
0
  6
Continuous
100
AcDbLine
 10
510.4237205680363
 20
257.2815758368433
 30
0.0
 11
524.4237205680364
 21
257.2815758368433
 31
0.0
  0
LINE
  5
4F5
330
21
100
AcDbEntity
  8
0
  6
Continuous
100
AcDbLine
 10
524.4237205680364
 20
257.1441530767434
 30
0.0
 11
510.4237205680363
 21
257.1441530767434
 31
0.0
  0
LINE
  5
4F6
330
21
100
AcDbEntity
  8
0
  6
Continuous
100
AcDbLine
 10
524.4237205680364
 20
256.8863833480433
 30
0.0
 11
510.4237205680363
 21
256.8863833480433
 31
0.0
  0
LINE
  5
4F7
330
21
100
AcDbEntity
  8
0
  6
Continuous
100
AcDbLine
 10
530.7894059929363
 20
254.2815758368433
 30
0.0
 11
539.5580351435362
 21
254.2815758368433
 31
0.0
  0
LINE
  5
4F8
330
21
100
AcDbEntity
  8
0
  6
Continuous
100
AcDbLine
 10
495.2894059929364
 20
254.2815758368433
 30
0.0
 11
504.0580351435363
 21
254.2815758368433
 31
0.0
  0
LINE
  5
4F9
330
21
100
AcDbEntity
  8
0
  6
Continuous
100
AcDbLine
 10
493.4237205680363
 20
252.5815758368434
 30
0.0
 11
505.9237205680363
 21
252.5815758368434
 31
0.0
  0
LINE
  5
4FA
330
21
100
AcDbEntity
  8
0
  6
Continuous
100
AcDbLine
 10
541.4237205680364
 20
252.5815758368434
 30
0.0
 11
528.9237205680364
 21
252.5815758368434
 31
0.0
  0
LINE
  5
4FB
330
21
100
AcDbEntity
  8
0
  6
Continuous
100
AcDbLine
 10
542.0237205680364
 20
251.8158904119434
 30
0.0
 11
542.0237205680363
 21
230.28157550401
 31
0.0
  0
LINE
  5
4FC
330
21
100
AcDbEntity
  8
0
  6
Continuous
100
AcDbLine
 10
541.9065632813364
 20
230.2815755040099
 30
0.0
 11
541.9065632813364
 21
252.0987331235434
 31
0.0
  0
LINE
  5
4FD
330
21
100
AcDbEntity
  8
0
  6
Continuous
100
AcDbLine
 10
541.4237190421363
 20
230.28157550401
 30
0.0
 11
541.4237190421363
 21
252.5815750739433
 31
0.0
  0
LINE
  5
4FE
330
21
100
AcDbEntity
  8
0
  6
Continuous
100
AcDbLine
 10
539.8408778680363
 20
230.2815755040099
 30
0.0
 11
539.8408778680363
 21
254.1644185368434
 31
0.0
  0
LINE
  5
4FF
330
21
100
AcDbEntity
  8
0
  6
Continuous
100
AcDbLine
 10
525.4237205680364
 20
252.0815758368434
 30
0.0
 11
528.0095070060363
 21
252.0815758368434
 31
0.0
  0
LINE
  5
500
330
21
100
AcDbEntity
  8
0
  6
Continuous
100
AcDbLine
 10
506.8379341303364
 20
252.0815758368434
 30
0.0
 11
509.4237205680363
 21
252.0815758368434
 31
0.0
  0
LINE
  5
501
330
21
100
AcDbEntity
  8
0
  6
Continuous
100
AcDbLine
 10
539.5580351434363
 20
230.2815755040099
 30
0.0
 11
539.5580351434364
 21
254.2815758368433
 31
0.0
  0
LINE
  5
502
330
21
100
AcDbEntity
  8
0
  6
Continuous
100
AcDbLine
 10
510.4237205680363
 20
246.6316283534434
 30
0.0
 11
524.4237205680364
 21
246.6316283534434
 31
0.0
  0
LINE
  5
503
330
21
100
AcDbEntity
  8
0
  6
Continuous
100
AcDbLine
 10
510.4237205680363
 20
246.0690176825433
 30
0.0
 11
524.4237205680364
 21
246.0690176825433
 31
0.0
  0
LINE
  5
504
330
21
100
AcDbEntity
  8
0
  6
Continuous
100
AcDbLine
 10
530.7894059929363
 20
230.28157550401
 30
0.0
 11
530.7894059929363
 21
254.2815758368433
 31
0.0
  0
LINE
  5
505
330
21
100
AcDbEntity
  8
0
  6
Continuous
100
AcDbLine
 10
530.5065632804364
 20
230.28157550401
 30
0.0
 11
530.5065632804364
 21
254.1644185493434
 31
0.0
  0
LINE
  5
506
330
21
100
AcDbEntity
  8
0
  6
Continuous
100
AcDbLine
 10
524.4237205680364
 20
241.3567112310434
 30
0.0
 11
510.4237205680363
 21
241.3567112310434
 31
0.0
  0
LINE
  5
507
330
21
100
AcDbEntity
  8
0
  6
Continuous
100
AcDbLine
 10
524.4237205680364
 20
240.5363308315433
 30
0.0
 11
510.4237205680363
 21
240.5363308315433
 31
0.0
  0
LINE
  5
508
330
21
100
AcDbEntity
  8
0
  6
Continuous
100
AcDbLine
 10
528.9237190421363
 20
230.28157550401
 30
0.0
 11
528.9237190421363
 21
252.5815750739433
 31
0.0
  0
LINE
  5
509
330
21
100
AcDbEntity
  8
0
  6
Continuous
100
AcDbLine
 10
528.7166137817364
 20
252.3744690506434
 30
0.0
 11
528.7166137817364
 21
230.28157550401
 31
0.0
  0
LINE
  5
50A
330
21
100
AcDbEntity
  8
0
  6
Continuous
100
AcDbLine
 10
528.0095070060363
 20
252.0815758368434
 30
0.0
 11
528.0095070060363
 21
230.28157550401
 31
0.0
  0
LINE
  5
50B
330
21
100
AcDbEntity
  8
0
  6
Continuous
100
AcDbLine
 10
504.3408778684363
 20
254.1644185364433
 30
0.0
 11
506.1308273545364
 21
252.3744690503434
 31
0.0
  0
LINE
  5
50C
330
21
100
AcDbEntity
  8
0
  6
Continuous
100
AcDbLine
 10
525.4237205680364
 20
252.0815758368434
 30
0.0
 11
525.4237205680364
 21
230.28157550401
 31
0.0
  0
LINE
  5
50D
330
21
100
AcDbEntity
  8
0
  6
Continuous
100
AcDbLine
 10
524.4237205680364
 20
230.28157550401
 30
0.0
 11
524.4237205680364
 21
257.2815758368433
 31
0.0
  0
LINE
  5
50E
330
21
100
AcDbEntity
  8
0
  6
Continuous
100
AcDbLine
 10
528.7166137825363
 20
252.3744690514433
 30
0.0
 11
530.5065632804364
 21
254.1644185493434
 31
0.0
  0
LINE
  5
50F
330
21
100
AcDbEntity
  8
0
  6
Continuous
100
AcDbLine
 10
510.4237205680363
 20
230.28157550401
 30
0.0
 11
510.4237205680363
 21
257.2815758368433
 31
0.0
  0
LINE
  5
510
330
21
100
AcDbEntity
  8
0
  6
Continuous
100
AcDbLine
 10
509.4237205680363
 20
252.0815758368434
 30
0.0
 11
509.4237205680363
 21
230.28157550401
 31
0.0
  0
LINE
  5
511
330
21
100
AcDbEntity
  8
0
  6
Continuous
100
AcDbLine
 10
506.8379341303364
 20
252.0815758368434
 30
0.0
 11
506.8379341303364
 21
230.28157550401
 31
0.0
  0
LINE
  5
512
330
21
100
AcDbEntity
  8
0
  6
Continuous
100
AcDbLine
 10
506.1308273553363
 20
252.3744690495433
 30
0.0
 11
506.1308273553363
 21
230.28157550401
 31
0.0
  0
LINE
  5
513
330
21
100
AcDbEntity
  8
0
  6
Continuous
100
AcDbLine
 10
505.9237209494364
 20
252.5815750739433
 30
0.0
 11
505.9237209494364
 21
230.28157550401
 31
0.0
  0
LINE
  5
514
330
21
100
AcDbEntity
  8
0
  6
Continuous
100
AcDbLine
 10
504.3408778680364
 20
230.2815755040099
 30
0.0
 11
504.3408778680364
 21
254.1644185368434
 31
0.0
  0
LINE
  5
515
330
21
100
AcDbEntity
  8
0
  6
Continuous
100
AcDbLine
 10
504.0580351434364
 20
230.2815755040099
 30
0.0
 11
504.0580351434364
 21
254.2815758368433
 31
0.0
  0
LINE
  5
516
330
21
100
AcDbEntity
  8
0
  6
Continuous
100
AcDbLine
 10
495.2894059929364
 20
230.28157550401
 30
0.0
 11
495.2894059929364
 21
254.2815758368433
 31
0.0
  0
LINE
  5
517
330
21
100
AcDbEntity
  8
0
  6
Continuous
100
AcDbLine
 10
495.0065632804363
 20
230.28157550401
 30
0.0
 11
495.0065632804363
 21
254.1644185493434
 31
0.0
  0
LINE
  5
518
330
21
100
AcDbEntity
  8
0
  6
Continuous
100
AcDbLine
 10
493.4237205918363
 20
252.5815750739433
 30
0.0
 11
493.4237205918363
 21
230.28157550401
 31
0.0
  0
LINE
  5
519
330
21
100
AcDbEntity
  8
0
  6
Continuous
100
AcDbLine
 10
492.9408778388363
 20
230.2815755040099
 30
0.0
 11
492.9408778388363
 21
252.0987331077434
 31
0.0
  0
LINE
  5
51A
330
21
100
AcDbEntity
  8
0
  6
Continuous
100
AcDbLine
 10
492.8237205680363
 20
230.28157550401
 30
0.0
 11
492.8237205680363
 21
251.8156187339434
 31
0.0
  0
LINE
  5
51B
330
21
100
AcDbEntity
  8
0
  6
Continuous
100
AcDbLine
 10
492.9408778376364
 20
252.0987331065434
 30
0.0
 11
495.0065632804363
 21
254.1644185493434
 31
0.0
  0
MTEXT
  5
2E3E
330
21
100
AcDbEntity
  8
0
100
AcDbMText
 10
2320.303926075331
 20
185.571951966812
 30
0.0
 40
0.18
 41
14.68390410115808
 71
     9
 72
     1
  1
\A1;
 73
     1
 44
1.0
  0
ENDSEC
  0
SECTION
  2
OBJECTS
  0
DICTIONARY
  5
232
330
0
100
AcDbDictionary
281
     1
  3
ACAD_COLOR
350
2B7
  3
ACAD_GROUP
350
233
  3
ACAD_LAYOUT
350
274
  3
ACAD_MATERIAL
350
2B6
  3
ACAD_MLINESTYLE
350
234
  3
ACAD_PLOTSETTINGS
350
275
  3
ACAD_PLOTSTYLENAME
350
272
  3
ACDBHEADERROUNDTRIPXREC
350
5E52
  3
AcDbVariableDictionary
350
2AE
  0
DICTIONARY
  5
2B7
102
{ACAD_REACTORS
330
232
102
}
330
232
100
AcDbDictionary
281
     1
  0
DICTIONARY
  5
233
102
{ACAD_REACTORS
330
232
102
}
330
232
100
AcDbDictionary
281
     1
  0
DICTIONARY
  5
274
102
{ACAD_REACTORS
330
232
102
}
330
232
100
AcDbDictionary
281
     1
  3
Layout1
350
277
  3
Model
350
276
  0
DICTIONARY
  5
2B6
102
{ACAD_REACTORS
330
232
102
}
330
232
100
AcDbDictionary
281
     1
  0
DICTIONARY
  5
234
102
{ACAD_REACTORS
330
232
102
}
330
232
100
AcDbDictionary
281
     1
  3
STANDARD
350
235
  0
DICTIONARY
  5
275
102
{ACAD_REACTORS
330
232
102
}
330
232
100
AcDbDictionary
281
     1
  0
ACDBDICTIONARYWDFLT
  5
272
102
{ACAD_REACTORS
330
232
102
}
330
232
100
AcDbDictionary
281
     1
  3
Normal
350
273
100
AcDbDictionaryWithDefault
340
273
  0
DICTIONARY
  5
5E52
102
{ACAD_REACTORS
330
232
102
}
330
232
100
AcDbDictionary
281
     1
  3
COLORDICT
350
5E53
  3
MATERIALDICT
350
5E54
  0
DICTIONARY
  5
2AE
102
{ACAD_REACTORS
330
232
102
}
330
232
100
AcDbDictionary
281
     1
  0
LAYOUT
  5
277
102
{ACAD_REACTORS
330
274
102
}
330
274
100
AcDbPlotSettings
  1

  2
\\alderaan\HP LaserJet 5Si/5Si MX PS Tecnico
  4

  6

 40
0.0
 41
0.0
 42
0.0
 43
0.0
 44
0.0
 45
0.0
 46
0.0
 47
0.0
 48
0.0
 49
0.0
140
0.0
141
0.0
142
1.0
143
1.0
 70
   688
 72
     0
 73
     0
 74
     5
  7

 75
    16
147
1.0
148
0.0
149
0.0
100
AcDbLayout
  1
Layout1
 70
     0
 71
     1
 10
0.0
 20
0.0
 11
12.0
 21
9.0
 12
0.0
 22
0.0
 32
0.0
 14
1.000000000000000E+20
 24
1.000000000000000E+20
 34
1.000000000000000E+20
 15
-1.000000000000000E+20
 25
-1.000000000000000E+20
 35
-1.000000000000000E+20
146
0.0
 13
0.0
 23
0.0
 33
0.0
 16
1.0
 26
0.0
 36
0.0
 17
0.0
 27
1.0
 37
0.0
 76
     0
330
22
  0
LAYOUT
  5
276
102
{ACAD_REACTORS
330
274
102
}
330
274
100
AcDbPlotSettings
  1

  2
\\alderaan\HP LaserJet 4050 Ricerca
  4
A4
  6

 40
5.027083396911621
 41
5.069430828094482
 42
5.365737915039062
 43
5.365753173828125
 44
209.8886566162109
 45
297.0530090332031
 46
0.0
 47
0.0
 48
70.15568666023683
 49
-413.5017910393744
140
1567.471881557387
141
355.5977189696187
142
1.0
143
5.224086096996019
 70
 11952
 72
     1
 73
     1
 74
     4
  7

 75
     0
147
0.1914210411989621
148
-70.15568666023683
149
413.5017910393744
100
AcDbLayout
  1
Model
 70
     1
 71
     0
 10
0.0
 20
0.0
 11
12.0
 21
9.0
 12
0.0
 22
0.0
 32
0.0
 14
0.0
 24
0.0
 34
0.0
 15
0.0
 25
0.0
 35
0.0
146
0.0
 13
0.0
 23
0.0
 33
0.0
 16
1.0
 26
0.0
 36
0.0
 17
0.0
 27
1.0
 37
0.0
 76
     0
330
21
  0
MLINESTYLE
  5
235
102
{ACAD_REACTORS
330
234
102
}
330
234
100
AcDbMlineStyle
  2
STANDARD
 70
     0
  3

 62
     0
 51
90.00000000000019
 52
90.00000000000019
 71
     2
 49
0.5
 62
   256
  6
BYLAYER
 49
-0.5
 62
   256
  6
BYLAYER
  0
ACDBPLACEHOLDER
  5
273
102
{ACAD_REACTORS
330
272
102
}
330
272
  0
XRECORD
  5
5E53
102
{ACAD_REACTORS
330
5E52
102
}
330
5E52
100
AcDbXrecord
280
     1
340
2B7
  0
XRECORD
  5
5E54
102
{ACAD_REACTORS
330
5E52
102
}
330
5E52
100
AcDbXrecord
280
     1
340
2B6
  0
ENDSEC
  0
EOF
