  0
SECTION
  2
HEADER
  9
$ACADVER
  1
AC1015
  9
$ACADMAINTVER
 70
     6
  9
$DWGCODEPAGE
  3
ANSI_1252
  9
$INSBASE
 10
0.0
 20
0.0
 30
0.0
  9
$EXTMIN
 10
0.0
 20
0.0
 30
0.0
  9
$EXTMAX
 10
297.0
 20
210.0
 30
0.0
  9
$LIMMIN
 10
0.0
 20
0.0
  9
$LIMMAX
 10
297.0
 20
210.0
  9
$ORTHOMODE
 70
     0
  9
$REGENMODE
 70
     1
  9
$FILLMODE
 70
     1
  9
$QTEXTMODE
 70
     0
  9
$MIRRTEXT
 70
     1
  9
$LTSCALE
 40
16.335
  9
$ATTMODE
 70
     1
  9
$TEXTSIZE
 40
0.2
  9
$TRACEWID
 40
0.05
  9
$TEXTSTYLE
  7
STANDARD
  9
$CLAYER
  8
0
  9
$CELTYPE
  6
BYLAYER
  9
$CECOLOR
 62
   256
  9
$CELTSCALE
 40
1.0
  9
$DISPSILH
 70
     0
  9
$DIMSCALE
 40
1.0
  9
$DIMASZ
 40
3.0
  9
$DIMEXO
 40
1.85625
  9
$DIMDLI
 40
11.286
  9
$DIMRND
 40
0.0
  9
$DIMDLE
 40
0.0
  9
$DIMEXE
 40
5.346
  9
$DIMTP
 40
0.003
  9
$DIMTM
 40
0.003
  9
$DIMTXT
 40
1.5
  9
$DIMCEN
 40
2.673
  9
$DIMTSZ
 40
0.0
  9
$DIMTOL
 70
     1
  9
$DIMLIM
 70
     0
  9
$DIMTIH
 70
     1
  9
$DIMTOH
 70
     1
  9
$DIMSE1
 70
     0
  9
$DIMSE2
 70
     0
  9
$DIMTAD
 70
     0
  9
$DIMZIN
 70
     0
  9
$DIMBLK
  1

  9
$DIMASO
 70
     1
  9
$DIMSHO
 70
     1
  9
$DIMPOST
  1

  9
$DIMAPOST
  1

  9
$DIMALT
 70
     0
  9
$DIMALTD
 70
     2
  9
$DIMALTF
 40
25.4
  9
$DIMLFAC
 40
1.0
  9
$DIMTOFL
 70
     0
  9
$DIMTVP
 40
0.0
  9
$DIMTIX
 70
     0
  9
$DIMSOXD
 70
     0
  9
$DIMSAH
 70
     0
  9
$DIMBLK1
  1

  9
$DIMBLK2
  1

  9
$DIMSTYLE
  2
STANDARD
  9
$DIMCLRD
 70
     0
  9
$DIMCLRE
 70
     0
  9
$DIMCLRT
 70
     0
  9
$DIMTFAC
 40
1.0
  9
$DIMGAP
 40
0.09
  9
$DIMJUST
 70
     0
  9
$DIMSD1
 70
     0
  9
$DIMSD2
 70
     0
  9
$DIMTOLJ
 70
     1
  9
$DIMTZIN
 70
     0
  9
$DIMALTZ
 70
     0
  9
$DIMALTTZ
 70
     0
  9
$DIMUPT
 70
     0
  9
$DIMDEC
 70
     4
  9
$DIMTDEC
 70
     4
  9
$DIMALTU
 70
     2
  9
$DIMALTTD
 70
     2
  9
$DIMTXSTY
  7
STANDARD
  9
$DIMAUNIT
 70
     0
  9
$DIMADEC
 70
     0
  9
$DIMALTRND
 40
0.0
  9
$DIMAZIN
 70
     0
  9
$DIMDSEP
 70
    46
  9
$DIMATFIT
 70
     3
  9
$DIMFRAC
 70
     0
  9
$DIMLDRBLK
  1

  9
$DIMLUNIT
 70
     2
  9
$DIMLWD
 70
    -2
  9
$DIMLWE
 70
    -2
  9
$DIMTMOVE
 70
     0
  9
$LUNITS
 70
     2
  9
$LUPREC
 70
     4
  9
$SKETCHINC
 40
0.1
  9
$FILLETRAD
 40
0.0
  9
$AUNITS
 70
     0
  9
$AUPREC
 70
     0
  9
$MENU
  1
acad
  9
$ELEVATION
 40
0.0
  9
$PELEVATION
 40
0.0
  9
$THICKNESS
 40
0.0
  9
$LIMCHECK
 70
     0
  9
$CHAMFERA
 40
0.0
  9
$CHAMFERB
 40
0.0
  9
$CHAMFERC
 40
0.0
  9
$CHAMFERD
 40
0.0
  9
$SKPOLY
 70
     0
  9
$TDCREATE
 40
2444972.041666667
  9
$TDUCREATE
 40
2444972.0
  9
$TDUPDATE
 40
2453410.6603211
  9
$TDUUPDATE
 40
2453410.618654433
  9
$TDINDWG
 40
0.000381412
  9
$TDUSRTIMER
 40
0.000381412
  9
$USRTIMER
 70
     1
  9
$ANGBASE
 50
0.0
  9
$ANGDIR
 70
     0
  9
$PDMODE
 70
     3
  9
$PDSIZE
 40
0.3125
  9
$PLINEWID
 40
0.0
  9
$SPLFRAME
 70
     0
  9
$SPLINETYPE
 70
     6
  9
$SPLINESEGS
 70
     8
  9
$HANDSEED
  5
307
  9
$SURFTAB1
 70
     6
  9
$SURFTAB2
 70
     6
  9
$SURFTYPE
 70
     6
  9
$SURFU
 70
     6
  9
$SURFV
 70
     6
  9
$UCSBASE
  2

  9
$UCSNAME
  2

  9
$UCSORG
 10
0.0
 20
0.0
 30
0.0
  9
$UCSXDIR
 10
1.0
 20
0.0
 30
0.0
  9
$UCSYDIR
 10
0.0
 20
1.0
 30
0.0
  9
$UCSORTHOREF
  2

  9
$UCSORTHOVIEW
 70
     0
  9
$UCSORGTOP
 10
0.0
 20
0.0
 30
0.0
  9
$UCSORGBOTTOM
 10
0.0
 20
0.0
 30
0.0
  9
$UCSORGLEFT
 10
0.0
 20
0.0
 30
0.0
  9
$UCSORGRIGHT
 10
0.0
 20
0.0
 30
0.0
  9
$UCSORGFRONT
 10
0.0
 20
0.0
 30
0.0
  9
$UCSORGBACK
 10
0.0
 20
0.0
 30
0.0
  9
$PUCSBASE
  2

  9
$PUCSNAME
  2

  9
$PUCSORG
 10
0.0
 20
0.0
 30
0.0
  9
$PUCSXDIR
 10
1.0
 20
0.0
 30
0.0
  9
$PUCSYDIR
 10
0.0
 20
1.0
 30
0.0
  9
$PUCSORTHOREF
  2

  9
$PUCSORTHOVIEW
 70
     0
  9
$PUCSORGTOP
 10
0.0
 20
0.0
 30
0.0
  9
$PUCSORGBOTTOM
 10
0.0
 20
0.0
 30
0.0
  9
$PUCSORGLEFT
 10
0.0
 20
0.0
 30
0.0
  9
$PUCSORGRIGHT
 10
0.0
 20
0.0
 30
0.0
  9
$PUCSORGFRONT
 10
0.0
 20
0.0
 30
0.0
  9
$PUCSORGBACK
 10
0.0
 20
0.0
 30
0.0
  9
$USERI1
 70
     0
  9
$USERI2
 70
     0
  9
$USERI3
 70
     0
  9
$USERI4
 70
     0
  9
$USERI5
 70
     0
  9
$USERR1
 40
0.0
  9
$USERR2
 40
0.0
  9
$USERR3
 40
0.0
  9
$USERR4
 40
0.0
  9
$USERR5
 40
0.0
  9
$WORLDVIEW
 70
     1
  9
$SHADEDGE
 70
     3
  9
$SHADEDIF
 70
    70
  9
$TILEMODE
 70
     1
  9
$MAXACTVP
 70
    16
  9
$PINSBASE
 10
0.0
 20
0.0
 30
0.0
  9
$PLIMCHECK
 70
     0
  9
$PEXTMIN
 10
1.000000000000000E+20
 20
1.000000000000000E+20
 30
1.000000000000000E+20
  9
$PEXTMAX
 10
-1.000000000000000E+20
 20
-1.000000000000000E+20
 30
-1.000000000000000E+20
  9
$PLIMMIN
 10
0.0
 20
0.0
  9
$PLIMMAX
 10
12.0
 20
9.0
  9
$UNITMODE
 70
     0
  9
$VISRETAIN
 70
     0
  9
$PLINEGEN
 70
     1
  9
$PSLTSCALE
 70
     0
  9
$TREEDEPTH
 70
  3020
  9
$CMLSTYLE
  2
STANDARD
  9
$CMLJUST
 70
     0
  9
$CMLSCALE
 40
1.0
  9
$PROXYGRAPHICS
 70
     1
  9
$MEASUREMENT
 70
     0
  9
$CELWEIGHT
370
    -1
  9
$ENDCAPS
280
     0
  9
$JOINSTYLE
280
     0
  9
$LWDISPLAY
290
     0
  9
$INSUNITS
 70
     0
  9
$HYPERLINKBASE
  1

  9
$STYLESHEET
  1

  9
$XEDIT
290
     1
  9
$CEPSNTYPE
380
     0
  9
$PSTYLEMODE
290
     1
  9
$FINGERPRINTGUID
  2
{A40EC238-9E4E-4C14-83D8-28E08CE76A48}
  9
$VERSIONGUID
  2
{C43C8E7E-E815-495D-A3BF-41BEC81DAA25}
  9
$EXTNAMES
290
     1
  9
$PSVPSCALE
 40
0.0
  9
$OLESTARTUP
290
     0
  0
ENDSEC
  0
SECTION
  2
CLASSES
  0
CLASS
  1
IMAGE
  2
AcDbRasterImage
  3
ISM
 90
      127
280
     0
281
     1
  0
CLASS
  1
DICTIONARYVAR
  2
AcDbDictionaryVar
  3
ObjectDBX Classes
 90
        0
280
     0
281
     0
  0
CLASS
  1
RASTERVARIABLES
  2
AcDbRasterVariables
  3
ISM
 90
        0
280
     0
281
     0
  0
CLASS
  1
IMAGEDEF
  2
AcDbRasterImageDef
  3
ISM
 90
        0
280
     0
281
     0
  0
CLASS
  1
IMAGEDEF_REACTOR
  2
AcDbRasterImageDefReactor
  3
ISM
 90
        1
280
     0
281
     0
  0
CLASS
  1
IDBUFFER
  2
AcDbIdBuffer
  3
ObjectDBX Classes
 90
        0
280
     0
281
     0
  0
CLASS
  1
SPATIAL_FILTER
  2
AcDbSpatialFilter
  3
ObjectDBX Classes
 90
        0
280
     0
281
     0
  0
CLASS
  1
SORTENTSTABLE
  2
AcDbSortentsTable
  3
ObjectDBX Classes
 90
        0
280
     0
281
     0
  0
CLASS
  1
LAYER_INDEX
  2
AcDbLayerIndex
  3
ObjectDBX Classes
 90
        0
280
     0
281
     0
  0
CLASS
  1
SPATIAL_INDEX
  2
AcDbSpatialIndex
  3
AutoCAD 2000
 90
        0
280
     0
281
     0
  0
CLASS
  1
OBJECT_PTR
  2
CAseDLPNTableRecord
  3
ASE-LPNTableRecord
 90
        1
280
     0
281
     0
  0
CLASS
  1
PLOTSETTINGS
  2
AcDbPlotSettings
  3
ObjectDBX Classes
 90
        0
280
     0
281
     0
  0
CLASS
  1
ACDBDICTIONARYWDFLT
  2
AcDbDictionaryWithDefault
  3
ObjectDBX Classes
 90
        0
280
     0
281
     0
  0
CLASS
  1
WIPEOUT
  2
AcDbWipeout
  3
WipeOut|AutoCAD Express Tool|expresstools@autodesk.com
 90
      127
280
     0
281
     1
  0
CLASS
  1
WIPEOUTVARIABLES
  2
AcDbWipeoutVariables
  3
WipeOut|AutoCAD Express Tool|expresstools@autodesk.com
 90
        0
280
     0
281
     0
  0
CLASS
  1
RTEXT
  2
RText
  3
RText|AutoCAD Express Tool|expresstools@autodesk.com
 90
        0
280
     0
281
     1
  0
CLASS
  1
ARCALIGNEDTEXT
  2
AcDbArcAlignedText
  3
ATEXT|AutoCAD Express Tool|expresstools@autodesk.com
 90
        0
280
     0
281
     1
  0
CLASS
  1
ACDBPLACEHOLDER
  2
AcDbPlaceHolder
  3
ObjectDBX Classes
 90
        0
280
     0
281
     0
  0
CLASS
  1
LAYOUT
  2
AcDbLayout
  3
ObjectDBX Classes
 90
        0
280
     0
281
     0
  0
ENDSEC
  0
SECTION
  2
TABLES
  0
TABLE
  2
VPORT
  5
8
330
0
100
AcDbSymbolTable
 70
     1
  0
VPORT
  5
2FB
330
8
100
AcDbSymbolTableRecord
100
AcDbViewportTableRecord
  2
*Active
 70
     0
 10
0.0
 20
0.0
 11
1.0
 21
1.0
 12
194.4085733192066
 22
140.8812744248485
 13
0.0
 23
0.0
 14
1.0
 24
1.0
 15
0.0
 25
0.0
 16
0.0
 26
0.0
 36
1.0
 17
0.0
 27
0.0
 37
0.0
 40
200.7010308100859
 41
1.888667992047713
 42
50.0
 43
0.0
 44
0.0
 50
0.0
 51
0.0
 71
     0
 72
   100
 73
     1
 74
     1
 75
     0
 76
     0
 77
     0
 78
     0
281
     0
 65
     1
110
0.0
120
0.0
130
0.0
111
1.0
121
0.0
131
0.0
112
0.0
122
1.0
132
0.0
 79
     0
146
0.0
  0
ENDTAB
  0
TABLE
  2
LTYPE
  5
5
330
0
100
AcDbSymbolTable
 70
     1
  0
LTYPE
  5
14
330
5
100
AcDbSymbolTableRecord
100
AcDbLinetypeTableRecord
  2
BYBLOCK
 70
     0
  3

 72
    65
 73
     0
 40
0.0
  0
LTYPE
  5
15
330
5
100
AcDbSymbolTableRecord
100
AcDbLinetypeTableRecord
  2
BYLAYER
 70
     0
  3

 72
    65
 73
     0
 40
0.0
  0
LTYPE
  5
16
330
5
100
AcDbSymbolTableRecord
100
AcDbLinetypeTableRecord
  2
CONTINUOUS
 70
     0
  3
Solid line
 72
    65
 73
     0
 40
0.0
  0
ENDTAB
  0
TABLE
  2
LAYER
  5
2
330
0
100
AcDbSymbolTable
 70
     1
  0
LAYER
  5
10
330
2
100
AcDbSymbolTableRecord
100
AcDbLayerTableRecord
  2
0
 70
     0
 62
     7
  6
CONTINUOUS
370
    -3
390
2F2
  0
ENDTAB
  0
TABLE
  2
STYLE
  5
3
330
0
100
AcDbSymbolTable
 70
     1
  0
STYLE
  5
11
330
3
100
AcDbSymbolTableRecord
100
AcDbTextStyleTableRecord
  2
STANDARD
 70
     0
 40
0.0
 41
1.0
 50
0.0
 71
     0
 42
0.2
  3
txt
  4

  0
ENDTAB
  0
TABLE
  2
VIEW
  5
6
330
0
100
AcDbSymbolTable
 70
     0
  0
ENDTAB
  0
TABLE
  2
UCS
  5
7
330
0
100
AcDbSymbolTable
 70
     0
  0
ENDTAB
  0
TABLE
  2
APPID
  5
9
330
0
100
AcDbSymbolTable
 70
     1
  0
APPID
  5
204
330
9
100
AcDbSymbolTableRecord
100
AcDbRegAppTableRecord
  2
ACAD
 70
     0
  0
ENDTAB
  0
TABLE
  2
DIMSTYLE
  5
A
330
0
100
AcDbSymbolTable
 70
     1
100
AcDbDimStyleTable
  0
DIMSTYLE
105
205
330
A
100
AcDbSymbolTableRecord
100
AcDbDimStyleTableRecord
  2
STANDARD
 70
     0
 41
3.0
 47
0.003
 48
0.003
 71
     1
 73
     0
 74
     0
 77
     1
 78
     8
140
1.5
271
     3
272
     3
284
     8
340
11
  0
ENDTAB
  0
TABLE
  2
BLOCK_RECORD
  5
1
330
0
100
AcDbSymbolTable
 70
     0
  0
BLOCK_RECORD
  5
1B
330
1
100
AcDbSymbolTableRecord
100
AcDbBlockTableRecord
  2
*MODEL_SPACE
340
2F7
  0
BLOCK_RECORD
  5
1C
330
1
100
AcDbSymbolTableRecord
100
AcDbBlockTableRecord
  2
*PAPER_SPACE
340
2F8
  0
ENDTAB
  0
ENDSEC
  0
SECTION
  2
BLOCKS
  0
BLOCK
  5
1E
330
1B
100
AcDbEntity
  8
0
100
AcDbBlockBegin
  2
*MODEL_SPACE
 70
     0
 71
     0
 10
0.0
 20
0.0
 30
0.0
  3
*MODEL_SPACE
  1

  0
ENDBLK
  5
1F
330
1B
100
AcDbEntity
  8
0
100
AcDbBlockEnd
  0
BLOCK
  5
20
330
1C
100
AcDbEntity
 67
     1
  8
0
100
AcDbBlockBegin
  2
*PAPER_SPACE
 70
     0
 71
     0
 10
0.0
 20
0.0
 30
0.0
  3
*PAPER_SPACE
  1

  0
ENDBLK
  5
21
330
1C
100
AcDbEntity
 67
     1
  8
0
100
AcDbBlockEnd
  0
ENDSEC
  0
SECTION
  2
ENTITIES
  0
LINE
  5
20A
330
1B
100
AcDbEntity
  8
0
  6
Continuous
100
AcDbLine
 10
110.4516726598
 20
74.4986129481
 30
0.0
 11
108.4859872348
 21
76.46429837300001
 31
0.0
  0
LINE
  5
20B
330
1B
100
AcDbEntity
  8
0
  6
Continuous
100
AcDbLine
 10
108.3688299473
 20
76.7471410855
 30
0.0
 11
108.3688299473
 21
87.3814556606
 31
0.0
  0
LINE
  5
20C
330
1B
100
AcDbEntity
  8
0
  6
Continuous
100
AcDbLine
 10
110.0688299473
 20
74.8814556606
 30
0.0
 11
110.0688299473
 21
89.08145566059999
 31
0.0
  0
LINE
  5
20D
330
1B
100
AcDbEntity
  8
0
  6
Continuous
100
AcDbLine
 10
110.7345153722
 20
74.3814556606
 30
0.0
 11
154.0031445223
 21
74.3814556606
 31
0.0
  0
LINE
  5
20E
330
1B
100
AcDbEntity
  8
0
  6
Continuous
100
AcDbLine
 10
154.2859872348
 20
74.4986129481
 30
0.0
 11
110.4516726598
 21
74.4986129481
 31
0.0
  0
LINE
  5
20F
330
1B
100
AcDbEntity
  8
0
  6
Continuous
100
AcDbLine
 10
110.0688299473
 20
74.8814556606
 30
0.0
 11
154.6688299473
 21
74.8814556606
 31
0.0
  0
LINE
  5
210
330
1B
100
AcDbEntity
  8
0
  6
Continuous
100
AcDbLine
 10
156.2516726598
 20
76.46429837300001
 30
0.0
 11
108.4859872348
 21
76.46429837300001
 31
0.0
  0
LINE
  5
211
330
1B
100
AcDbEntity
  8
0
  6
Continuous
100
AcDbLine
 10
156.3688299473
 20
76.7471410855
 30
0.0
 11
108.3688299473
 21
76.7471410855
 31
0.0
  0
LINE
  5
212
330
1B
100
AcDbEntity
  8
0
  6
Continuous
100
AcDbLine
 10
112.3688299473
 20
93.03830991
 30
0.0
 11
112.3688299473
 21
101.0118184
 31
0.0
  0
LINE
  5
213
330
1B
100
AcDbEntity
  8
0
  6
Continuous
100
AcDbLine
 10
113.3688299473
 20
104.3284431903
 30
0.0
 11
113.3688299473
 21
119.3814556606
 31
0.0
  0
LINE
  5
214
330
1B
100
AcDbEntity
  8
0
  6
Continuous
100
AcDbLine
 10
119.0979303423
 20
105.9923190433
 30
0.0
 11
119.0979303423
 21
119.3814556606
 31
0.0
  0
LINE
  5
215
330
1B
100
AcDbEntity
  8
0
  6
Continuous
100
AcDbLine
 10
119.9911092358
 20
105.9923190433
 30
0.0
 11
119.9911092358
 21
119.3814556606
 31
0.0
  0
LINE
  5
216
330
1B
100
AcDbEntity
  8
0
  6
Continuous
100
AcDbLine
 10
120.1292393751
 20
128.6324621385
 30
0.0
 11
120.1292393751
 21
106.1304491826
 31
0.0
  0
LINE
  5
217
330
1B
100
AcDbEntity
  8
0
  6
Continuous
100
AcDbLine
 10
123.1178234693
 20
103.9854293805
 30
0.0
 11
123.1178234693
 21
131.6210462328
 31
0.0
  0
LINE
  5
218
330
1B
100
AcDbEntity
  8
0
  6
Continuous
100
AcDbLine
 10
108.3688299473
 20
87.3814556606
 30
0.0
 11
156.3688299473
 21
87.3814556606
 31
0.0
  0
LINE
  5
219
330
1B
100
AcDbEntity
  8
0
  6
Continuous
100
AcDbLine
 10
110.0688299473
 20
89.08145546980001
 30
0.0
 11
154.6688299473
 21
89.08145546980001
 31
0.0
  0
LINE
  5
21A
330
1B
100
AcDbEntity
  8
0
  6
Continuous
100
AcDbLine
 10
111.197257072
 20
90.2098827853
 30
0.0
 11
153.5404028225
 21
90.2098827853
 31
0.0
  0
LINE
  5
21B
330
1B
100
AcDbEntity
  8
0
  6
Continuous
100
AcDbLine
 10
112.3688299473
 20
93.03830991
 30
0.0
 11
152.3688299473
 21
93.03830991
 31
0.0
  0
LINE
  5
21C
330
1B
100
AcDbEntity
  8
0
  6
Continuous
100
AcDbLine
 10
120.1292393751
 20
106.1304491826
 30
0.0
 11
119.9911092358
 21
105.9923190433
 31
0.0
  0
LINE
  5
21D
330
1B
100
AcDbEntity
  8
0
  6
Continuous
100
AcDbLine
 10
145.6198364252
 20
131.6210462328
 30
0.0
 11
145.7579665645
 21
131.7591763721
 31
0.0
  0
LINE
  5
21E
330
1B
100
AcDbEntity
  8
0
  6
Continuous
100
AcDbLine
 10
164.3688299473
 20
95.3814556606
 30
0.0
 11
175.0031445223
 21
95.3814556606
 31
0.0
  0
LINE
  5
21F
330
1B
100
AcDbEntity
  8
0
  6
Continuous
100
AcDbLine
 10
132.3688299473
 20
131.7591763721
 30
0.0
 11
132.3688299473
 21
138.3814556606
 31
0.0
  0
LINE
  5
220
330
1B
100
AcDbEntity
  8
0
  6
Continuous
100
AcDbLine
 10
176.8688299473
 20
97.0814556606
 30
0.0
 11
162.6688299473
 21
97.0814556606
 31
0.0
  0
LINE
  5
221
330
1B
100
AcDbEntity
  8
0
  6
Continuous
100
AcDbLine
 10
156.3688299473
 20
99.38145566060001
 30
0.0
 11
158.7119756978
 21
99.38145566060001
 31
0.0
  0
LINE
  5
222
330
1B
100
AcDbEntity
  8
0
  6
Continuous
100
AcDbLine
 10
108.3688299473
 20
87.3814556606
 30
0.0
 11
111.197257072
 21
90.2098827853
 31
0.0
  0
LINE
  5
223
330
1B
100
AcDbEntity
  8
0
  6
Continuous
100
AcDbLine
 10
161.5404028225
 20
140.5530285358
 30
0.0
 11
164.3688299473
 21
143.3814556606
 31
0.0
  0
LINE
  5
224
330
1B
100
AcDbEntity
  8
0
  6
Continuous
100
AcDbLine
 10
112.3688299473
 20
101.0118184
 30
0.0
 11
142.3509609988
 21
101.0118184
 31
0.0
  0
LINE
  5
225
330
1B
100
AcDbEntity
  8
0
  6
Continuous
100
AcDbLine
 10
146.872924456
 20
101.0118184
 30
0.0
 11
147.6768609978
 21
101.0118184
 31
0.0
  0
LINE
  5
226
330
1B
100
AcDbEntity
  8
0
  6
Continuous
100
AcDbLine
 10
112.8688299473
 20
102.6701307951
 30
0.0
 11
118.9823101744
 21
102.6701307951
 31
0.0
  0
LINE
  5
227
330
1B
100
AcDbEntity
  8
0
  6
Continuous
100
AcDbLine
 10
137.8057784191
 20
112.0622989007
 30
0.0
 11
138.2468073231
 21
114.0958335907
 31
0.0
  0
LINE
  5
228
330
1B
100
AcDbEntity
  8
0
  6
Continuous
100
AcDbLine
 10
113.3688299473
 20
104.3284431903
 30
0.0
 11
119.325474439
 21
104.3284431903
 31
0.0
  0
LINE
  5
229
330
1B
100
AcDbEntity
  8
0
  6
Continuous
100
AcDbLine
 10
119.9911092358
 20
105.9923190433
 30
0.0
 11
119.0979303423
 21
105.9923190433
 31
0.0
  0
LINE
  5
22A
330
1B
100
AcDbEntity
  8
0
  6
Continuous
100
AcDbLine
 10
156.3688299473
 20
87.3814556606
 30
0.0
 11
153.5404028225
 21
90.2098827853
 31
0.0
  0
LINE
  5
22B
330
1B
100
AcDbEntity
  8
0
  6
Continuous
100
AcDbLine
 10
120.1292393751
 20
106.1304491826
 30
0.0
 11
148.4484006785
 21
106.1304491826
 31
0.0
  0
LINE
  5
22C
330
1B
100
AcDbEntity
  8
0
  6
Continuous
100
AcDbLine
 10
120.1292393751
 20
128.6324621385
 30
0.0
 11
119.6603516534
 21
129.1013498601
 31
0.0
  0
LINE
  5
22D
330
1B
100
AcDbEntity
  8
0
  6
Continuous
100
AcDbLine
 10
142.5474801876
 20
116.3835063594
 30
0.0
 11
142.5413942912
 21
116.4404659133
 31
0.0
  0
LINE
  5
22E
330
1B
100
AcDbEntity
  8
0
  6
Continuous
100
AcDbLine
 10
145.6198364252
 20
103.3018849294
 30
0.0
 11
145.6198364252
 21
131.6210462328
 31
0.0
  0
LINE
  5
22F
330
1B
100
AcDbEntity
  8
0
  6
Continuous
100
AcDbLine
 10
145.7579665645
 20
131.7591763721
 30
0.0
 11
145.7579665645
 21
132.6523552656
 31
0.0
  0
LINE
  5
230
330
1B
100
AcDbEntity
  8
0
  6
Continuous
100
AcDbLine
 10
123.1178234693
 20
131.6210462328
 30
0.0
 11
122.6489357477
 21
132.0899339544
 31
0.0
  0
LINE
  5
231
330
1B
100
AcDbEntity
  8
0
  6
Continuous
100
AcDbLine
 10
147.4218423894
 20
132.4248111753
 30
0.0
 11
147.4218424175
 21
138.3814556606
 31
0.0
  0
LINE
  5
232
330
1B
100
AcDbEntity
  8
0
  6
Continuous
100
AcDbLine
 10
149.0801548127
 20
138.8814556606
 30
0.0
 11
149.0801548361
 21
132.7680574451
 31
0.0
  0
LINE
  5
233
330
1B
100
AcDbEntity
  8
0
  6
Continuous
100
AcDbLine
 10
161.5404028225
 20
98.2098827853
 30
0.0
 11
164.3688299473
 21
95.3814556606
 31
0.0
  0
LINE
  5
234
330
1B
100
AcDbEntity
  8
0
  6
Continuous
100
AcDbLine
 10
150.7384672079
 20
139.3814556606
 30
0.0
 11
150.7384672079
 21
109.3993246091
 31
0.0
  0
LINE
  5
235
330
1B
100
AcDbEntity
  8
0
  6
Continuous
100
AcDbLine
 10
150.7384672079
 20
104.8773611519
 30
0.0
 11
150.7384672079
 21
104.0734246101
 31
0.0
  0
LINE
  5
236
330
1B
100
AcDbEntity
  8
0
  6
Continuous
100
AcDbLine
 10
152.3688299473
 20
93.03830991
 30
0.0
 11
152.3688299473
 21
95.3814556606
 31
0.0
  0
LINE
  5
237
330
1B
100
AcDbEntity
  8
0
  6
Continuous
100
AcDbLine
 10
154.6688299473
 20
74.8814556606
 30
0.0
 11
154.6688299473
 21
89.08145566059999
 31
0.0
  0
LINE
  5
238
330
1B
100
AcDbEntity
  8
0
  6
Continuous
100
AcDbLine
 10
113.3688299473
 20
119.3814556606
 30
0.0
 11
119.9911092358
 21
119.3814556606
 31
0.0
  0
LINE
  5
239
330
1B
100
AcDbEntity
  8
0
  6
Continuous
100
AcDbLine
 10
156.3688299473
 20
76.7471410855
 30
0.0
 11
156.3688299473
 21
87.3814556606
 31
0.0
  0
LINE
  5
23A
330
1B
100
AcDbEntity
  8
0
  6
Continuous
100
AcDbLine
 10
158.7119756978
 20
139.3814556606
 30
0.0
 11
158.7119756978
 21
99.38145566060001
 31
0.0
  0
LINE
  5
23B
330
1B
100
AcDbEntity
  8
0
  6
Continuous
100
AcDbLine
 10
161.5404028225
 20
140.5530285358
 30
0.0
 11
161.5404028225
 21
98.2098827853
 31
0.0
  0
LINE
  5
23C
330
1B
100
AcDbEntity
  8
0
  6
Continuous
100
AcDbLine
 10
162.6688291843
 20
97.0814556606
 30
0.0
 11
162.6688291843
 21
141.6814556606
 31
0.0
  0
LINE
  5
23D
330
1B
100
AcDbEntity
  8
0
  6
Continuous
100
AcDbLine
 10
120.1292393751
 20
128.6324621385
 30
0.0
 11
147.7648562274
 21
128.6324621385
 31
0.0
  0
LINE
  5
23E
330
1B
100
AcDbEntity
  8
0
  6
Continuous
100
AcDbLine
 10
164.3688299473
 20
143.3814556606
 30
0.0
 11
164.3688299473
 21
95.3814556606
 31
0.0
  0
LINE
  5
23F
330
1B
100
AcDbEntity
  8
0
  6
Continuous
100
AcDbLine
 10
145.6198364252
 20
131.6210462328
 30
0.0
 11
123.1178234693
 21
131.6210462328
 31
0.0
  0
LINE
  5
240
330
1B
100
AcDbEntity
  8
0
  6
Continuous
100
AcDbLine
 10
132.3688299473
 20
131.7591763721
 30
0.0
 11
145.7579665645
 21
131.7591763721
 31
0.0
  0
LINE
  5
241
330
1B
100
AcDbEntity
  8
0
  6
Continuous
100
AcDbLine
 10
132.3688299473
 20
132.6523552656
 30
0.0
 11
145.7579665645
 21
132.6523552656
 31
0.0
  0
LINE
  5
242
330
1B
100
AcDbEntity
  8
0
  6
Continuous
100
AcDbLine
 10
132.3688299473
 20
138.3814556606
 30
0.0
 11
147.4218424175
 21
138.3814556606
 31
0.0
  0
LINE
  5
243
330
1B
100
AcDbEntity
  8
0
  6
Continuous
100
AcDbLine
 10
175.0031445223
 20
95.3814556606
 30
0.0
 11
175.0031445223
 21
143.3814556606
 31
0.0
  0
LINE
  5
244
330
1B
100
AcDbEntity
  8
0
  6
Continuous
100
AcDbLine
 10
175.2859872348
 20
95.4986129481
 30
0.0
 11
175.2859872348
 21
143.264298373
 31
0.0
  0
LINE
  5
245
330
1B
100
AcDbEntity
  8
0
  6
Continuous
100
AcDbLine
 10
154.2859872348
 20
74.4986129481
 30
0.0
 11
156.2516726598
 21
76.46429837300001
 31
0.0
  0
LINE
  5
246
330
1B
100
AcDbEntity
  8
0
  6
Continuous
100
AcDbLine
 10
175.2859872348
 20
95.4986129481
 30
0.0
 11
177.2516726598
 21
97.46429837300001
 31
0.0
  0
LINE
  5
247
330
1B
100
AcDbEntity
  8
0
  6
Continuous
100
AcDbLine
 10
150.7384672079
 20
139.3814556606
 30
0.0
 11
158.7119756978
 21
139.3814556606
 31
0.0
  0
LINE
  5
248
330
1B
100
AcDbEntity
  8
0
  6
Continuous
100
AcDbLine
 10
176.8688299473
 20
141.6814556606
 30
0.0
 11
162.6688299473
 21
141.6814556606
 31
0.0
  0
LINE
  5
249
330
1B
100
AcDbEntity
  8
0
  6
Continuous
100
AcDbLine
 10
176.8688299473
 20
97.0814556606
 30
0.0
 11
176.8688299473
 21
141.6814556606
 31
0.0
  0
LINE
  5
24A
330
1B
100
AcDbEntity
  8
0
  6
Continuous
100
AcDbLine
 10
177.2516726598
 20
97.46429837300001
 30
0.0
 11
177.2516726598
 21
141.2986129481
 31
0.0
  0
LINE
  5
24B
330
1B
100
AcDbEntity
  8
0
  6
Continuous
100
AcDbLine
 10
177.3688299473
 20
97.7471410855
 30
0.0
 11
177.3688299473
 21
141.0157702356
 31
0.0
  0
LINE
  5
24C
330
1B
100
AcDbEntity
  8
0
  6
Continuous
100
AcDbLine
 10
164.3688299473
 20
143.3814556606
 30
0.0
 11
175.0031445223
 21
143.3814556606
 31
0.0
  0
LINE
  5
24D
330
1B
100
AcDbEntity
  8
0
  6
Continuous
100
AcDbLine
 10
175.2859872348
 20
143.264298373
 30
0.0
 11
177.2516726598
 21
141.2986129481
 31
0.0
  0
CIRCLE
  5
24E
330
1B
100
AcDbEntity
  8
0
  6
Continuous
100
AcDbCircle
 10
137.2016393652
 20
123.4282284211
 30
0.0
 40
0.328409678
  0
ARC
  5
24F
330
1B
100
AcDbEntity
  8
0
  6
Continuous
100
AcDbCircle
 10
134.3688299473
 20
117.3814556606
 30
0.0
 40
10.0
100
AcDbArc
 50
69.94665212580016
 51
63.17935870430014
  0
ARC
  5
250
330
1B
100
AcDbEntity
  8
0
  6
Continuous
100
AcDbCircle
 10
156.3688226686
 20
95.38146293920001
 30
0.0
 40
3.999998792599999
100
AcDbArc
 50
89.9998947478002
 51
180.0001059841004
  0
ARC
  5
251
330
1B
100
AcDbEntity
  8
0
  6
Continuous
100
AcDbCircle
 10
108.7688299473
 20
76.7471410855
 30
0.0
 40
0.4
100
AcDbArc
 50
180.0000000000004
 51
225.0000000002005
  0
ARC
  5
252
330
1B
100
AcDbEntity
  8
0
  6
Continuous
100
AcDbCircle
 10
155.9688299473
 20
76.7471410855
 30
0.0
 40
0.4
100
AcDbArc
 50
314.9999999998007
 51
360.0000000000008
  0
ARC
  5
253
330
1B
100
AcDbEntity
  8
0
  6
Continuous
100
AcDbCircle
 10
110.7345153722
 20
74.7814556606
 30
0.0
 40
0.4
100
AcDbArc
 50
225.0000000086005
 51
270.0000000000006
  0
ARC
  5
254
330
1B
100
AcDbEntity
  8
0
  6
Continuous
100
AcDbCircle
 10
154.0031445223
 20
74.7814556606
 30
0.0
 40
0.4
100
AcDbArc
 50
270.0000000000006
 51
314.9999999934007
  0
ARC
  5
255
330
1B
100
AcDbEntity
  8
0
  6
Continuous
100
AcDbCircle
 10
176.9688299473
 20
141.0157702356
 30
0.0
 40
0.4
100
AcDbArc
 50
0.0
 51
44.9999999961001
  0
ARC
  5
256
330
1B
100
AcDbEntity
  8
0
  6
Continuous
100
AcDbCircle
 10
176.9688299473
 20
97.7471410855
 30
0.0
 40
0.4
100
AcDbArc
 50
315.0000000031007
 51
360.0000000000008
  0
ARC
  5
257
330
1B
100
AcDbEntity
  8
0
  6
Continuous
100
AcDbCircle
 10
175.0031445223
 20
142.9814556606
 30
0.0
 40
0.4
100
AcDbArc
 50
44.99999999750009
 51
90.00000000000019
  0
ARC
  5
258
330
1B
100
AcDbEntity
  8
0
  6
Continuous
100
AcDbCircle
 10
175.0031445223
 20
95.78145566059999
 30
0.0
 40
0.4
100
AcDbArc
 50
270.0000000000006
 51
315.0000000002007
  0
ARC
  5
259
330
1B
100
AcDbEntity
  8
0
  6
Continuous
100
AcDbCircle
 10
158.7119756978
 20
143.3814556606
 30
0.0
 40
4.0
100
AcDbArc
 50
270.0000000000006
 51
315.0000000000007
  0
ARC
  5
25A
330
1B
100
AcDbEntity
  8
0
  6
Continuous
100
AcDbCircle
 10
158.7119756978
 20
95.3814556606
 30
0.0
 40
4.0
100
AcDbArc
 50
45.00000000000009
 51
90.00000000000019
  0
ARC
  5
25B
330
1B
100
AcDbEntity
  8
0
  6
Continuous
100
AcDbCircle
 10
108.3688299473
 20
93.03830991
 30
0.0
 40
4.0
100
AcDbArc
 50
315.0000000000007
 51
360.0000000000008
  0
ARC
  5
25C
330
1B
100
AcDbEntity
  8
0
  6
Continuous
100
AcDbCircle
 10
156.3688299473
 20
93.03830991
 30
0.0
 40
4.0
100
AcDbArc
 50
180.0000000000004
 51
225.0000000000005
  0
ARC
  5
25D
330
1B
100
AcDbEntity
  8
0
  6
Continuous
100
AcDbCircle
 10
147.4218424175
 20
141.3814556606
 30
0.0
 40
3.0
100
AcDbArc
 50
270.0000000000006
 51
303.5573097619007
  0
ARC
  5
25E
330
1B
100
AcDbEntity
  8
0
  6
Continuous
100
AcDbCircle
 10
150.7384672079
 20
136.3814556606
 30
0.0
 40
3.0
100
AcDbArc
 50
90.00000000000019
 51
123.5573097619003
  0
ARC
  5
25F
330
1B
100
AcDbEntity
  8
0
  6
Continuous
100
AcDbCircle
 10
115.3688299473
 20
101.0118184
 30
0.0
 40
3.0
100
AcDbArc
 50
146.4426902381003
 51
180.0000000000004
  0
ARC
  5
260
330
1B
100
AcDbEntity
  8
0
  6
Continuous
100
AcDbCircle
 10
110.3688299473
 20
104.3284431903
 30
0.0
 40
3.0
100
AcDbArc
 50
326.4426902381007
 51
360.0000000000008
  0
ARC
  5
261
330
1B
100
AcDbEntity
  8
0
  6
Continuous
100
AcDbCircle
 10
132.3688299473
 20
119.3814556606
 30
0.0
 40
19.0
100
AcDbArc
 50
90.00000000000019
 51
180.0000000000004
  0
SPLINE
  5
262
330
1B
100
AcDbEntity
  8
0
  6
Continuous
100
AcDbSpline
210
0.0
220
0.0
230
1.0
 70
     8
 71
     3
 72
    11
 73
     7
 74
     5
 42
0.0000000001
 43
0.0000000001
 44
0.0000000001
 12
-0.1586561141768836
 22
-0.9873339037196544
 32
0.0
 13
-0.9903017614414476
 23
0.1389331540200763
 33
0.0
 40
0.0
 40
0.0
 40
0.0
 40
0.0
 40
0.4232347605650238
 40
0.8411895080131822
 40
1.583448598112994
 40
2.43595070024475
 40
2.43595070024475
 40
2.43595070024475
 40
2.43595070024475
 10
137.290068953
 20
121.5589912608
 30
0.0
 10
137.2676860255014
 20
121.4196999180205
 30
0.0
 10
137.1865943794414
 20
121.1478555542114
 30
0.0
 10
136.8894094411054
 20
120.6956460265452
 30
0.0
 10
136.2395290882108
 20
120.4074483491657
 30
0.0
 10
135.6991703637579
 20
120.3980265982807
 30
0.0
 10
135.4177589193
 20
120.4375068669
 30
0.0
 11
137.290068953
 21
121.5589912608
 31
0.0
 11
137.1666475023
 21
121.1541520235
 31
0.0
 11
136.9299185551
 21
120.8097023516
 31
0.0
 11
136.2696160997
 21
120.4706607255
 31
0.0
 11
135.4177589193
 21
120.4375068669
 31
0.0
  0
SPLINE
  5
263
330
1B
100
AcDbEntity
  8
0
  6
Continuous
100
AcDbSpline
210
0.0
220
0.0
230
1.0
 70
     8
 71
     3
 72
    11
 73
     7
 74
     5
 42
0.0000000001
 43
0.0000000001
 44
0.0000000001
 12
0.5389828860864644
 22
0.8423167150816285
 32
0.0
 13
-0.2202321477766941
 23
-0.9754474876105144
 33
0.0
 40
0.0
 40
0.0
 40
0.0
 40
0.0
 40
0.0935288155022379
 40
0.1870568163239084
 40
0.2805845481728639
 40
0.3741131171257478
 40
0.3741131171257478
 40
0.3741131171257478
 40
0.3741131171257478
 10
137.0370027517
 20
121.6646762823
 30
0.0
 10
137.0538062286705
 20
121.6909365771798
 30
0.0
 10
137.1102834657941
 20
121.7301301708664
 30
0.0
 10
137.210530659356
 20
121.7243614756576
 30
0.0
 10
137.2851091296455
 20
121.6571230602022
 30
0.0
 10
137.2969349522063
 20
121.5894019966683
 30
0.0
 10
137.290068953
 20
121.5589912608
 30
0.0
 11
137.0370027517
 21
121.6646762823
 31
0.0
 11
137.1128723309
 21
121.7193703979
 31
0.0
 11
137.206252648
 21
121.7141165121
 31
0.0
 11
137.2756356959
 21
121.6513994547
 31
0.0
 11
137.290068953
 21
121.5589912608
 31
0.0
  0
SPLINE
  5
264
330
1B
100
AcDbEntity
  8
0
  6
Continuous
100
AcDbSpline
210
0.0
220
0.0
230
1.0
 70
     8
 71
     3
 72
     9
 73
     5
 74
     3
 42
0.0000000001
 43
0.0000000001
 44
0.0000000001
 12
0.998094571478872
 22
0.0617027259074245
 32
0.0
 13
0.5641123378424422
 23
0.825698050314965
 33
0.0
 40
0.0
 40
0.0
 40
0.0
 40
0.0
 40
0.9444512828199043
 40
1.888902543355078
 40
1.888902543355078
 40
1.888902543355078
 40
1.888902543355078
 10
135.4356194826
 20
120.7550165854
 30
0.0
 10
135.749836715403
 20
120.7744416582789
 30
0.0
 10
136.3752354993846
 20
120.9652818288814
 30
0.0
 10
136.8594105488471
 20
121.4047324274862
 30
0.0
 10
137.0370027517
 20
121.6646762823
 30
0.0
 11
135.4356194826
 21
120.7550165854
 31
0.0
 11
136.3399295723
 21
121.0274344396
 31
0.0
 11
137.0370027517
 21
121.6646762823
 31
0.0
  0
SPLINE
  5
265
330
1B
100
AcDbEntity
  8
0
  6
Continuous
100
AcDbSpline
210
0.0
220
0.0
230
1.0
 70
     8
 71
     3
 72
    11
 73
     7
 74
     5
 42
0.0000000001
 43
0.0000000001
 44
0.0000000001
 12
-0.9911692818291408
 22
0.1326026197264044
 32
0.0
 13
0.9997864184146228
 23
0.0206668225342149
 33
0.0
 40
0.0
 40
0.0
 40
0.0
 40
0.0
 40
0.113334714185567
 40
0.2266679479846255
 40
0.3400013407700731
 40
0.4533361568405703
 40
0.4533361568405703
 40
0.4533361568405703
 40
0.4533361568405703
 10
135.4177589193
 20
120.4375068669
 30
0.0
 10
135.3803142902115
 20
120.4425163602356
 30
0.0
 10
135.3089395347029
 20
120.4878123693493
 30
0.0
 10
135.2723898283801
 20
120.6049403082583
 30
0.0
 10
135.321847532877
 20
120.7172278513491
 30
0.0
 10
135.3978492793197
 20
120.7542358285565
 30
0.0
 10
135.4356194826
 20
120.7550165854
 30
0.0
 11
135.4177589193
 21
120.4375068669
 31
0.0
 11
135.3206912828
 21
120.4960101265
 31
0.0
 11
135.2867243323
 21
120.6041335197
 31
0.0
 11
135.3326046555
 21
120.707764856
 31
0.0
 11
135.4356194826
 21
120.7550165854
 31
0.0
  0
SPLINE
  5
266
330
1B
100
AcDbEntity
  8
0
  6
Continuous
100
AcDbSpline
210
0.0
220
0.0
230
1.0
 70
     8
 71
     3
 72
    14
 73
    10
 74
     8
 42
0.0000000001
 43
0.0000000001
 44
0.0000000001
 12
-0.5395697158001152
 22
0.8419409253572265
 32
0.0
 13
0.5892301261436275
 23
-0.8079652581916904
 33
0.0
 40
0.0
 40
0.0
 40
0.0
 40
0.0
 40
0.4129907242691971
 40
1.428278794898106
 40
1.692293298361356
 40
1.994205433745548
 40
3.830035915228559
 40
4.158914082173741
 40
4.290350896637043
 40
4.290350896637043
 40
4.290350896637043
 40
4.290350896637043
 10
133.7528473072
 20
121.0347934956
 30
0.0
 10
133.6785682112927
 20
121.1506980931184
 30
0.0
 10
133.567025156318
 20
121.6126406636813
 30
0.0
 10
133.3783479356952
 20
122.2234381516146
 30
0.0
 10
133.687747050221
 20
122.677843500026
 30
0.0
 10
134.3785846448851
 20
123.0938092295834
 30
0.0
 10
135.0326552276784
 20
123.608300412185
 30
0.0
 10
135.7917444070715
 20
123.8088831367722
 30
0.0
 10
135.9506469764446
 20
123.7482958481446
 30
0.0
 10
135.9764624867
 20
123.7128970549
 30
0.0
 11
133.7528473072
 21
121.0347934956
 31
0.0
 11
133.6100742006
 21
121.422320499
 31
0.0
 11
133.5420870071
 21
122.4353296835
 31
0.0
 11
133.6916588329
 21
122.652888703
 31
0.0
 11
133.9364127299
 21
122.8296554063
 31
0.0
 11
135.5341117792
 21
123.733885081
 31
0.0
 11
135.8604503084
 21
123.7746773971
 31
0.0
 11
135.9764624867
 21
123.7128970549
 31
0.0
  0
SPLINE
  5
267
330
1B
100
AcDbEntity
  8
0
  6
Continuous
100
AcDbSpline
210
0.0
220
0.0
230
1.0
 70
     8
 71
     3
 72
    18
 73
    14
 74
    12
 42
0.0000000001
 43
0.0000000001
 44
0.0000000001
 12
0.5892301261325489
 22
-0.8079652581997697
 32
0.0
 13
-0.5395697158001152
 23
0.8419409253572265
 33
0.0
 40
0.0
 40
0.0
 40
0.0
 40
0.0
 40
0.0900324073479307
 40
0.1635718011444832
 40
0.2329054065086997
 40
0.3560354509288201
 40
1.274869230062597
 40
2.229042304028954
 40
3.189203465628764
 40
3.365708486081414
 40
3.615046362682013
 40
4.002632999406427
 40
4.292516871621623
 40
4.292516871621623
 40
4.292516871621623
 40
4.292516871621623
 10
135.9764624867
 20
123.7128970549
 30
0.0
 10
135.9941457556126
 20
123.6886493691503
 30
0.0
 10
136.0096521329615
 20
123.6292343086006
 30
0.0
 10
135.9622149773112
 20
123.5533865877161
 30
0.0
 10
135.8677976930903
 20
123.5503879086487
 30
0.0
 10
135.5068277990208
 20
123.5078405955695
 30
0.0
 10
134.8558658960465
 20
123.2142731792222
 30
0.0
 10
134.3193461265632
 20
122.3986256943575
 30
0.0
 10
134.2375012422383
 20
121.6515808375876
 30
0.0
 10
134.4066162819588
 20
121.2198336876041
 30
0.0
 10
134.3657576604763
 20
120.9245686716345
 30
0.0
 10
133.9853099214362
 20
120.7709289390646
 30
0.0
 10
133.8049848267154
 20
120.953438463727
 30
0.0
 10
133.7528473072
 20
121.0347934956
 30
0.0
 11
135.9764624867
 21
123.7128970549
 31
0.0
 11
135.9964246955
 21
123.6251055713
 31
0.0
 11
135.9556323794
 21
123.563917097
 31
0.0
 11
135.8876451858
 21
123.5503196583
 31
0.0
 11
135.7652682374
 21
123.5367222196
 31
0.0
 11
134.9290257562
 21
123.1559939355
 31
0.0
 11
134.3919269269
 21
122.3673424899
 31
0.0
 11
134.337537172
 21
121.4087230603
 31
0.0
 11
134.3851282075
 21
121.2387550763
 31
0.0
 11
134.337537172
 21
120.9940011794
 31
0.0
 11
133.977205046
 21
120.8512280729
 31
0.0
 11
133.7528473072
 21
121.0347934956
 31
0.0
  0
SPLINE
  5
268
330
1B
100
AcDbEntity
  8
0
  6
Continuous
100
AcDbSpline
210
0.0
220
0.0
230
1.0
 70
     8
 71
     3
 72
     9
 73
     5
 74
     3
 42
0.0000000001
 43
0.0000000001
 44
0.0000000001
 12
-0.0907671099655404
 22
0.9958721462861102
 32
0.0
 13
-0.5686892443191765
 23
0.8225524563185525
 33
0.0
 40
0.0
 40
0.0
 40
0.0
 40
0.0
 40
3.158231892638208
 40
6.316463775392498
 40
6.316463775392498
 40
6.316463775392498
 40
6.316463775392498
 10
142.5413942912
 20
116.4404659133
 30
0.0
 10
142.4458397640347
 20
117.4888643044303
 30
0.0
 10
141.9788800804404
 20
119.5685558554782
 30
0.0
 10
141.0042173191961
 20
121.4641323989723
 30
0.0
 10
140.4055331516
 20
122.3300695299
 30
0.0
 11
142.5413942912
 21
116.4404659133
 31
0.0
 11
141.8519543099
 21
119.5225271067
 31
0.0
 11
140.4055331516
 21
122.3300695299
 31
0.0
  0
SPLINE
  5
269
330
1B
100
AcDbEntity
  8
0
  6
Continuous
100
AcDbSpline
210
0.0
220
0.0
230
1.0
 70
     8
 71
     3
 72
    15
 73
    11
 74
     9
 42
0.0000000001
 43
0.0000000001
 44
0.0000000001
 12
0.4660759615347738
 22
-0.8847447078561341
 32
0.0
 13
-0.0400142271810455
 23
0.9991991100992352
 33
0.0
 40
0.0
 40
0.0
 40
0.0
 40
0.0
 40
0.8757212454796558
 40
3.288645846743699
 40
5.803921325823381
 40
6.071432480150206
 40
6.334998553425915
 40
6.783842696617382
 40
7.207781323482731
 40
7.544887666625535
 40
7.544887666625535
 40
7.544887666625535
 40
7.544887666625535
 10
140.211439955
 20
122.2099089163
 30
0.0
 10
140.3474908288411
 20
121.9516456704682
 30
0.0
 10
140.836069553447
 20
120.9715493520858
 30
0.0
 10
141.5013066160722
 20
119.1255424100024
 30
0.0
 10
141.5279410373424
 20
117.3715716979958
 30
0.0
 10
141.5525124316842
 20
116.3617708730683
 30
0.0
 10
141.631440128862
 20
116.0308192112544
 30
0.0
 10
142.0340202034552
 20
115.8263031168037
 30
0.0
 10
142.4460679526271
 20
116.0097778382926
 30
0.0
 10
142.5520034158329
 20
116.2712286496743
 30
0.0
 10
142.5475070659
 20
116.3835074357
 30
0.0
 11
140.211439955
 21
122.2099089163
 31
0.0
 11
140.5997783108
 21
121.4250006279
 31
0.0
 11
141.3602204222
 21
119.1350371071
 31
0.0
 11
141.5461467404
 21
116.6266427721
 31
0.0
 11
141.5623107494
 21
116.3596204088
 31
0.0
 11
141.6432083293
 21
116.10877652
 31
0.0
 11
142.0396793186
 21
115.8983678236
 31
0.0
 11
142.4280859511
 21
116.0682626357
 31
0.0
 11
142.5475070659
 21
116.3835074357
 31
0.0
  0
SPLINE
  5
26A
330
1B
100
AcDbEntity
  8
0
  6
Continuous
100
AcDbSpline
210
0.0
220
0.0
230
1.0
 70
     8
 71
     3
 72
    11
 73
     7
 74
     5
 42
0.0000000001
 43
0.0000000001
 44
0.0000000001
 12
-0.5178520336054407
 22
0.8554702047942463
 32
0.0
 13
0.5348284792530539
 23
-0.8449606486575962
 33
0.0
 40
0.0
 40
0.0
 40
0.0
 40
0.0
 40
0.0848386732862015
 40
0.1696755745693222
 40
0.254512549540334
 40
0.3393510447571533
 40
0.3393510447571533
 40
0.3393510447571533
 40
0.3393510447571533
 10
140.4055331516
 20
122.3300695299
 30
0.0
 10
140.3908885251034
 20
122.3542618489702
 30
0.0
 10
140.3364731188242
 20
122.3882935053828
 30
0.0
 10
140.2453835830341
 20
122.3719207577198
 30
0.0
 10
140.1901239006588
 20
122.29768492129
 30
0.0
 10
140.1963152738737
 20
122.2338039796165
 30
0.0
 10
140.211439955
 20
122.2099089163
 30
0.0
 11
140.4055331516
 21
122.3300695299
 31
0.0
 11
140.3348947314
 21
122.377056912
 31
0.0
 11
140.2513551993
 21
122.3622769798
 31
0.0
 11
140.2008818585
 21
122.2940878737
 31
0.0
 11
140.211439955
 21
122.2099089163
 31
0.0
  0
SPLINE
  5
26B
330
1B
100
AcDbEntity
  8
0
  6
Continuous
100
AcDbSpline
210
0.0
220
0.0
230
1.0
 70
     8
 71
     3
 72
     9
 73
     5
 74
     3
 42
0.0000000001
 43
0.0000000001
 44
0.0000000001
 12
0.6369765209650131
 22
-0.7708832023979434
 32
0.0
 13
-0.0166602751697721
 23
-0.9998612079840219
 33
0.0
 40
0.0
 40
0.0
 40
0.0
 40
0.0
 40
2.0997745279148
 40
4.199549034374353
 40
4.199549034374353
 40
4.199549034374353
 40
4.199549034374353
 10
141.1923776431
 20
121.9195904316
 30
0.0
 10
141.6382133343007
 20
121.3800301274691
 30
0.0
 10
142.3377169652042
 20
120.1299547855688
 30
0.0
 10
142.5712413857574
 20
118.7166386462076
 30
0.0
 10
142.5595804454
 20
118.0168109547
 30
0.0
 11
141.1923776431
 21
121.9195904316
 31
0.0
 11
142.221222165
 21
120.0891445794
 31
0.0
 11
142.5595804454
 21
118.0168109547
 31
0.0
  0
SPLINE
  5
26C
330
1B
100
AcDbEntity
  8
0
  6
Continuous
100
AcDbSpline
210
0.0
220
0.0
230
1.0
 70
     8
 71
     3
 72
    11
 73
     7
 74
     5
 42
0.0000000001
 43
0.0000000001
 44
0.0000000001
 12
-0.6880035635107166
 22
0.7257073078015376
 32
0.0
 13
0.6773326093933285
 23
-0.7356769238275894
 33
0.0
 40
0.0
 40
0.0
 40
0.0
 40
0.0
 40
0.1010133515927767
 40
0.2020251751317907
 40
0.3030371470260169
 40
0.4040507087366193
 40
0.4040507087366193
 40
0.4040507087366193
 40
0.4040507087366193
 10
141.3926893312
 20
122.1067464904
 30
0.0
 10
141.3695234825807
 20
122.1311818662121
 30
0.0
 10
141.2979827397408
 20
122.1574138003134
 30
0.0
 10
141.1957476560277
 20
122.1167582717703
 30
0.0
 10
141.148250736723
 20
122.0175154004437
 30
0.0
 10
141.1695710499875
 20
121.9443615470481
 30
0.0
 10
141.1923776431
 20
121.9195904316
 30
0.0
 11
141.3926893312
 21
122.1067464904
 31
0.0
 11
141.2988281819
 21
122.1440798783
 31
0.0
 11
141.2048706818
 21
122.1069938072
 31
0.0
 11
141.1614970336
 21
122.0157680153
 31
0.0
 11
141.1923776431
 21
121.9195904316
 31
0.0
  0
SPLINE
  5
26D
330
1B
100
AcDbEntity
  8
0
  6
Continuous
100
AcDbSpline
210
0.0
220
0.0
230
1.0
 70
     8
 71
     3
 72
     9
 73
     5
 74
     3
 42
0.0000000001
 43
0.0000000001
 44
0.0000000001
 12
-0.08239432197826112
 22
0.9965998071973237
 32
0.0
 13
-0.730794948053523
 23
0.682597058226483
 33
0.0
 40
0.0
 40
0.0
 40
0.0
 40
0.0
 40
2.293945379301537
 40
4.587890824581199
 40
4.587890824581199
 40
4.587890824581199
 40
4.587890824581199
 10
143.3591845772
 20
118.0460187982
 30
0.0
 10
143.2961818858058
 20
118.8080673057777
 30
0.0
 10
142.8768012750057
 20
120.3189367409565
 30
0.0
 10
141.9514905787069
 20
121.5847996861734
 30
0.0
 10
141.3926893312
 20
122.1067464904
 30
0.0
 11
143.3591845772
 21
118.0460187982
 31
0.0
 11
142.7503187633
 21
120.2576850985
 31
0.0
 11
141.3926893312
 21
122.1067464904
 31
0.0
  0
SPLINE
  5
26E
330
1B
100
AcDbEntity
  8
0
  6
Continuous
100
AcDbSpline
210
0.0
220
0.0
230
1.0
 70
     8
 71
     3
 72
    18
 73
    14
 74
    12
 42
0.0000000001
 43
0.0000000001
 44
0.0000000001
 12
-0.0112221738225228
 22
-0.999937029424702
 32
0.0
 13
-0.03678715709415151
 23
0.9993231234555369
 33
0.0
 40
0.0
 40
0.0
 40
0.0
 40
0.0
 40
0.1596719331127443
 40
0.3193735712028845
 40
0.4816065043159828
 40
0.6446885723533986
 40
0.8079374185888821
 40
0.9692727910608401
 40
1.049421124195179
 40
1.129864979313659
 40
1.210226958385082
 40
1.250216479479569
 40
1.290145592886755
 40
1.290145592886755
 40
1.290145592886755
 40
1.290145592886755
 10
142.5595804454
 20
118.0168109547
 30
0.0
 10
142.5589831566707
 20
117.9635903285403
 30
0.0
 10
142.5794468084567
 20
117.855790738821
 30
0.0
 10
142.6706440663226
 20
117.7183066922565
 30
0.0
 10
142.8108913967147
 20
117.6292762770522
 30
0.0
 10
142.9757997070118
 20
117.5998364565873
 30
0.0
 10
143.1376029827007
 20
117.6415285443297
 30
0.0
 10
143.249068619893
 20
117.724399881245
 30
0.0
 10
143.3108480042642
 20
117.8129949807631
 30
0.0
 10
143.3435663009406
 20
117.8868535944028
 30
0.0
 10
143.3585017362335
 20
117.9526333191846
 30
0.0
 10
143.3614475595782
 20
118.0061100668778
 30
0.0
 10
143.3596742033892
 20
118.0327181027577
 30
0.0
 10
143.3591845772
 20
118.0460187982
 30
0.0
 11
142.5595804454
 21
118.0168109547
 31
0.0
 11
142.5894463178
 21
117.859957023
 31
0.0
 11
142.6780711371
 21
117.7271027622
 31
0.0
 11
142.8145597922
 21
117.6394079983
 31
0.0
 11
142.9752751272
 21
117.6117251153
 31
0.0
 11
143.1336083051
 21
117.6514842724
 31
0.0
 11
143.2624275596
 21
117.748616667
 31
0.0
 11
143.3085465396
 21
117.8141666097
 31
0.0
 11
143.3411063331
 21
117.8877266102
 31
0.0
 11
143.3584996228
 21
117.9661837396
 31
0.0
 11
143.3606368956
 21
118.0061161057
 31
0.0
 11
143.3591845772
 21
118.0460187982
 31
0.0
  0
SPLINE
  5
26F
330
1B
100
AcDbEntity
  8
0
  6
Continuous
100
AcDbSpline
210
0.0
220
0.0
230
1.0
 70
     8
 71
     3
 72
     8
 73
     4
 74
     2
 42
0.0000000001
 43
0.0000000001
 44
0.0000000001
 12
-0.2729857643143567
 22
0.9620180728456751
 32
0.0
 13
-0.3372299549935464
 23
0.9414223055861013
 33
0.0
 40
0.0
 40
0.0
 40
0.0
 40
0.0
 40
0.0970123972292292
 40
0.0970123972292292
 40
0.0970123972292292
 40
0.0970123972292292
 10
138.9102939578
 20
126.2131507619
 30
0.0
 10
138.9014662899982
 20
126.2442599883749
 30
0.0
 10
138.8916621616172
 20
126.2751141156434
 30
0.0
 10
138.8807569995
 20
126.3055573272
 30
0.0
 11
138.9102939578
 21
126.2131507619
 31
0.0
 11
138.8807569995
 21
126.3055573272
 31
0.0
  0
SPLINE
  5
270
330
1B
100
AcDbEntity
  8
0
  6
Continuous
100
AcDbSpline
210
0.0
220
0.0
230
1.0
 70
     8
 71
     3
 72
    10
 73
     6
 74
     4
 42
0.0000000001
 43
0.0000000001
 44
0.0000000001
 12
-0.3159901099882122
 22
0.9487624836541745
 32
0.0
 13
-0.2694042692997643
 23
0.9630271749452661
 33
0.0
 40
0.0
 40
0.0
 40
0.0
 40
0.0
 40
0.4512711760096513
 40
0.9022570305198482
 40
1.804113669951018
 40
1.804113669951018
 40
1.804113669951018
 40
1.804113669951018
 10
139.2752343396
 20
124.4480525067
 30
0.0
 10
139.2277019300861
 20
124.5907688939508
 30
0.0
 10
139.1446622572945
 20
124.8804599188004
 30
0.0
 10
139.0336782319315
 20
125.4715772091396
 30
0.0
 10
138.991281967453
 20
125.923646611341
 30
0.0
 10
138.9102939578
 20
126.2131507619
 30
0.0
 11
139.2752343396
 21
124.4480525067
 31
0.0
 11
139.1515241882
 21
124.8820357699
 31
0.0
 11
139.0659516263
 21
125.3248286985
 31
0.0
 11
138.9102939578
 21
126.2131507619
 31
0.0
  0
SPLINE
  5
271
330
1B
100
AcDbEntity
  8
0
  6
Continuous
100
AcDbSpline
210
0.0
220
0.0
230
1.0
 70
     8
 71
     3
 72
    11
 73
     7
 74
     5
 42
0.0000000001
 43
0.0000000001
 44
0.0000000001
 12
-0.4433726781086877
 22
0.896337362998291
 32
0.0
 13
-0.4267685366953851
 23
0.9043608881894881
 33
0.0
 40
0.0
 40
0.0
 40
0.0
 40
0.0
 40
0.3599751652664148
 40
0.7199431993408261
 40
1.079910976131528
 40
1.439975420803425
 40
1.439975420803425
 40
1.439975420803425
 40
1.439975420803425
 10
140.1429925507
 20
123.3068273358
 30
0.0
 10
140.0897914996744
 20
123.4143803992599
 30
0.0
 10
139.9370316281768
 20
123.6049209120459
 30
0.0
 10
139.6744606113939
 20
123.8497482826791
 30
0.0
 10
139.4434723491478
 20
124.1285259253544
 30
0.0
 10
139.3264557316562
 20
124.339509773037
 30
0.0
 10
139.2752343396
 20
124.4480525067
 30
0.0
 11
140.1429925507
 21
123.3068273358
 31
0.0
 11
139.9314579815
 21
123.5980922421
 31
0.0
 11
139.6797274921
 21
123.8554028448
 31
0.0
 11
139.452736145
 21
124.1347802395
 31
0.0
 11
139.2752343396
 21
124.4480525067
 31
0.0
  0
SPLINE
  5
272
330
1B
100
AcDbEntity
  8
0
  6
Continuous
100
AcDbSpline
210
0.0
220
0.0
230
1.0
 70
     8
 71
     3
 72
    17
 73
    13
 74
    11
 42
0.0000000001
 43
0.0000000001
 44
0.0000000001
 12
0.8717487913017529
 22
-0.4899531047599688
 32
0.0
 13
-0.4492880888534831
 23
0.8933869336487884
 33
0.0
 40
0.0
 40
0.0
 40
0.0
 40
0.0
 40
0.125788728325773
 40
0.252074162714923
 40
0.3763858571887295
 40
0.5010560850849168
 40
0.5641369387229097
 40
0.6267768464749799
 40
0.6886906272948468
 40
0.7508602567959954
 40
0.8784681672106636
 40
1.006077213060908
 40
1.006077213060908
 40
1.006077213060908
 40
1.006077213060908
 10
139.5983172343
 20
122.8419511039
 30
0.0
 10
139.6348692915925
 20
122.8214075779043
 30
0.0
 10
139.7129617301058
 20
122.7883370924408
 30
0.0
 10
139.8381013763197
 20
122.7671082979627
 30
0.0
 10
139.9643119936822
 20
122.784865469314
 30
0.0
 10
140.0580877790625
 20
122.8347824621856
 30
0.0
 10
140.1201752725043
 20
122.8910341723308
 30
0.0
 10
140.15845313162
 20
122.9410205067411
 30
0.0
 10
140.1851061222786
 20
122.9979142391769
 30
0.0
 10
140.2015610537957
 20
123.0808781088941
 30
0.0
 10
140.1915847106957
 20
123.1881668339025
 30
0.0
 10
140.1621036254768
 20
123.2688259177407
 30
0.0
 10
140.1429925507
 20
123.3068273358
 30
0.0
 11
139.5983172343
 21
122.8419511039
 31
0.0
 11
139.714231331
 21
122.7930969704
 31
0.0
 11
139.8390022859
 21
122.773597746
 31
0.0
 11
139.9619682621
 21
122.7918396231
 31
0.0
 11
140.0722460654
 21
122.8499900472
 31
0.0
 11
140.1188932311
 21
122.8924545739
 31
0.0
 11
140.1566713656
 21
122.9424202681
 31
0.0
 11
140.1826796185
 21
122.99860645
 31
0.0
 11
140.1953112032
 21
123.0594793167
 31
0.0
 11
140.1862200675
 21
123.1867629765
 31
0.0
 11
140.1429925507
 21
123.3068273358
 31
0.0
  0
SPLINE
  5
273
330
1B
100
AcDbEntity
  8
0
  6
Continuous
100
AcDbSpline
210
0.0
220
0.0
230
1.0
 70
     8
 71
     3
 72
     9
 73
     5
 74
     3
 42
0.0000000001
 43
0.0000000001
 44
0.0000000001
 12
0.5409048344463687
 22
-0.8410838008620464
 32
0.0
 13
0.8627846940308432
 23
-0.5055715298017723
 33
0.0
 40
0.0
 40
0.0
 40
0.0
 40
0.0
 40
0.5227609238735221
 40
0.6970414213159074
 40
0.6970414213159074
 40
0.6970414213159074
 40
0.6970414213159074
 10
139.1110896322
 20
123.3349425435
 30
0.0
 10
139.2053442691943
 20
123.1883806285688
 30
0.0
 10
139.3574048260093
 20
123.0053846882157
 30
0.0
 10
139.5481950524129
 20
122.8713215231355
 30
0.0
 10
139.5983172343
 20
122.8419511039
 30
0.0
 11
139.1110896322
 21
123.3349425435
 31
0.0
 11
139.4552100768
 21
122.9414198591
 31
0.0
 11
139.5983172343
 21
122.8419511039
 31
0.0
  0
SPLINE
  5
274
330
1B
100
AcDbEntity
  8
0
  6
Continuous
100
AcDbSpline
210
0.0
220
0.0
230
1.0
 70
     8
 71
     3
 72
    14
 73
    10
 74
     8
 42
0.0000000001
 43
0.0000000001
 44
0.0000000001
 12
0.1729572006661268
 22
0.9849293409873307
 32
0.0
 13
0.6511120651521762
 23
-0.7589816062417245
 33
0.0
 40
0.0
 40
0.0
 40
0.0
 40
0.0
 40
0.2206705555441095
 40
0.4449080006318841
 40
0.6600118675474561
 40
0.8726125136515541
 40
1.08868764077692
 40
1.30214953565817
 40
1.726994364767096
 40
1.726994364767096
 40
1.726994364767096
 40
1.726994364767096
 10
137.8049717751
 20
123.0704073321
 30
0.0
 10
137.8176939622855
 20
123.1428556337158
 30
0.0
 10
137.8617096727343
 20
123.2862100384407
 30
0.0
 10
137.9740625671823
 20
123.4776186521247
 30
0.0
 10
138.1404602615478
 20
123.6271442144204
 30
0.0
 10
138.354307841888
 20
123.6837864927915
 30
0.0
 10
138.5705692927552
 20
123.6675578753047
 30
0.0
 10
138.8415275827318
 20
123.5744079003478
 30
0.0
 10
139.0188824341832
 20
123.4424256804335
 30
0.0
 10
139.1110896322
 20
123.3349425435
 30
0.0
 11
137.8049717751
 21
123.0704073321
 31
0.0
 11
137.8691602377
 21
123.2815360496
 31
0.0
 11
137.9853461862
 21
123.4733256665
 31
0.0
 11
138.1494227766
 21
123.6124247177
 31
0.0
 11
138.3536396204
 21
123.6715391443
 31
0.0
 11
138.5693141788
 21
123.6583882728
 31
0.0
 11
138.7716851254
 21
123.5904767087
 31
0.0
 11
139.1110896322
 21
123.3349425435
 31
0.0
  0
SPLINE
  5
275
330
1B
100
AcDbEntity
  8
0
  6
Continuous
100
AcDbSpline
210
0.0
220
0.0
230
1.0
 70
     8
 71
     3
 72
     9
 73
     5
 74
     3
 42
0.0000000001
 43
0.0000000001
 44
0.0000000001
 12
-0.1837409248469537
 22
0.982974705949439
 32
0.0
 13
0.1829637107579088
 23
0.9831196674595094
 33
0.0
 40
0.0
 40
0.0
 40
0.0
 40
0.0
 40
0.3485574513056347
 40
0.6956751105227108
 40
0.6956751105227108
 40
0.6956751105227108
 40
0.6956751105227108
 10
137.8333216428
 20
122.3783508359
 30
0.0
 10
137.8119735533116
 20
122.4925585553012
 30
0.0
 10
137.775513576918
 20
122.7219777204855
 30
0.0
 10
137.7838017967667
 20
122.9566545995337
 30
0.0
 10
137.8049717751
 20
123.0704073321
 30
0.0
 11
137.8333216428
 21
122.3783508359
 31
0.0
 11
137.7866715213
 21
122.7237724088
 31
0.0
 11
137.8049717751
 21
123.0704073321
 31
0.0
  0
SPLINE
  5
276
330
1B
100
AcDbEntity
  8
0
  6
Continuous
100
AcDbSpline
210
0.0
220
0.0
230
1.0
 70
     8
 71
     3
 72
     8
 73
     4
 74
     2
 42
0.0000000001
 43
0.0000000001
 44
0.0000000001
 12
-0.0466284419422968
 22
0.9989123026582634
 32
0.0
 13
-0.1958708835596851
 23
0.9806296941116705
 33
0.0
 40
0.0
 40
0.0
 40
0.0
 40
0.0
 40
1.04103987989747
 40
1.04103987989747
 40
1.04103987989747
 40
1.04103987989747
 10
137.9830494231
 20
121.3481345366
 30
0.0
 10
137.9668687339002
 20
121.6947703844625
 30
0.0
 10
137.9012914431655
 20
122.0380592962394
 30
0.0
 10
137.8333216428
 20
122.3783508359
 30
0.0
 11
137.9830494231
 21
121.3481345366
 31
0.0
 11
137.8333216428
 21
122.3783508359
 31
0.0
  0
SPLINE
  5
277
330
1B
100
AcDbEntity
  8
0
  6
Continuous
100
AcDbSpline
210
0.0
220
0.0
230
1.0
 70
     8
 71
     3
 72
     9
 73
     5
 74
     3
 42
0.0000000001
 43
0.0000000001
 44
0.0000000001
 12
0.0478962998317865
 22
0.9988523136392205
 32
0.0
 13
-0.1921399579631994
 23
0.9813675338800953
 33
0.0
 40
0.0
 40
0.0
 40
0.0
 40
0.0
 40
0.3455727203276108
 40
0.691134787438502
 40
0.691134787438502
 40
0.691134787438502
 40
0.691134787438502
 10
138.1097071869
 20
120.6692483359
 30
0.0
 10
138.1152244051089
 20
120.7843070396433
 30
0.0
 10
138.0592701790654
 20
121.0126706534161
 30
0.0
 10
138.0051815167828
 20
121.235093405399
 30
0.0
 10
137.9830494231
 20
121.3481345366
 30
0.0
 11
138.1097071869
 21
120.6692483359
 31
0.0
 11
138.0597357219
 21
121.0111889122
 31
0.0
 11
137.9830494231
 21
121.3481345366
 31
0.0
  0
SPLINE
  5
278
330
1B
100
AcDbEntity
  8
0
  6
Continuous
100
AcDbSpline
210
0.0
220
0.0
230
1.0
 70
     8
 71
     3
 72
    11
 73
     7
 74
     5
 42
0.0000000001
 43
0.0000000001
 44
0.0000000001
 12
0.7745534893850632
 22
0.6325084126566403
 32
0.0
 13
0.0102761371839493
 23
0.9999471991083213
 33
0.0
 40
0.0
 40
0.0
 40
0.0
 40
0.0
 40
0.1759364501719497
 40
0.3520342625202069
 40
0.5250204445238116
 40
0.6980545871685561
 40
0.6980545871685561
 40
0.6980545871685561
 40
0.6980545871685561
 10
137.7395896178
 20
120.1023243132
 30
0.0
 10
137.7850136815969
 20
120.1394180748089
 30
0.0
 10
137.8743638134048
 20
120.2156261562453
 30
0.0
 10
137.9938278408462
 20
120.344614203529
 30
0.0
 10
138.0832882956933
 20
120.4959163204184
 30
0.0
 10
138.1091144793709
 20
120.6115733338041
 30
0.0
 10
138.1097071869
 20
120.6692483359
 30
0.0
 11
137.7395896178
 21
120.1023243132
 31
0.0
 11
137.8720130597
 21
120.2181589649
 31
0.0
 11
137.9895433864
 21
120.3492965332
 31
0.0
 11
138.0749170407
 21
120.4997477157
 31
0.0
 11
138.1097071869
 21
120.6692483359
 31
0.0
  0
SPLINE
  5
279
330
1B
100
AcDbEntity
  8
0
  6
Continuous
100
AcDbSpline
210
0.0
220
0.0
230
1.0
 70
     8
 71
     3
 72
    14
 73
    10
 74
     8
 42
0.0000000001
 43
0.0000000001
 44
0.0000000001
 12
0.8173417175298666
 22
0.5761532060010843
 32
0.0
 13
0.7748696789944987
 23
0.6321210173494968
 33
0.0
 40
0.0
 40
0.0
 40
0.0
 40
0.0
 40
0.2157334025632162
 40
0.4328676086036084
 40
0.6508703299997276
 40
0.8680569526173909
 40
1.084822418166674
 40
1.30149119474851
 40
1.734879723198093
 40
1.734879723198093
 40
1.734879723198093
 40
1.734879723198093
 10
136.2517422156
 20
119.2264996627
 30
0.0
 10
136.3105181855265
 20
119.2679314932094
 30
0.0
 10
136.4370400714324
 20
119.3388893485769
 30
0.0
 10
136.6369804251731
 20
119.4231451802943
 30
0.0
 10
136.8391289903548
 20
119.5034155939584
 30
0.0
 10
137.03438789103
 20
119.5994781279635
 30
0.0
 10
137.2205928375057
 20
119.711039167632
 30
0.0
 10
137.4585300564013
 20
119.8752413862231
 30
0.0
 10
137.6276497411601
 20
120.0110063140296
 30
0.0
 10
137.7395896178
 20
120.1023243132
 30
0.0
 11
136.2517422156
 21
119.2264996627
 31
0.0
 11
136.4382328087
 21
119.3349531535
 31
0.0
 11
136.6370062598
 21
119.4223395287
 31
0.0
 11
136.8382469778
 21
119.5061688789
 31
0.0
 11
137.0330681361
 21
119.6021623439
 31
0.0
 11
137.2193519017
 21
119.7130028858
 31
0.0
 11
137.3980068524
 21
119.8355906802
 31
0.0
 11
137.7395896178
 21
120.1023243132
 31
0.0
  0
SPLINE
  5
27A
330
1B
100
AcDbEntity
  8
0
  6
Continuous
100
AcDbSpline
210
0.0
220
0.0
230
1.0
 70
     8
 71
     3
 72
     9
 73
     5
 74
     3
 42
0.0000000001
 43
0.0000000001
 44
0.0000000001
 12
0.1833657814655325
 22
0.9830447549260077
 32
0.0
 13
0.8312952047535658
 23
0.5558311637122618
 33
0.0
 40
0.0
 40
0.0
 40
0.0
 40
0.0
 40
0.3351818636403361
 40
0.669966961221438
 40
0.669966961221438
 40
0.669966961221438
 40
0.669966961221438
 10
135.9081265662
 20
118.6679104718
 30
0.0
 10
135.9286135276532
 20
118.7777433961327
 30
0.0
 10
135.9994829757893
 20
118.9951870858343
 30
0.0
 10
136.158973800186
 20
119.164471665906
 30
0.0
 10
136.2517422156
 20
119.2264996627
 30
0.0
 11
135.9081265662
 21
118.6679104718
 31
0.0
 11
136.0217065393
 21
118.9832618178
 31
0.0
 11
136.2517422156
 21
119.2264996627
 31
0.0
  0
SPLINE
  5
27B
330
1B
100
AcDbEntity
  8
0
  6
Continuous
100
AcDbSpline
210
0.0
220
0.0
230
1.0
 70
     8
 71
     3
 72
    22
 73
    18
 74
    16
 42
0.0000000001
 43
0.0000000001
 44
0.0000000001
 12
0.9007646780309889
 22
0.4343074887815416
 32
0.0
 13
0.2750992418934947
 23
0.9614158346468111
 33
0.0
 40
0.0
 40
0.0
 40
0.0
 40
0.0
 40
0.2168940171546106
 40
0.3247939249042864
 40
0.4313614559143872
 40
0.5388860157076009
 40
0.6497589262942668
 40
0.7649288254720069
 40
0.8783489183418307
 40
0.9849243618942463
 40
1.037313164515345
 40
1.091041947004103
 40
1.201479159662049
 40
1.309950136076374
 40
1.417743525516198
 40
1.526305006223257
 40
1.741696880074232
 40
1.741696880074232
 40
1.741696880074232
 40
1.741696880074232
 10
135.3615079712
 20
117.3995120183
 30
0.0
 10
135.4266314610431
 20
117.4309115836074
 30
0.0
 10
135.5318345241971
 20
117.4597236094309
 30
0.0
 10
135.6690910760405
 20
117.5025313421257
 30
0.0
 10
135.7665781656061
 20
117.5485093949823
 30
0.0
 10
135.8571251694291
 20
117.6085635906043
 30
0.0
 10
135.9415045284089
 20
117.6812907430457
 30
0.0
 10
136.0197696181578
 20
117.7633457483057
 30
0.0
 10
136.0848447633755
 20
117.8548023157972
 30
0.0
 10
136.1170964529312
 20
117.9419856828352
 30
0.0
 10
136.1186857634768
 20
118.0135177039507
 30
0.0
 10
136.1041780649306
 20
118.0846633610876
 30
0.0
 10
136.0662388206969
 20
118.1682673149827
 30
0.0
 10
136.0063747351859
 20
118.2591579675336
 30
0.0
 10
135.9483449346829
 20
118.3508456595076
 30
0.0
 10
135.8916114362238
 20
118.483628024779
 30
0.0
 10
135.8883751857979
 20
118.5988834190751
 30
0.0
 10
135.9081265662
 20
118.6679104718
 30
0.0
 11
135.3615079712
 21
117.3995120183
 31
0.0
 11
135.5663109813
 21
117.4709174924
 31
0.0
 11
135.6686773366
 21
117.5050278925
 31
0.0
 11
135.7650086203
 21
117.5506011571
 31
0.0
 11
135.8548329769
 21
117.6097037452
 31
0.0
 11
135.939199127
 21
117.6816422955
 31
0.0
 11
136.0180610614
 21
117.7655762039
 31
0.0
 11
136.0817440821
 21
117.8594302946
 31
0.0
 11
136.1155860507
 21
117.9604899123
 31
0.0
 11
136.1167498016
 21
118.0128657877
 31
0.0
 11
136.1067081838
 21
118.0656478678
 31
0.0
 11
136.0635092412
 21
118.1672856034
 31
0.0
 11
136.0065002344
 21
118.2595673777
 31
0.0
 11
135.9510194298
 21
118.3519865052
 31
0.0
 11
135.9100665706
 21
118.4525273348
 31
0.0
 11
135.9081265662
 21
118.6679104718
 31
0.0
  0
SPLINE
  5
27C
330
1B
100
AcDbEntity
  8
0
  6
Continuous
100
AcDbSpline
210
0.0
220
0.0
230
1.0
 70
     8
 71
     3
 72
     9
 73
     5
 74
     3
 42
0.0000000001
 43
0.0000000001
 44
0.0000000001
 12
0.5328296179585889
 22
0.8462225465125025
 32
0.0
 13
0.9129791942819543
 23
0.4080061161407678
 33
0.0
 40
0.0
 40
0.0
 40
0.0
 40
0.0
 40
0.3300993862094208
 40
0.6603372001340466
 40
0.6603372001340466
 40
0.6603372001340466
 40
0.6603372001340466
 10
134.9486852056
 20
116.8916247985
 30
0.0
 10
135.0073141155474
 20
116.9847373129001
 30
0.0
 10
135.1080231349877
 20
117.1766888018792
 30
0.0
 10
135.2610078867739
 20
117.3545990023459
 30
0.0
 10
135.3615079712
 20
117.3995120183
 30
0.0
 11
134.9486852056
 21
116.8916247985
 31
0.0
 11
135.1210654775
 21
117.1731397122
 31
0.0
 11
135.3615079712
 21
117.3995120183
 31
0.0
  0
SPLINE
  5
27D
330
1B
100
AcDbEntity
  8
0
  6
Continuous
100
AcDbSpline
210
0.0
220
0.0
230
1.0
 70
     8
 71
     3
 72
    21
 73
    17
 74
    15
 42
0.0000000001
 43
0.0000000001
 44
0.0000000001
 12
-0.9554593948077643
 22
-0.295122592956861
 32
0.0
 13
0.5159199095889894
 23
0.8566368232160517
 33
0.0
 40
0.0
 40
0.0
 40
0.0
 40
0.0
 40
0.2050732346659725
 40
0.307541459413187
 40
0.4099001686697561
 40
0.6147961592402179
 40
0.7171470837707319
 40
0.8194813955201808
 40
0.9225333225573684
 40
1.025376871002555
 40
1.127622884046795
 40
1.231452774603184
 40
1.332744460014718
 40
1.4343783915099
 40
1.542027579624119
 40
1.64882473960585
 40
1.64882473960585
 40
1.64882473960585
 40
1.64882473960585
 10
136.0770378058
 20
116.5277858524
 30
0.0
 10
136.0117247562382
 20
116.5076119374798
 30
0.0
 10
135.9127803838788
 20
116.4802869069736
 30
0.0
 10
135.7786612672188
 20
116.4537046074995
 30
0.0
 10
135.6431150561906
 20
116.4365846093445
 30
0.0
 10
135.5069524605642
 20
116.4249540714065
 30
0.0
 10
135.3725477466019
 20
116.4004415499325
 30
0.0
 10
135.2724882423466
 20
116.3777038902019
 30
0.0
 10
135.16987986632
 20
116.3670761525891
 30
0.0
 10
135.0664273325002
 20
116.3788114764122
 30
0.0
 10
134.9716820927604
 20
116.423986441541
 30
0.0
 10
134.8968035851884
 20
116.4963694608792
 30
0.0
 10
134.8519517549805
 20
116.5924427321031
 30
0.0
 10
134.8596503723818
 20
116.6988614204936
 30
0.0
 10
134.895917550401
 20
116.7982347192821
 30
0.0
 10
134.9303189452259
 20
116.8611293385483
 30
0.0
 10
134.9486852056
 20
116.8916247985
 30
0.0
 11
136.0770378058
 21
116.5277858524
 31
0.0
 11
135.8790212424
 21
116.4744522589
 31
0.0
 11
135.7784396305
 21
116.4548799205
 31
0.0
 11
135.6769823136
 21
116.4413256515
 31
0.0
 11
135.4734477973
 21
116.4177445653
 31
0.0
 11
135.3726961185
 21
116.3997220524
 31
0.0
 11
135.272326426
 21
116.3797661964
 31
0.0
 11
135.1696642789
 21
116.3708116881
 31
0.0
 11
135.0677239365
 21
116.3844117634
 31
0.0
 11
134.9753682547
 21
116.428282884
 31
0.0
 11
134.9013042612
 21
116.5010508099
 31
0.0
 11
134.8606477247
 21
116.5938250066
 31
0.0
 11
134.8639409747
 21
116.6954055684
 31
0.0
 11
134.8984837448
 21
116.797362151
 31
0.0
 11
134.9486852056
 21
116.8916247985
 31
0.0
  0
SPLINE
  5
27E
330
1B
100
AcDbEntity
  8
0
  6
Continuous
100
AcDbSpline
210
0.0
220
0.0
230
1.0
 70
     8
 71
     3
 72
     8
 73
     4
 74
     2
 42
0.0000000001
 43
0.0000000001
 44
0.0000000001
 12
-0.9934901101547347
 22
-0.1139183963402456
 32
0.0
 13
-0.9611456941588004
 23
-0.2760415812880332
 33
0.0
 40
0.0
 40
0.0
 40
0.0
 40
0.0
 40
0.3469178471296601
 40
0.3469178471296601
 40
0.3469178471296601
 40
0.3469178471296601
 10
136.4172362182
 20
116.5957346041
 30
0.0
 10
136.3023497348135
 20
116.5825611624977
 30
0.0
 10
136.1881840041318
 20
116.5597071027662
 30
0.0
 10
136.0770378058
 20
116.5277858524
 30
0.0
 11
136.4172362182
 21
116.5957346041
 31
0.0
 11
136.0770378058
 21
116.5277858524
 31
0.0
  0
SPLINE
  5
27F
330
1B
100
AcDbEntity
  8
0
  6
Continuous
100
AcDbSpline
210
0.0
220
0.0
230
1.0
 70
     8
 71
     3
 72
    14
 73
    10
 74
     8
 42
0.0000000001
 43
0.0000000001
 44
0.0000000001
 12
-0.9203436735223962
 22
0.3911106270702717
 32
0.0
 13
-0.9795453762178928
 23
-0.2012233980682839
 33
0.0
 40
0.0
 40
0.0
 40
0.0
 40
0.0
 40
0.1912205842617252
 40
0.3857819335946361
 40
0.5805630574483565
 40
0.7724046675495158
 40
0.9640683804527873
 40
1.156389151069569
 40
1.540711257101822
 40
1.540711257101822
 40
1.540711257101822
 40
1.540711257101822
 10
137.9457678071
 20
116.6313691998
 30
0.0
 10
137.8871049221092
 20
116.6562986673398
 30
0.0
 10
137.7605327662103
 20
116.6876640515976
 30
0.0
 10
137.5667616010983
 20
116.6955052372355
 30
0.0
 10
137.3731423639161
 20
116.6876829859883
 30
0.0
 10
137.180708511767
 20
116.676558291012
 30
0.0
 10
136.9890726248032
 20
116.6656664508898
 30
0.0
 10
136.7335137196339
 20
116.6489970433377
 30
0.0
 10
136.5427231988474
 20
116.6215128041429
 30
0.0
 10
136.4172362182
 20
116.5957346041
 30
0.0
 11
137.9457678071
 21
116.6313691998
 31
0.0
 11
137.7610912683
 21
116.6809664564
 31
0.0
 11
137.5668950449
 21
116.6928805435
 31
0.0
 11
137.3722004169
 21
116.6870764038
 31
0.0
 11
137.1806458546
 21
116.6765857876
 31
0.0
 11
136.9893080813
 21
116.6654128134
 31
0.0
 11
136.7974914104
 21
116.6514972259
 31
0.0
 11
136.4172362182
 21
116.5957346041
 31
0.0
  0
SPLINE
  5
280
330
1B
100
AcDbEntity
  8
0
  6
Continuous
100
AcDbSpline
210
0.0
220
0.0
230
1.0
 70
     8
 71
     3
 72
    14
 73
    10
 74
     8
 42
0.0000000001
 43
0.0000000001
 44
0.0000000001
 12
0.1533472979916693
 22
0.9881723565242322
 32
0.0
 13
-0.9192398162458754
 23
0.3936980571811974
 33
0.0
 40
0.0
 40
0.0
 40
0.0
 40
0.0
 40
0.6909181587461888
 40
1.038125883117882
 40
1.382648731203196
 40
1.728087205704406
 40
2.07356010077425
 40
2.419017330656545
 40
2.764425210288219
 40
2.764425210288219
 40
2.764425210288219
 40
2.764425210288219
 10
138.2468073231
 20
114.0958335907
 30
0.0
 10
138.2821241340257
 20
114.3234156657312
 30
0.0
 10
138.349329913745
 20
114.6635663670775
 30
0.0
 10
138.4673583695147
 20
115.1087724464897
 30
0.0
 10
138.5251599851499
 20
115.4515804334681
 30
0.0
 10
138.5027300136896
 20
115.7987036982073
 30
0.0
 10
138.4167924833231
 20
116.1358031501506
 30
0.0
 10
138.2424424979182
 20
116.4409699101894
 30
0.0
 10
138.0516053657008
 20
116.5860403960847
 30
0.0
 10
137.9457678071
 20
116.6313691998
 30
0.0
 11
138.2468073231
 21
114.0958335907
 31
0.0
 11
138.3810656782
 21
114.7735817712
 31
0.0
 11
138.4624230437
 21
115.1111231508
 31
0.0
 11
138.5117948967
 21
115.4520900304
 31
0.0
 11
138.4921506097
 21
115.79696949
 31
0.0
 11
138.402053871
 21
116.130487254
 31
0.0
 11
138.2237794473
 21
116.4263908321
 31
0.0
 11
137.9457678071
 21
116.6313691998
 31
0.0
  0
SPLINE
  5
281
330
1B
100
AcDbEntity
  8
0
  6
Continuous
100
AcDbSpline
210
0.0
220
0.0
230
1.0
 70
     8
 71
     3
 72
    21
 73
    17
 74
    15
 42
0.0000000001
 43
0.0000000001
 44
0.0000000001
 12
-0.9840051993569045
 22
0.1781397418842265
 32
0.0
 13
0.2211404622996556
 23
0.9752419678899666
 33
0.0
 40
0.0
 40
0.0
 40
0.0
 40
0.0
 40
0.2589325591480716
 40
0.3881516535125658
 40
0.5175463049890802
 40
0.6473580263998573
 40
0.7772456414570024
 40
0.9067871524968771
 40
1.036307115958326
 40
1.16685004655321
 40
1.297202714592754
 40
1.426337939665188
 40
1.555906853367273
 40
1.686578668072911
 40
1.816586608226179
 40
2.075088664689877
 40
2.075088664689877
 40
2.075088664689877
 40
2.075088664689877
 10
138.8639045985
 20
110.6122024346
 30
0.0
 10
138.7789742703385
 20
110.627577827684
 30
0.0
 10
138.6523242476913
 20
110.6571987923773
 30
0.0
 10
138.4916622200207
 20
110.7208159596355
 30
0.0
 10
138.3762810964004
 20
110.7799162249658
 30
0.0
 10
138.2652741735508
 20
110.8471100984719
 30
0.0
 10
138.1573688580889
 20
110.9192323771432
 30
0.0
 10
138.0538761230045
 20
110.9975244514135
 30
0.0
 10
137.9580624886839
 20
111.0855988975555
 30
0.0
 10
137.8738875285512
 20
111.185376388763
 30
0.0
 10
137.8055852756514
 20
111.2967496564017
 30
0.0
 10
137.7602560364236
 20
111.4193316933969
 30
0.0
 10
137.7418924725561
 20
111.5485729312994
 30
0.0
 10
137.7424034859565
 20
111.6789244345855
 30
0.0
 10
137.7600411035556
 20
111.8512887941384
 30
0.0
 10
137.7867233310094
 20
111.9782648826169
 30
0.0
 10
137.8057784191
 20
112.0622989007
 30
0.0
 11
138.8639045985
 21
110.6122024346
 31
0.0
 11
138.6127395244
 21
110.6751482505
 31
0.0
 11
138.4925807331
 21
110.7226818094
 31
0.0
 11
138.377164111
 21
110.7811794946
 31
0.0
 11
138.2658198517
 21
110.8479143351
 31
0.0
 11
138.1579971508
 21
110.9203371058
 31
0.0
 11
138.0551761177
 21
110.9991332874
 31
0.0
 11
137.9602699867
 21
111.0872709481
 31
0.0
 11
137.8764908422
 21
111.1873834432
 31
0.0
 11
137.8092099545
 21
111.2990306564
 31
0.0
 11
137.7647767631
 21
111.4202808022
 31
0.0
 11
137.7450713452
 21
111.5483425057
 31
0.0
 11
137.7445438236
 21
111.6790132556
 31
0.0
 11
137.7571858047
 21
111.8084050823
 31
0.0
 11
137.8057784191
 21
112.0622989007
 31
0.0
  0
SPLINE
  5
282
330
1B
100
AcDbEntity
  8
0
  6
Continuous
100
AcDbSpline
210
0.0
220
0.0
230
1.0
 70
     8
 71
     3
 72
    10
 73
     6
 74
     4
 42
0.0000000001
 43
0.0000000001
 44
0.0000000001
 12
-0.8055988806098086
 22
0.5924613435155272
 32
0.0
 13
-0.984454133657119
 23
0.1756418478763289
 33
0.0
 40
0.0
 40
0.0
 40
0.0
 40
0.0
 40
0.1746863685277011
 40
0.2621764559105037
 40
0.3492111029121574
 40
0.3492111029121574
 40
0.3492111029121574
 40
0.3492111029121574
 10
139.1836435875
 20
110.4787395292
 30
0.0
 10
139.1367345398521
 20
110.5132378360639
 30
0.0
 10
139.0596135649797
 20
110.5565982518586
 30
0.0
 10
138.9495135293935
 20
110.5950453450057
 30
0.0
 10
138.8924651378374
 20
110.6071067925238
 30
0.0
 10
138.8639045985
 20
110.6122024346
 30
0.0
 11
139.1836435875
 21
110.4787395292
 31
0.0
 11
139.0315053532
 21
110.564584069
 31
0.0
 11
138.9488613295
 21
110.5932978416
 31
0.0
 11
138.8639045985
 21
110.6122024346
 31
0.0
  0
SPLINE
  5
283
330
1B
100
AcDbEntity
  8
0
  6
Continuous
100
AcDbSpline
210
0.0
220
0.0
230
1.0
 70
     8
 71
     3
 72
    13
 73
     9
 74
     7
 42
0.0000000001
 43
0.0000000001
 44
0.0000000001
 12
0.3131731825801596
 22
0.9496960343776392
 32
0.0
 13
-0.8107051084752054
 23
0.5854547182252489
 33
0.0
 40
0.0
 40
0.0
 40
0.0
 40
0.0
 40
0.0348606432029983
 40
0.0722349670911097
 40
0.1120936048245291
 40
0.1508336640607769
 40
0.2232295982687628
 40
0.2942661849650621
 40
0.2942661849650621
 40
0.2942661849650621
 40
0.2942661849650621
 10
139.349885569
 20
110.2509139499
 30
0.0
 10
139.3535247085262
 20
110.2619496214353
 30
0.0
 10
139.3537000116649
 20
110.2873818251041
 30
0.0
 10
139.3380399491678
 20
110.3218432517477
 30
0.0
 10
139.3156794455169
 20
110.3534526190463
 30
0.0
 10
139.2836121455349
 20
110.3922799730569
 30
0.0
 10
139.2405972581566
 20
110.4353937629637
 30
0.0
 10
139.2028401620744
 20
110.464876627584
 30
0.0
 10
139.1836435875
 20
110.4787395292
 30
0.0
 11
139.349885569
 21
110.2509139499
 31
0.0
 11
139.3513027141
 21
110.2857457765
 31
0.0
 11
139.3374266043
 21
110.320448711
 31
0.0
 11
139.315068289
 21
110.3534459342
 31
0.0
 11
139.2904390772
 21
110.3833490129
 31
0.0
 11
139.2392853745
 21
110.4345785941
 31
0.0
 11
139.1836435875
 21
110.4787395292
 31
0.0
  0
SPLINE
  5
284
330
1B
100
AcDbEntity
  8
0
  6
Continuous
100
AcDbSpline
210
0.0
220
0.0
230
1.0
 70
     8
 71
     3
 72
    13
 73
     9
 74
     7
 42
0.0000000001
 43
0.0000000001
 44
0.0000000001
 12
0.9918080752644051
 22
-0.1277370026277284
 32
0.0
 13
0.2094354824814307
 23
0.9778224678732691
 33
0.0
 40
0.0
 40
0.0
 40
0.0
 40
0.0
 40
0.0811728866537929
 40
0.1642697659572208
 40
0.2103159218768159
 40
0.2593257474853632
 40
0.303978009094341
 40
0.3429329035302595
 40
0.3429329035302595
 40
0.3429329035302595
 40
0.3429329035302595
 10
139.0288412835
 20
110.2003447084
 30
0.0
 10
139.0556772583252
 20
110.1968884479881
 30
0.0
 10
139.1099998179361
 20
110.1898156081825
 30
0.0
 10
139.1802635654717
 20
110.1876935479816
 30
0.0
 10
139.2395533847812
 20
110.1923011365423
 30
0.0
 10
139.2855153793143
 20
110.1994917627597
 30
0.0
 10
139.3282205815187
 20
110.2138562275259
 30
0.0
 10
139.3471660566296
 20
110.2382169595623
 30
0.0
 10
139.349885569
 20
110.2509139499
 30
0.0
 11
139.0288412835
 21
110.2003447084
 31
0.0
 11
139.1094997684
 21
110.1912207651
 31
0.0
 11
139.192573086
 21
110.1892420653
 31
0.0
 11
139.2384819158
 21
110.1927956299
 31
0.0
 11
139.2867703004
 21
110.2011738707
 31
0.0
 11
139.3277797589
 21
110.2188387732
 31
0.0
 11
139.349885569
 21
110.2509139499
 31
0.0
  0
SPLINE
  5
285
330
1B
100
AcDbEntity
  8
0
  6
Continuous
100
AcDbSpline
210
0.0
220
0.0
230
1.0
 70
     8
 71
     3
 72
     9
 73
     5
 74
     3
 42
0.0000000001
 43
0.0000000001
 44
0.0000000001
 12
0.9801671717957509
 22
-0.1981724383811209
 32
0.0
 13
0.9922009802685372
 23
-0.1246483644263085
 33
0.0
 40
0.0
 40
0.0
 40
0.0
 40
0.0
 40
0.1735092748308092
 40
0.3469771970177794
 40
0.3469771970177794
 40
0.3469771970177794
 40
0.3469771970177794
 10
138.6871469133
 20
110.2602270208
 30
0.0
 10
138.7438362783638
 20
110.2487654354417
 30
0.0
 10
138.8571012003918
 20
110.2252913678226
 30
0.0
 10
138.971469602687
 20
110.2075522059937
 30
0.0
 10
139.0288412835
 20
110.2003447084
 30
0.0
 11
138.6871469133
 21
110.2602270208
 31
0.0
 11
138.8573906351
 21
110.2267226384
 31
0.0
 11
139.0288412835
 21
110.2003447084
 31
0.0
  0
SPLINE
  5
286
330
1B
100
AcDbEntity
  8
0
  6
Continuous
100
AcDbSpline
210
0.0
220
0.0
230
1.0
 70
     8
 71
     3
 72
     9
 73
     5
 74
     3
 42
0.0000000001
 43
0.0000000001
 44
0.0000000001
 12
0.9939231532831034
 22
-0.1100761798382042
 32
0.0
 13
0.9785045214760763
 23
-0.2062253656824864
 33
0.0
 40
0.0
 40
0.0
 40
0.0
 40
0.0
 40
0.3470005334491418
 40
0.6940049083426552
 40
0.6940049083426552
 40
0.6940049083426552
 40
0.6940049083426552
 10
138.0035235128
 20
110.3788183452
 30
0.0
 10
138.1184874675989
 20
110.3660861808254
 30
0.0
 10
138.3470794781371
 20
110.3291609701879
 30
0.0
 10
138.5739651300316
 20
110.2840807221686
 30
0.0
 10
138.6871469133
 20
110.2602270208
 30
0.0
 11
138.0035235128
 21
110.3788183452
 31
0.0
 11
138.3466516279
 21
110.3271224378
 31
0.0
 11
138.6871469133
 21
110.2602270208
 31
0.0
  0
SPLINE
  5
287
330
1B
100
AcDbEntity
  8
0
  6
Continuous
100
AcDbSpline
210
0.0
220
0.0
230
1.0
 70
     8
 71
     3
 72
     9
 73
     5
 74
     3
 42
0.0000000001
 43
0.0000000001
 44
0.0000000001
 12
0.9804600510117965
 22
0.1967182969882204
 32
0.0
 13
0.9948163635994534
 23
-0.1016877707237217
 33
0.0
 40
0.0
 40
0.0
 40
0.0
 40
0.0
 40
0.3454888507522196
 40
0.6909600996695807
 40
0.6909600996695807
 40
0.6909600996695807
 40
0.6909600996695807
 10
137.3189028071
 20
110.3179093951
 30
0.0
 10
137.4318154791775
 20
110.3405640545495
 30
0.0
 10
137.6557701374759
 20
110.4016878386085
 30
0.0
 10
137.8889633622746
 20
110.3905284122505
 30
0.0
 10
138.0035235128
 20
110.3788183452
 30
0.0
 11
137.3189028071
 21
110.3179093951
 31
0.0
 11
137.6580856019
 21
110.3836176724
 31
0.0
 11
138.0035235128
 21
110.3788183452
 31
0.0
  0
SPLINE
  5
288
330
1B
100
AcDbEntity
  8
0
  6
Continuous
100
AcDbSpline
210
0.0
220
0.0
230
1.0
 70
     8
 71
     3
 72
    23
 73
    19
 74
    17
 42
0.0000000001
 43
0.0000000001
 44
0.0000000001
 12
0.2297276901423072
 22
-0.9732549452131647
 32
0.0
 13
0.9796538453670561
 23
0.2006946517910735
 33
0.0
 40
0.0
 40
0.0
 40
0.0
 40
0.0
 40
0.2616925622958271
 40
0.3921733402109749
 40
0.5225740495739304
 40
0.6533409637731137
 40
0.7841507300458886
 40
0.9148371350754017
 40
1.045039086691427
 40
1.306298567459563
 40
1.436791310048203
 40
1.567988366530084
 40
1.634470937702854
 40
1.700579946862615
 40
1.765593896316008
 40
1.830477158130569
 40
1.964118494312079
 40
2.098764468592364
 40
2.098764468592364
 40
2.098764468592364
 40
2.098764468592364
 10
136.9430067341
 20
112.020984065
 30
0.0
 10
136.9630460767212
 20
111.9360862048734
 30
0.0
 10
136.9813275910015
 20
111.805239011145
 30
0.0
 10
136.9730259260112
 20
111.6308448025682
 30
0.0
 10
136.9520742393427
 20
111.5018528331525
 30
0.0
 10
136.9271528651622
 20
111.3735956000761
 30
0.0
 10
136.9094377837234
 20
111.2439814747326
 30
0.0
 10
136.8954802769532
 20
111.1141681125463
 30
0.0
 10
136.8678763762449
 20
110.9421693081879
 30
0.0
 10
136.812367120406
 20
110.7755643773628
 30
0.0
 10
136.8096897974558
 20
110.5992091390545
 30
0.0
 10
136.8421749037853
 20
110.4922847598657
 30
0.0
 10
136.8897652795352
 20
110.4178095802781
 30
0.0
 10
136.9353878996024
 20
110.3696674697092
 30
0.0
 10
136.9901936709865
 20
110.3329248184547
 30
0.0
 10
137.0735766404755
 20
110.3030442175878
 30
0.0
 10
137.1861868657083
 20
110.2960347804749
 30
0.0
 10
137.274933991611
 20
110.3089018194589
 30
0.0
 10
137.3189028071
 20
110.3179093951
 30
0.0
 11
136.9430067341
 21
112.020984065
 31
0.0
 11
136.9765297775
 21
111.7614475498
 31
0.0
 11
136.970570206
 21
111.6311029415
 31
0.0
 11
136.9514373731
 21
111.5021134857
 31
0.0
 11
136.9283595841
 21
111.3733990673
 31
0.0
 11
136.9100556777
 21
111.2438762432
 31
0.0
 11
136.894334881
 21
111.114138843
 31
0.0
 11
136.8724887549
 21
110.9857827174
 31
0.0
 11
136.8160977867
 21
110.73068161
 31
0.0
 11
136.8164677646
 21
110.6001893919
 31
0.0
 11
136.8556706539
 21
110.4749863524
 31
0.0
 11
136.8915149629
 21
110.4189942299
 31
0.0
 11
136.9372650941
 21
110.3712728868
 31
0.0
 11
136.9914271919
 21
110.3353106735
 31
0.0
 11
137.0522797503
 21
110.3127983702
 31
0.0
 11
137.1853677057
 21
110.3006491783
 31
0.0
 11
137.3189028071
 21
110.3179093951
 31
0.0
  0
SPLINE
  5
289
330
1B
100
AcDbEntity
  8
0
  6
Continuous
100
AcDbSpline
210
0.0
220
0.0
230
1.0
 70
     8
 71
     3
 72
    10
 73
     6
 74
     4
 42
0.0000000001
 43
0.0000000001
 44
0.0000000001
 12
-0.5702189022933474
 22
-0.8214927896624352
 32
0.0
 13
0.3743859705040806
 23
-0.9272729614788289
 33
0.0
 40
0.0
 40
0.0
 40
0.0
 40
0.0
 40
0.3783972953906722
 40
1.228954334849424
 40
2.470089287748857
 40
2.470089287748857
 40
2.470089287748857
 40
2.470089287748857
 10
137.004194343
 20
114.4076381366
 30
0.0
 10
136.9322712461972
 20
114.3040212533363
 30
0.0
 10
136.7385449046102
 20
113.9381161400632
 30
0.0
 10
136.6237467641878
 20
113.1002664565019
 30
0.0
 10
136.7881188961441
 20
112.40460769279
 30
0.0
 10
136.9430067341
 20
112.020984065
 30
0.0
 11
137.004194343
 21
114.4076381366
 31
0.0
 11
136.8259249959
 21
114.0738649306
 31
0.0
 11
136.6851526472
 21
113.235038117
 31
0.0
 11
136.9430067341
 21
112.020984065
 31
0.0
  0
SPLINE
  5
28A
330
1B
100
AcDbEntity
  8
0
  6
Continuous
100
AcDbSpline
210
0.0
220
0.0
230
1.0
 70
     8
 71
     3
 72
    13
 73
     9
 74
     7
 42
0.0000000001
 43
0.0000000001
 44
0.0000000001
 12
0.731425741574445
 22
-0.6819210984874081
 32
0.0
 13
-0.5057194996409705
 23
-0.8626979701395422
 33
0.0
 40
0.0
 40
0.0
 40
0.0
 40
0.0
 40
0.0427097917205006
 40
0.0886573349785458
 40
0.1373328661707499
 40
0.1842025183549673
 40
0.2722082857223866
 40
0.359186451813845
 40
0.359186451813845
 40
0.359186451813845
 40
0.359186451813845
 10
137.0777602697
 20
114.7384354806
 30
0.0
 10
137.0881732833939
 20
114.7287272445713
 30
0.0
 10
137.1032039625064
 20
114.7012955535308
 30
0.0
 10
137.105945849966
 20
114.6549399408598
 30
0.0
 10
137.0987581331913
 20
114.6081626237238
 30
0.0
 10
137.0818029151432
 20
114.5492179341511
 30
0.0
 10
137.0495663119548
 20
114.4822109577669
 30
0.0
 10
137.0188565278785
 20
114.4326500990445
 30
0.0
 10
137.004194343
 20
114.4076381366
 30
0.0
 11
137.0777602697
 21
114.7384354806
 31
0.0
 11
137.0995776079
 21
114.7017185899
 31
0.0
 11
137.1043125281
 21
114.6560156659
 31
0.0
 11
137.0976354495
 21
114.6078002746
 31
0.0
 11
137.0847406674
 21
114.5627393282
 31
0.0
 11
137.0480805331
 21
114.4827327682
 31
0.0
 11
137.004194343
 21
114.4076381366
 31
0.0
  0
SPLINE
  5
28B
330
1B
100
AcDbEntity
  8
0
  6
Continuous
100
AcDbSpline
210
0.0
220
0.0
230
1.0
 70
     8
 71
     3
 72
    28
 73
    24
 74
    22
 42
0.0000000001
 43
0.0000000001
 44
0.0000000001
 12
-0.3510236392127719
 22
0.9363665973932548
 32
0.0
 13
0.6886111022572155
 23
-0.7251308501560964
 33
0.0
 40
0.0
 40
0.0
 40
0.0
 40
0.0
 40
0.2140849957348352
 40
0.4288420300007371
 40
0.6440352246735603
 40
0.7513455991323791
 40
0.8585695277583647
 40
0.9663603857739226
 40
1.072118458507829
 40
1.178777665796307
 40
1.288553753056139
 40
1.506335213276972
 40
1.718796071557764
 40
1.932887376623083
 40
2.146891621868147
 40
2.361353383428231
 40
2.468529649296519
 40
2.575664006565214
 40
2.789590236595844
 40
3.003542699838394
 40
3.21729959292369
 40
3.324490318928978
 40
3.431485070659199
 40
3.431485070659199
 40
3.431485070659199
 40
3.431485070659199
 10
134.7107017792
 20
113.2711354994
 30
0.0
 10
134.6856521477654
 20
113.3379561790697
 30
0.0
 10
134.6350668257883
 20
113.4717617677209
 30
0.0
 10
134.5868084965851
 20
113.6821553254574
 30
0.0
 10
134.5883593093707
 20
113.8636310043824
 30
0.0
 10
134.6212229884688
 20
114.0036574691339
 30
0.0
 10
134.6655867233704
 20
114.1024674380179
 30
0.0
 10
134.7331988537225
 20
114.1871428917659
 30
0.0
 10
134.8229619724598
 20
114.2480071658072
 30
0.0
 10
134.9262868271472
 20
114.2807164106493
 30
0.0
 10
135.069739576961
 20
114.3014015996538
 30
0.0
 10
135.2495820263019
 20
114.3108339813182
 30
0.0
 10
135.4638327497834
 20
114.3273543192993
 30
0.0
 10
135.674850739502
 20
114.361127654851
 30
0.0
 10
135.8842246320613
 20
114.407331298807
 30
0.0
 10
136.0534643036739
 20
114.4659528189586
 30
0.0
 10
136.1830162289501
 20
114.5267174471483
 30
0.0
 10
136.3065924771683
 20
114.5981987271823
 30
0.0
 10
136.4571494442299
 20
114.6950426014768
 30
0.0
 10
136.6599860993447
 20
114.7672767423444
 30
0.0
 10
136.8385935632958
 20
114.7948479181009
 30
0.0
 10
136.9797238258543
 20
114.7881721228183
 30
0.0
 10
137.0532010117251
 20
114.7642972123615
 30
0.0
 10
137.0777602697
 20
114.7384354806
 30
0.0
 11
134.7107017792
 21
113.2711354994
 31
0.0
 11
134.6397445706
 21
113.4731193105
 31
0.0
 11
134.5951886527
 21
113.6832034697
 31
0.0
 11
134.5992373347
 21
113.8983585747
 31
0.0
 11
134.6245125246
 21
114.0026499034
 31
0.0
 11
134.6694196536
 21
114.1000168415
 31
0.0
 11
134.7374113529
 21
114.1836589236
 31
0.0
 11
134.8248347485
 21
114.2431729543
 31
0.0
 11
134.9257960244
 21
114.277567827
 31
0.0
 11
135.0341555241
 21
114.2951464549
 31
0.0
 11
135.2512971729
 21
114.3118278449
 31
0.0
 11
135.4629640282
 21
114.3301788304
 31
0.0
 11
135.6744956353
 21
114.3631858918
 31
0.0
 11
135.8830186273
 21
114.4113105091
 31
0.0
 11
136.0853869892
 21
114.4823097575
 31
0.0
 11
136.1823012211
 21
114.5280741937
 31
0.0
 11
136.2755195293
 21
114.5808768217
 31
0.0
 11
136.4608552041
 21
114.6877183845
 31
0.0
 11
136.6619512273
 21
114.7607666287
 31
0.0
 11
136.8735903095
 21
114.790781762
 31
0.0
 11
136.9805001022
 21
114.78302625
 31
0.0
 11
137.0777602697
 21
114.7384354806
 31
0.0
  0
SPLINE
  5
28C
330
1B
100
AcDbEntity
  8
0
  6
Continuous
100
AcDbSpline
210
0.0
220
0.0
230
1.0
 70
     8
 71
     3
 72
     8
 73
     4
 74
     2
 42
0.0000000001
 43
0.0000000001
 44
0.0000000001
 12
-0.1832031779219312
 22
0.9830750711920759
 32
0.0
 13
-0.3799761393634763
 23
0.9249962883787308
 33
0.0
 40
0.0
 40
0.0
 40
0.0
 40
0.0
 40
0.9080242580120083
 40
0.9080242580120083
 40
0.9080242580120083
 40
0.9080242580120083
 10
134.9638897104
 20
112.3991240748
 30
0.0
 10
134.908438733834
 20
112.6966760788298
 30
0.0
 10
134.8257109632026
 20
112.9911624765937
 30
0.0
 10
134.7107017792
 20
113.2711354994
 30
0.0
 11
134.9638897104
 21
112.3991240748
 31
0.0
 11
134.7107017792
 21
113.2711354994
 31
0.0
  0
SPLINE
  5
28D
330
1B
100
AcDbEntity
  8
0
  6
Continuous
100
AcDbSpline
210
0.0
220
0.0
230
1.0
 70
     8
 71
     3
 72
     8
 73
     4
 74
     2
 42
0.0000000001
 43
0.0000000001
 44
0.0000000001
 12
-0.185546708309145
 22
0.9826354456438263
 32
0.0
 13
-0.1902717687356279
 23
0.9817314571827756
 33
0.0
 40
0.0
 40
0.0
 40
0.0
 40
0.0
 40
0.7218640601073851
 40
0.7218640601073851
 40
0.7218640601073851
 40
0.7218640601073851
 10
135.0995818863
 20
111.690128056
 30
0.0
 10
135.0549353862335
 20
111.9265711267993
 30
0.0
 10
135.0096731609011
 20
112.1628985229276
 30
0.0
 10
134.9638897104
 20
112.3991240748
 30
0.0
 11
135.0995818863
 21
111.690128056
 31
0.0
 11
134.9638897104
 21
112.3991240748
 31
0.0
  0
SPLINE
  5
28E
330
1B
100
AcDbEntity
  8
0
  6
Continuous
100
AcDbSpline
210
0.0
220
0.0
230
1.0
 70
     8
 71
     3
 72
    17
 73
    13
 74
    11
 42
0.0000000001
 43
0.0000000001
 44
0.0000000001
 12
0.9977434670512042
 22
0.06714144738269011
 32
0.0
 13
-0.322770679990007
 23
0.9464771989534606
 33
0.0
 40
0.0
 40
0.0
 40
0.0
 40
0.0
 40
0.1147333718524974
 40
0.2302946739221722
 40
0.3427281745680045
 40
0.4534731083442824
 40
0.5671766183585388
 40
0.6831519787460673
 40
0.9086942868627073
 40
1.133382628027634
 40
1.358235216614689
 40
1.807171317086339
 40
1.807171317086339
 40
1.807171317086339
 40
1.807171317086339
 10
134.6524562207
 20
110.183243857
 30
0.0
 10
134.6906143781062
 20
110.1858116452164
 30
0.0
 10
134.7670037108788
 20
110.1962603279143
 30
0.0
 10
134.8767090508
 20
110.2300491892332
 30
0.0
 10
134.976214080953
 20
110.2866211566886
 30
0.0
 10
135.0523220504477
 20
110.3715661089523
 30
0.0
 10
135.1049827298194
 20
110.4728936564822
 30
0.0
 10
135.1534352727991
 20
110.6170309177913
 30
0.0
 10
135.1898274810471
 20
110.8028031443777
 30
0.0
 10
135.2110331059934
 20
111.0272656706882
 30
0.0
 10
135.1999884696548
 20
111.3273645365248
 30
0.0
 10
135.1478830231071
 20
111.5484921283722
 30
0.0
 10
135.0995818863
 20
111.690128056
 30
0.0
 11
134.6524562207
 21
110.183243857
 31
0.0
 11
134.7660655518
 21
110.1992646717
 31
0.0
 11
134.8761672083
 21
110.2343650958
 31
0.0
 11
134.9728679599
 21
110.2917258551
 31
0.0
 11
135.0477616104
 21
110.3733063765
 31
0.0
 11
135.1019150953
 21
110.4732858157
 31
0.0
 11
135.1401126913
 21
110.5827902808
 31
0.0
 11
135.1861694623
 21
110.8035800147
 31
0.0
 11
135.2061197963
 21
111.0273808968
 31
0.0
 11
135.197862719
 21
111.2520818253
 31
0.0
 11
135.0995818863
 21
111.690128056
 31
0.0
  0
SPLINE
  5
28F
330
1B
100
AcDbEntity
  8
0
  6
Continuous
100
AcDbSpline
210
0.0
220
0.0
230
1.0
 70
     8
 71
     3
 72
     9
 73
     5
 74
     3
 42
0.0000000001
 43
0.0000000001
 44
0.0000000001
 12
0.9977301629815126
 22
-0.06733885859505182
 32
0.0
 13
0.9985764932260257
 23
0.05333842120285321
 33
0.0
 40
0.0
 40
0.0
 40
0.0
 40
0.0
 40
0.3595228266769694
 40
0.7186447692361764
 40
0.7186447692361764
 40
0.7186447692361764
 40
0.7186447692361764
 10
133.935995079
 20
110.2339890935
 30
0.0
 10
134.0555640018187
 20
110.2259191412376
 30
0.0
 10
134.2926735630829
 20
110.1922661024839
 30
0.0
 10
134.5329193106863
 20
110.1768588578549
 30
0.0
 10
134.6524562207
 20
110.183243857
 30
0.0
 11
133.935995079
 21
110.2339890935
 31
0.0
 11
134.2935907523
 21
110.1968138687
 31
0.0
 11
134.6524562207
 21
110.183243857
 31
0.0
  0
SPLINE
  5
290
330
1B
100
AcDbEntity
  8
0
  6
Continuous
100
AcDbSpline
210
0.0
220
0.0
230
1.0
 70
     8
 71
     3
 72
     8
 73
     4
 74
     2
 42
0.0000000001
 43
0.0000000001
 44
0.0000000001
 12
0.9987130637359921
 22
0.05071702202484121
 32
0.0
 13
0.9970464607767753
 23
-0.07680074903610261
 33
0.0
 40
0.0
 40
0.0
 40
0.0
 40
0.0
 40
0.7220306820144943
 40
0.7220306820144943
 40
0.7220306820144943
 40
0.7220306820144943
 10
133.2140032931
 20
110.241483549
 30
0.0
 10
133.4543704512821
 20
110.2536899643341
 30
0.0
 10
133.6960290336417
 20
110.2524732592353
 30
0.0
 10
133.935995079
 20
110.2339890935
 30
0.0
 11
133.2140032931
 21
110.241483549
 31
0.0
 11
133.935995079
 21
110.2339890935
 31
0.0
  0
SPLINE
  5
291
330
1B
100
AcDbEntity
  8
0
  6
Continuous
100
AcDbSpline
210
0.0
220
0.0
230
1.0
 70
     8
 71
     3
 72
     9
 73
     5
 74
     3
 42
0.0000000001
 43
0.0000000001
 44
0.0000000001
 12
0.9926370894930401
 22
-0.1211264156275851
 32
0.0
 13
0.9993384914128025
 23
0.03636728723432951
 33
0.0
 40
0.0
 40
0.0
 40
0.0
 40
0.0
 40
0.7228387380733694
 40
1.445686260894084
 40
1.445686260894084
 40
1.445686260894084
 40
1.445686260894084
 10
131.7705125075
 20
110.2752159317
 30
0.0
 10
132.009684687878
 20
110.2460309765601
 30
0.0
 10
132.4913782397799
 20
110.2051959966544
 30
0.0
 10
132.9732135087743
 20
110.2327208811703
 30
0.0
 10
133.2140032931
 20
110.241483549
 30
0.0
 11
131.7705125075
 21
110.2752159317
 31
0.0
 11
132.4914107416
 21
110.2222860032
 31
0.0
 11
133.2140032931
 21
110.241483549
 31
0.0
  0
SPLINE
  5
292
330
1B
100
AcDbEntity
  8
0
  6
Continuous
100
AcDbSpline
210
0.0
220
0.0
230
1.0
 70
     8
 71
     3
 72
    11
 73
     7
 74
     5
 42
0.0000000001
 43
0.0000000001
 44
0.0000000001
 12
0.997533451433914
 22
0.0701926867297671
 32
0.0
 13
0.9918262654056197
 23
-0.1275956866494372
 33
0.0
 40
0.0
 40
0.0
 40
0.0
 40
0.0
 40
0.5412846865194195
 40
1.082536055134912
 40
1.623784431290287
 40
2.165050669449717
 40
2.165050669449717
 40
2.165050669449717
 40
2.165050669449717
 10
129.6125786567
 20
110.2588483929
 30
0.0
 10
129.7925618505507
 20
110.2715131350442
 30
0.0
 10
130.1540369004537
 20
110.2754238096557
 30
0.0
 10
130.6903333132892
 20
110.3583741587041
 30
0.0
 10
131.2340187163748
 20
110.3475161350515
 30
0.0
 10
131.5915651503054
 20
110.298237010806
 30
0.0
 10
131.7705125075
 20
110.2752159317
 30
0.0
 11
129.6125786567
 21
110.2588483929
 31
0.0
 11
130.1530630199
 21
110.2882722777
 31
0.0
 11
130.6915668099
 21
110.342739811
 31
0.0
 11
131.2327848194
 21
110.3370064975
 31
0.0
 11
131.7705125075
 21
110.2752159317
 31
0.0
  0
SPLINE
  5
293
330
1B
100
AcDbEntity
  8
0
  6
Continuous
100
AcDbSpline
210
0.0
220
0.0
230
1.0
 70
     8
 71
     3
 72
     8
 73
     4
 74
     2
 42
0.0000000001
 43
0.0000000001
 44
0.0000000001
 12
0.9008995793533943
 22
0.4340275888936985
 32
0.0
 13
0.9980368433862454
 23
0.06262953970467092
 33
0.0
 40
0.0
 40
0.0
 40
0.0
 40
0.0
 40
0.360039377717265
 40
0.360039377717265
 40
0.360039377717265
 40
0.360039377717265
 10
129.2630378409
 20
110.1725374921
 30
0.0
 10
129.3711576155454
 20
110.2246264997725
 30
0.0
 10
129.4928011353561
 20
110.251332026066
 30
0.0
 10
129.6125786567
 20
110.2588483929
 30
0.0
 11
129.2630378409
 21
110.1725374921
 31
0.0
 11
129.6125786567
 21
110.2588483929
 31
0.0
  0
SPLINE
  5
294
330
1B
100
AcDbEntity
  8
0
  6
Continuous
100
AcDbSpline
210
0.0
220
0.0
230
1.0
 70
     8
 71
     3
 72
    15
 73
    11
 74
     9
 42
0.0000000001
 43
0.0000000001
 44
0.0000000001
 12
0.1973016989945332
 22
-0.9803428173725102
 32
0.0
 13
0.8989952044076052
 23
0.4379584711500947
 33
0.0
 40
0.0
 40
0.0
 40
0.0
 40
0.0
 40
0.0387212087712284
 40
0.0796477404231861
 40
0.1222811574129495
 40
0.1636410876134091
 40
0.2425786818169717
 40
0.3211041107000794
 40
0.4807670234946084
 40
0.6396637897611129
 40
0.6396637897611129
 40
0.6396637897611129
 40
0.6396637897611129
 10
128.6898953268
 20
110.2477753717
 30
0.0
 10
128.6924419135592
 20
110.2351220187337
 30
0.0
 10
128.7051306055894
 20
110.2104965785202
 30
0.0
 10
128.735945118416
 20
110.1832659784123
 30
0.0
 10
128.7712054260097
 20
110.1610226216025
 30
0.0
 10
128.8186741951584
 20
110.1346292754905
 30
0.0
 10
128.8801443832803
 20
110.108787050414
 30
0.0
 10
128.9842644891236
 20
110.087799324472
 30
0.0
 10
129.1202624216734
 20
110.099832279871
 30
0.0
 10
129.2154220306102
 20
110.1493407638251
 30
0.0
 10
129.2630378409
 20
110.1725374921
 30
0.0
 11
128.6898953268
 21
110.2477753717
 31
0.0
 11
128.7065240672
 21
110.2128065713
 31
0.0
 11
128.736121681
 21
110.184540651
 31
0.0
 11
128.7717613641
 21
110.1611436163
 31
0.0
 11
128.8079797209
 21
110.1411717747
 31
0.0
 11
128.881029764
 21
110.1112579822
 31
0.0
 11
128.9579918363
 21
110.0956668819
 31
0.0
 11
129.1170220067
 21
110.109867256
 31
0.0
 11
129.2630378409
 21
110.1725374921
 31
0.0
  0
SPLINE
  5
295
330
1B
100
AcDbEntity
  8
0
  6
Continuous
100
AcDbSpline
210
0.0
220
0.0
230
1.0
 70
     8
 71
     3
 72
    15
 73
    11
 74
     9
 42
0.0000000001
 43
0.0000000001
 44
0.0000000001
 12
-0.9794869082010151
 22
-0.2015078079450429
 32
0.0
 13
0.2992484984335359
 23
-0.954175212518788
 33
0.0
 40
0.0
 40
0.0
 40
0.0
 40
0.0
 40
0.0894980669762606
 40
0.1750948170234944
 40
0.2208471540520517
 40
0.2736735693157419
 40
0.299954582907452
 40
0.3238199444573651
 40
0.3448371466343919
 40
0.3653187205811092
 40
0.3653187205811092
 40
0.3653187205811092
 40
0.3653187205811092
 10
128.9975639893
 20
110.3971804944
 30
0.0
 10
128.9683432609958
 20
110.3911689746361
 30
0.0
 10
128.9115311918018
 20
110.3778920297963
 30
0.0
 10
128.8393415434914
 20
110.3628830512308
 30
0.0
 10
128.7811701827275
 20
110.3429715597865
 30
0.0
 10
128.743515649548
 20
110.3247876714866
 30
0.0
 10
128.7151084800962
 20
110.3053420298059
 30
0.0
 10
128.6980274598041
 20
110.2886516200746
 30
0.0
 10
128.6873074605097
 20
110.2689586941123
 30
0.0
 10
128.6878523000503
 20
110.2542897084244
 30
0.0
 10
128.6898953268
 20
110.2477753717
 30
0.0
 11
128.9975639893
 21
110.3971804944
 31
0.0
 11
128.9101550374
 21
110.3779560537
 31
0.0
 11
128.826932548
 21
110.3579355423
 31
0.0
 11
128.7837075898
 21
110.3429395651
 31
0.0
 11
128.7364169754
 21
110.3193975189
 31
0.0
 11
128.7149357963
 21
110.3042564945
 31
0.0
 11
128.6983085235
 21
110.287136644
 31
0.0
 11
128.6891050644
 21
110.2682416942
 31
0.0
 11
128.6898953268
 21
110.2477753717
 31
0.0
  0
SPLINE
  5
296
330
1B
100
AcDbEntity
  8
0
  6
Continuous
100
AcDbSpline
210
0.0
220
0.0
230
1.0
 70
     8
 71
     3
 72
     9
 73
     5
 74
     3
 42
0.0000000001
 43
0.0000000001
 44
0.0000000001
 12
-0.5908399997836151
 22
-0.8067887546661131
 32
0.0
 13
-0.9865036962539612
 23
-0.1637389913162786
 33
0.0
 40
0.0
 40
0.0
 40
0.0
 40
0.0
 40
0.232636730383545
 40
1.08837234516842
 40
1.08837234516842
 40
1.08837234516842
 40
1.08837234516842
 10
129.9210392968
 20
110.9442170776
 30
0.0
 10
129.8752222682235
 20
110.8816541782681
 30
0.0
 10
129.6387918768816
 20
110.604690647716
 30
0.0
 10
129.2789594383005
 20
110.4438862565328
 30
0.0
 10
128.9975639893
 20
110.3971804944
 30
0.0
 11
129.9210392968
 21
110.9442170776
 31
0.0
 11
129.7685115325
 21
110.7685607955
 31
0.0
 11
128.9975639893
 21
110.3971804944
 31
0.0
  0
SPLINE
  5
297
330
1B
100
AcDbEntity
  8
0
  6
Continuous
100
AcDbSpline
210
0.0
220
0.0
230
1.0
 70
     8
 71
     3
 72
    19
 73
    15
 74
    13
 42
0.0000000001
 43
0.0000000001
 44
0.0000000001
 12
-0.9654074783416122
 22
-0.2607458547361581
 32
0.0
 13
-0.6327197961368621
 23
-0.7743808233527789
 33
0.0
 40
0.0
 40
0.0
 40
0.0
 40
0.0
 40
0.2341956692075684
 40
0.4688551718320768
 40
0.7020311419406656
 40
0.8198224757087858
 40
0.9373398459946182
 40
1.053599056333958
 40
1.170389546286753
 40
1.287988876056578
 40
1.405417210257161
 40
1.522584196767923
 40
1.639277826423545
 40
1.874066542690865
 40
1.874066542690865
 40
1.874066542690865
 40
1.874066542690865
 10
131.6143902408
 20
111.0243974846
 30
0.0
 10
131.5390254906506
 20
111.0040423012857
 30
0.0
 10
131.3804354296912
 20
110.9899766221867
 30
0.0
 10
131.1479993779619
 20
111.0312410180425
 30
0.0
 10
130.9669184939927
 20
111.1071737545912
 30
0.0
 10
130.8294035344822
 20
111.1810589729143
 30
0.0
 10
130.7251725210097
 20
111.2346914837722
 30
0.0
 10
130.6156901948703
 20
111.2770149695424
 30
0.0
 10
130.499392865803
 20
111.2959756530192
 30
0.0
 10
130.3812747970907
 20
111.2889794083063
 30
0.0
 10
130.2680051627056
 20
111.254446122035
 30
0.0
 10
130.1649755387772
 20
111.1971083307918
 30
0.0
 10
130.0449407463278
 20
111.0960236811464
 30
0.0
 10
129.9705577863639
 20
111.004822370739
 30
0.0
 10
129.9210392968
 20
110.9442170776
 30
0.0
 11
131.6143902408
 21
111.0243974846
 31
0.0
 11
131.3814297686
 21
111.0003760386
 31
0.0
 11
131.1500837606
 21
111.0396711624
 31
0.0
 11
130.9336692508
 21
111.1264801077
 31
0.0
 11
130.8291495642
 21
111.180798
 31
0.0
 11
130.7238645949
 21
111.2330034361
 31
0.0
 11
130.614733151
 21
111.2730850022
 31
0.0
 11
130.4994241002
 21
111.2916279617
 31
0.0
 11
130.382048552
 21
111.2843765448
 31
0.0
 11
130.2695857856
 21
111.2505898633
 31
0.0
 11
130.1670181367
 21
111.1939508297
 31
0.0
 11
130.0769125114
 21
111.1197997711
 31
0.0
 11
129.9210392968
 21
110.9442170776
 31
0.0
  0
SPLINE
  5
298
330
1B
100
AcDbEntity
  8
0
  6
Continuous
100
AcDbSpline
210
0.0
220
0.0
230
1.0
 70
     8
 71
     3
 72
    19
 73
    15
 74
    13
 42
0.0000000001
 43
0.0000000001
 44
0.0000000001
 12
-0.2926734601599179
 22
-0.9562124480041143
 32
0.0
 13
-0.9717277120697774
 23
-0.2361043277782852
 33
0.0
 40
0.0
 40
0.0
 40
0.0
 40
0.0
 40
0.3030251357557298
 40
0.4239998927952897
 40
3.478091751562149
 40
3.846593670883798
 40
4.167067176075052
 40
4.406325288172355
 40
4.58041113541263
 40
4.784147969639675
 40
5.000823337384284
 40
5.756139004584644
 40
6.093158740126899
 40
6.338298934976102
 40
6.338298934976102
 40
6.338298934976102
 40
6.338298934976102
 10
131.9413303601
 20
115.6350422121
 30
0.0
 10
131.9117678884343
 20
115.5384567431441
 30
0.0
 10
131.8873907634118
 20
115.3980390668472
 30
0.0
 10
131.8118902084153
 20
114.2399535158478
 30
0.0
 10
132.4529343539633
 20
113.1227932196829
 30
0.0
 10
133.0593425966262
 20
112.0231692400799
 30
0.0
 10
133.2706464452845
 20
111.8049873788465
 30
0.0
 10
133.4050168104467
 20
111.5727349607433
 30
0.0
 10
133.2695472929836
 20
111.3481886777615
 30
0.0
 10
133.0531135414577
 20
111.4418501806134
 30
0.0
 10
132.6905374984178
 20
111.5484959239932
 30
0.0
 10
132.2194357365628
 20
111.3998407164308
 30
0.0
 10
131.8732330610345
 20
111.1279844780522
 30
0.0
 10
131.6937934143591
 20
111.0436903715721
 30
0.0
 10
131.6143902408
 20
111.0243974846
 30
0.0
 11
131.9413303601
 21
115.6350422121
 31
0.0
 11
131.8846741022
 21
115.3373606686
 31
0.0
 11
131.8764946439
 21
115.2166627469
 31
0.0
 11
132.8872727333
 21
112.3346834382
 31
0.0
 11
133.0800594351
 21
112.0206341552
 31
0.0
 11
133.2809638357
 21
111.7709529798
 31
0.0
 11
133.3611879601
 21
111.5455454953
 31
0.0
 11
133.264463754
 21
111.4008032756
 31
0.0
 11
133.0633211378
 21
111.4332123109
 31
0.0
 11
132.8541578736
 21
111.4897715179
 31
0.0
 11
132.1216673658
 21
111.3054907183
 31
0.0
 11
131.8398153708
 21
111.1207158416
 31
0.0
 11
131.6143902408
 21
111.0243974846
 31
0.0
  0
SPLINE
  5
299
330
1B
100
AcDbEntity
  8
0
  6
Continuous
100
AcDbSpline
210
0.0
220
0.0
230
1.0
 70
     8
 71
     3
 72
     9
 73
     5
 74
     3
 42
0.0000000001
 43
0.0000000001
 44
0.0000000001
 12
-0.4284775849132041
 22
-0.9035524108910054
 32
0.0
 13
-0.2381956262602778
 23
-0.9712171969392193
 33
0.0
 40
0.0
 40
0.0
 40
0.0
 40
0.0
 40
0.7218157465947419
 40
1.443631851677761
 40
1.443631851677761
 40
1.443631851677761
 40
1.443631851677761
 10
132.4803738352
 20
116.9728919749
 30
0.0
 10
132.3772798792489
 20
116.7554925222151
 30
0.0
 10
132.1776057483014
 20
116.3184458129222
 30
0.0
 10
131.9986415064984
 20
115.8687222835281
 30
0.0
 10
131.9413303601
 20
115.6350422121
 30
0.0
 11
132.4803738352
 21
116.9728919749
 31
0.0
 11
132.1827832676
 21
116.315276718
 31
0.0
 11
131.9413303601
 21
115.6350422121
 31
0.0
  0
SPLINE
  5
29A
330
1B
100
AcDbEntity
  8
0
  6
Continuous
100
AcDbSpline
210
0.0
220
0.0
230
1.0
 70
     8
 71
     3
 72
     9
 73
     5
 74
     3
 42
0.0000000001
 43
0.0000000001
 44
0.0000000001
 12
-0.1799680914109688
 22
-0.983672448569082
 32
0.0
 13
-0.5241210596124492
 23
-0.8516437722843534
 33
0.0
 40
0.0
 40
0.0
 40
0.0
 40
0.0
 40
0.3595429349823366
 40
0.7190906098667573
 40
0.7190906098667573
 40
0.7190906098667573
 40
0.7190906098667573
 10
132.7518461845
 20
117.635605698
 30
0.0
 10
132.7302774325703
 20
117.5177148715934
 30
0.0
 10
132.6554907717299
 20
117.2875816053038
 30
0.0
 10
132.5431893379806
 20
117.0749608209516
 30
0.0
 10
132.4803738352
 20
116.9728919749
 30
0.0
 11
132.7518461845
 21
117.635605698
 31
0.0
 11
132.6461126951
 21
117.291961185
 31
0.0
 11
132.4803738352
 21
116.9728919749
 31
0.0
  0
SPLINE
  5
29B
330
1B
100
AcDbEntity
  8
0
  6
Continuous
100
AcDbSpline
210
0.0
220
0.0
230
1.0
 70
     8
 71
     3
 72
    11
 73
     7
 74
     5
 42
0.0000000001
 43
0.0000000001
 44
0.0000000001
 12
-0.05675772103761831
 22
-0.9983879812490814
 32
0.0
 13
-0.1815452983235901
 23
-0.9833825830553431
 33
0.0
 40
0.0
 40
0.0
 40
0.0
 40
0.0
 40
0.3895137981760746
 40
0.778536977917043
 40
1.172088734934572
 40
1.559919621201748
 40
1.559919621201748
 40
1.559919621201748
 40
1.559919621201748
 10
132.6755376684
 20
119.1903033495
 30
0.0
 10
132.6681683632343
 20
119.0606747179568
 30
0.0
 10
132.6654542499038
 20
118.8006507052186
 30
0.0
 10
132.7044154041704
 20
118.4110709096221
 30
0.0
 10
132.7700257015235
 20
118.0273571616362
 30
0.0
 10
132.7753158091489
 20
117.7627344109087
 30
0.0
 10
132.7518461845
 20
117.635605698
 30
0.0
 11
132.6755376684
 21
119.1903033495
 31
0.0
 11
132.672609876
 21
118.8008005549
 31
0.0
 11
132.7086773482
 21
118.4134529438
 31
0.0
 11
132.7605767926
 21
118.0233383028
 31
0.0
 11
132.7518461845
 21
117.635605698
 31
0.0
  0
SPLINE
  5
29C
330
1B
100
AcDbEntity
  8
0
  6
Continuous
100
AcDbSpline
210
0.0
220
0.0
230
1.0
 70
     8
 71
     3
 72
    11
 73
     7
 74
     5
 42
0.0000000001
 43
0.0000000001
 44
0.0000000001
 12
0.0650529624865625
 22
-0.9978818126770935
 32
0.0
 13
-0.04146483698702601
 23
-0.9991399638157006
 33
0.0
 40
0.0
 40
0.0
 40
0.0
 40
0.0
 40
0.7211236769532533
 40
1.442247771796883
 40
2.163359171685164
 40
2.884484992338358
 40
2.884484992338358
 40
2.884484992338358
 40
2.884484992338358
 10
132.3157598078
 20
122.0370671208
 30
0.0
 10
132.3313968849683
 20
121.7972017201592
 30
0.0
 10
132.4113807997043
 20
121.3200090749604
 30
0.0
 10
132.6329094125135
 20
120.6328501945866
 30
0.0
 10
132.7198487762786
 20
119.9108896051474
 30
0.0
 10
132.6855047899335
 20
119.430471891618
 30
0.0
 10
132.6755376684
 20
119.1903033495
 30
0.0
 11
132.3157598078
 21
122.0370671208
 31
0.0
 11
132.4283064366
 21
121.3247802307
 31
0.0
 11
132.6104788232
 21
120.6270459104
 31
0.0
 11
132.6967728044
 21
119.9111164447
 31
0.0
 11
132.6755376684
 21
119.1903033495
 31
0.0
  0
SPLINE
  5
29D
330
1B
100
AcDbEntity
  8
0
  6
Continuous
100
AcDbSpline
210
0.0
220
0.0
230
1.0
 70
     8
 71
     3
 72
    15
 73
    11
 74
     9
 42
0.0000000001
 43
0.0000000001
 44
0.0000000001
 12
-0.7728667534536521
 22
-0.6345683425810114
 32
0.0
 13
0.3315731265616249
 23
-0.9434295213433533
 33
0.0
 40
0.0
 40
0.0
 40
0.0
 40
0.0
 40
0.9100834688972636
 40
2.337585054714745
 40
3.124610485812877
 40
3.992241567322011
 40
5.876504767856346
 40
6.451679632726607
 40
6.924246559821635
 40
7.666261252184635
 40
7.666261252184635
 40
7.666261252184635
 40
7.666261252184635
 10
137.6996094112
 20
126.718095198
 30
0.0
 10
137.4651516592072
 20
126.5255918118438
 30
0.0
 10
136.8854533892664
 20
126.0011315858682
 30
0.0
 10
136.1998524098309
 20
125.2228362373751
 30
0.0
 10
135.5780547338325
 20
124.3819618716576
 30
0.0
 10
134.4677046869741
 20
123.8851327714118
 30
0.0
 10
133.4597602342576
 20
123.5659202567913
 30
0.0
 10
132.4489284422123
 20
123.2878135833006
 30
0.0
 10
132.2074674678049
 20
122.6898791476663
 30
0.0
 10
132.2337490972995
 20
122.2704133094819
 30
0.0
 10
132.3157598078
 20
122.0370671208
 30
0.0
 11
137.6996094112
 21
126.718095198
 31
0.0
 11
137.023891141
 21
126.1084586344
 31
0.0
 11
136.0755868727
 21
125.0414629492
 31
0.0
 11
135.5523849402
 21
124.4535269263
 31
0.0
 11
134.7896317373
 21
124.0400160497
 31
0.0
 11
133.0028183905
 21
123.4418974389
 31
0.0
 11
132.4798124749
 21
123.2025421853
 31
0.0
 11
132.2726037475
 21
122.7778257577
 31
0.0
 11
132.3157598078
 21
122.0370671208
 31
0.0
  0
SPLINE
  5
29E
330
1B
100
AcDbEntity
  8
0
  6
Continuous
100
AcDbSpline
210
0.0
220
0.0
230
1.0
 70
     8
 71
     3
 72
     8
 73
     4
 74
     2
 42
0.0000000001
 43
0.0000000001
 44
0.0000000001
 12
-0.8881409574685113
 22
-0.4595711475570634
 32
0.0
 13
-0.8398507168149573
 23
-0.542817440273802
 33
0.0
 40
0.0
 40
0.0
 40
0.0
 40
0.0
 40
0.1135508407986167
 40
0.1135508407986167
 40
0.1135508407986167
 40
0.1135508407986167
 10
137.7977716737
 20
126.7751737725
 30
0.0
 10
137.7641552895439
 20
126.7577788757627
 30
0.0
 10
137.7313979962132
 20
126.7386409902478
 30
0.0
 10
137.6996094112
 20
126.718095198
 30
0.0
 11
137.7977716737
 21
126.7751737725
 31
0.0
 11
137.6996094112
 21
126.718095198
 31
0.0
  0
SPLINE
  5
29F
330
1B
100
AcDbEntity
  8
0
  6
Continuous
100
AcDbSpline
210
0.0
220
0.0
230
1.0
 70
     8
 71
     3
 72
    12
 73
     8
 74
     6
 42
0.0000000001
 43
0.0000000001
 44
0.0000000001
 12
0.0075959043481375
 22
0.999971150702426
 32
0.0
 13
0.999971150702426
 23
0.0075959043481375
 33
0.0
 40
0.0
 40
0.0
 40
0.0
 40
0.0
 40
0.9316891408186152
 40
1.865127634300547
 40
2.799232549320087
 40
3.732671042756268
 40
4.664360183591184
 40
4.664360183591184
 40
4.664360183591184
 40
4.664360183591184
 10
120.1292393751
 20
128.6324621385
 30
0.0
 10
120.1315983822986
 20
128.9430162259138
 30
0.0
 10
120.2348334690061
 20
129.5682294217519
 30
0.0
 10
120.6685909930365
 20
130.4106314119086
 30
0.0
 10
121.339654195814
 20
131.0816946149374
 30
0.0
 10
122.182056186105
 20
131.5154521387119
 30
0.0
 10
122.8072693818808
 20
131.6186872256014
 30
0.0
 10
123.1178234693
 20
131.6210462328
 30
0.0
 11
120.1292393751
 21
128.6324621385
 31
0.0
 11
120.2810939088
 21
129.5516927166
 31
0.0
 11
120.7079700014
 21
130.3818036867
 31
0.0
 11
121.3684819211
 21
131.0423156065
 31
0.0
 11
122.1985928912
 21
131.469191699
 31
0.0
 11
123.1178234693
 21
131.6210462328
 31
0.0
  0
SPLINE
  5
2A0
330
1B
100
AcDbEntity
  8
0
  6
Continuous
100
AcDbSpline
210
0.0
220
0.0
230
1.0
 70
     8
 71
     3
 72
     9
 73
     5
 74
     3
 42
0.0000000001
 43
0.0000000001
 44
0.0000000001
 12
-0.5200365386987933
 22
0.8541440150338693
 32
0.0
 13
-0.0075959043223961
 23
0.9999711507026216
 33
0.0
 40
0.0
 40
0.0
 40
0.0
 40
0.0
 40
0.8089219923293167
 40
1.616288710148346
 40
1.616288710148346
 40
1.616288710148346
 40
1.616288710148346
 10
120.5683846016
 20
104.5902088719
 30
0.0
 10
120.4281616039439
 20
104.8205208313591
 30
0.0
 10
120.2088262114288
 20
105.3206689657028
 30
0.0
 10
120.1312836018805
 20
105.8613347073145
 30
0.0
 10
120.1292393751
 20
106.1304491826
 30
0.0
 11
120.5683846016
 21
104.5902088719
 31
0.0
 11
120.2441316045
 21
105.3312991387
 31
0.0
 11
120.1292393751
 21
106.1304491826
 31
0.0
  0
SPLINE
  5
2A1
330
1B
100
AcDbEntity
  8
0
  6
Continuous
100
AcDbSpline
210
0.0
220
0.0
230
1.0
 70
     8
 71
     3
 72
     9
 73
     5
 74
     3
 42
0.0000000001
 43
0.0000000001
 44
0.0000000001
 12
0.9999711507025466
 22
-0.007595904332265
 32
0.0
 13
0.8541235581330414
 23
-0.5200701370412968
 33
0.0
 40
0.0
 40
0.0
 40
0.0
 40
0.0
 40
0.8074377505521827
 40
1.616288708115913
 40
1.616288708115913
 40
1.616288708115913
 40
1.616288708115913
 10
145.6198364252
 20
131.6210462328
 30
0.0
 10
145.8889745773801
 20
131.6190018261642
 30
0.0
 10
146.4296383220641
 20
131.5414478864848
 30
0.0
 10
146.9297905167088
 20
131.3221207490821
 30
0.0
 10
147.160076736
 20
131.1819010063
 30
0.0
 11
145.6198364252
 21
131.6210462328
 31
0.0
 11
146.4190554065
 21
131.5061343494
 31
0.0
 11
147.160076736
 21
131.1819010063
 31
0.0
  0
SPLINE
  5
2A2
330
1B
100
AcDbEntity
  8
0
  6
Continuous
100
AcDbSpline
210
0.0
220
0.0
230
1.0
 70
     8
 71
     3
 72
    11
 73
     7
 74
     5
 42
0.0000000001
 43
0.0000000001
 44
0.0000000001
 12
-0.2962352300054985
 22
-0.95511501323327
 32
0.0
 13
-0.9551058552946178
 23
-0.296264755213874
 33
0.0
 40
0.0
 40
0.0
 40
0.0
 40
0.0
 40
0.7291081557922682
 40
1.458845846485406
 40
2.188583538007834
 40
2.917693637112671
 40
2.917693637112671
 40
2.917693637112671
 40
2.917693637112671
 10
148.4737436826
 20
105.2648182754
 30
0.0
 10
148.4017478418567
 20
105.032690893444
 30
0.0
 10
148.2002450615042
 20
104.5839352184138
 30
0.0
 10
147.7460161218948
 20
104.0042715021192
 30
0.0
 10
147.1663523490066
 20
103.5500379119301
 30
0.0
 10
146.7175931073365
 20
103.3485451336451
 30
0.0
 10
146.4854673324
 20
103.2765419253
 30
0.0
 11
148.4737436826
 21
105.2648182754
 31
0.0
 11
148.1750356222
 21
104.5997076098
 31
0.0
 11
147.7251043889
 21
104.0251826038
 31
0.0
 11
147.1505796738
 21
103.5752509977
 31
0.0
 11
146.4854673324
 21
103.2765419253
 31
0.0
  0
SPLINE
  5
2A3
330
1B
100
AcDbEntity
  8
0
  6
Continuous
100
AcDbSpline
210
0.0
220
0.0
230
1.0
 70
     8
 71
     3
 72
    14
 73
    10
 74
     8
 42
0.0000000001
 43
0.0000000001
 44
0.0000000001
 12
-0.9848373049423792
 22
0.1734804968687585
 32
0.0
 13
-0.9829473819091801
 23
-0.1838870424958991
 33
0.0
 40
0.0
 40
0.0
 40
0.0
 40
0.0
 40
2.564136447645258
 40
5.393522255411345
 40
8.488817358050662
 40
11.74130418539062
 40
15.00086767292871
 40
18.10243543101529
 40
20.89705400748298
 40
20.89705400748298
 40
20.89705400748298
 40
20.89705400748298
 10
143.8482806565
 20
103.5711337913
 30
0.0
 10
143.0065282469655
 20
103.7194096796256
 30
0.0
 10
141.2422408558372
 20
104.0652531861652
 30
0.0
 10
138.4536747791391
 20
104.5499495256208
 30
0.0
 10
135.4105608703215
 20
104.8873886550447
 30
0.0
 10
132.2068190139225
 20
104.9981780068766
 30
0.0
 10
129.0019042929245
 20
104.8625376531749
 30
0.0
 10
125.9686338268539
 20
104.503031362266
 30
0.0
 10
124.0334778070246
 20
104.1567274288102
 30
0.0
 10
123.1178234693
 20
103.9854293805
 30
0.0
 11
143.8482806565
 21
103.5711337913
 31
0.0
 11
141.3273170295
 21
104.0396827359
 31
0.0
 11
138.5368404194
 21
104.5072983234
 31
0.0
 11
135.459859955
 21
104.8435169935
 31
0.0
 11
132.20933412
 21
104.9564433324
 31
0.0
 11
128.9526996675
 21
104.8182906195
 31
0.0
 11
125.8719873471
 21
104.4592165924
 31
0.0
 11
123.1178234693
 21
103.9854293805
 31
0.0
  0
SPLINE
  5
2A4
330
1B
100
AcDbEntity
  8
0
  6
Continuous
100
AcDbSpline
210
0.0
220
0.0
230
1.0
 70
     8
 71
     3
 72
    11
 73
     7
 74
     5
 42
0.0000000001
 43
0.0000000001
 44
0.0000000001
 12
-0.7913395656998448
 22
-0.6113768819296173
 32
0.0
 13
-0.2556794902054971
 23
-0.9667616036481058
 33
0.0
 40
0.0
 40
0.0
 40
0.0
 40
0.0
 40
0.6404997647309548
 40
1.380926532845579
 40
2.185452463921827
 40
3.008874308612559
 40
3.008874308612559
 40
3.008874308612559
 40
3.008874308612559
 10
143.8482806794
 20
103.5712194778
 30
0.0
 10
143.6793297441823
 20
103.4406905614541
 30
0.0
 10
143.3541371340424
 20
103.1086974254422
 30
0.0
 10
142.9428648581606
 20
102.5044532648192
 30
0.0
 10
142.5950116093755
 20
101.7930687102671
 30
0.0
 10
142.4210571690582
 20
101.2771692556507
 30
0.0
 10
142.3508798099
 20
101.0118183813
 30
0.0
 11
143.8482806794
 21
103.5712194778
 31
0.0
 11
143.3917212118
 21
103.1220052737
 31
0.0
 11
142.969587176
 21
102.5137005353
 31
0.0
 11
142.6136983217
 21
101.7921708428
 31
0.0
 11
142.3508798099
 21
101.0118183813
 31
0.0
  0
SPLINE
  5
2A5
330
1B
100
AcDbEntity
  8
0
  6
Continuous
100
AcDbSpline
210
0.0
220
0.0
230
1.0
 70
     8
 71
     3
 72
    14
 73
    10
 74
     8
 42
0.0000000001
 43
0.0000000001
 44
0.0000000001
 12
-0.9800747358183208
 22
0.1986290819861198
 32
0.0
 13
-0.9771821406536948
 23
-0.2124030696281545
 33
0.0
 40
0.0
 40
0.0
 40
0.0
 40
0.0
 40
2.235006029542963
 40
4.687870395698912
 40
7.383766238930893
 40
10.24094556601897
 40
13.10460352386772
 40
15.80441565632985
 40
18.22715952171294
 40
18.22715952171294
 40
18.22715952171294
 40
18.22715952171294
 10
142.3509609988
 20
101.0118184
 30
0.0
 10
141.6208033508144
 20
101.1597974652939
 30
0.0
 10
140.0969349288192
 20
101.5057923587337
 30
0.0
 10
137.6833947234555
 20
101.9927726206097
 30
0.0
 10
135.0327487951287
 20
102.3289951527717
 30
0.0
 10
132.2256993854408
 20
102.4384424971784
 30
0.0
 10
129.4183134379336
 20
102.304391242323
 30
0.0
 10
126.7775119738443
 20
101.944949666759
 30
0.0
 10
125.1050635927102
 20
101.5976467337434
 30
0.0
 10
124.3159095805
 20
101.4261139891
 30
0.0
 11
142.3509609988
 21
101.0118184
 31
0.0
 11
140.1658300609
 21
101.4813444763
 31
0.0
 11
137.7579107308
 21
101.9487501871
 31
0.0
 11
135.0829757708
 21
102.2842756814
 31
0.0
 11
132.2280243673
 21
102.3970861011
 31
0.0
 11
129.3677021208
 21
102.2589067042
 31
0.0
 11
126.691845774
 21
101.9000496827
 31
0.0
 11
124.3159095805
 21
101.4261139891
 31
0.0
  0
SPLINE
  5
2A6
330
1B
100
AcDbEntity
  8
0
  6
Continuous
100
AcDbSpline
210
0.0
220
0.0
230
1.0
 70
     8
 71
     3
 72
    10
 73
     6
 74
     4
 42
0.0000000001
 43
0.0000000001
 44
0.0000000001
 12
-0.9923327752432531
 22
0.1235947538450691
 32
0.0
 13
-0.9848419515771344
 23
0.1734541161625785
 33
0.0
 40
0.0
 40
0.0
 40
0.0
 40
0.0
 40
0.6218417405657918
 40
1.219575177467366
 40
1.792066742344607
 40
1.792066742344607
 40
1.792066742344607
 40
1.792066742344607
 10
145.6198364252
 20
103.3018849294
 30
0.0
 10
145.4141451118074
 20
103.3275037216853
 30
0.0
 10
145.0112653639052
 20
103.3820662431208
 30
0.0
 10
144.4208320006485
 20
103.4728973210625
 30
0.0
 10
144.0362185598384
 20
103.5380334518346
 30
0.0
 10
143.8482806565
 20
103.5711337913
 30
0.0
 11
145.6198364252
 21
103.3018849294
 31
0.0
 11
145.0035783439
 21
103.385030149
 31
0.0
 11
144.4127611396
 21
103.4756959788
 31
0.0
 11
143.8482806565
 21
103.5711337913
 31
0.0
  0
SPLINE
  5
2A7
330
1B
100
AcDbEntity
  8
0
  6
Continuous
100
AcDbSpline
210
0.0
220
0.0
230
1.0
 70
     8
 71
     3
 72
    12
 73
     8
 74
     6
 42
0.0000000001
 43
0.0000000001
 44
0.0000000001
 12
-0.9133842005168228
 22
-0.4070986394551626
 32
0.0
 13
-0.1641599541518527
 23
-0.9864337329252593
 33
0.0
 40
0.0
 40
0.0
 40
0.0
 40
0.0
 40
0.5488796521244566
 40
1.184058032835527
 40
1.893730541012624
 40
2.652370673382655
 40
3.427152601246402
 40
3.427152601246402
 40
3.427152601246402
 40
3.427152601246402
 10
145.6198364252
 20
103.3018850243
 30
0.0
 10
145.4527237577881
 20
103.2274023044319
 30
0.0
 10
145.1211339191111
 20
103.0011211086009
 30
0.0
 10
144.6986589512424
 20
102.526765491594
 30
0.0
 10
144.335666876568
 20
101.9226970895624
 30
0.0
 10
144.0550923076177
 20
101.2268280386211
 30
0.0
 10
143.9338401143519
 20
100.7280776859686
 30
0.0
 10
143.8914440591
 20
100.4733206762
 30
0.0
 11
145.6198364252
 21
103.3018850243
 31
0.0
 11
145.1597926756
 21
103.0025046292
 31
0.0
 11
144.7304352771
 21
102.5344193809
 31
0.0
 11
144.3604037707
 21
101.9288520823
 31
0.0
 11
144.0743804676
 21
101.2261960352
 31
0.0
 11
143.8914440591
 21
100.4733206762
 31
0.0
  0
SPLINE
  5
2A8
330
1B
100
AcDbEntity
  8
0
  6
Continuous
100
AcDbSpline
210
0.0
220
0.0
230
1.0
 70
     8
 71
     3
 72
    10
 73
     6
 74
     4
 42
0.0000000001
 43
0.0000000001
 44
0.0000000001
 12
-0.9613373773939903
 22
0.275373286331926
 32
0.0
 13
-0.9268429176182994
 23
0.3754493388738331
 33
0.0
 40
0.0
 40
0.0
 40
0.0
 40
0.0
 40
0.5610920176333328
 40
1.105902206577575
 40
1.632560068428949
 40
1.632560068428949
 40
1.632560068428949
 40
1.632560068428949
 10
143.8914442759
 20
100.4733206762
 30
0.0
 10
143.7116446996639
 20
100.5248239271434
 30
0.0
 10
143.3595870949911
 20
100.6345789441163
 30
0.0
 10
142.8465057247269
 20
100.8162046749114
 30
0.0
 10
142.5136707018883
 20
100.9459072846517
 30
0.0
 10
142.3509609988
 20
101.0118184
 30
0.0
 11
143.8914442759
 21
100.4733206762
 31
0.0
 11
143.3555607952
 21
100.6396130313
 31
0.0
 11
142.8418107293
 21
100.8209387376
 31
0.0
 11
142.3509609988
 21
101.0118184
 31
0.0
  0
SPLINE
  5
2A9
330
1B
100
AcDbEntity
  8
0
  6
Continuous
100
AcDbSpline
210
0.0
220
0.0
230
1.0
 70
     8
 71
     3
 72
     9
 73
     5
 74
     3
 42
0.0000000001
 43
0.0000000001
 44
0.0000000001
 12
-0.979554614508581
 22
-0.2011784212954895
 32
0.0
 13
-0.9703476925488871
 23
0.2417133748162286
 33
0.0
 40
0.0
 40
0.0
 40
0.0
 40
0.0
 40
0.4276159008349961
 40
0.8714530802802911
 40
0.8714530802802911
 40
0.8714530802802911
 40
0.8714530802802911
 10
146.4854672045
 20
103.2765418991
 30
0.0
 10
146.3458428282
 20
103.2478662018164
 30
0.0
 10
146.0533111756291
 20
103.224021876931
 30
0.0
 10
145.7633949099141
 20
103.2661245457625
 30
0.0
 10
145.6198361156
 20
103.3018850066
 30
0.0
 11
146.4854672045
 21
103.2765418991
 31
0.0
 11
146.0593861087
 21
103.2403444068
 31
0.0
 11
145.6198361156
 21
103.3018850066
 31
0.0
  0
SPLINE
  5
2AA
330
1B
100
AcDbEntity
  8
0
  6
Continuous
100
AcDbSpline
210
0.0
220
0.0
230
1.0
 70
     8
 71
     3
 72
    12
 73
     8
 74
     6
 42
0.0000000001
 43
0.0000000001
 44
0.0000000001
 12
-0.9124822558073716
 22
-0.4091162827811801
 32
0.0
 13
0.1174380187342018
 23
-0.9930802141598559
 33
0.0
 40
0.0
 40
0.0
 40
0.0
 40
0.0
 40
0.5243808099635262
 40
1.107566406207242
 40
1.761650839001168
 40
2.479319190939423
 40
3.240115359517684
 40
3.240115359517684
 40
3.240115359517684
 40
3.240115359517684
 10
146.4854659538
 20
103.2765464713
 30
0.0
 10
146.3259698923408
 20
103.2050355620553
 30
0.0
 10
146.0189542095435
 20
102.9826580001819
 30
0.0
 10
145.6784038610965
 20
102.4946811029186
 30
0.0
 10
145.4516623022562
 20
101.8775054389929
 30
0.0
 10
145.3494214207579
 20
101.1698441873234
 30
0.0
 10
145.3671035678339
 20
100.6744785420079
 30
0.0
 10
145.3968856994
 20
100.422634668
 30
0.0
 11
146.4854659538
 21
103.2765464713
 31
0.0
 11
146.0560809746
 21
102.9755418642
 31
0.0
 11
145.713366083
 21
102.5036817761
 31
0.0
 11
145.4802578388
 21
101.8925459551
 31
0.0
 11
145.3723572584
 21
101.1830353293
 31
0.0
 11
145.3968856994
 21
100.422634668
 31
0.0
  0
SPLINE
  5
2AB
330
1B
100
AcDbEntity
  8
0
  6
Continuous
100
AcDbSpline
210
0.0
220
0.0
230
1.0
 70
     8
 71
     3
 72
     9
 73
     5
 74
     3
 42
0.0000000001
 43
0.0000000001
 44
0.0000000001
 12
-0.9732463561827246
 22
-0.2297640750357838
 32
0.0
 13
-0.9613264774570424
 23
0.2754113355329348
 33
0.0
 40
0.0
 40
0.0
 40
0.0
 40
0.0
 40
0.7445394011809502
 40
1.518816755717944
 40
1.518816755717944
 40
1.518816755717944
 40
1.518816755717944
 10
145.3968893319
 20
100.422634668
 30
0.0
 10
145.1553492454887
 20
100.36561186572
 30
0.0
 10
144.644412319993
 20
100.3172572755243
 30
0.0
 10
144.1395553831706
 20
100.402239089438
 30
0.0
 10
143.8914442759
 20
100.4733206762
 30
0.0
 11
145.3968893319
 21
100.422634668
 31
0.0
 11
144.6558773617
 21
100.3502455809
 31
0.0
 11
143.8914442759
 21
100.4733206762
 31
0.0
  0
SPLINE
  5
2AC
330
1B
100
AcDbEntity
  8
0
  6
Continuous
100
AcDbSpline
210
0.0
220
0.0
230
1.0
 70
     8
 71
     3
 72
    11
 73
     7
 74
     5
 42
0.0000000001
 43
0.0000000001
 44
0.0000000001
 12
-0.9357141566464106
 22
-0.3527591487849702
 32
0.0
 13
-0.993321116504944
 23
-0.115382665532442
 33
0.0
 40
0.0
 40
0.0
 40
0.0
 40
0.0
 40
0.202439077072562
 40
0.4270803591897485
 40
0.675741796179036
 40
0.9507415702220387
 40
0.9507415702220387
 40
0.9507415702220387
 40
0.9507415702220387
 10
147.4079283497
 20
103.4973929704
 30
0.0
 10
147.3447866462749
 20
103.4735888915637
 30
0.0
 10
147.21012687685
 20
103.427141159121
 30
0.0
 10
146.9932092159965
 20
103.3659803365603
 30
0.0
 10
146.7493033290888
 20
103.3130131184047
 30
0.0
 10
146.5765216932637
 20
103.28711866095
 30
0.0
 10
146.4854673324
 20
103.2765419253
 30
0.0
 11
147.4079283497
 21
103.4973929704
 31
0.0
 11
147.2165799974
 21
103.431306754
 31
0.0
 11
147.0003932652
 21
103.3702575734
 31
0.0
 11
146.7574154477
 21
103.3173965249
 31
0.0
 11
146.4854673324
 21
103.2765419253
 31
0.0
  0
SPLINE
  5
2AD
330
1B
100
AcDbEntity
  8
0
  6
Continuous
100
AcDbSpline
210
0.0
220
0.0
230
1.0
 70
     8
 71
     3
 72
    11
 73
     7
 74
     5
 42
0.0000000001
 43
0.0000000001
 44
0.0000000001
 12
-0.7589601744212187
 22
-0.6511370467440119
 32
0.0
 13
0.2337371489973191
 23
-0.9722998226774523
 33
0.0
 40
0.0
 40
0.0
 40
0.0
 40
0.0
 40
0.574645018924712
 40
1.206230746308871
 40
1.904592882598885
 40
2.660761118540208
 40
2.660761118540208
 40
2.660761118540208
 40
2.660761118540208
 10
147.4079284391
 20
103.4973928349
 30
0.0
 10
147.2625508778355
 20
103.3726686147171
 30
0.0
 10
147.0084668821617
 20
103.0479928292841
 30
0.0
 10
146.7967488138963
 20
102.4404359289537
 30
0.0
 10
146.7444038603447
 20
101.7406352459251
 30
0.0
 10
146.8140095509896
 20
101.2568924805734
 30
0.0
 10
146.8729244202
 20
101.0118184
 30
0.0
 11
147.4079284391
 21
103.4973928349
 31
0.0
 11
147.0476949164
 21
103.0496778509
 31
0.0
 11
146.8299873145
 21
102.4568001813
 31
0.0
 11
146.7703135688
 21
101.7609922211
 31
0.0
 11
146.8729244202
 21
101.0118184
 31
0.0
  0
SPLINE
  5
2AE
330
1B
100
AcDbEntity
  8
0
  6
Continuous
100
AcDbSpline
210
0.0
220
0.0
230
1.0
 70
     8
 71
     3
 72
    11
 73
     7
 74
     5
 42
0.0000000001
 43
0.0000000001
 44
0.0000000001
 12
-0.8638460065072582
 22
-0.5037559697328283
 32
0.0
 13
-0.9732143490264817
 23
-0.2298996103714865
 33
0.0
 40
0.0
 40
0.0
 40
0.0
 40
0.0
 40
0.3461887651038269
 40
0.7255882550347061
 40
1.14059974920077
 40
1.59472089018898
 40
1.59472089018898
 40
1.59472089018898
 40
1.59472089018898
 10
146.872924456
 20
101.0118184
 30
0.0
 10
146.7732398619225
 20
100.9536868476415
 30
0.0
 10
146.5603160618616
 20
100.8385576231768
 30
0.0
 10
146.2141666294506
 20
100.6805475117739
 30
0.0
 10
145.8235073231945
 20
100.5359342783483
 30
0.0
 10
145.544208402102
 20
100.4574354257915
 30
0.0
 10
145.3968893319
 20
100.422634668
 30
0.0
 11
146.872924456
 21
101.0118184
 31
0.0
 11
146.5684050247
 21
100.847153355
 31
0.0
 11
146.2232682657
 21
100.6895951418
 31
0.0
 11
145.8340682761
 21
100.5455190911
 31
0.0
 11
145.3968893319
 21
100.422634668
 31
0.0
  0
SPLINE
  5
2AF
330
1B
100
AcDbEntity
  8
0
  6
Continuous
100
AcDbSpline
210
0.0
220
0.0
230
1.0
 70
     8
 71
     3
 72
     9
 73
     5
 74
     3
 42
0.0000000001
 43
0.0000000001
 44
0.0000000001
 12
-0.9405126181802984
 22
-0.3397587600690236
 32
0.0
 13
-0.9599769999685787
 23
-0.2800788452049308
 33
0.0
 40
0.0
 40
0.0
 40
0.0
 40
0.0
 40
0.2569353116992451
 40
0.519728594928728
 40
0.519728594928728
 40
0.519728594928728
 40
0.519728594928728
 10
147.367042197
 20
101.1727663551
 30
0.0
 10
147.2864918960969
 20
101.143667680793
 30
0.0
 10
147.1224928864583
 20
101.0877397018784
 30
0.0
 10
146.9570162918822
 20
101.0363526797648
 30
0.0
 10
146.872924456
 20
101.0118184
 30
0.0
 11
147.367042197
 21
101.1727663551
 31
0.0
 11
147.1239802381
 21
101.0894798704
 31
0.0
 11
146.872924456
 21
101.0118184
 31
0.0
  0
SPLINE
  5
2B0
330
1B
100
AcDbEntity
  8
0
  6
Continuous
100
AcDbSpline
210
0.0
220
0.0
230
1.0
 70
     8
 71
     3
 72
     9
 73
     5
 74
     3
 42
0.0000000001
 43
0.0000000001
 44
0.0000000001
 12
-0.8653436168206082
 22
-0.5011790347049928
 32
0.0
 13
-0.9356785314645604
 23
-0.3528536321994202
 33
0.0
 40
0.0
 40
0.0
 40
0.0
 40
0.0
 40
0.3124702648448716
 40
0.6349500468880291
 40
0.6349500468880291
 40
0.6349500468880291
 40
0.6349500468880291
 10
147.981187643
 20
103.7691471262
 30
0.0
 10
147.8910562599567
 20
103.716945944297
 30
0.0
 10
147.7035668249513
 20
103.6181849159219
 30
0.0
 10
147.5085074859964
 20
103.5353223578683
 30
0.0
 10
147.4079283497
 20
103.4973929704
 30
0.0
 11
147.981187643
 21
103.7691471262
 31
0.0
 11
147.7046891777
 21
103.6235921019
 31
0.0
 11
147.4079283497
 21
103.4973929704
 31
0.0
  0
SPLINE
  5
2B1
330
1B
100
AcDbEntity
  8
0
  6
Continuous
100
AcDbSpline
210
0.0
220
0.0
230
1.0
 70
     8
 71
     3
 72
    10
 73
     6
 74
     4
 42
0.0000000001
 43
0.0000000001
 44
0.0000000001
 12
-0.3525257491422298
 22
-0.935802113799552
 32
0.0
 13
-0.5010023495272296
 23
-0.8654459230756106
 33
0.0
 40
0.0
 40
0.0
 40
0.0
 40
0.0
 40
0.2174322607973142
 40
0.4293184691934711
 40
0.6349796202418919
 40
0.6349796202418919
 40
0.6349796202418919
 40
0.6349796202418919
 10
148.2528926375
 20
104.3423572582
 30
0.0
 10
148.2273424806249
 20
104.2745327351125
 30
0.0
 10
148.1730632137535
 20
104.1420211810953
 30
0.0
 10
148.0820827941464
 20
103.9508074473605
 30
0.0
 10
148.0155332162939
 20
103.8284766611033
 30
0.0
 10
147.981187643
 20
103.7691471262
 30
0.0
 11
148.2528926375
 21
104.3423572582
 31
0.0
 11
148.1705065312
 21
104.1411376828
 31
0.0
 11
148.0794596141
 21
103.9498101516
 31
0.0
 11
147.981187643
 21
103.7691471262
 31
0.0
  0
SPLINE
  5
2B2
330
1B
100
AcDbEntity
  8
0
  6
Continuous
100
AcDbSpline
210
0.0
220
0.0
230
1.0
 70
     8
 71
     3
 72
    11
 73
     7
 74
     5
 42
0.0000000001
 43
0.0000000001
 44
0.0000000001
 12
0.6511505233266489
 22
0.7589486122073295
 32
0.0
 13
0.9722967646030596
 23
-0.2337498696094235
 33
0.0
 40
0.0
 40
0.0
 40
0.0
 40
0.0
 40
0.5746537654547793
 40
1.206247738124914
 40
1.904617690699056
 40
2.660793258703984
 40
2.660793258703984
 40
2.660793258703984
 40
2.660793258703984
 10
148.2528545798
 20
104.3423823696
 30
0.0
 10
148.3775832798358
 20
104.4877599288639
 30
0.0
 10
148.7022676104001
 20
104.7418422167912
 30
0.0
 10
149.3098354398038
 20
104.953554235018
 30
0.0
 10
150.0096446665702
 20
105.0058900857056
 30
0.0
 10
150.493391521719
 20
104.9362772379077
 30
0.0
 10
150.7384672078
 20
104.8773585911
 30
0.0
 11
148.2528545798
 21
104.3423823696
 31
0.0
 11
148.7005822914
 21
104.7026140262
 31
0.0
 11
149.2934709131
 21
104.9203157225
 31
0.0
 11
149.9892874925
 21
104.9799804398
 31
0.0
 11
150.7384672078
 21
104.8773585911
 31
0.0
  0
SPLINE
  5
2B3
330
1B
100
AcDbEntity
  8
0
  6
Continuous
100
AcDbSpline
210
0.0
220
0.0
230
1.0
 70
     8
 71
     3
 72
     9
 73
     5
 74
     3
 42
0.0000000001
 43
0.0000000001
 44
0.0000000001
 12
-0.2797880599121648
 22
-0.9600617904752731
 32
0.0
 13
-0.3401770451987813
 23
-0.9403614081404162
 33
0.0
 40
0.0
 40
0.0
 40
0.0
 40
0.0
 40
0.2623981017117328
 40
0.5193289977145918
 40
0.5193289977145918
 40
0.5193289977145918
 40
0.5193289977145918
 10
150.7384672079
 20
104.8773611519
 30
0.0
 10
150.7139952559658
 20
104.7933883547844
 30
0.0
 10
150.6630058918632
 20
104.6279209197207
 30
0.0
 10
150.6064656084742
 20
104.4642706758867
 30
0.0
 10
150.5773316108
 20
104.3837347095
 30
0.0
 11
150.7384672079
 21
104.8773611519
 31
0.0
 11
150.6610520022
 21
104.6266428843
 31
0.0
 11
150.5773316108
 21
104.3837347095
 31
0.0
  0
SPLINE
  5
2B4
330
1B
100
AcDbEntity
  8
0
  6
Continuous
100
AcDbSpline
210
0.0
220
0.0
230
1.0
 70
     8
 71
     3
 72
    11
 73
     7
 74
     5
 42
0.0000000001
 43
0.0000000001
 44
0.0000000001
 12
-0.1153831040324703
 22
-0.9933210655693516
 32
0.0
 13
-0.3527564528108156
 23
-0.9357151730095709
 33
0.0
 40
0.0
 40
0.0
 40
0.0
 40
0.0
 40
0.2728643723716727
 40
0.52088802633087
 40
0.7462674399457824
 40
0.9507420459224699
 40
0.9507420459224699
 40
0.9507420459224699
 40
0.9507420459224699
 10
148.4737436826
 20
105.2648182754
 30
0.0
 10
148.463249036512
 20
105.1744709656933
 30
0.0
 10
148.4375369865389
 20
105.0026001884175
 30
0.0
 10
148.3848631267848
 20
104.7593260284953
 30
0.0
 10
148.3236476431544
 20
104.5416831327395
 30
0.0
 10
148.2769358830647
 20
104.4061339219692
 30
0.0
 10
148.2528926375
 20
104.3423572582
 30
0.0
 11
148.4737436826
 21
105.2648182754
 31
0.0
 11
148.4332774825
 21
104.9949711847
 31
0.0
 11
148.3807021384
 21
104.7525839612
 31
0.0
 11
148.3195897348
 21
104.5356481315
 31
0.0
 11
148.2528926375
 21
104.3423572582
 31
0.0
  0
SPLINE
  5
2B5
330
1B
100
AcDbEntity
  8
0
  6
Continuous
100
AcDbSpline
210
0.0
220
0.0
230
1.0
 70
     8
 71
     3
 72
    12
 73
     8
 74
     6
 42
0.0000000001
 43
0.0000000001
 44
0.0000000001
 12
0.4091190731995453
 22
0.9124810047033007
 32
0.0
 13
0.993080467543685
 23
-0.117435876048234
 33
0.0
 40
0.0
 40
0.0
 40
0.0
 40
0.0
 40
0.5243794622423864
 40
1.107563865493344
 40
1.761647074432082
 40
2.479314166542118
 40
3.24010916690121
 40
3.24010916690121
 40
3.24010916690121
 40
3.24010916690121
 10
148.4737429577
 20
105.2648184953
 30
0.0
 10
148.5452541708992
 20
105.4243139281509
 30
0.0
 10
148.7676319830704
 20
105.7313282752807
 30
0.0
 10
149.2556081817114
 20
106.0718772696939
 30
0.0
 10
149.8727826437888
 20
106.2986183648874
 30
0.0
 10
150.5804425536064
 20
106.4008597047913
 30
0.0
 10
151.0758073883462
 20
106.3831784446534
 30
0.0
 10
151.3276509399
 20
106.3533969022
 30
0.0
 11
148.4737429577
 21
105.2648184953
 31
0.0
 11
148.7747478718
 21
105.6942016134
 31
0.0
 11
149.246607421
 21
106.0369152169
 31
0.0
 11
149.8577421182
 21
106.2700229733
 31
0.0
 11
150.5672514037
 21
106.3779239876
 31
0.0
 11
151.3276509399
 21
106.3533969022
 31
0.0
  0
SPLINE
  5
2B6
330
1B
100
AcDbEntity
  8
0
  6
Continuous
100
AcDbSpline
210
0.0
220
0.0
230
1.0
 70
     8
 71
     3
 72
    11
 73
     7
 74
     5
 42
0.0000000001
 43
0.0000000001
 44
0.0000000001
 12
-0.2298970325078137
 22
-0.9732149579841554
 32
0.0
 13
-0.503747254552446
 23
-0.8638510887478659
 33
0.0
 40
0.0
 40
0.0
 40
0.0
 40
0.0
 40
0.4505972980960951
 40
0.8645014946700571
 40
1.245102132666561
 40
1.594722372414949
 40
1.594722372414949
 40
1.594722372414949
 40
1.594722372414949
 10
151.3276509399
 20
106.353396276
 30
0.0
 10
151.2931206126706
 20
106.2072202658219
 30
0.0
 10
151.215130333714
 20
105.9293911573659
 30
0.0
 10
151.0712123698744
 20
105.539696851654
 30
0.0
 10
150.9129754717806
 20
105.1923562615063
 30
0.0
 10
150.7971739532031
 20
104.9780344268183
 30
0.0
 10
150.7384672079
 20
104.8773611519
 30
0.0
 11
151.3276509399
 21
106.353396276
 31
0.0
 11
151.2058609346
 21
105.9195701361
 31
0.0
 11
151.0624645967
 21
105.5312993875
 31
0.0
 11
150.9046676616
 21
105.1849513358
 31
0.0
 11
150.7384672079
 21
104.8773611519
 31
0.0
  0
SPLINE
  5
2B7
330
1B
100
AcDbEntity
  8
0
  6
Continuous
100
AcDbSpline
210
0.0
220
0.0
230
1.0
 70
     8
 71
     3
 72
    12
 73
     8
 74
     6
 42
0.0000000001
 43
0.0000000001
 44
0.0000000001
 12
0.4070945740371776
 22
0.9133860124774678
 32
0.0
 13
0.9864345237749919
 23
0.164155201881649
 33
0.0
 40
0.0
 40
0.0
 40
0.0
 40
0.0
 40
0.5488826221350363
 40
1.184064627206561
 40
1.893741157102604
 40
2.652385175461585
 40
3.427170233055562
 40
3.427170233055562
 40
3.427170233055562
 40
3.427170233055562
 10
148.4483864757
 20
106.1304491832
 30
0.0
 10
148.5228688547848
 20
106.2975630863834
 30
0.0
 10
148.7491504258466
 20
106.6291555160433
 30
0.0
 10
149.2235084070519
 20
107.0516332816332
 30
0.0
 10
149.8275804259683
 20
107.4146269570697
 30
0.0
 10
150.5234535485852
 20
107.6952014383563
 30
0.0
 10
151.0222066885948
 20
107.8164523372186
 30
0.0
 10
151.2769649317
 20
107.8588473364
 30
0.0
 11
148.4483864757
 21
106.1304491832
 31
0.0
 11
148.7477670746
 21
106.5904963437
 31
0.0
 11
149.2158545831
 21
107.0198566399
 31
0.0
 11
149.8214255614
 21
107.3898898375
 31
0.0
 11
150.5240858293
 21
107.6759130787
 31
0.0
 11
151.2769649317
 21
107.8588473364
 31
0.0
  0
SPLINE
  5
2B8
330
1B
100
AcDbEntity
  8
0
  6
Continuous
100
AcDbSpline
210
0.0
220
0.0
230
1.0
 70
     8
 71
     3
 72
    10
 73
     6
 74
     4
 42
0.0000000001
 43
0.0000000001
 44
0.0000000001
 12
0.2753465995036951
 22
-0.9613450213850134
 32
0.0
 13
-0.2298332020414921
 23
-0.9732300340820533
 33
0.0
 40
0.0
 40
0.0
 40
0.0
 40
0.0
 40
0.5206496994501642
 40
1.025275219990539
 40
1.521124349227353
 40
1.521124349227353
 40
1.521124349227353
 40
1.521124349227353
 10
151.2769649317
 20
107.8588413319
 30
0.0
 10
151.3247513064588
 20
107.6919999997493
 30
0.0
 10
151.3941132162288
 20
107.3555697189527
 30
0.0
 10
151.4127280677989
 20
106.8465811927098
 30
0.0
 10
151.365638470934
 20
106.5142546976489
 30
0.0
 10
151.3276509399
 20
106.353396276
 30
0.0
 11
151.2769649317
 21
107.8588413319
 31
0.0
 11
151.3805460684
 21
107.348599176
 31
0.0
 11
151.3977408453
 21
106.8442666908
 31
0.0
 11
151.3276509399
 21
106.353396276
 31
0.0
  0
SPLINE
  5
2B9
330
1B
100
AcDbEntity
  8
0
  6
Continuous
100
AcDbSpline
210
0.0
220
0.0
230
1.0
 70
     8
 71
     3
 72
    10
 73
     6
 74
     4
 42
0.0000000001
 43
0.0000000001
 44
0.0000000001
 12
0.2416966819904478
 22
-0.970351850575248
 32
0.0
 13
-0.2011883473648094
 23
-0.9795525758654391
 33
0.0
 40
0.0
 40
0.0
 40
0.0
 40
0.0
 40
0.2984758488348547
 40
0.5881510651841178
 40
0.8724611569984319
 40
0.8724611569984319
 40
0.8724611569984319
 40
0.8724611569984319
 10
148.4484006785
 20
106.1304491826
 30
0.0
 10
148.4724475526059
 20
106.033906985177
 30
0.0
 10
148.5070458767331
 20
105.8401437531176
 30
0.0
 10
148.516231108408
 20
105.5484911391155
 30
0.0
 10
148.4928104239371
 20
105.3576510958937
 30
0.0
 10
148.4737437981
 20
105.2648188683
 30
0.0
 11
148.4484006785
 21
106.1304491826
 31
0.0
 11
148.5002478901
 21
105.8365109255
 31
0.0
 11
148.5087833545
 21
105.5469614879
 31
0.0
 11
148.4737437981
 21
105.2648188683
 31
0.0
  0
SPLINE
  5
2BA
330
1B
100
AcDbEntity
  8
0
  6
Continuous
100
AcDbSpline
210
0.0
220
0.0
230
1.0
 70
     8
 71
     3
 72
    10
 73
     6
 74
     4
 42
0.0000000001
 43
0.0000000001
 44
0.0000000001
 12
0.1734596224322537
 22
-0.9848409817760734
 32
0.0
 13
0.1235950605432889
 23
-0.9923327370440325
 33
0.0
 40
0.0
 40
0.0
 40
0.0
 40
0.0
 40
0.5763727065956139
 40
1.174089634328
 40
1.792066810947709
 40
1.792066810947709
 40
1.792066810947709
 40
1.792066810947709
 10
148.1791518166
 20
107.9020049513
 30
0.0
 10
148.2124776139555
 20
107.7127931305558
 30
0.0
 10
148.2778094573611
 20
107.3269059959054
 30
0.0
 10
148.3685795876494
 20
106.7364631599773
 30
0.0
 10
148.4229410363138
 20
106.3348621769686
 30
0.0
 10
148.4484006785
 20
106.1304491826
 30
0.0
 11
148.1791518166
 21
107.9020049513
 31
0.0
 11
148.2752088407
 21
107.3336929375
 31
0.0
 11
148.3658093078
 21
106.7428824086
 31
0.0
 11
148.4484006785
 21
106.1304491826
 31
0.0
  0
SPLINE
  5
2BB
330
1B
100
AcDbEntity
  8
0
  6
Continuous
100
AcDbSpline
210
0.0
220
0.0
230
1.0
 70
     8
 71
     3
 72
    11
 73
     7
 74
     5
 42
0.0000000001
 43
0.0000000001
 44
0.0000000001
 12
0.6114698421109951
 22
0.7912677373612266
 32
0.0
 13
0.9667533326109401
 23
0.2557107621623327
 33
0.0
 40
0.0
 40
0.0
 40
0.0
 40
0.0
 40
0.6404836474437756
 40
1.380878880527805
 40
2.18536110272085
 40
3.008738564238758
 40
3.008738564238758
 40
3.008738564238758
 40
3.008738564238758
 10
148.1791521398
 20
107.9020049513
 30
0.0
 10
148.3096976180591
 20
108.0709363001432
 30
0.0
 10
148.6416986706844
 20
108.3960936140348
 30
0.0
 10
149.24592288324
 20
108.8073391314852
 30
0.0
 10
149.9572664438636
 20
109.155183305444
 30
0.0
 10
150.4731329062603
 20
109.3291424852893
 30
0.0
 10
150.7384672079
 20
109.3993246447
 30
0.0
 11
148.1791521398
 21
107.9020049513
 31
0.0
 11
148.6283895122
 21
108.3585190101
 31
0.0
 11
149.2366768928
 21
108.7806227459
 31
0.0
 11
149.9581638058
 21
109.1364995226
 31
0.0
 11
150.7384672079
 21
109.3993246447
 31
0.0
  0
SPLINE
  5
2BC
330
1B
100
AcDbEntity
  8
0
  6
Continuous
100
AcDbSpline
210
0.0
220
0.0
230
1.0
 70
     8
 71
     3
 72
    10
 73
     6
 74
     4
 42
0.0000000001
 43
0.0000000001
 44
0.0000000001
 12
0.3754542675025698
 22
-0.9268409210938569
 32
0.0
 13
0.2753778471813351
 23
-0.9613360709355358
 33
0.0
 40
0.0
 40
0.0
 40
0.0
 40
0.0
 40
0.5302305796933197
 40
1.074960941095267
 40
1.632560276057765
 40
1.632560276057765
 40
1.632560276057765
 40
1.632560276057765
 10
150.7384672079
 20
109.3993246091
 30
0.0
 10
150.8048263192021
 20
109.2355114761416
 30
0.0
 10
150.9349178903709
 20
108.9015772974139
 30
0.0
 10
151.1164323817503
 20
108.3884561151058
 30
0.0
 10
151.2257814302161
 20
108.037521449843
 30
0.0
 10
151.2769649317
 20
107.8588413319
 30
0.0
 11
150.7384672079
 21
109.3993246091
 31
0.0
 11
150.9305906642
 21
108.9051252109
 31
0.0
 11
151.111775152
 21
108.3914099707
 31
0.0
 11
151.2769649317
 21
107.8588413319
 31
0.0
  0
SPLINE
  5
2BD
330
1B
100
AcDbEntity
  8
0
  6
Continuous
100
AcDbSpline
210
0.0
220
0.0
230
1.0
 70
     8
 71
     3
 72
    15
 73
    11
 74
     9
 42
0.0000000001
 43
0.0000000001
 44
0.0000000001
 12
-0.1839325348091735
 22
-0.982938870245079
 32
0.0
 13
0.1733692066629075
 23
-0.9848569023878921
 33
0.0
 40
0.0
 40
0.0
 40
0.0
 40
0.0
 40
2.535649293591038
 40
5.140756078879566
 40
7.784834941393286
 40
10.4842759393925
 40
13.2474096508649
 40
15.99205144568721
 40
18.56258445022658
 40
20.89791450711879
 40
20.89791450711879
 40
20.89791450711879
 40
20.89791450711879
 10
147.7648562274
 20
128.6324621385
 30
0.0
 10
147.6093934267476
 20
127.8016660545066
 30
0.0
 10
147.3057756016021
 20
126.1148537194872
 30
0.0
 10
146.9717634249365
 20
123.5400385644178
 30
0.0
 10
146.7924559328744
 20
120.8948128838833
 30
0.0
 10
146.7807413031992
 20
118.1907890195098
 30
0.0
 10
146.946200031091
 20
115.4580515463795
 30
0.0
 10
147.2834764459648
 20
112.784746607249
 30
0.0
 10
147.7317407824491
 20
110.273856899188
 30
0.0
 10
148.0441937101802
 20
108.6686602599281
 30
0.0
 10
148.1791518166
 20
107.9020049513
 30
0.0
 11
147.7648562274
 21
128.6324621385
 31
0.0
 11
147.3300833463
 21
126.1343648862
 31
0.0
 11
146.9997420764
 21
123.5502874864
 31
0.0
 11
146.8213281466
 21
120.9122348901
 31
0.0
 11
146.8096543324
 21
118.2128191341
 31
0.0
 11
146.9765020017
 21
115.4547274455
 31
0.0
 11
147.314615236
 21
112.7309914042
 31
0.0
 11
147.7523869454
 21
110.19800979
 31
0.0
 11
148.1791518166
 21
107.9020049513
 31
0.0
  0
SPLINE
  5
2BE
330
1B
100
AcDbEntity
  8
0
  6
Continuous
100
AcDbSpline
210
0.0
220
0.0
230
1.0
 70
     8
 71
     3
 72
    11
 73
     7
 74
     5
 42
0.0000000001
 43
0.0000000001
 44
0.0000000001
 12
0.793401216343701
 22
-0.6086990306418567
 32
0.0
 13
0.9652378836158505
 23
-0.261372967295384
 33
0.0
 40
0.0
 40
0.0
 40
0.0
 40
0.0
 40
0.6348746359160172
 40
1.346016232735196
 40
2.095200764802411
 40
2.84082655829377
 40
2.84082655829377
 40
2.84082655829377
 40
2.84082655829377
 10
147.7648671729
 20
128.6324621407
 30
0.0
 10
147.9327706090205
 20
128.5036462822129
 30
0.0
 10
148.308892289393
 20
128.2566609003753
 30
0.0
 10
148.9290884602777
 20
127.9336865083706
 30
0.0
 10
149.609081076784
 20
127.6516192376797
 30
0.0
 10
150.0842704567737
 20
127.4993354935456
 30
0.0
 10
150.3241725444
 20
127.4343733515
 30
0.0
 11
147.7648671729
 21
128.6324621407
 31
0.0
 11
148.2925440892
 21
128.2794424878
 31
0.0
 11
148.9220681966
 21
127.9486528735
 31
0.0
 11
149.6137974226
 21
127.6609235893
 31
0.0
 11
150.3241725444
 21
127.4343733515
 31
0.0
  0
SPLINE
  5
2BF
330
1B
100
AcDbEntity
  8
0
  6
Continuous
100
AcDbSpline
210
0.0
220
0.0
230
1.0
 70
     8
 71
     3
 72
    15
 73
    11
 74
     9
 42
0.0000000001
 43
0.0000000001
 44
0.0000000001
 12
-0.212410934726205
 22
-0.9771804310406241
 32
0.0
 13
0.1984059298368251
 23
-0.9801199350108052
 33
0.0
 40
0.0
 40
0.0
 40
0.0
 40
0.0
 40
2.198077147876993
 40
4.462956956091309
 40
6.78070668354388
 40
9.156236369871603
 40
11.57765990977125
 40
13.96559894200329
 40
16.19497455501415
 40
18.22815091448416
 40
18.22815091448416
 40
18.22815091448416
 40
18.22815091448416
 10
150.3241716187
 20
127.4343760273
 30
0.0
 10
150.1685397448397
 20
126.7184033690257
 30
0.0
 10
149.8643498527106
 20
125.2617762560782
 30
0.0
 10
149.5299077885536
 20
123.0246754186093
 30
0.0
 10
149.351706864971
 20
120.7100941273496
 30
0.0
 10
149.3402147790742
 20
118.3365079745015
 30
0.0
 10
149.5043780661531
 20
115.9448718585409
 30
0.0
 10
149.8414468346838
 20
113.6208598672866
 30
0.0
 10
150.2917584628728
 20
111.4497431702612
 30
0.0
 10
150.6040024591923
 20
110.0635768362031
 30
0.0
 10
150.7384672079
 20
109.3993246091
 30
0.0
 11
150.3241716187
 21
127.4343760273
 31
0.0
 11
149.8892949131
 21
125.2797471964
 31
0.0
 11
149.55905836
 21
123.0390722167
 31
0.0
 11
149.3806516017
 21
120.7281990424
 31
0.0
 11
149.3690679849
 21
118.3526975984
 31
0.0
 11
149.5356695391
 21
115.9370122129
 31
0.0
 11
149.873521362
 21
113.573094074
 31
0.0
 11
150.3115050249
 21
111.3871649958
 31
0.0
 11
150.7384672079
 21
109.3993246091
 31
0.0
  0
SPLINE
  5
2C0
330
1B
100
AcDbEntity
  8
0
  6
Continuous
100
AcDbSpline
210
0.0
220
0.0
230
1.0
 70
     8
 71
     3
 72
    13
 73
     9
 74
     7
 42
0.0000000001
 43
0.0000000001
 44
0.0000000001
 12
0.7974121251445665
 22
-0.6034350857154615
 32
0.0
 13
-0.3509910685830315
 23
-0.9363788067737019
 33
0.0
 40
0.0
 40
0.0
 40
0.0
 40
0.0
 40
0.3674432660798804
 40
0.7831816691911375
 40
1.241204455478171
 40
1.737919268656152
 40
2.265369782790287
 40
2.808187675203002
 40
2.808187675203002
 40
2.808187675203002
 40
2.808187675203002
 10
147.1600752223
 20
131.1819021633
 30
0.0
 10
147.257743127525
 20
131.1079927770458
 30
0.0
 10
147.4500989083717
 20
130.9285694062768
 30
0.0
 10
147.6913374819071
 20
130.5888730218343
 30
0.0
 10
147.87158160199
 20
130.1649330394896
 30
0.0
 10
147.957145198022
 20
129.6736851207091
 30
0.0
 10
147.9252867735131
 20
129.1479071291147
 30
0.0
 10
147.828363871668
 20
128.8018886569643
 30
0.0
 10
147.7648557943
 20
128.6324609335
 30
0.0
 11
147.1600752223
 21
131.1819021633
 31
0.0
 11
147.4294021768
 21
130.9319470766
 31
0.0
 11
147.6706889737
 21
130.5933926475
 31
0.0
 11
147.8502786241
 21
130.172046673
 31
0.0
 11
147.9365661715
 21
129.6828840571
 31
0.0
 11
147.907344144
 21
129.1562436504
 31
0.0
 11
147.7648557943
 21
128.6324609335
 31
0.0
  0
SPLINE
  5
2C1
330
1B
100
AcDbEntity
  8
0
  6
Continuous
100
AcDbSpline
210
0.0
220
0.0
230
1.0
 70
     8
 71
     3
 72
    12
 73
     8
 74
     6
 42
0.0000000001
 43
0.0000000001
 44
0.0000000001
 12
0.9177616004155762
 22
-0.3971317725927257
 32
0.0
 13
0.7376834805027981
 23
0.6751467119028857
 33
0.0
 40
0.0
 40
0.0
 40
0.0
 40
0.0
 40
0.4674494117073221
 40
0.9776588533249662
 40
1.540445244326295
 40
2.153840268750896
 40
2.807104732627645
 40
2.807104732627645
 40
2.807104732627645
 40
2.807104732627645
 10
147.1600657942
 20
131.1818828968
 30
0.0
 10
147.3030681676006
 20
131.1200032256438
 30
0.0
 10
147.6265079684264
 20
131.0430725530352
 30
0.0
 10
148.1446255922638
 20
131.0749582141908
 30
0.0
 10
148.6860086298323
 20
131.2420700497418
 30
0.0
 10
149.2250308221626
 20
131.5340381494891
 30
0.0
 10
149.5587569652329
 20
131.7961615942035
 30
0.0
 10
149.7193910997
 20
131.9431780458
 30
0.0
 11
147.1600657942
 21
131.1818828968
 31
0.0
 11
147.6135935335
 21
131.0686506479
 31
0.0
 11
148.1232269082
 21
131.0928889999
 31
0.0
 11
148.6626542665
 21
131.2533466174
 31
0.0
 11
149.2040257417
 21
131.5417393736
 31
0.0
 11
149.7193910997
 21
131.9431780458
 31
0.0
  0
SPLINE
  5
2C2
330
1B
100
AcDbEntity
  8
0
  6
Continuous
100
AcDbSpline
210
0.0
220
0.0
230
1.0
 70
     8
 71
     3
 72
    13
 73
     9
 74
     7
 42
0.0000000001
 43
0.0000000001
 44
0.0000000001
 12
0.5555778967305944
 22
-0.831464491523486
 32
0.0
 13
-0.212418607427883
 23
-0.9771787631843004
 33
0.0
 40
0.0
 40
0.0
 40
0.0
 40
0.0
 40
0.5466917313581837
 40
1.205350500312297
 40
1.971088904692801
 40
2.830627077759851
 40
3.7462601210603
 40
4.66284686968076
 40
4.66284686968076
 40
4.66284686968076
 40
4.66284686968076
 10
149.7193921273
 20
131.9431762427
 30
0.0
 10
149.820635408056
 20
131.7916579885554
 30
0.0
 10
150.0175685271067
 20
131.4396242448542
 30
0.0
 10
150.2562724508877
 20
130.8253586451068
 30
0.0
 10
150.4330264612271
 20
130.0823710158659
 30
0.0
 10
150.5161340930391
 20
129.2368730977205
 30
0.0
 10
150.4853080217578
 20
128.3377075827038
 30
0.0
 10
150.3890716456096
 20
127.732932395756
 30
0.0
 10
150.3241716187
 20
127.4343760273
 30
0.0
 11
149.7193921273
 21
131.9431762427
 31
0.0
 11
149.9887915984
 21
131.4674706887
 31
0.0
 11
150.2299912463
 21
130.8545644122
 31
0.0
 11
150.4096471415
 21
130.1101995398
 31
0.0
 11
150.4959205299
 21
129.2550020343
 31
0.0
 11
150.4665250853
 21
128.3398409677
 31
0.0
 11
150.3241716187
 21
127.4343760273
 31
0.0
  0
SPLINE
  5
2C3
330
1B
100
AcDbEntity
  8
0
  6
Continuous
100
AcDbSpline
210
0.0
220
0.0
230
1.0
 70
     8
 71
     3
 72
     9
 73
     5
 74
     3
 42
0.0000000001
 43
0.0000000001
 44
0.0000000001
 12
0.8489917695422886
 22
-0.5284060704131374
 32
0.0
 13
0.7306697385718735
 23
-0.6827310840552892
 33
0.0
 40
0.0
 40
0.0
 40
0.0
 40
0.0
 40
0.3575101521589669
 40
0.7252078964374684
 40
0.7252078964374684
 40
0.7252078964374684
 40
0.7252078964374684
 10
146.5845402138
 20
131.621710144
 30
0.0
 10
146.6857146060369
 20
131.5587399657883
 30
0.0
 10
146.885284944097
 20
131.4216407397816
 30
0.0
 10
147.0705215311049
 20
131.265580566152
 30
0.0
 10
147.160076736
 20
131.1819010063
 30
0.0
 11
146.5845402138
 21
131.621710144
 31
0.0
 11
146.8789979494
 21
131.4189586931
 31
0.0
 11
147.160076736
 21
131.1819010063
 31
0.0
  0
SPLINE
  5
2C4
330
1B
100
AcDbEntity
  8
0
  6
Continuous
100
AcDbSpline
210
0.0
220
0.0
230
1.0
 70
     8
 71
     3
 72
    12
 73
     8
 74
     6
 42
0.0000000001
 43
0.0000000001
 44
0.0000000001
 12
0.9805694061372644
 22
-0.1961724744902112
 32
0.0
 13
0.6089164427349552
 23
0.793234370011164
 33
0.0
 40
0.0
 40
0.0
 40
0.0
 40
0.0
 40
0.5200481969799693
 40
1.06506100770107
 40
1.64170511028023
 40
2.250124372731042
 40
2.88485351459294
 40
2.88485351459294
 40
2.88485351459294
 40
2.88485351459294
 10
146.5842864171
 20
131.6218223141
 30
0.0
 10
146.7542675343252
 20
131.5878159335481
 30
0.0
 10
147.1139064660706
 20
131.5678849866812
 30
0.0
 10
147.6547780349287
 20
131.6804349697235
 30
0.0
 10
148.1815886654866
 20
131.9263879147652
 30
0.0
 10
148.6699392995296
 20
132.2924390465822
 30
0.0
 10
148.9513224934457
 20
132.6002277853092
 30
0.0
 10
149.0801548305
 20
132.7680574423
 30
0.0
 11
146.5842864171
 21
131.6218223141
 31
0.0
 11
147.1033912522
 21
131.5905126134
 31
0.0
 11
147.6377480455
 21
131.6977589714
 31
0.0
 11
148.1617707519
 21
131.9384218564
 31
0.0
 11
148.6503701614
 21
132.3009747711
 31
0.0
 11
149.0801548305
 21
132.7680574423
 31
0.0
  0
SPLINE
  5
2C5
330
1B
100
AcDbEntity
  8
0
  6
Continuous
100
AcDbSpline
210
0.0
220
0.0
230
1.0
 70
     8
 71
     3
 72
     9
 73
     5
 74
     3
 42
0.0000000001
 43
0.0000000001
 44
0.0000000001
 12
0.6601195965274871
 22
-0.7511605143245934
 32
0.0
 13
0.5557021396945298
 23
-0.8313814599441831
 33
0.0
 40
0.0
 40
0.0
 40
0.0
 40
0.0
 40
0.5145697782367114
 40
1.044101540324737
 40
1.044101540324737
 40
1.044101540324737
 40
1.044101540324737
 10
149.0801548361
 20
132.7679753761
 30
0.0
 10
149.1933807008983
 20
132.6391338763413
 30
0.0
 10
149.4168866274347
 20
132.3720696138828
 30
0.0
 10
149.6213048162238
 20
132.0899238725172
 30
0.0
 10
149.7193921273
 20
131.9431762427
 30
0.0
 11
149.0801548361
 21
132.7679753761
 31
0.0
 11
149.409047635
 21
132.3722335619
 31
0.0
 11
149.7193921273
 21
131.9431762427
 31
0.0
  0
SPLINE
  5
2C6
330
1B
100
AcDbEntity
  8
0
  6
Continuous
100
AcDbSpline
210
0.0
220
0.0
230
1.0
 70
     8
 71
     3
 72
    10
 73
     6
 74
     4
 42
0.0000000001
 43
0.0000000001
 44
0.0000000001
 12
0.999999985765995
 22
0.0001687246569219
 32
0.0
 13
0.9100153341856287
 23
0.4145745910533092
 33
0.0
 40
0.0
 40
0.0
 40
0.0
 40
0.0
 40
0.5832857128054462
 40
1.155014116751533
 40
1.704727721739282
 40
1.704727721739282
 40
1.704727721739282
 40
1.704727721739282
 10
147.421842362
 20
132.4248112351
 30
0.0
 10
147.6162709301676
 20
132.4248440399939
 30
0.0
 10
148.0018180964527
 20
132.4504453001457
 30
0.0
 10
148.5600885527628
 20
132.5648145456147
 30
0.0
 10
148.9134055605169
 20
132.6920916779719
 30
0.0
 10
149.0801548305
 20
132.7680574423
 30
0.0
 11
147.421842362
 21
132.4248112351
 31
0.0
 11
148.0038145288
 21
132.4639343719
 31
0.0
 11
148.5636756718
 21
132.5798173665
 31
0.0
 11
149.0801548305
 21
132.7680574423
 31
0.0
  0
SPLINE
  5
2C7
330
1B
100
AcDbEntity
  8
0
  6
Continuous
100
AcDbSpline
210
0.0
220
0.0
230
1.0
 70
     8
 71
     3
 72
    10
 73
     6
 74
     4
 42
0.0000000001
 43
0.0000000001
 44
0.0000000001
 12
0.9999706217387229
 22
0.007665224032739901
 32
0.0
 13
0.941806876015422
 23
-0.3361544411279907
 33
0.0
 40
0.0
 40
0.0
 40
0.0
 40
0.0
 40
0.2830810785525132
 40
0.5584600496232942
 40
0.8417759184410463
 40
0.8417759184410463
 40
0.8417759184410463
 40
0.8417759184410463
 10
145.7579665645
 20
131.7591763721
 30
0.0
 10
145.8523241518742
 20
131.7598996653955
 30
0.0
 10
146.0387452449092
 20
131.7509505334528
 30
0.0
 10
146.3161878280092
 20
131.705435144755
 30
0.0
 10
146.4955972693544
 20
131.653456106515
 30
0.0
 10
146.5845402138
 20
131.621710144
 30
0.0
 11
145.7579665645
 21
131.7591763721
 31
0.0
 11
146.0407106538
 21
131.7453677878
 31
0.0
 11
146.3124222896
 21
131.7005753255
 31
0.0
 11
146.5845402138
 21
131.621710144
 31
0.0
  0
SPLINE
  5
2C8
330
1B
100
AcDbEntity
  8
0
  6
Continuous
100
AcDbSpline
210
0.0
220
0.0
230
1.0
 70
     8
 71
     3
 72
    10
 73
     6
 74
     4
 42
0.0000000001
 43
0.0000000001
 44
0.0000000001
 12
0.9999999928547818
 22
-0.0001195426135524
 32
0.0
 13
0.9622238886164567
 23
-0.2722594133833113
 33
0.0
 40
0.0
 40
0.0
 40
0.0
 40
0.0
 40
0.5656597767549837
 40
1.114742048521419
 40
1.684098197485865
 40
1.684098197485865
 40
1.684098197485865
 40
1.684098197485865
 10
145.7579665645
 20
132.6523552656
 30
0.0
 10
145.9465198220711
 20
132.6523327254506
 30
0.0
 10
146.3183421122408
 20
132.6358694784267
 30
0.0
 10
146.8753055669221
 20
132.5605470185879
 30
0.0
 10
147.2392263601786
 20
132.4764820323411
 30
0.0
 10
147.4218423894
 20
132.4248111753
 30
0.0
 11
145.7579665645
 21
132.6523552656
 31
0.0
 11
146.3230589522
 21
132.6270259071
 31
0.0
 11
146.8671621693
 21
132.5532490116
 31
0.0
 11
147.4218423894
 21
132.4248111753
 31
0.0
  0
SPLINE
  5
2C9
330
1B
100
AcDbEntity
  8
0
  6
Continuous
100
AcDbSpline
210
0.0
220
0.0
230
1.0
 70
     8
 71
     3
 72
    10
 73
     6
 74
     4
 42
0.0000000001
 43
0.0000000001
 44
0.0000000001
 12
0.999174058982639
 22
0.0406349585475121
 32
0.0
 13
0.5428557828933868
 23
0.8398259337381814
 33
0.0
 40
0.0
 40
0.0
 40
0.0
 40
0.0
 40
0.2690207369254976
 40
0.6640471771276471
 40
1.187916065995441
 40
1.187916065995441
 40
1.187916065995441
 40
1.187916065995441
 10
146.5842864171
 20
131.6218223141
 30
0.0
 10
146.6738859309881
 20
131.6254661962645
 30
0.0
 10
146.8810144841219
 20
131.7388150313842
 30
0.0
 10
147.1552132345682
 20
132.0218097300866
 30
0.0
 10
147.3270472767334
 20
132.2781583421834
 30
0.0
 10
147.421842362
 20
132.4248112351
 30
0.0
 11
146.5842864171
 21
131.6218223141
 31
0.0
 11
146.8328727151
 21
131.7246669024
 31
0.0
 11
147.118031469
 21
131.9980354696
 31
0.0
 11
147.421842362
 21
132.4248112351
 31
0.0
  0
SPLINE
  5
2CA
330
1B
100
AcDbEntity
  8
0
  6
Continuous
100
AcDbSpline
210
0.0
220
0.0
230
1.0
 70
     8
 71
     3
 72
    12
 73
     8
 74
     6
 42
0.0000000001
 43
0.0000000001
 44
0.0000000001
 12
0.9967931123375736
 22
-0.08002181700244838
 32
0.0
 13
0.9999999999478416
 23
-1.021355786110000E-5
 33
0.0
 40
0.0
 40
0.0
 40
0.0
 40
0.0
 40
1.671183838244884
 40
3.530797653754725
 40
5.524909810733014
 40
7.606991072345817
 40
9.727795284632407
 40
9.727795284632407
 40
9.727795284632407
 40
9.727795284632407
 10
122.6489357477
 20
132.0899339544
 30
0.0
 10
123.2042105941708
 20
132.0453568986395
 30
0.0
 10
124.3785437920145
 20
131.9656309782306
 30
0.0
 10
126.2180209625728
 20
131.8748802981745
 30
0.0
 10
128.195584557847
 20
131.8084824346279
 30
0.0
 10
130.2609157630214
 20
131.7681500495705
 30
0.0
 10
131.661895209908
 20
131.7591835924189
 30
0.0
 10
132.3688299473
 20
131.7591763721
 30
0.0
 11
122.6489357477
 21
132.0899339544
 31
0.0
 11
124.3161456844
 21
131.9747538859
 31
0.0
 11
126.1734344416
 21
131.8817914461
 31
0.0
 11
128.1663949613
 21
131.8140296462
 31
0.0
 11
130.2480702327
 21
131.7729146319
 31
0.0
 11
132.3688299473
 21
131.7591763721
 31
0.0
  0
SPLINE
  5
2CB
330
1B
100
AcDbEntity
  8
0
  6
Continuous
100
AcDbSpline
210
0.0
220
0.0
230
1.0
 70
     8
 71
     3
 72
    10
 73
     6
 74
     4
 42
0.0000000001
 43
0.0000000001
 44
0.0000000001
 12
0.9955565098591594
 22
0.09416600064274551
 32
0.0
 13
0.5926791517399019
 23
0.8054386525942683
 33
0.0
 40
0.0
 40
0.0
 40
0.0
 40
0.0
 40
0.4937931674369246
 40
1.028245078094306
 40
1.615622965401073
 40
1.615622965401073
 40
1.615622965401073
 40
1.615622965401073
 10
122.6489357477
 20
132.089936982
 30
0.0
 10
122.8128020818219
 20
132.1054364912408
 30
0.0
 10
123.1500621766117
 20
132.1998813189263
 30
0.0
 10
123.6050219266043
 20
132.4999338879992
 30
0.0
 10
123.8583391038668
 20
132.780301791928
 30
0.0
 10
123.9743813132
 20
132.9380007433
 30
0.0
 11
122.6489357477
 21
132.089936982
 31
0.0
 11
123.1257243058
 21
132.2184062899
 31
0.0
 11
123.5759120044
 21
132.5064512184
 31
0.0
 11
123.9743813132
 21
132.9380007433
 31
0.0
  0
SPLINE
  5
2CC
330
1B
100
AcDbEntity
  8
0
  6
Continuous
100
AcDbSpline
210
0.0
220
0.0
230
1.0
 70
     8
 71
     3
 72
    12
 73
     8
 74
     6
 42
0.0000000001
 43
0.0000000001
 44
0.0000000001
 12
0.9967940452239897
 22
-0.08001019563777351
 32
0.0
 13
0.9999999998161573
 23
-1.917513082150000E-5
 33
0.0
 40
0.0
 40
0.0
 40
0.0
 40
0.0
 40
1.44520300694665
 40
3.050456829928628
 40
4.771544815492862
 40
6.568471494450391
 40
8.401277754025065
 40
8.401277754025065
 40
8.401277754025065
 40
8.401277754025065
 10
123.9743758658
 20
132.9380095412
 30
0.0
 10
124.4545657829548
 20
132.8994658827593
 30
0.0
 10
125.4691393244039
 20
132.8305888941962
 30
0.0
 10
127.0577910679072
 20
132.7522496088543
 30
0.0
 10
128.764650490661
 20
132.6949430406527
 30
0.0
 10
130.5479682911079
 20
132.6601056349323
 30
0.0
 10
131.7578945275541
 20
132.6523669803666
 30
0.0
 10
132.3688299473
 20
132.6523552656
 30
0.0
 11
123.9743758658
 21
132.9380095412
 31
0.0
 11
125.4161434965
 21
132.8384212369
 31
0.0
 11
127.0193918137
 21
132.7582048446
 31
0.0
 11
128.739486073
 21
132.6997275569
 31
0.0
 11
130.5360621848
 21
132.6642344018
 31
0.0
 11
132.3688299473
 21
132.6523552656
 31
0.0
  0
SPLINE
  5
2CD
330
1B
100
AcDbEntity
  8
0
  6
Continuous
100
AcDbSpline
210
0.0
220
0.0
230
1.0
 70
     8
 71
     3
 72
    26
 73
    22
 74
    20
 42
0.0000000001
 43
0.0000000001
 44
0.0000000001
 12
-0.1522781537626281
 22
0.988337677055087
 32
0.0
 13
0.9883371824540959
 23
-0.1522813638588101
 33
0.0
 40
0.0
 40
0.0
 40
0.0
 40
0.0
 40
0.3478823979685878
 40
0.6662963217529327
 40
0.960127548038488
 40
1.235191453519892
 40
1.496508971401516
 40
1.74596686156273
 40
1.985133147684141
 40
2.215165002581923
 40
2.435344098846053
 40
2.649712328842188
 40
2.867158676205498
 40
3.094477839258335
 40
3.334417668618689
 40
3.58487841784576
 40
3.848136371799702
 40
4.126923514985446
 40
4.425398913215799
 40
4.749792336127998
 40
5.106043776398768
 40
5.106043776398768
 40
5.106043776398768
 40
5.106043776398768
 10
119.6603516534
 20
129.1013498601
 30
0.0
 10
119.6426933569703
 20
129.2159582871322
 30
0.0
 10
119.6179907109508
 20
129.4370089567877
 30
0.0
 10
119.60983109254
 20
129.7573182190531
 30
0.0
 10
119.627721889965
 20
130.0529199420086
 30
0.0
 10
119.6687096840852
 20
130.3269784523058
 30
0.0
 10
119.731242111873
 20
130.5817568291869
 30
0.0
 10
119.8144497240415
 20
130.8179350781273
 30
0.0
 10
119.9173526989805
 20
131.0347683975406
 30
0.0
 10
120.0383192495958
 20
131.2307132460723
 30
0.0
 10
120.1755588765164
 20
131.4052141428909
 30
0.0
 10
120.3287090253183
 20
131.5600598449938
 30
0.0
 10
120.5001835875995
 20
131.6981658812785
 30
0.0
 10
120.6933010208299
 20
131.8207000532494
 30
0.0
 10
120.9086451428804
 20
131.9260059729931
 30
0.0
 10
121.1451359716158
 20
132.0120584754604
 30
0.0
 10
121.401536429975
 20
132.0773375074853
 30
0.0
 10
121.6787261097768
 20
132.1207188756124
 30
0.0
 10
121.9790315258621
 20
132.1403654007881
 30
0.0
 10
122.305717112692
 20
132.1330291156758
 30
0.0
 10
122.5315702327925
 20
132.108017439467
 30
0.0
 10
122.6489357477
 20
132.0899339544
 30
0.0
 11
119.6603516534
 21
129.1013498601
 31
0.0
 11
119.622088574
 21
129.447121605
 31
0.0
 11
119.614368497
 21
129.7654419268
 31
0.0
 11
119.6325328527
 21
130.0587111644
 31
0.0
 11
119.6736487965
 21
130.33068475
 31
0.0
 11
119.7363808401
 21
130.5843607951
 31
0.0
 11
119.8196970444
 21
130.8194940532
 31
0.0
 11
119.9225964389
 21
131.0353927031
 31
0.0
 11
120.0436956364
 21
131.2309678514
 31
0.0
 11
120.1799259902
 21
131.4039421996
 31
0.0
 11
120.3306737624
 21
131.5563523279
 31
0.0
 11
120.4999426205
 21
131.6928476306
 31
0.0
 11
120.6917314582
 21
131.8148764945
 31
0.0
 11
120.9071027829
 21
131.9206418679
 31
0.0
 11
121.1423097993
 21
132.0067130381
 31
0.0
 11
121.3973116254
 21
132.0721257204
 31
0.0
 11
121.6726743966
 21
132.1156873485
 31
0.0
 11
121.9704839858
 21
132.1356125067
 31
0.0
 11
122.2948047061
 21
132.1287449589
 31
0.0
 11
122.6489357477
 21
132.0899339544
 31
0.0
  0
SPLINE
  5
2CE
330
1B
100
AcDbEntity
  8
0
  6
Continuous
100
AcDbSpline
210
0.0
220
0.0
230
1.0
 70
     8
 71
     3
 72
    10
 73
     6
 74
     4
 42
0.0000000001
 43
0.0000000001
 44
0.0000000001
 12
-0.09417790371116372
 22
-0.9955553839202372
 32
0.0
 13
-0.8054400071093947
 23
-0.5926773109775828
 33
0.0
 40
0.0
 40
0.0
 40
0.0
 40
0.0
 40
0.4937926247621187
 40
1.028244626258116
 40
1.615622312745838
 40
1.615622312745838
 40
1.615622312745838
 40
1.615622312745838
 10
119.6603491073
 20
129.1013498601
 30
0.0
 10
119.6448476558773
 20
128.9374838913927
 30
0.0
 10
119.5503993560605
 20
128.6002251044715
 30
0.0
 10
119.2503441654306
 20
128.145267575212
 30
0.0
 10
118.9699755650602
 20
127.8919513433519
 30
0.0
 10
118.8122764024
 20
127.7759095341
 30
0.0
 11
119.6603491073
 21
129.1013498601
 31
0.0
 11
119.5318750291
 21
128.6245631494
 31
0.0
 11
119.2438271315
 21
128.1743772427
 31
0.0
 11
118.8122764024
 21
127.7759095341
 31
0.0
  0
SPLINE
  5
2CF
330
1B
100
AcDbEntity
  8
0
  6
Continuous
100
AcDbSpline
210
0.0
220
0.0
230
1.0
 70
     8
 71
     3
 72
    26
 73
    22
 74
    20
 42
0.0000000001
 43
0.0000000001
 44
0.0000000001
 12
-0.08003774081775011
 22
0.9967918338573961
 32
0.0
 13
0.9967911036190882
 23
-0.08004683470219401
 33
0.0
 40
0.0
 40
0.0
 40
0.0
 40
0.0
 40
0.5503346629556178
 40
1.058978283767697
 40
1.533498088080013
 40
1.983042054799263
 40
2.415491646392221
 40
2.833546385301875
 40
3.23912509571
 40
3.633045078266716
 40
4.012501321049373
 40
4.382801120779114
 40
4.757718688015005
 40
5.147399767019893
 40
5.554782146588502
 40
5.975077695593569
 40
6.411264497231903
 40
6.867335098529336
 40
7.349721596214395
 40
7.868162016779889
 40
8.431292946330789
 40
8.431292946330789
 40
8.431292946330789
 40
8.431292946330789
 10
118.8122760666
 20
127.775909742
 30
0.0
 10
118.7975935522278
 20
127.9587661079743
 30
0.0
 10
118.7852366316776
 20
128.3121405417859
 30
0.0
 10
118.8137427858376
 20
128.8231522668322
 30
0.0
 10
118.8822949083918
 20
129.2963964763975
 30
0.0
 10
118.9860068067406
 20
129.7371001047031
 30
0.0
 10
119.1221627209932
 20
130.1491054298987
 30
0.0
 10
119.2889274554707
 20
130.5337841276993
 30
0.0
 10
119.4841440313366
 20
130.8902667461711
 30
0.0
 10
119.7046100211466
 20
131.2162864424368
 30
0.0
 10
119.9471340023638
 20
131.5111341527544
 30
0.0
 10
120.2114043150915
 20
131.7777768389856
 30
0.0
 10
120.5017016501149
 20
132.0211757476357
 30
0.0
 10
120.8235307590523
 20
132.2436300178844
 30
0.0
 10
121.1779842481549
 20
132.4424007005273
 30
0.0
 10
121.5635109916874
 20
132.6137262698094
 30
0.0
 10
121.9783820764699
 20
132.7545184779574
 30
0.0
 10
122.4243002505059
 20
132.8625426583751
 30
0.0
 10
122.9052142756136
 20
132.934597050194
 30
0.0
 10
123.4263113308495
 20
132.9652762692269
 30
0.0
 10
123.7872678988836
 20
132.9530351573445
 30
0.0
 10
123.9743758658
 20
132.9380095412
 30
0.0
 11
118.8122760666
 21
127.775909742
 31
0.0
 11
118.7934038635
 21
128.3259207248
 31
0.0
 11
118.822076581
 21
128.8337555486
 31
0.0
 11
118.8904606449
 21
129.303322013
 31
0.0
 11
118.9937927417
 21
129.7408288767
 31
0.0
 11
119.1298346124
 21
130.1513227971
 31
0.0
 11
119.2964339008
 21
130.5347474205
 31
0.0
 11
119.4914997889
 21
130.8903362134
 31
0.0
 11
119.71234195
 21
131.2165289364
 31
0.0
 11
119.9534770883
 21
131.5095150884
 31
0.0
 11
120.2141495169
 21
131.7725204622
 31
0.0
 11
120.5013835048
 21
132.013476513
 31
0.0
 11
120.8218254643
 21
132.2352157606
 31
0.0
 11
121.1770058993
 21
132.4347333332
 31
0.0
 11
121.5609408557
 21
132.6057371278
 31
0.0
 11
121.9738688918
 21
132.7462695544
 31
0.0
 11
122.4170284742
 21
132.8540191618
 31
0.0
 11
122.8940330492
 21
132.9258757452
 31
0.0
 11
123.4115555957
 21
132.9567121448
 31
0.0
 11
123.9743758658
 21
132.9380095412
 31
0.0
  0
SPLINE
  5
2D0
330
1B
100
AcDbEntity
  8
0
  6
Continuous
100
AcDbSpline
210
0.0
220
0.0
230
1.0
 70
     8
 71
     3
 72
    12
 73
     8
 74
     6
 42
0.0000000001
 43
0.0000000001
 44
0.0000000001
 12
-7.752208719800002E-6
 22
0.9999999999699517
 32
0.0
 13
-0.08002243643408639
 23
0.9967930626098642
 33
0.0
 40
0.0
 40
0.0
 40
0.0
 40
0.0
 40
2.119984555598158
 40
4.207557790860019
 40
6.202110221085958
 40
8.062210033038477
 40
9.727795358170461
 40
9.727795358170461
 40
9.727795358170461
 40
9.727795358170461
 10
119.9911092358
 20
119.3814556606
 30
0.0
 10
119.9911037576124
 20
120.0881171791115
 30
0.0
 10
119.9821275403468
 20
121.4906540086414
 30
0.0
 10
119.9417399595889
 20
123.5576891184583
 30
0.0
 10
119.8751978357129
 20
125.5373885739354
 30
0.0
 10
119.7844360653736
 20
127.375306182885
 30
0.0
 10
119.7047797186687
 20
128.5479352276745
 30
0.0
 10
119.6603516534
 20
129.1013498601
 30
0.0
 11
119.9911092358
 21
119.3814556606
 31
0.0
 11
119.9773814102
 21
121.5013957689
 31
0.0
 11
119.9361312842
 21
123.5885614163
 31
0.0
 11
119.8682806361
 21
125.5819594414
 31
0.0
 11
119.7752010716
 21
127.4397289387
 31
0.0
 11
119.6603516534
 21
129.1013498601
 31
0.0
  0
SPLINE
  5
2D1
330
1B
100
AcDbEntity
  8
0
  6
Continuous
100
AcDbSpline
210
0.0
220
0.0
230
1.0
 70
     8
 71
     3
 72
    12
 73
     8
 74
     6
 42
0.0000000001
 43
0.0000000001
 44
0.0000000001
 12
-1.694531514220000E-5
 22
0.9999999998564282
 32
0.0
 13
-0.08000804380178532
 23
0.9967942179442112
 33
0.0
 40
0.0
 40
0.0
 40
0.0
 40
0.0
 40
1.83103596077712
 40
3.633473134140186
 40
5.355664555001385
 40
6.961876087785251
 40
8.401277804783973
 40
8.401277804783973
 40
8.401277804783973
 40
8.401277804783973
 10
119.0979303423
 20
119.3814556606
 30
0.0
 10
119.0979199998062
 20
119.9918009807714
 30
0.0
 10
119.090176040456
 20
121.2029738412685
 30
0.0
 10
119.055301233268
 20
122.9879062331293
 30
0.0
 10
118.9978433999067
 20
124.6972860076761
 30
0.0
 10
118.9194813109786
 20
126.2846887749704
 30
0.0
 10
118.8506639718073
 20
127.2976473057322
 30
0.0
 10
118.8122760666
 20
127.775909742
 30
0.0
 11
119.0979303423
 21
119.3814556606
 31
0.0
 11
119.0860731164
 21
121.2124532291
 31
0.0
 11
119.0504587308
 21
123.0145385155
 31
0.0
 11
118.9918777651
 21
124.7357333216
 31
0.0
 11
118.9115216875
 21
126.339933555
 31
0.0
 11
118.8122760666
 21
127.775909742
 31
0.0
  0
SPLINE
  5
2D2
330
1B
100
AcDbEntity
  8
0
  6
Continuous
100
AcDbSpline
210
0.0
220
0.0
230
1.0
 70
     8
 71
     3
 72
    10
 73
     6
 74
     4
 42
0.0000000001
 43
0.0000000001
 44
0.0000000001
 12
-0.3361548375668986
 22
0.9418067345163614
 32
0.0
 13
0.007665412043037002
 23
0.9999706202975218
 33
0.0
 40
0.0
 40
0.0
 40
0.0
 40
0.0
 40
0.2833196978230246
 40
0.5586977699209682
 40
0.8417754405748388
 40
0.8417754405748388
 40
0.8417754405748388
 40
0.8417754405748388
 10
120.1285752968
 20
105.1657458429
 30
0.0
 10
120.0968288677996
 20
105.2546899760436
 30
0.0
 10
120.044849847336
 20
105.4341004641267
 30
0.0
 10
119.9993348616046
 20
105.71154293723
 30
0.0
 10
119.9903859334714
 20
105.8979625919946
 30
0.0
 10
119.9911092358
 20
105.9923190433
 30
0.0
 11
120.1285752968
 21
105.1657458429
 31
0.0
 11
120.0497093425
 21
105.4378675297
 31
0.0
 11
120.0049174462
 21
105.7095783477
 31
0.0
 11
119.9911092358
 21
105.9923190433
 31
0.0
  0
SPLINE
  5
2D3
330
1B
100
AcDbEntity
  8
0
  6
Continuous
100
AcDbSpline
210
0.0
220
0.0
230
1.0
 70
     8
 71
     3
 72
    10
 73
     6
 74
     4
 42
0.0000000001
 43
0.0000000001
 44
0.0000000001
 12
-0.06514630837779112
 22
-0.9978757229759354
 32
0.0
 13
-0.8500572273239324
 23
-0.5266903362264666
 33
0.0
 40
0.0
 40
0.0
 40
0.0
 40
0.0
 40
0.2691348742296155
 40
0.6640278271355317
 40
1.187914520862661
 40
1.187914520862661
 40
1.187914520862661
 40
1.187914520862661
 10
120.128463294
 20
105.1659991898
 30
0.0
 10
120.1226189128294
 20
105.0764781374
 30
0.0
 10
120.0130585325813
 20
104.8690018756935
 30
0.0
 10
119.7271445857888
 20
104.5960889639322
 30
0.0
 10
119.4739189298672
 20
104.4204185984546
 30
0.0
 10
119.3254743731
 20
104.3284432455
 30
0.0
 11
120.128463294
 21
105.1659991898
 31
0.0
 11
120.025551176
 21
104.9173173117
 31
0.0
 11
119.7522638159
 21
104.6322656268
 31
0.0
 11
119.3254743731
 21
104.3284432455
 31
0.0
  0
SPLINE
  5
2D4
330
1B
100
AcDbEntity
  8
0
  6
Continuous
100
AcDbSpline
210
0.0
220
0.0
230
1.0
 70
     8
 71
     3
 72
    10
 73
     6
 74
     4
 42
0.0000000001
 43
0.0000000001
 44
0.0000000001
 12
-0.2722596400406627
 22
0.9622238244841628
 32
0.0
 13
-0.0001194975433895
 23
0.9999999928601686
 33
0.0
 40
0.0
 40
0.0
 40
0.0
 40
0.0
 40
0.5693587633432432
 40
1.118450659598222
 40
1.684098219000084
 40
1.684098219000084
 40
1.684098219000084
 40
1.684098219000084
 10
119.325474439
 20
104.3284431903
 30
0.0
 10
119.2738033016794
 20
104.5110600458892
 30
0.0
 10
119.1897375925834
 20
104.8749848742913
 30
0.0
 10
119.1144157769986
 20
105.4319484482882
 30
0.0
 10
119.0979528734646
 20
105.8037698581789
 30
0.0
 10
119.0979303423
 20
105.9923190433
 30
0.0
 11
119.325474439
 21
104.3284431903
 31
0.0
 11
119.1970361745
 21
104.8831259948
 31
0.0
 11
119.1232586384
 21
105.4272388376
 31
0.0
 11
119.0979303423
 21
105.9923190433
 31
0.0
  0
SPLINE
  5
2D5
330
1B
100
AcDbEntity
  8
0
  6
Continuous
100
AcDbSpline
210
0.0
220
0.0
230
1.0
 70
     8
 71
     3
 72
    10
 73
     6
 74
     4
 42
0.0000000001
 43
0.0000000001
 44
0.0000000001
 12
0.4145764026762409
 22
0.9100145088645716
 32
0.0
 13
0.0001681357652323
 23
0.9999999858651821
 33
0.0
 40
0.0
 40
0.0
 40
0.0
 40
0.0
 40
0.5497136052441621
 40
1.121442009072054
 40
1.704727721677947
 40
1.704727721677947
 40
1.704727721677947
 40
1.704727721677947
 10
118.9822281658
 20
102.6701307771
 30
0.0
 10
119.0581942621214
 20
102.8368798959308
 30
0.0
 10
119.1854709157346
 20
103.1901971283434
 30
0.0
 10
119.2998403034369
 20
103.748467489441
 30
0.0
 10
119.3254416827034
 20
104.1340146773796
 30
0.0
 10
119.3254743731
 20
104.3284432455
 30
0.0
 11
118.9822281658
 21
102.6701307771
 31
0.0
 11
119.1704682418
 21
103.186609936
 31
0.0
 11
119.2863512363
 21
103.7464710789
 31
0.0
 11
119.3254743731
 21
104.3284432455
 31
0.0
  0
SPLINE
  5
2D6
330
1B
100
AcDbEntity
  8
0
  6
Continuous
100
AcDbSpline
210
0.0
220
0.0
230
1.0
 70
     8
 71
     3
 72
     9
 73
     5
 74
     3
 42
0.0000000001
 43
0.0000000001
 44
0.0000000001
 12
-0.6827314942556085
 22
0.7306693552842517
 32
0.0
 13
-0.528403690194502
 23
0.8489932509677759
 33
0.0
 40
0.0
 40
0.0
 40
0.0
 40
0.0
 40
0.3676809823669599
 40
0.7252083625516639
 40
0.7252083625516639
 40
0.7252083625516639
 40
0.7252083625516639
 10
120.5683846016
 20
104.5902088719
 30
0.0
 10
120.4847088060998
 20
104.6797599473455
 30
0.0
 10
120.3286483147478
 20
104.864996380286
 30
0.0
 10
120.1915482258117
 20
105.064566398629
 30
0.0
 10
120.1285752968
 20
105.1657458429
 30
0.0
 11
120.5683846016
 21
104.5902088719
 31
0.0
 11
120.331337082
 21
104.871274306
 31
0.0
 11
120.1285752968
 21
105.1657458429
 31
0.0
  0
SPLINE
  5
2D7
330
1B
100
AcDbEntity
  8
0
  6
Continuous
100
AcDbSpline
210
0.0
220
0.0
230
1.0
 70
     8
 71
     3
 72
    12
 73
     8
 74
     6
 42
0.0000000001
 43
0.0000000001
 44
0.0000000001
 12
0.3971422615984487
 22
-0.9177570615650251
 32
0.0
 13
-0.6751468006625923
 23
-0.7376833992676437
 33
0.0
 40
0.0
 40
0.0
 40
0.0
 40
0.0
 40
0.4674492993981962
 40
0.9776574233093582
 40
1.540441796838334
 40
2.153834418981262
 40
2.807096225470358
 40
2.807096225470358
 40
2.807096225470358
 40
2.807096225470358
 10
120.5683891388
 20
104.5902116125
 30
0.0
 10
120.6302704294485
 20
104.4472099806846
 30
0.0
 10
120.7072044444366
 20
104.1237713607245
 30
0.0
 10
120.6753226331611
 20
103.6056545180448
 30
0.0
 10
120.5082137292227
 20
103.0642724860716
 30
0.0
 10
120.2162479107186
 20
102.525251674703
 30
0.0
 10
119.9541256466821
 20
102.1915267109409
 30
0.0
 10
119.8071097738
 20
102.0308932476
 30
0.0
 11
120.5683891388
 21
104.5902116125
 31
0.0
 11
120.6816260299
 21
104.136685148
 31
0.0
 11
120.657391488
 21
103.6270529113
 31
0.0
 11
120.4969369003
 21
103.0876267566
 31
0.0
 11
120.2085465191
 21
102.5462567381
 31
0.0
 11
119.8071097738
 21
102.0308932476
 31
0.0
  0
SPLINE
  5
2D8
330
1B
100
AcDbEntity
  8
0
  6
Continuous
100
AcDbSpline
210
0.0
220
0.0
230
1.0
 70
     8
 71
     3
 72
     9
 73
     5
 74
     3
 42
0.0000000001
 43
0.0000000001
 44
0.0000000001
 12
-0.8313787232086518
 22
0.5557062340805185
 32
0.0
 13
-0.7511612728314868
 23
0.6601187334095138
 33
0.0
 40
0.0
 40
0.0
 40
0.0
 40
0.0
 40
0.5295083537589778
 40
1.044101626549277
 40
1.044101626549277
 40
1.044101626549277
 40
1.044101626549277
 10
119.8071093651
 20
102.0308934806
 30
0.0
 10
119.6603687054079
 20
102.1289771783272
 30
0.0
 10
119.3782214183326
 20
102.3333931706909
 30
0.0
 10
119.1111576869932
 20
102.5568999086149
 30
0.0
 10
118.9823101744
 20
102.6701307951
 30
0.0
 11
119.8071093651
 21
102.0308934806
 31
0.0
 11
119.3780703136
 21
102.3412232874
 31
0.0
 11
118.9823101744
 21
102.6701307951
 31
0.0
  0
SPLINE
  5
2D9
330
1B
100
AcDbEntity
  8
0
  6
Continuous
100
AcDbSpline
210
0.0
220
0.0
230
1.0
 70
     8
 71
     3
 72
    12
 73
     8
 74
     6
 42
0.0000000001
 43
0.0000000001
 44
0.0000000001
 12
0.1936514257471735
 22
-0.9810703977320318
 32
0.0
 13
-0.8002227647673148
 23
-0.5997028653826451
 33
0.0
 40
0.0
 40
0.0
 40
0.0
 40
0.0
 40
0.5200802632624008
 40
1.065306089453326
 40
1.641971964795631
 40
2.250552425297758
 40
2.884857151732387
 40
2.884857151732387
 40
2.884857151732387
 40
2.884857151732387
 10
120.128463294
 20
105.1659991898
 30
0.0
 10
120.1620347221612
 20
104.9959207395562
 30
0.0
 10
120.1825666559439
 20
104.6363215782613
 30
0.0
 10
120.0697931543232
 20
104.0953315123997
 30
0.0
 10
119.8237750001322
 20
103.5682934193503
 30
0.0
 10
119.4571565486179
 20
103.0809211085811
 30
0.0
 10
119.1514231930975
 20
102.7969288977562
 30
0.0
 10
118.9822281658
 20
102.6701307771
 30
0.0
 11
120.128463294
 21
105.1659991898
 31
0.0
 11
120.1597500527
 21
104.646860847
 31
0.0
 11
120.0524805667
 21
104.1122914325
 31
0.0
 11
119.811668827
 21
103.5883131526
 31
0.0
 11
119.4490795127
 21
103.0995400293
 31
0.0
 11
118.9822281658
 21
102.6701307771
 31
0.0
  0
SPLINE
  5
2DA
330
1B
100
AcDbEntity
  8
0
  6
Continuous
100
AcDbSpline
210
0.0
220
0.0
230
1.0
 70
     8
 71
     3
 72
    12
 73
     8
 74
     6
 42
0.0000000001
 43
0.0000000001
 44
0.0000000001
 12
-0.936428852375477
 22
-0.3508575272653375
 32
0.0
 13
-0.6032869364620157
 23
0.7975242142369571
 33
0.0
 40
0.0
 40
0.0
 40
0.0
 40
0.0
 40
0.6066182345461254
 40
1.178034508441209
 40
1.732997612463988
 40
2.278460483109607
 40
2.805894926217158
 40
2.805894926217158
 40
2.805894926217158
 40
2.805894926217158
 10
123.1178234693
 20
103.9854293805
 30
0.0
 10
122.9284718635647
 20
103.914483855911
 30
0.0
 10
122.5457357461162
 20
103.8114201042294
 30
0.0
 10
121.962284805436
 20
103.7976528885967
 30
0.0
 10
121.4141399687606
 20
103.9303836649387
 30
0.0
 10
120.9336896522799
 20
104.1956592003436
 30
0.0
 10
120.674445500989
 20
104.4500000145331
 30
0.0
 10
120.5683807312
 20
104.5902139278
 30
0.0
 11
123.1178234693
 21
103.9854293805
 31
0.0
 11
122.5306198127
 21
103.833187638
 31
0.0
 11
121.9592972506
 21
103.8228392996
 31
0.0
 11
121.4201845509
 21
103.9545265953
 31
0.0
 11
120.9432084083
 21
104.2191461385
 31
0.0
 11
120.5683807312
 21
104.5902139278
 31
0.0
  0
SPLINE
  5
2DB
330
1B
100
AcDbEntity
  8
0
  6
Continuous
100
AcDbSpline
210
0.0
220
0.0
230
1.0
 70
     8
 71
     3
 72
    11
 73
     7
 74
     5
 42
0.0000000001
 43
0.0000000001
 44
0.0000000001
 12
0.6086870371425938
 22
-0.7934104176367808
 32
0.0
 13
0.2613737154766247
 23
-0.965237681018486
 33
0.0
 40
0.0
 40
0.0
 40
0.0
 40
0.0
 40
0.6348895149216192
 40
1.346043460597049
 40
2.095236628197344
 40
2.840865889829765
 40
2.840865889829765
 40
2.840865889829765
 40
2.840865889829765
 10
123.1178234855
 20
103.9854668475
 30
0.0
 10
123.2466398247502
 20
103.8175575291043
 30
0.0
 10
123.4936246428068
 20
103.4414246171446
 30
0.0
 10
123.8165967570393
 20
102.8212138454657
 30
0.0
 10
124.0986613408449
 20
102.1412113808179
 30
0.0
 10
124.2509449503397
 20
101.6660178340325
 30
0.0
 10
124.3159075805
 20
101.4261146809
 30
0.0
 11
123.1178234855
 21
103.9854668475
 31
0.0
 11
123.4708437218
 21
103.4577724199
 31
0.0
 11
123.8016312983
 21
102.8282332919
 31
0.0
 11
124.0893581406
 21
102.1364936974
 31
0.0
 11
124.3159075805
 21
101.4261146809
 31
0.0
  0
SPLINE
  5
2DC
330
1B
100
AcDbEntity
  8
0
  6
Continuous
100
AcDbSpline
210
0.0
220
0.0
230
1.0
 70
     8
 71
     3
 72
    12
 73
     8
 74
     6
 42
0.0000000001
 43
0.0000000001
 44
0.0000000001
 12
-0.9772137496022219
 22
-0.2122575972453428
 32
0.0
 13
-0.8314693286484826
 23
0.5555706575376727
 33
0.0
 40
0.0
 40
0.0
 40
0.0
 40
0.0
 40
1.025033744865327
 40
2.019580930932864
 40
2.973185073156387
 40
3.864713671567732
 40
4.661310499383516
 40
4.661310499383516
 40
4.661310499383516
 40
4.661310499383516
 10
124.3159095805
 20
101.4261139891
 30
0.0
 10
123.9820172240705
 20
101.3535902558398
 30
0.0
 10
123.3142315583817
 20
101.2517291587992
 30
0.0
 10
122.320028917986
 20
101.2384882149975
 30
0.0
 10
121.3781914977328
 20
101.3662317705314
 30
0.0
 10
120.5321631904873
 20
101.6239498858467
 30
0.0
 10
120.0278913083092
 20
101.8833715394593
 30
0.0
 10
119.8071093651
 20
102.0308934806
 30
0.0
 11
124.3159095805
 21
101.4261139891
 31
0.0
 11
123.3022082783
 21
101.274114489
 31
0.0
 11
122.3077187324
 21
101.2634070892
 31
0.0
 11
121.3632285991
 21
101.3949336955
 31
0.0
 11
120.5119017311
 21
101.6596331583
 31
0.0
 11
119.8071093651
 21
102.0308934806
 31
0.0
  0
SPLINE
  5
2DD
330
1B
100
AcDbEntity
  8
0
  6
Continuous
100
AcDbSpline
210
0.0
220
0.0
230
1.0
 70
     8
 71
     3
 72
    13
 73
     9
 74
     7
 42
0.0000000001
 43
0.0000000001
 44
0.0000000001
 12
-0.6401926690620206
 22
0.7682143883573428
 32
0.0
 13
-0.6401840908568404
 23
0.7682215369369703
 33
0.0
 40
0.0
 40
0.0
 40
0.0
 40
0.0
 40
0.1821098507815669
 40
0.7229746558125682
 40
1.642833742772913
 40
2.996723104424211
 40
4.866562801990799
 40
6.440967615824516
 40
6.440967615824516
 40
6.440967615824516
 40
6.440967615824516
 10
152.3688299473
 20
95.3814556606
 30
0.0
 10
152.3299681501552
 20
95.42808879647734
 30
0.0
 10
152.1756876709205
 20
95.6132224288436
 30
0.0
 10
151.8251159134712
 20
96.03390939247916
 30
0.0
 10
151.2244931620673
 20
96.75465889141904
 30
0.0
 10
150.3402778750129
 20
97.8157271508488
 30
0.0
 10
149.3163788879197
 20
99.04440152422336
 30
0.0
 10
148.5813886686283
 20
99.92637687361857
 30
0.0
 10
148.2454190305
 20
100.3295407689
 30
0.0
 11
152.3688299473
 21
95.3814556606
 31
0.0
 11
152.2522449343
 21
95.5213553836
 31
0.0
 11
151.9059912511
 21
95.9368588423
 31
0.0
 11
151.3171130941
 21
96.64351523409999
 31
0.0
 11
150.4503774603
 21
97.68360453059999
 31
0.0
 11
149.2533330736
 21
99.120053357
 31
0.0
 11
148.2454190305
 21
100.3295407689
 31
0.0
  0
SPLINE
  5
2DE
330
1B
100
AcDbEntity
  8
0
  6
Continuous
100
AcDbSpline
210
0.0
220
0.0
230
1.0
 70
     8
 71
     3
 72
     8
 73
     4
 74
     2
 42
0.0000000001
 43
0.0000000001
 44
0.0000000001
 12
-0.6401840910895977
 22
0.7682215367430061
 32
0.0
 13
-0.6401839062619188
 23
0.7682216907659083
 33
0.0
 40
0.0
 40
0.0
 40
0.0
 40
0.0
 40
0.0247993622018838
 40
0.0247993622018838
 40
0.0247993622018838
 40
0.0247993622018838
 10
148.2454190305
 20
100.3295407689
 30
0.0
 10
148.2401269781164
 20
100.335891236947
 30
0.0
 10
148.2348349265557
 20
100.3422417056798
 30
0.0
 10
148.2295428757
 20
100.348592175
 30
0.0
 11
148.2454190305
 21
100.3295407689
 31
0.0
 11
148.2295428757
 21
100.348592175
 31
0.0
  0
SPLINE
  5
2DF
330
1B
100
AcDbEntity
  8
0
  6
Continuous
100
AcDbSpline
210
0.0
220
0.0
230
1.0
 70
     8
 71
     3
 72
     8
 73
     4
 74
     2
 42
0.0000000001
 43
0.0000000001
 44
0.0000000001
 12
-0.6401839049346033
 22
0.7682216918720032
 32
0.0
 13
-0.6401750354354916
 23
0.7682290830248274
 33
0.0
 40
0.0
 40
0.0
 40
0.0
 40
0.0
 40
0.8633228154559707
 40
0.8633228154559707
 40
0.8633228154559707
 40
0.8633228154559707
 10
148.2295428757
 20
100.348592175
 30
0.0
 10
148.0453144186274
 20
100.5696666129738
 30
0.0
 10
147.8610869024589
 20
100.7907418350426
 30
0.0
 10
147.6768609978
 20
101.0118184
 30
0.0
 11
148.2295428757
 21
100.348592175
 31
0.0
 11
147.6768609978
 21
101.0118184
 31
0.0
  0
SPLINE
  5
2E0
330
1B
100
AcDbEntity
  8
0
  6
Continuous
100
AcDbSpline
210
0.0
220
0.0
230
1.0
 70
     8
 71
     3
 72
    13
 73
     9
 74
     7
 42
0.0000000001
 43
0.0000000001
 44
0.0000000001
 12
-0.7682146509630299
 22
0.6401923539419619
 32
0.0
 13
-0.7682222465791552
 23
0.6401832392845629
 33
0.0
 40
0.0
 40
0.0
 40
0.0
 40
0.0
 40
0.1821100500440359
 40
0.7229762701003444
 40
1.642837544924644
 40
2.996725461228905
 40
4.866561892074789
 40
6.440966900903978
 40
6.440966900903978
 40
6.440966900903978
 40
6.440966900903978
 10
156.3688299473
 20
99.38145566060001
 30
0.0
 10
156.3221967444562
 20
99.42031748113807
 30
0.0
 10
156.1370625459341
 20
99.57459812152231
 30
0.0
 10
155.716373623502
 20
99.92516950813158
 30
0.0
 10
154.995621402755
 20
100.5257901167405
 30
0.0
 10
153.9345549762333
 20
101.4100062889983
 30
0.0
 10
152.7058859247027
 20
102.4339093102969
 30
0.0
 10
151.8239097504361
 20
103.1688969403673
 30
0.0
 10
151.4207454328
 20
103.5048661732
 30
0.0
 11
156.3688299473
 21
99.38145566060001
 31
0.0
 11
156.2289299605
 21
99.49804066830001
 31
0.0
 11
155.8134245646
 21
99.8442942372
 31
0.0
 11
155.1067648576
 21
100.4331718335
 31
0.0
 11
154.0666773131
 21
101.299907312
 31
0.0
 11
152.6302338787
 21
102.4969530663
 31
0.0
 11
151.4207454328
 21
103.5048661732
 31
0.0
  0
SPLINE
  5
2E1
330
1B
100
AcDbEntity
  8
0
  6
Continuous
100
AcDbSpline
210
0.0
220
0.0
230
1.0
 70
     8
 71
     3
 72
     8
 73
     4
 74
     2
 42
0.0000000001
 43
0.0000000001
 44
0.0000000001
 12
-0.7682222460107689
 22
0.6401832399666283
 32
0.0
 13
-0.7682223798674803
 23
0.6401830793380476
 33
0.0
 40
0.0
 40
0.0
 40
0.0
 40
0.0
 40
0.0248001439823014
 40
0.0248001439823014
 40
0.0248001439823014
 40
0.0248001439823014
 10
151.4207454328
 20
103.5048661732
 30
0.0
 10
151.4143947586962
 20
103.5101583853754
 30
0.0
 10
151.4080440840104
 20
103.5154505968525
 30
0.0
 10
151.4016934088
 20
103.5207428077
 30
0.0
 11
151.4207454328
 21
103.5048661732
 31
0.0
 11
151.4016934088
 21
103.5207428077
 31
0.0
  0
SPLINE
  5
2E2
330
1B
100
AcDbEntity
  8
0
  6
Continuous
100
AcDbSpline
210
0.0
220
0.0
230
1.0
 70
     8
 71
     3
 72
     8
 73
     4
 74
     2
 42
0.0000000001
 43
0.0000000001
 44
0.0000000001
 12
-0.7682223790463958
 22
0.6401830803233525
 32
0.0
 13
-0.7682282059079819
 23
0.6401760880003278
 33
0.0
 40
0.0
 40
0.0
 40
0.0
 40
0.0
 40
0.863322748608189
 40
0.863322748608189
 40
0.863322748608189
 40
0.863322748608189
 10
151.4016934088
 20
103.5207428077
 30
0.0
 10
151.1806187901931
 20
103.7049710132057
 30
0.0
 10
150.9595435033276
 20
103.8891984168048
 30
0.0
 10
150.7384672079
 20
104.0734246101
 30
0.0
 11
151.4016934088
 21
103.5207428077
 31
0.0
 11
150.7384672079
 21
104.0734246101
 31
0.0
  0
SPLINE
  5
2E3
330
1B
100
AcDbEntity
  8
0
  6
Continuous
100
AcDbSpline
210
0.0
220
0.0
230
1.0
 70
     8
 71
     3
 72
     9
 73
     5
 74
     3
 42
0.0000000001
 43
0.0000000001
 44
0.0000000001
 12
-0.8894152538706184
 22
0.4571001052092021
 32
0.0
 13
-0.8855273106871622
 23
0.4645873244366039
 33
0.0
 40
0.0
 40
0.0
 40
0.0
 40
0.0
 40
0.1747366156747686
 40
0.3491312031812769
 40
0.3491312031812769
 40
0.3491312031812769
 40
0.3491312031812769
 10
147.6768609978
 20
101.0118184
 30
0.0
 10
147.6250565273364
 20
101.0384424418029
 30
0.0
 10
147.5216386278392
 20
101.0918136704792
 30
0.0
 10
147.418519253691
 20
101.145759183498
 30
0.0
 10
147.367042197
 20
101.1727663551
 30
0.0
 11
147.6768609978
 21
101.0118184
 31
0.0
 11
147.5216120916
 21
101.0920098084
 31
0.0
 11
147.367042197
 21
101.1727663551
 31
0.0
  0
SPLINE
  5
2E4
330
1B
100
AcDbEntity
  8
0
  6
Continuous
100
AcDbSpline
210
0.0
220
0.0
230
1.0
 70
     8
 71
     3
 72
    12
 73
     8
 74
     6
 42
0.0000000001
 43
0.0000000001
 44
0.0000000001
 12
-0.9238960467643658
 22
-0.3826435609979305
 32
0.0
 13
-0.3826482987969898
 23
-0.9238940845290491
 33
0.0
 40
0.0
 40
0.0
 40
0.0
 40
0.0
 40
0.8592774051512772
 40
1.758453082084111
 40
2.671482763928666
 40
3.570656105431241
 40
4.429929327948345
 40
4.429929327948345
 40
4.429929327948345
 40
4.429929327948345
 10
150.7384672079
 20
104.0734224357
 30
0.0
 10
150.4738395420023
 20
103.9638234469693
 30
0.0
 10
149.9519919946381
 20
103.6898941735006
 30
0.0
 10
149.2347195335424
 20
103.1569805726185
 30
0.0
 10
148.5932868910418
 20
102.5155540297941
 30
0.0
 10
148.0603681845079
 20
101.7982880197049
 30
0.0
 10
147.786436252366
 20
101.2764442150593
 30
0.0
 10
147.6768364401
 20
101.0118183993
 30
0.0
 11
150.7384672079
 21
104.0734224357
 31
0.0
 11
149.9757039134
 21
103.6777586699
 31
0.0
 11
149.2526810783
 21
103.1431982169
 31
0.0
 11
148.6070686169
 21
102.4975917194
 31
0.0
 11
148.0725033359
 21
101.7745753583
 31
0.0
 11
147.6768364401
 21
101.0118183993
 31
0.0
  0
SPLINE
  5
2E5
330
1B
100
AcDbEntity
  8
0
  6
Continuous
100
AcDbSpline
210
0.0
220
0.0
230
1.0
 70
     8
 71
     3
 72
     9
 73
     5
 74
     3
 42
0.0000000001
 43
0.0000000001
 44
0.0000000001
 12
-0.457362118973167
 22
0.8892805474811505
 32
0.0
 13
-0.464451452727441
 23
0.8855985817848682
 33
0.0
 40
0.0
 40
0.0
 40
0.0
 40
0.0
 40
0.1747596755741424
 40
0.3496533928925197
 40
0.3496533928925197
 40
0.3496533928925197
 40
0.3496533928925197
 10
150.7384672079
 20
104.0734246101
 30
0.0
 10
150.7118243893895
 20
104.1252280700907
 30
0.0
 10
150.6583029071567
 20
104.2287639927259
 30
0.0
 10
150.6044081578272
 20
104.3321061668266
 30
0.0
 10
150.5773316108
 20
104.3837347095
 30
0.0
 11
150.7384672079
 21
104.0734246101
 31
0.0
 11
150.6582301797
 21
104.2286759016
 31
0.0
 11
150.5773316108
 21
104.3837347095
 31
0.0
  0
SPLINE
  5
2E6
330
1B
100
AcDbEntity
  8
0
  6
Continuous
100
AcDbSpline
210
0.0
220
0.0
230
1.0
 70
     8
 71
     3
 72
    11
 73
     7
 74
     5
 42
0.0000000001
 43
0.0000000001
 44
0.0000000001
 12
-0.1870004990512806
 22
0.982359818678763
 32
0.0
 13
0.6514380668707398
 23
0.7587018156243688
 33
0.0
 40
0.0
 40
0.0
 40
0.0
 40
0.0
 40
0.7081376844696211
 40
1.409684013994322
 40
2.092904457744554
 40
2.755474627190269
 40
2.755474627190269
 40
2.755474627190269
 40
2.755474627190269
 10
147.3669177952
 20
101.172947388
 30
0.0
 10
147.3227770950691
 20
101.4048293904384
 30
0.0
 10
147.2778206990946
 20
101.8762018488737
 30
0.0
 10
147.356658301424
 20
102.5744412387638
 30
0.0
 10
147.5825710812295
 20
103.2255399729256
 30
0.0
 10
147.8372511115167
 20
103.6015004485543
 30
0.0
 10
147.9811255883
 20
103.7690648454
 30
0.0
 11
147.3669177952
 21
101.172947388
 31
0.0
 11
147.3023547202
 21
101.8781357242
 31
0.0
 11
147.3831786749
 21
102.5750107064
 31
0.0
 11
147.6122153967
 21
103.218697241
 31
0.0
 11
147.9811255883
 21
103.7690648454
 31
0.0
  0
SPLINE
  5
2E7
330
1B
100
AcDbEntity
  8
0
  6
Continuous
100
AcDbSpline
210
0.0
220
0.0
230
1.0
 70
     8
 71
     3
 72
    12
 73
     8
 74
     6
 42
0.0000000001
 43
0.0000000001
 44
0.0000000001
 12
-0.9230439124895282
 22
-0.3846946004508308
 32
0.0
 13
-0.3847401480746902
 23
-0.9230249284063056
 33
0.0
 40
0.0
 40
0.0
 40
0.0
 40
0.0
 40
0.8940065591603125
 40
1.839435473353371
 40
2.802755077786704
 40
3.74820572817936
 40
4.642242074642292
 40
4.642242074642292
 40
4.642242074642292
 40
4.642242074642292
 10
150.5774790675
 20
104.3835958316
 30
0.0
 10
150.3024099634471
 20
104.2689559995745
 30
0.0
 10
149.7578364661387
 20
103.9798181750717
 30
0.0
 10
149.007258632895
 20
103.4183547668156
 30
0.0
 10
148.3321635186591
 20
102.7432194178808
 30
0.0
 10
147.7707232212031
 20
101.9926043649336
 30
0.0
 10
147.4815750206408
 20
101.4480199995622
 30
0.0
 10
147.3669177952
 20
101.172947388
 30
0.0
 11
150.5774790675
 21
104.3835958316
 31
0.0
 11
149.7853371542
 21
103.9691577578
 31
0.0
 11
149.0266944088
 21
103.4049795797
 31
0.0
 11
148.3455428444
 21
102.7237914951
 31
0.0
 11
147.7813798434
 21
101.9651103759
 31
0.0
 11
147.3669177952
 21
101.172947388
 31
0.0
  0
SPLINE
  5
2E8
330
1B
100
AcDbEntity
  8
0
  6
Continuous
100
AcDbSpline
210
0.0
220
0.0
230
1.0
 70
     8
 71
     3
 72
    11
 73
     7
 74
     5
 42
0.0000000001
 43
0.0000000001
 44
0.0000000001
 12
-0.9823295451117579
 22
0.1871594635612291
 32
0.0
 13
-0.7588293226895669
 23
-0.6512895354805673
 33
0.0
 40
0.0
 40
0.0
 40
0.0
 40
0.0
 40
0.705363998838245
 40
1.408344429798111
 40
2.093145013732949
 40
2.756161119447727
 40
2.756161119447727
 40
2.756161119447727
 40
2.756161119447727
 10
150.5774790675
 20
104.3835958316
 30
0.0
 10
150.346512435461
 20
104.427601014146
 30
0.0
 10
149.8757302575819
 20
104.4744590154808
 30
0.0
 10
149.177463340328
 20
104.394128253849
 30
0.0
 10
148.5250694862519
 20
104.1685720174024
 30
0.0
 10
148.1488309424439
 20
103.9130033292357
 30
0.0
 10
147.9811255883
 20
103.7690648454
 30
0.0
 11
150.5774790675
 21
104.3835958316
 31
0.0
 11
149.8751749644
 21
104.4492259895
 31
0.0
 11
149.1769108733
 21
104.3679317991
 31
0.0
 11
148.5316986602
 21
104.1384692971
 31
0.0
 11
147.9811255883
 21
103.7690648454
 31
0.0
  0
ENDSEC
  0
SECTION
  2
OBJECTS
  0
DICTIONARY
  5
2E9
330
0
100
AcDbDictionary
281
     1
  3
ACAD_COLOR
350
2F4
  3
ACAD_GROUP
350
2EA
  3
ACAD_LAYOUT
350
2F5
  3
ACAD_MATERIAL
350
2F3
  3
ACAD_MLINESTYLE
350
2EB
  3
ACAD_PLOTSETTINGS
350
2F6
  3
ACAD_PLOTSTYLENAME
350
2F1
  3
ACDBHEADERROUNDTRIPXREC
350
304
  3
AcDbVariableDictionary
350
2FC
  0
DICTIONARY
  5
2F4
102
{ACAD_REACTORS
330
2E9
102
}
330
2E9
100
AcDbDictionary
281
     1
  0
DICTIONARY
  5
2EA
102
{ACAD_REACTORS
330
2E9
102
}
330
2E9
100
AcDbDictionary
281
     1
  0
DICTIONARY
  5
2F5
102
{ACAD_REACTORS
330
2E9
102
}
330
2E9
100
AcDbDictionary
281
     1
  3
Layout1
350
2F8
  3
Model
350
2F7
  0
DICTIONARY
  5
2F3
102
{ACAD_REACTORS
330
2E9
102
}
330
2E9
100
AcDbDictionary
281
     1
  0
DICTIONARY
  5
2EB
102
{ACAD_REACTORS
330
2E9
102
}
330
2E9
100
AcDbDictionary
281
     1
  3
STANDARD
350
2EC
  0
DICTIONARY
  5
2F6
102
{ACAD_REACTORS
330
2E9
102
}
330
2E9
100
AcDbDictionary
281
     1
  0
ACDBDICTIONARYWDFLT
  5
2F1
102
{ACAD_REACTORS
330
2E9
102
}
330
2E9
100
AcDbDictionary
281
     1
  3
Normal
350
2F2
100
AcDbDictionaryWithDefault
340
2F2
  0
DICTIONARY
  5
304
102
{ACAD_REACTORS
330
2E9
102
}
330
2E9
100
AcDbDictionary
281
     1
  3
COLORDICT
350
305
  3
MATERIALDICT
350
306
  0
DICTIONARY
  5
2FC
102
{ACAD_REACTORS
330
2E9
102
}
330
2E9
100
AcDbDictionary
281
     1
  0
LAYOUT
  5
2F8
102
{ACAD_REACTORS
330
2F5
102
}
330
2F5
100
AcDbPlotSettings
  1

  2
Microsoft Office Document Image Writer
  4

  6

 40
0.0
 41
0.0
 42
0.0
 43
0.0
 44
0.0
 45
0.0
 46
0.0
 47
0.0
 48
0.0
 49
0.0
140
0.0
141
0.0
142
1.0
143
1.0
 70
   688
 72
     0
 73
     0
 74
     5
  7

 75
    16
147
1.0
148
0.0
149
0.0
100
AcDbLayout
  1
Layout1
 70
     0
 71
     1
 10
0.0
 20
0.0
 11
12.0
 21
9.0
 12
0.0
 22
0.0
 32
0.0
 14
1.000000000000000E+20
 24
1.000000000000000E+20
 34
1.000000000000000E+20
 15
-1.000000000000000E+20
 25
-1.000000000000000E+20
 35
-1.000000000000000E+20
146
0.0
 13
0.0
 23
0.0
 33
0.0
 16
1.0
 26
0.0
 36
0.0
 17
0.0
 27
1.0
 37
0.0
 76
     0
330
1C
  0
LAYOUT
  5
2F7
102
{ACAD_REACTORS
330
2F5
102
}
330
2F5
100
AcDbPlotSettings
  1

  2
Microsoft Office Document Image Writer
  4

  6

 40
0.0
 41
0.0
 42
0.0
 43
0.0
 44
0.0
 45
0.0
 46
0.0
 47
0.0
 48
0.0
 49
0.0
140
0.0
141
0.0
142
1.0
143
1.0
 70
  1712
 72
     0
 73
     0
 74
     0
  7

 75
     0
147
1.0
148
0.0
149
0.0
100
AcDbLayout
  1
Model
 70
     1
 71
     0
 10
0.0
 20
0.0
 11
12.0
 21
9.0
 12
0.0
 22
0.0
 32
0.0
 14
0.0
 24
0.0
 34
0.0
 15
0.0
 25
0.0
 35
0.0
146
0.0
 13
0.0
 23
0.0
 33
0.0
 16
1.0
 26
0.0
 36
0.0
 17
0.0
 27
1.0
 37
0.0
 76
     0
330
1B
  0
MLINESTYLE
  5
2EC
102
{ACAD_REACTORS
330
2EB
102
}
330
2EB
100
AcDbMlineStyle
  2
STANDARD
 70
     0
  3

 62
   256
 51
90.00000000000019
 52
90.00000000000019
 71
     2
 49
0.5
 62
   256
  6
BYLAYER
 49
-0.5
 62
   256
  6
BYLAYER
  0
ACDBPLACEHOLDER
  5
2F2
102
{ACAD_REACTORS
330
2F1
102
}
330
2F1
  0
XRECORD
  5
305
102
{ACAD_REACTORS
330
304
102
}
330
304
100
AcDbXrecord
280
     1
340
2F4
  0
XRECORD
  5
306
102
{ACAD_REACTORS
330
304
102
}
330
304
100
AcDbXrecord
280
     1
340
2F3
  0
ENDSEC
  0
EOF
