  0
SECTION
  2
HEADER
  9
$ACADVER
  1
AC1015
  9
$ACADMAINTVER
 70
     6
  9
$DWGCODEPAGE
  3
ANSI_1252
  9
$INSBASE
 10
0.0
 20
0.0
 30
0.0
  9
$EXTMIN
 10
80.46286980856489
 20
-370.773169833776
 30
-18.8
  9
$EXTMAX
 10
1760.060663696097
 20
334.946701594559
 30
1.038894055499999
  9
$LIMMIN
 10
0.0
 20
0.0
  9
$LIMMAX
 10
420.0
 20
297.0
  9
$ORTHOMODE
 70
     0
  9
$REGENMODE
 70
     1
  9
$FILLMODE
 70
     1
  9
$QTEXTMODE
 70
     0
  9
$MIRRTEXT
 70
     1
  9
$LTSCALE
 40
23.1
  9
$ATTMODE
 70
     1
  9
$TEXTSIZE
 40
35.06651165617814
  9
$TRACEWID
 40
0.05
  9
$TEXTSTYLE
  7
STANDARD
  9
$CLAYER
  8
0
  9
$CELTYPE
  6
BYLAYER
  9
$CECOLOR
 62
   256
  9
$CELTSCALE
 40
1.0
  9
$DISPSILH
 70
     0
  9
$DIMSCALE
 40
1.0
  9
$DIMASZ
 40
0.18
  9
$DIMEXO
 40
0.0625
  9
$DIMDLI
 40
0.38
  9
$DIMRND
 40
0.0
  9
$DIMDLE
 40
0.0
  9
$DIMEXE
 40
0.18
  9
$DIMTP
 40
0.003
  9
$DIMTM
 40
0.003
  9
$DIMTXT
 40
1.5
  9
$DIMCEN
 40
0.09
  9
$DIMTSZ
 40
0.0
  9
$DIMTOL
 70
     1
  9
$DIMLIM
 70
     0
  9
$DIMTIH
 70
     1
  9
$DIMTOH
 70
     1
  9
$DIMSE1
 70
     0
  9
$DIMSE2
 70
     0
  9
$DIMTAD
 70
     0
  9
$DIMZIN
 70
     0
  9
$DIMBLK
  1

  9
$DIMASO
 70
     1
  9
$DIMSHO
 70
     1
  9
$DIMPOST
  1

  9
$DIMAPOST
  1

  9
$DIMALT
 70
     0
  9
$DIMALTD
 70
     2
  9
$DIMALTF
 40
25.4
  9
$DIMLFAC
 40
1.0
  9
$DIMTOFL
 70
     0
  9
$DIMTVP
 40
0.0
  9
$DIMTIX
 70
     0
  9
$DIMSOXD
 70
     0
  9
$DIMSAH
 70
     0
  9
$DIMBLK1
  1

  9
$DIMBLK2
  1

  9
$DIMSTYLE
  2
STANDARD
  9
$DIMCLRD
 70
     0
  9
$DIMCLRE
 70
     0
  9
$DIMCLRT
 70
     0
  9
$DIMTFAC
 40
1.0
  9
$DIMGAP
 40
0.09
  9
$DIMJUST
 70
     0
  9
$DIMSD1
 70
     0
  9
$DIMSD2
 70
     0
  9
$DIMTOLJ
 70
     1
  9
$DIMTZIN
 70
     0
  9
$DIMALTZ
 70
     0
  9
$DIMALTTZ
 70
     0
  9
$DIMUPT
 70
     0
  9
$DIMDEC
 70
     4
  9
$DIMTDEC
 70
     4
  9
$DIMALTU
 70
     2
  9
$DIMALTTD
 70
     2
  9
$DIMTXSTY
  7
STANDARD
  9
$DIMAUNIT
 70
     0
  9
$DIMADEC
 70
     0
  9
$DIMALTRND
 40
0.0
  9
$DIMAZIN
 70
     0
  9
$DIMDSEP
 70
    46
  9
$DIMATFIT
 70
     0
  9
$DIMFRAC
 70
     0
  9
$DIMLDRBLK
  1

  9
$DIMLUNIT
 70
     2
  9
$DIMLWD
 70
    -2
  9
$DIMLWE
 70
    -2
  9
$DIMTMOVE
 70
     0
  9
$LUNITS
 70
     2
  9
$LUPREC
 70
     4
  9
$SKETCHINC
 40
0.1
  9
$FILLETRAD
 40
0.0
  9
$AUNITS
 70
     0
  9
$AUPREC
 70
     0
  9
$MENU
  1
acad
  9
$ELEVATION
 40
0.0
  9
$PELEVATION
 40
0.0
  9
$THICKNESS
 40
0.0
  9
$LIMCHECK
 70
     0
  9
$CHAMFERA
 40
0.0
  9
$CHAMFERB
 40
0.0
  9
$CHAMFERC
 40
0.0
  9
$CHAMFERD
 40
0.0
  9
$SKPOLY
 70
     0
  9
$TDCREATE
 40
2444972.041666667
  9
$TDUCREATE
 40
2444972.0
  9
$TDUPDATE
 40
2453410.424652512
  9
$TDUUPDATE
 40
2453410.382985845
  9
$TDINDWG
 40
2.3155140278
  9
$TDUSRTIMER
 40
2.3155140278
  9
$USRTIMER
 70
     1
  9
$ANGBASE
 50
0.0
  9
$ANGDIR
 70
     0
  9
$PDMODE
 70
     0
  9
$PDSIZE
 40
0.0
  9
$PLINEWID
 40
0.0
  9
$SPLFRAME
 70
     0
  9
$SPLINETYPE
 70
     6
  9
$SPLINESEGS
 70
     8
  9
$HANDSEED
  5
5E73
  9
$SURFTAB1
 70
     6
  9
$SURFTAB2
 70
     6
  9
$SURFTYPE
 70
     6
  9
$SURFU
 70
     6
  9
$SURFV
 70
     6
  9
$UCSBASE
  2

  9
$UCSNAME
  2

  9
$UCSORG
 10
0.0
 20
0.0
 30
0.0
  9
$UCSXDIR
 10
1.0
 20
0.0
 30
0.0
  9
$UCSYDIR
 10
0.0
 20
1.0
 30
0.0
  9
$UCSORTHOREF
  2

  9
$UCSORTHOVIEW
 70
     0
  9
$UCSORGTOP
 10
0.0
 20
0.0
 30
0.0
  9
$UCSORGBOTTOM
 10
0.0
 20
0.0
 30
0.0
  9
$UCSORGLEFT
 10
0.0
 20
0.0
 30
0.0
  9
$UCSORGRIGHT
 10
0.0
 20
0.0
 30
0.0
  9
$UCSORGFRONT
 10
0.0
 20
0.0
 30
0.0
  9
$UCSORGBACK
 10
0.0
 20
0.0
 30
0.0
  9
$PUCSBASE
  2

  9
$PUCSNAME
  2

  9
$PUCSORG
 10
0.0
 20
0.0
 30
0.0
  9
$PUCSXDIR
 10
1.0
 20
0.0
 30
0.0
  9
$PUCSYDIR
 10
0.0
 20
1.0
 30
0.0
  9
$PUCSORTHOREF
  2

  9
$PUCSORTHOVIEW
 70
     0
  9
$PUCSORGTOP
 10
0.0
 20
0.0
 30
0.0
  9
$PUCSORGBOTTOM
 10
0.0
 20
0.0
 30
0.0
  9
$PUCSORGLEFT
 10
0.0
 20
0.0
 30
0.0
  9
$PUCSORGRIGHT
 10
0.0
 20
0.0
 30
0.0
  9
$PUCSORGFRONT
 10
0.0
 20
0.0
 30
0.0
  9
$PUCSORGBACK
 10
0.0
 20
0.0
 30
0.0
  9
$USERI1
 70
     0
  9
$USERI2
 70
     0
  9
$USERI3
 70
     0
  9
$USERI4
 70
     0
  9
$USERI5
 70
     0
  9
$USERR1
 40
0.0
  9
$USERR2
 40
0.0
  9
$USERR3
 40
0.0
  9
$USERR4
 40
0.0
  9
$USERR5
 40
0.0
  9
$WORLDVIEW
 70
     1
  9
$SHADEDGE
 70
     3
  9
$SHADEDIF
 70
    70
  9
$TILEMODE
 70
     1
  9
$MAXACTVP
 70
    16
  9
$PINSBASE
 10
0.0
 20
0.0
 30
0.0
  9
$PLIMCHECK
 70
     0
  9
$PEXTMIN
 10
1.000000000000000E+20
 20
1.000000000000000E+20
 30
1.000000000000000E+20
  9
$PEXTMAX
 10
-1.000000000000000E+20
 20
-1.000000000000000E+20
 30
-1.000000000000000E+20
  9
$PLIMMIN
 10
0.0
 20
0.0
  9
$PLIMMAX
 10
12.0
 20
9.0
  9
$UNITMODE
 70
     0
  9
$VISRETAIN
 70
     0
  9
$PLINEGEN
 70
     1
  9
$PSLTSCALE
 70
     0
  9
$TREEDEPTH
 70
  3020
  9
$CMLSTYLE
  2
STANDARD
  9
$CMLJUST
 70
     0
  9
$CMLSCALE
 40
1.0
  9
$PROXYGRAPHICS
 70
     1
  9
$MEASUREMENT
 70
     0
  9
$CELWEIGHT
370
    -1
  9
$ENDCAPS
280
     0
  9
$JOINSTYLE
280
     0
  9
$LWDISPLAY
290
     0
  9
$INSUNITS
 70
     0
  9
$HYPERLINKBASE
  1

  9
$STYLESHEET
  1

  9
$XEDIT
290
     1
  9
$CEPSNTYPE
380
     0
  9
$PSTYLEMODE
290
     1
  9
$FINGERPRINTGUID
  2
{9C19D7CE-BE25-492F-B456-B99F77E59DF7}
  9
$VERSIONGUID
  2
{46CDA34E-0468-4C6D-81B3-095C8905D5CF}
  9
$EXTNAMES
290
     1
  9
$PSVPSCALE
 40
0.0
  9
$OLESTARTUP
290
     0
  0
ENDSEC
  0
SECTION
  2
CLASSES
  0
CLASS
  1
IMAGE
  2
AcDbRasterImage
  3
ISM
 90
      127
280
     0
281
     1
  0
CLASS
  1
DICTIONARYVAR
  2
AcDbDictionaryVar
  3
ObjectDBX Classes
 90
        0
280
     0
281
     0
  0
CLASS
  1
RASTERVARIABLES
  2
AcDbRasterVariables
  3
ISM
 90
        0
280
     0
281
     0
  0
CLASS
  1
IMAGEDEF
  2
AcDbRasterImageDef
  3
ISM
 90
        0
280
     0
281
     0
  0
CLASS
  1
IMAGEDEF_REACTOR
  2
AcDbRasterImageDefReactor
  3
ISM
 90
        1
280
     0
281
     0
  0
CLASS
  1
IDBUFFER
  2
AcDbIdBuffer
  3
ObjectDBX Classes
 90
        0
280
     0
281
     0
  0
CLASS
  1
SPATIAL_FILTER
  2
AcDbSpatialFilter
  3
ObjectDBX Classes
 90
        0
280
     0
281
     0
  0
CLASS
  1
SORTENTSTABLE
  2
AcDbSortentsTable
  3
ObjectDBX Classes
 90
        0
280
     0
281
     0
  0
CLASS
  1
LAYER_INDEX
  2
AcDbLayerIndex
  3
ObjectDBX Classes
 90
        0
280
     0
281
     0
  0
CLASS
  1
SPATIAL_INDEX
  2
AcDbSpatialIndex
  3
AutoCAD 2000
 90
        0
280
     0
281
     0
  0
CLASS
  1
OBJECT_PTR
  2
CAseDLPNTableRecord
  3
ASE-LPNTableRecord
 90
        1
280
     0
281
     0
  0
CLASS
  1
PLOTSETTINGS
  2
AcDbPlotSettings
  3
ObjectDBX Classes
 90
        0
280
     0
281
     0
  0
CLASS
  1
ACDBDICTIONARYWDFLT
  2
AcDbDictionaryWithDefault
  3
ObjectDBX Classes
 90
        0
280
     0
281
     0
  0
CLASS
  1
WIPEOUT
  2
AcDbWipeout
  3
WipeOut|AutoCAD Express Tool|expresstools@autodesk.com
 90
      127
280
     0
281
     1
  0
CLASS
  1
WIPEOUTVARIABLES
  2
AcDbWipeoutVariables
  3
WipeOut|AutoCAD Express Tool|expresstools@autodesk.com
 90
        0
280
     0
281
     0
  0
CLASS
  1
RTEXT
  2
RText
  3
RText|AutoCAD Express Tool|expresstools@autodesk.com
 90
        0
280
     0
281
     1
  0
CLASS
  1
ARCALIGNEDTEXT
  2
AcDbArcAlignedText
  3
ATEXT|AutoCAD Express Tool|expresstools@autodesk.com
 90
        0
280
     0
281
     1
  0
CLASS
  1
ACDBPLACEHOLDER
  2
AcDbPlaceHolder
  3
ObjectDBX Classes
 90
        0
280
     0
281
     0
  0
CLASS
  1
LAYOUT
  2
AcDbLayout
  3
ObjectDBX Classes
 90
        0
280
     0
281
     0
  0
ENDSEC
  0
SECTION
  2
TABLES
  0
TABLE
  2
VPORT
  5
6
330
0
100
AcDbSymbolTable
 70
     1
  0
VPORT
  5
5E69
330
6
100
AcDbSymbolTableRecord
100
AcDbViewportTableRecord
  2
*Active
 70
     0
 10
0.0
 20
0.0
 11
1.0
 21
1.0
 12
718.6414724684721
 22
227.0377357939801
 13
0.0
 23
0.0
 14
1.0
 24
1.0
 15
0.0
 25
0.0
 16
0.0
 26
0.0
 36
1.0
 17
0.0
 27
0.0
 37
0.0
 40
148.8072940829888
 41
1.888667992047713
 42
50.0
 43
0.0
 44
0.0
 50
0.0
 51
0.0
 71
     0
 72
   100
 73
     1
 74
     1
 75
     0
 76
     0
 77
     0
 78
     0
281
     0
 65
     1
110
0.0
120
0.0
130
0.0
111
1.0
121
0.0
131
0.0
112
0.0
122
1.0
132
0.0
 79
     0
146
0.0
  0
ENDTAB
  0
TABLE
  2
LTYPE
  5
3
330
0
100
AcDbSymbolTable
 70
     2
  0
LTYPE
  5
C
330
3
100
AcDbSymbolTableRecord
100
AcDbLinetypeTableRecord
  2
BYBLOCK
 70
     0
  3

 72
    65
 73
     0
 40
0.0
  0
LTYPE
  5
D
330
3
100
AcDbSymbolTableRecord
100
AcDbLinetypeTableRecord
  2
BYLAYER
 70
     0
  3

 72
    65
 73
     0
 40
0.0
  0
LTYPE
  5
E
330
3
100
AcDbSymbolTableRecord
100
AcDbLinetypeTableRecord
  2
CONTINUOUS
 70
     0
  3
Solid line
 72
    65
 73
     0
 40
0.0
  0
LTYPE
  5
F
330
3
100
AcDbSymbolTableRecord
100
AcDbLinetypeTableRecord
  2
CENTER
 70
     0
  3
____ _ ____ _ ____ _ ____ _ ____ _ ____ _ ____
 72
    65
 73
     4
 40
0.6
 49
0.375
 74
     0
 49
-0.075
 74
     0
 49
0.075
 74
     0
 49
-0.075
 74
     0
  0
ENDTAB
  0
TABLE
  2
LAYER
  5
1
330
0
100
AcDbSymbolTable
 70
     2
  0
LAYER
  5
14
330
1
100
AcDbSymbolTableRecord
100
AcDbLayerTableRecord
  2
0
 70
     0
 62
     7
  6
CONTINUOUS
370
    -3
390
273
  0
LAYER
  5
27A
330
1
100
AcDbSymbolTableRecord
100
AcDbLayerTableRecord
  2
Defpoints
 70
     0
 62
     7
  6
CONTINUOUS
290
     0
370
    -3
390
273
  0
ENDTAB
  0
TABLE
  2
STYLE
  5
2
330
0
100
AcDbSymbolTable
 70
     1
  0
STYLE
  5
1B
330
2
100
AcDbSymbolTableRecord
100
AcDbTextStyleTableRecord
  2
STANDARD
 70
     0
 40
0.0
 41
1.0
 50
0.0
 71
     0
 42
35.06651165617814
  3
VERDANA.TTF
  4

1001
ACAD
1000
Verdana
1071
       34
  0
ENDTAB
  0
TABLE
  2
VIEW
  5
4
330
0
100
AcDbSymbolTable
 70
     0
  0
ENDTAB
  0
TABLE
  2
UCS
  5
5
330
0
100
AcDbSymbolTable
 70
     0
  0
ENDTAB
  0
TABLE
  2
APPID
  5
7
330
0
100
AcDbSymbolTable
 70
     1
  0
APPID
  5
19
330
7
100
AcDbSymbolTableRecord
100
AcDbRegAppTableRecord
  2
ACAD
 70
     0
  0
ENDTAB
  0
TABLE
  2
DIMSTYLE
  5
8
330
0
100
AcDbSymbolTable
 70
     1
100
AcDbDimStyleTable
  0
DIMSTYLE
105
28
330
8
100
AcDbSymbolTableRecord
100
AcDbDimStyleTableRecord
  2
STANDARD
 70
     0
 47
0.003
 48
0.003
 71
     1
140
1.5
289
     0
340
1B
  0
ENDTAB
  0
TABLE
  2
BLOCK_RECORD
  5
23
330
0
100
AcDbSymbolTable
 70
     0
  0
BLOCK_RECORD
  5
21
330
23
100
AcDbSymbolTableRecord
100
AcDbBlockTableRecord
  2
*MODEL_SPACE
340
276
  0
BLOCK_RECORD
  5
22
330
23
100
AcDbSymbolTableRecord
100
AcDbBlockTableRecord
  2
*PAPER_SPACE
340
277
  0
ENDTAB
  0
ENDSEC
  0
SECTION
  2
BLOCKS
  0
BLOCK
  5
24
330
21
100
AcDbEntity
  8
0
100
AcDbBlockBegin
  2
*MODEL_SPACE
 70
     0
 71
     0
 10
0.0
 20
0.0
 30
0.0
  3
*MODEL_SPACE
  1

  0
ENDBLK
  5
25
330
21
100
AcDbEntity
  8
0
100
AcDbBlockEnd
  0
BLOCK
  5
26
330
22
100
AcDbEntity
 67
     1
  8
0
100
AcDbBlockBegin
  2
*PAPER_SPACE
 70
     0
 71
     0
 10
0.0
 20
0.0
 30
0.0
  3
*PAPER_SPACE
  1

  0
ENDBLK
  5
27
330
22
100
AcDbEntity
 67
     1
  8
0
100
AcDbBlockEnd
  0
ENDSEC
  0
SECTION
  2
ENTITIES
  0
LINE
  5
6B4
330
21
100
AcDbEntity
  8
0
  6
Continuous
100
AcDbLine
 10
688.3473971431249
 20
191.4897573523456
 30
0.0
 11
666.7130825680248
 21
191.4897573523456
 31
0.0
  0
LINE
  5
6B5
330
21
100
AcDbEntity
  8
0
  6
Continuous
100
AcDbLine
 10
668.3473971431249
 20
192.4897573523456
 30
0.0
 11
688.3473971431249
 21
192.4897573523456
 31
0.0
  0
LINE
  5
6B6
330
21
100
AcDbEntity
  8
0
  6
Continuous
100
AcDbLine
 10
688.3473971431249
 20
196.8897573523456
 30
0.0
 11
668.3473971431249
 21
196.8897573523456
 31
0.0
  0
LINE
  5
6B7
330
21
100
AcDbEntity
  8
0
  6
Continuous
100
AcDbLine
 10
669.3473971431249
 20
197.8897573523456
 30
0.0
 11
688.3473971431249
 21
197.8897573523456
 31
0.0
  0
LINE
  5
6B8
330
21
100
AcDbEntity
  8
0
  6
Continuous
100
AcDbLine
 10
672.3473971431249
 20
198.8897573523456
 30
0.0
 11
688.3473971431249
 21
198.8897573523456
 31
0.0
  0
LINE
  5
6B9
330
21
100
AcDbEntity
  8
0
  6
Continuous
100
AcDbLine
 10
656.3473971431249
 20
212.4897573523456
 30
0.0
 11
645.7130825680248
 21
212.4897573523456
 31
0.0
  0
LINE
  5
6BA
330
21
100
AcDbEntity
  8
0
  6
CENTER
100
AcDbLine
 10
688.3473971431249
 20
269.4520459479449
 30
0.0
 11
688.3473971431249
 21
182.0527727210055
 31
0.0
  0
LINE
  5
6BB
330
21
100
AcDbEntity
  8
0
  6
Continuous
100
AcDbLine
 10
643.8473971431249
 20
214.1897573523456
 30
0.0
 11
658.0473971431248
 21
214.1897573523456
 31
0.0
  0
LINE
  5
6BC
330
21
100
AcDbEntity
  8
0
  6
Continuous
100
AcDbLine
 10
644.3473971431249
 20
216.4897573523457
 30
0.0
 11
648.7473971431248
 21
216.4897573523457
 31
0.0
  0
LINE
  5
6BD
330
21
100
AcDbEntity
  8
0
  6
Continuous
100
AcDbLine
 10
664.3473971431249
 20
216.4897573523457
 30
0.0
 11
662.004251392625
 21
216.4897573523457
 31
0.0
  0
LINE
  5
6BE
330
21
100
AcDbEntity
  8
0
  6
Continuous
100
AcDbLine
 10
672.3473971431249
 20
217.4897573523456
 30
0.0
 11
688.3473971431249
 21
217.4897573523456
 31
0.0
  0
LINE
  5
6BF
330
21
100
AcDbEntity
  8
0
  6
Continuous
100
AcDbLine
 10
672.8473971431249
 20
217.8897573523456
 30
0.0
 11
688.3473971431249
 21
217.8897573523456
 31
0.0
  0
LINE
  5
6C0
330
21
100
AcDbEntity
  8
0
  6
Continuous
100
AcDbLine
 10
650.7473971431249
 20
220.4897573523457
 30
0.0
 11
669.3473971431249
 21
220.4897573523457
 31
0.0
  0
LINE
  5
6C1
330
21
100
AcDbEntity
  8
0
  6
Continuous
100
AcDbLine
 10
669.7473971431248
 20
220.9897573523456
 30
0.0
 11
672.8473971431249
 21
220.9897573523456
 31
0.0
  0
LINE
  5
6C2
330
21
100
AcDbEntity
  8
0
  6
Continuous
100
AcDbLine
 10
664.3473971431249
 20
204.4897573523456
 30
0.0
 11
667.1758242678249
 21
207.3181844771456
 31
0.0
  0
LINE
  5
6C3
330
21
100
AcDbEntity
  8
0
  6
Continuous
100
AcDbLine
 10
672.8473971431249
 20
220.9897573523456
 30
0.0
 11
672.8473971431249
 21
217.8897573523456
 31
0.0
  0
LINE
  5
6C4
330
21
100
AcDbEntity
  8
0
  6
Continuous
100
AcDbLine
 10
672.3473971431249
 20
217.4897573523456
 30
0.0
 11
672.3473971431249
 21
198.8897573523456
 31
0.0
  0
LINE
  5
6C5
330
21
100
AcDbEntity
  8
0
  6
Continuous
100
AcDbLine
 10
659.1758242678249
 20
215.3181844771456
 30
0.0
 11
656.3473971431249
 21
212.4897573523456
 31
0.0
  0
LINE
  5
6C6
330
21
100
AcDbEntity
  8
0
  6
Continuous
100
AcDbLine
 10
669.7473971431248
 20
220.9897573523456
 30
0.0
 11
669.7473971431248
 21
236.4897573523456
 31
0.0
  0
LINE
  5
6C7
330
21
100
AcDbEntity
  8
0
  6
Continuous
100
AcDbLine
 10
669.3473971431249
 20
220.4897573523457
 30
0.0
 11
669.3473971431249
 21
236.4897573523456
 31
0.0
  0
LINE
  5
6C8
330
21
100
AcDbEntity
  8
0
  6
Continuous
100
AcDbLine
 10
668.3473971431249
 20
196.8897573523456
 30
0.0
 11
668.3473971431249
 21
192.4897573523456
 31
0.0
  0
LINE
  5
6C9
330
21
100
AcDbEntity
  8
0
  6
Continuous
100
AcDbLine
 10
668.3473971431249
 20
210.1466116018456
 30
0.0
 11
668.3473971431249
 21
212.4897646758456
 31
0.0
  0
LINE
  5
6CA
330
21
100
AcDbEntity
  8
0
  6
Continuous
100
AcDbLine
 10
672.3473971431249
 20
217.2483446803457
 30
0.0
 11
669.1059844711248
 21
220.4897573523457
 31
0.0
  0
LINE
  5
6CB
330
21
100
AcDbEntity
  8
0
  6
Continuous
100
AcDbLine
 10
666.0473971431248
 20
191.9897573523456
 30
0.0
 11
666.0473971431248
 21
206.1897573523456
 31
0.0
  0
LINE
  5
6CC
330
21
100
AcDbEntity
  8
0
  6
Continuous
100
AcDbLine
 10
672.3473971431249
 20
212.7265907397456
 30
0.0
 11
664.5842305305249
 21
220.4897573523457
 31
0.0
  0
LINE
  5
6CD
330
21
100
AcDbEntity
  8
0
  6
CENTER
100
AcDbLine
 10
634.7372318648003
 20
236.6395379755459
 30
0.0
 11
716.0460766641236
 21
236.4897573523456
 31
0.0
  0
LINE
  5
6CE
330
21
100
AcDbEntity
  8
0
  6
Continuous
100
AcDbLine
 10
664.3473971431249
 20
193.8554427773456
 30
0.0
 11
664.3473971431249
 21
204.4897573523456
 31
0.0
  0
LINE
  5
6CF
330
21
100
AcDbEntity
  8
0
  6
Continuous
100
AcDbLine
 10
672.3473971431249
 20
208.2048367991456
 30
0.0
 11
668.3473971431249
 21
212.2048367991456
 31
0.0
  0
LINE
  5
6D0
330
21
100
AcDbEntity
  8
0
  6
Continuous
100
AcDbLine
 10
664.0624765898248
 20
216.4897573523457
 30
0.0
 11
660.0624765898248
 21
220.4897573523457
 31
0.0
  0
LINE
  5
6D1
330
21
100
AcDbEntity
  8
0
  6
Continuous
100
AcDbLine
 10
672.3473971431249
 20
203.6830828585456
 30
0.0
 11
667.8240570542249
 21
208.2064229473456
 31
0.0
  0
LINE
  5
6D2
330
21
100
AcDbEntity
  8
0
  6
Continuous
100
AcDbLine
 10
660.0640627379249
 20
215.9664172636456
 30
0.0
 11
655.5407226492249
 21
220.4897573523457
 31
0.0
  0
LINE
  5
6D3
330
21
100
AcDbEntity
  8
0
  6
Continuous
100
AcDbLine
 10
672.3473971431249
 20
199.1613289178456
 30
0.0
 11
665.6831829258249
 21
205.8255431351456
 31
0.0
  0
LINE
  5
6D4
330
21
100
AcDbEntity
  8
0
  6
Continuous
100
AcDbLine
 10
657.6831829258249
 20
213.8255431351456
 30
0.0
 11
651.0189687086249
 21
220.4897573523457
 31
0.0
  0
LINE
  5
6D5
330
21
100
AcDbEntity
  8
0
  6
Continuous
100
AcDbLine
 10
669.1314218819249
 20
197.8555502385456
 30
0.0
 11
664.3473971431249
 21
202.6395749772456
 31
0.0
  0
LINE
  5
6D6
330
21
100
AcDbEntity
  8
0
  6
Continuous
100
AcDbLine
 10
654.497214768025
 20
212.4897573523456
 30
0.0
 11
649.7131900342249
 21
217.2737820861456
 31
0.0
  0
LINE
  5
6D7
330
21
100
AcDbEntity
  8
0
  6
Continuous
100
AcDbLine
 10
650.7473971431249
 20
220.4897573523457
 30
0.0
 11
650.7473971431249
 21
236.4897573523456
 31
0.0
  0
LINE
  5
6D8
330
21
100
AcDbEntity
  8
0
  6
Continuous
100
AcDbLine
 10
649.7473971431248
 20
217.4897573523456
 30
0.0
 11
649.7473971431248
 21
236.4897573523456
 31
0.0
  0
LINE
  5
6D9
330
21
100
AcDbEntity
  8
0
  6
Continuous
100
AcDbLine
 10
648.7473971431248
 20
236.4897573523456
 30
0.0
 11
648.7473971431248
 21
216.4897573523457
 31
0.0
  0
LINE
  5
6DA
330
21
100
AcDbEntity
  8
0
  6
Continuous
100
AcDbLine
 10
668.3473971431249
 20
194.1178210366456
 30
0.0
 11
664.3473971431249
 21
198.1178210366456
 31
0.0
  0
LINE
  5
6DB
330
21
100
AcDbEntity
  8
0
  6
Continuous
100
AcDbLine
 10
649.9754608273249
 20
212.4897573523456
 30
0.0
 11
645.9754608273249
 21
216.4897573523457
 31
0.0
  0
LINE
  5
6DC
330
21
100
AcDbEntity
  8
0
  6
Continuous
100
AcDbLine
 10
666.4302398556249
 20
191.6069146399456
 30
0.0
 11
664.4645544306248
 21
193.5726000648456
 31
0.0
  0
LINE
  5
6DD
330
21
100
AcDbEntity
  8
0
  6
Continuous
100
AcDbLine
 10
645.4302398556249
 20
212.6069146399456
 30
0.0
 11
643.4645544306248
 21
214.5726000648456
 31
0.0
  0
LINE
  5
6DE
330
21
100
AcDbEntity
  8
0
  6
Continuous
100
AcDbLine
 10
644.3473971431249
 20
236.4897573523456
 30
0.0
 11
644.3473971431249
 21
216.4897573523457
 31
0.0
  0
LINE
  5
6DF
330
21
100
AcDbEntity
  8
0
  6
Continuous
100
AcDbLine
 10
643.3473971431249
 20
236.4897573523456
 30
0.0
 11
643.3473971431249
 21
214.8554427773456
 31
0.0
  0
ARC
  5
6E0
330
21
100
AcDbEntity
  8
0
  6
Continuous
100
AcDbCircle
 10
666.7130825680248
 20
191.8897573523456
 30
0.0
 40
0.4
100
AcDbArc
 50
224.9999999975969
 51
269.9999999997004
  0
ARC
  5
6E1
330
21
100
AcDbEntity
  8
0
  6
Continuous
100
AcDbCircle
 10
643.7473971431248
 20
214.8554427773456
 30
0.0
 40
0.4
100
AcDbArc
 50
180.0
 51
224.9999999961011
  0
ARC
  5
6E2
330
21
100
AcDbEntity
  8
0
  6
Continuous
100
AcDbCircle
 10
669.7473971431248
 20
220.5897573523456
 30
0.0
 40
0.4
100
AcDbArc
 50
90.0
 51
179.9999999938998
  0
ARC
  5
6E3
330
21
100
AcDbEntity
  8
0
  6
Continuous
100
AcDbCircle
 10
672.4473971431249
 20
217.8897573523456
 30
0.0
 40
0.4
100
AcDbArc
 50
270.0000000073996
 51
0.0
  0
ARC
  5
6E4
330
21
100
AcDbEntity
  8
0
  6
Continuous
100
AcDbCircle
 10
648.7473971431248
 20
217.4897573523456
 30
0.0
 40
1.0
100
AcDbArc
 50
270.0
 51
359.9999999997004
  0
ARC
  5
6E5
330
21
100
AcDbEntity
  8
0
  6
Continuous
100
AcDbCircle
 10
669.3473971431249
 20
196.8897573523456
 30
0.0
 40
1.0
100
AcDbArc
 50
90.00000000019539
 51
180.0
  0
ARC
  5
6E6
330
21
100
AcDbEntity
  8
0
  6
Continuous
100
AcDbCircle
 10
667.3473971431249
 20
192.4897573523456
 30
0.0
 40
1.0
100
AcDbArc
 50
270.0
 51
0.0
  0
ARC
  5
6E7
330
21
100
AcDbEntity
  8
0
  6
Continuous
100
AcDbCircle
 10
644.3473971431249
 20
215.4897573523456
 30
0.0
 40
1.0
100
AcDbArc
 50
90.0
 51
180.0
  0
ARC
  5
6E8
330
21
100
AcDbEntity
  8
0
  6
Continuous
100
AcDbCircle
 10
671.3473971431248
 20
198.8897573523456
 30
0.0
 40
1.0
100
AcDbArc
 50
270.0
 51
0.0
  0
ARC
  5
6E9
330
21
100
AcDbEntity
  8
0
  6
Continuous
100
AcDbCircle
 10
662.004251392625
 20
212.4897573523456
 30
0.0
 40
4.0
100
AcDbArc
 50
90.0
 51
135.0000000002015
  0
ARC
  5
6EA
330
21
100
AcDbEntity
  8
0
  6
Continuous
100
AcDbCircle
 10
645.7130825680248
 20
212.8897573523456
 30
0.0
 40
0.4
100
AcDbArc
 50
224.9999999940008
 51
270.0000000000977
  0
ARC
  5
6EB
330
21
100
AcDbEntity
  8
0
  6
Continuous
100
AcDbCircle
 10
650.7473971431249
 20
219.4897573523456
 30
0.0
 40
1.0
100
AcDbArc
 50
90.0
 51
180.0
  0
ARC
  5
6EC
330
21
100
AcDbEntity
  8
0
  6
Continuous
100
AcDbCircle
 10
664.7473971431248
 20
193.8554427773456
 30
0.0
 40
0.4
100
AcDbArc
 50
180.0
 51
225.0000000037009
  0
ARC
  5
6ED
330
21
100
AcDbEntity
  8
0
  6
Continuous
100
AcDbCircle
 10
664.3473971431249
 20
210.1466116018456
 30
0.0
 40
4.0
100
AcDbArc
 50
314.9999999997985
 51
0.0
  0
ARC
  5
6EE
330
21
100
AcDbEntity
  8
0
  6
Continuous
100
AcDbCircle
 10
664.3474049208249
 20
212.4897651300456
 30
0.0
 40
3.9999987037
100
AcDbArc
 50
359.9998884691995
 51
90.00011148379711
  0
SPLINE
  5
6EF
330
21
100
AcDbEntity
  8
0
  6
Continuous
100
AcDbSpline
210
0.0
220
0.0
230
1.0
 70
     8
 71
     3
 72
    17
 73
    13
 74
    11
 42
0.0000000001
 43
0.0000000001
 44
0.0000000001
 40
0.0
 40
0.0
 40
0.0
 40
0.0
 40
4.085227273528243
 40
8.086793313599305
 40
11.55883783950552
 40
14.46503058036947
 40
16.85387069680228
 40
18.77174455168775
 40
20.19403407083575
 40
21.16090140521886
 40
21.73129021123916
 40
21.92031021678297
 40
21.92031021678297
 40
21.92031021678297
 40
21.92031021678297
 10
688.347397143125
 20
236.4897573523456
 30
0.0
 10
687.3844998405228
 20
235.5268600497477
 30
0.0
 10
685.4784243771521
 20
233.6207845863852
 30
0.0
 10
682.7539801708641
 20
230.8963403800399
 30
0.0
 10
680.3074370688911
 20
228.449797278246
 30
0.0
 10
678.2410171126338
 20
226.3833773219366
 30
0.0
 10
676.5409186965246
 20
224.6832789058794
 30
0.0
 10
675.1905796240678
 20
223.3329398333025
 30
0.0
 10
674.1754027505532
 20
222.3177629596841
 30
0.0
 10
673.4778311487125
 20
221.6201913581243
 30
0.0
 10
673.0709439591464
 20
221.2133041683573
 30
0.0
 10
672.8919495856927
 20
221.0343097949113
 30
0.0
 10
672.847397143125
 20
220.9897573523456
 30
0.0
 11
688.347397143125
 21
236.4897573523456
 31
0.0
 11
685.4587052353248
 21
233.6010654445457
 31
0.0
 11
682.6291707530248
 21
230.7715309622456
 31
0.0
 11
680.1740645241249
 21
228.3164247334457
 31
0.0
 11
678.119075929625
 21
226.2614361389456
 31
0.0
 11
676.4299108841248
 21
224.5722710934456
 31
0.0
 11
675.0737692759249
 21
223.2161294851457
 31
0.0
 11
674.0680587121248
 21
222.2104189213456
 31
0.0
 11
673.3843802634247
 21
221.5267404727456
 31
0.0
 11
672.9810544708249
 21
221.1234146800456
 31
0.0
 11
672.847397143125
 21
220.9897573523456
 31
0.0
  0
LINE
  5
6F0
330
21
100
AcDbEntity
  8
0
100
AcDbLine
 10
643.3473971431249
 20
241.1172953178216
 30
0.0
 11
643.3473971431249
 21
241.1172953178216
 31
0.0
  0
ARC
  5
6F1
330
21
100
AcDbEntity
  8
0
  6
Continuous
100
AcDbCircle
 10
686.3473971431249
 20
234.4897573523456
 30
0.0
 40
10.0
100
AcDbArc
 50
281.5369590328181
 51
63.17970365569832
  0
SPLINE
  5
6F2
330
21
100
AcDbEntity
  8
0
  6
Continuous
100
AcDbSpline
210
0.0
220
0.0
230
1.0
 70
     8
 71
     3
 72
    14
 73
    10
 74
     0
 42
0.0000000001
 43
0.0000000001
 40
2.432892685512986
 40
2.432892685512986
 40
2.432892685512986
 40
2.432892685512986
 40
2.468529649314939
 40
2.575664006496627
 40
2.789590236613875
 40
3.003542699856457
 40
3.217299592941696
 40
3.324490318947013
 40
3.431485070677234
 40
3.431485070677234
 40
3.431485070677234
 40
3.431485070677234
 10
688.1290575942281
 20
231.6203165960059
 30
0.0
 10
688.139735588128
 20
231.6255248337149
 30
0.0
 10
688.1822277922342
 20
231.6469607991911
 30
0.0
 10
688.2851809081811
 20
231.7065247829325
 30
0.0
 10
688.4355453936079
 20
231.8031478162863
 30
0.0
 10
688.639178463908
 20
231.8762957115111
 30
0.0
 10
688.8153241217516
 20
231.9010423731191
 30
0.0
 10
688.9614799237139
 20
231.900132550644
 30
0.0
 10
689.0247309093367
 20
231.8645247717738
 30
0.0
 10
689.0563274656248
 20
231.8467371724457
 30
0.0
  0
SPLINE
  5
6F3
330
21
100
AcDbEntity
  8
0
  6
Continuous
100
AcDbSpline
210
0.0
220
0.0
230
1.0
 70
     8
 71
     3
 72
    11
 73
     7
 74
     0
 42
0.0000000001
 43
0.0000000001
 40
10.10060797978306
 40
10.10060797978306
 40
10.10060797978306
 40
10.10060797978306
 40
11.4120683884353
 40
13.778959614104
 40
16.06034152665579
 40
18.22811180296184
 40
18.22811180296184
 40
18.22811180296184
 40
18.22811180296184
 10
671.3634335834607
 20
236.4897573523456
 30
0.0
 10
671.363437351459
 20
236.9270123744287
 30
0.0
 10
671.3387417236835
 20
238.1534085758644
 30
0.0
 10
671.1863314109538
 20
240.1358758861088
 30
0.0
 10
670.8506182906868
 20
242.3849200540789
 30
0.0
 10
670.5422852581547
 20
243.8357746302203
 30
0.0
 10
670.3920554717248
 20
244.5426777191456
 30
0.0
  0
SPLINE
  5
6F4
330
21
100
AcDbEntity
  8
0
  6
Continuous
100
AcDbSpline
210
0.0
220
0.0
230
1.0
 70
     8
 71
     3
 72
    11
 73
     7
 74
     0
 42
0.0000000001
 43
0.0000000001
 40
11.58221824184766
 40
11.58221824184766
 40
11.58221824184766
 40
11.58221824184766
 40
13.07294273886875
 40
15.77290183168371
 40
18.39712912318679
 40
20.89788118254805
 40
20.89788118254805
 40
20.89788118254805
 40
20.89788118254805
 10
673.9228088859373
 20
236.4897573523456
 30
0.0
 10
673.9227952063972
 20
236.9867559981237
 30
0.0
 10
673.8979861570271
 20
238.3839001168218
 30
0.0
 10
673.7444526275411
 20
240.6518425862042
 30
0.0
 10
673.4091688919017
 20
243.2401570866221
 30
0.0
 10
673.1014993296463
 20
244.9207247904662
 30
0.0
 10
672.9513708630248
 20
245.7407638303457
 30
0.0
  0
SPLINE
  5
6F5
330
21
100
AcDbEntity
  8
0
  6
Continuous
100
AcDbSpline
210
0.0
220
0.0
230
1.0
 70
     8
 71
     3
 72
    12
 73
     8
 74
     6
 42
0.0000000001
 43
0.0000000001
 44
0.0000000001
 40
0.0
 40
0.0
 40
0.0
 40
0.0
 40
1.026664957295024
 40
2.022032222197191
 40
2.976645084725679
 40
3.871517486684386
 40
4.66131473865362
 40
4.66131473865362
 40
4.66131473865362
 40
4.66131473865362
 10
670.3920554717248
 20
244.5426777191456
 30
0.0
 10
670.3315062490162
 20
244.8799744058668
 30
0.0
 10
670.2122536355166
 20
245.5442853518521
 30
0.0
 10
670.2052447761507
 20
246.5418694085
 30
0.0
 10
670.3349122716344
 20
247.4829310052304
 30
0.0
 10
670.5837296417371
 20
248.3348526490566
 30
0.0
 10
670.8649805233551
 20
248.8227463722758
 30
0.0
 10
670.996834963125
 20
249.0514779345456
 30
0.0
 11
670.3920554717248
 21
244.5426777191456
 31
0.0
 11
670.2399236054248
 21
245.5580086158456
 31
0.0
 11
670.2295035257249
 21
246.5533213375456
 31
0.0
 11
670.3616283851249
 21
247.4987465005455
 31
0.0
 11
670.6281799915249
 21
248.3529987214457
 31
0.0
 11
670.996834963125
 21
249.0514779345456
 31
0.0
  0
SPLINE
  5
6F6
330
21
100
AcDbEntity
  8
0
  6
Continuous
100
AcDbSpline
210
0.0
220
0.0
230
1.0
 70
     8
 71
     3
 72
    11
 73
     7
 74
     5
 42
0.0000000001
 43
0.0000000001
 44
0.0000000001
 40
0.0
 40
0.0
 40
0.0
 40
0.0
 40
0.6348893155345946
 40
1.346043102909149
 40
2.095236169158193
 40
2.840865409661831
 40
2.840865409661831
 40
2.840865409661831
 40
2.840865409661831
 10
672.9514077439249
 20
245.7407638147456
 30
0.0
 10
672.7779796216233
 20
245.6190697473275
 30
0.0
 10
672.4102907628533
 20
245.3610634207048
 30
0.0
 10
671.7861055275148
 20
245.0438482022395
 30
0.0
 10
671.1081447186974
 20
244.7566774188669
 30
0.0
 10
670.6303726489335
 20
244.6138987841721
 30
0.0
 10
670.3920561454248
 20
244.5426796670457
 30
0.0
 11
672.9514077439249
 21
245.7407638147456
 31
0.0
 11
672.4237135398249
 21
245.3877436029456
 31
0.0
 11
671.794174604625
 21
245.0569559998457
 31
0.0
 11
671.102435135825
 21
244.7692291192456
 31
0.0
 11
670.3920561454248
 21
244.5426796670457
 31
0.0
  0
SPLINE
  5
6F7
330
21
100
AcDbEntity
  8
0
  6
Continuous
100
AcDbSpline
210
0.0
220
0.0
230
1.0
 70
     8
 71
     3
 72
    12
 73
     8
 74
     6
 42
0.0000000001
 43
0.0000000001
 44
0.0000000001
 40
0.0
 40
0.0
 40
0.0
 40
0.0
 40
0.6075386020180298
 40
1.179431783496884
 40
1.73508461487976
 40
2.282816651080549
 40
2.805893721681767
 40
2.805893721681767
 40
2.805893721681767
 40
2.805893721681767
 10
672.9513708630248
 20
245.7407638303457
 30
0.0
 10
672.8906520109753
 20
245.9348215813787
 30
0.0
 10
672.7727767949364
 20
246.3115513540086
 30
0.0
 10
672.76451201201
 20
246.8987423995284
 30
0.0
 10
672.8980311459883
 20
247.4451964904562
 30
0.0
 10
673.1588703314965
 20
247.9326088978503
 30
0.0
 10
673.4257739984216
 20
248.1728500133749
 30
0.0
 10
673.5561531550248
 20
248.2902048417456
 30
0.0
 11
672.9513708630248
 21
245.7407638303457
 31
0.0
 11
672.7990005873249
 21
246.3288849505456
 31
0.0
 11
672.7889344321249
 21
246.9006895356457
 31
0.0
 11
672.921236264625
 21
247.4403619308457
 31
0.0
 11
673.1877265362249
 21
247.9188943943456
 31
0.0
 11
673.5561531550248
 21
248.2902048417456
 31
0.0
  0
SPLINE
  5
6F8
330
21
100
AcDbEntity
  8
0
  6
Continuous
100
AcDbSpline
210
0.0
220
0.0
230
1.0
 70
     8
 71
     3
 72
    12
 73
     8
 74
     6
 42
0.0000000001
 43
0.0000000001
 44
0.0000000001
 40
0.0
 40
0.0
 40
0.0
 40
0.0
 40
0.5200800876313203
 40
1.065305866778213
 40
1.641971775724243
 40
2.250552293758365
 40
2.884857046783202
 40
2.884857046783202
 40
2.884857046783202
 40
2.884857046783202
 10
674.1319406792248
 20
248.7301240070456
 30
0.0
 10
673.9587097838015
 20
248.7102139259943
 30
0.0
 10
673.6038723393569
 20
248.6694311183916
 30
0.0
 10
673.0605421359068
 20
248.7905149647243
 30
0.0
 10
672.5355194633128
 20
249.0350930021502
 30
0.0
 10
672.0421779598078
 20
249.3982052289564
 30
0.0
 10
671.7732958593647
 20
249.7147903640492
 30
0.0
 10
671.6360722569248
 20
249.8763591432457
 30
0.0
 11
674.1319406792248
 21
248.7301240070456
 31
0.0
 11
673.6128025088249
 21
248.6988373072456
 31
0.0
 11
673.078233147825
 21
248.8061068207457
 31
0.0
 11
672.554254836825
 21
249.0469185732456
 31
0.0
 11
672.0654816297248
 21
249.4095078711457
 31
0.0
 11
671.6360722569248
 21
249.8763591432457
 31
0.0
  0
SPLINE
  5
6F9
330
21
100
AcDbEntity
  8
0
  6
Continuous
100
AcDbSpline
210
0.0
220
0.0
230
1.0
 70
     8
 71
     3
 72
     9
 73
     5
 74
     3
 42
0.0000000001
 43
0.0000000001
 44
0.0000000001
 40
0.0
 40
0.0
 40
0.0
 40
0.0
 40
0.5295314200113027
 40
1.044101541742904
 40
1.044101541742904
 40
1.044101541742904
 40
1.044101541742904
 10
670.996834963125
 20
249.0514779345456
 30
0.0
 10
671.0979068614956
 20
249.1963403867833
 30
0.0
 10
671.2971949885598
 20
249.481972370092
 30
0.0
 10
671.5241974473652
 20
249.7461037662243
 30
0.0
 10
671.636072277725
 20
249.8762770484456
 30
0.0
 11
670.996834963125
 21
249.0514779345456
 31
0.0
 11
671.3071792280248
 21
249.4805349960456
 31
0.0
 11
671.636072277725
 21
249.8762770484456
 31
0.0
  0
SPLINE
  5
6FA
330
21
100
AcDbEntity
  8
0
  6
Continuous
100
AcDbSpline
210
0.0
220
0.0
230
1.0
 70
     8
 71
     3
 72
    12
 73
     8
 74
     6
 42
0.0000000001
 43
0.0000000001
 44
0.0000000001
 40
0.0
 40
0.0
 40
0.0
 40
0.0
 40
0.4674492737397779
 40
0.9776574020602974
 40
1.540441815586775
 40
2.153834504557437
 40
2.807096372109851
 40
2.807096372109851
 40
2.807096372109851
 40
2.807096372109851
 10
673.5561531231248
 20
248.2901981136456
 30
0.0
 10
673.4063934549361
 20
248.2429169380695
 30
0.0
 10
673.0931751949881
 20
248.1440296493799
 30
0.0
 10
672.5703797533588
 20
248.1853828387554
 30
0.0
 10
672.0312205619208
 20
248.3503824399579
 30
0.0
 10
671.4882258867878
 20
248.6395683550009
 30
0.0
 10
671.1640331923957
 20
248.9113231913653
 30
0.0
 10
670.9968347057248
 20
249.0514774828457
 30
0.0
 11
673.5561531231248
 21
248.2901981136456
 31
0.0
 11
673.1026267015249
 21
248.1769611566456
 31
0.0
 11
672.5929944569249
 21
248.2011956252456
 31
0.0
 11
672.0535682547248
 21
248.3616501935457
 31
0.0
 11
671.5121981901249
 21
248.6500406303457
 31
0.0
 11
670.9968347057248
 21
249.0514774828457
 31
0.0
  0
SPLINE
  5
6FB
330
21
100
AcDbEntity
  8
0
  6
Continuous
100
AcDbSpline
210
0.0
220
0.0
230
1.0
 70
     8
 71
     3
 72
     9
 73
     5
 74
     3
 42
0.0000000001
 43
0.0000000001
 44
0.0000000001
 40
0.0
 40
0.0
 40
0.0
 40
0.0
 40
0.3676967662613734
 40
0.7252429054956258
 40
0.7252429054956258
 40
0.7252429054956258
 40
0.7252429054956258
 10
673.5561503545248
 20
248.2902026981456
 30
0.0
 10
673.6480033523586
 20
248.3716325765544
 30
0.0
 10
673.8291736566414
 20
248.5322443823416
 30
0.0
 10
674.0318147035865
 20
248.6647192598251
 30
0.0
 10
674.131717127225
 20
248.7300296277457
 30
0.0
 11
673.5561503545248
 21
248.2902026981456
 31
0.0
 11
673.837228339325
 21
248.5272598186456
 31
0.0
 11
674.131717127225
 21
248.7300296277457
 31
0.0
  0
SPLINE
  5
6FC
330
21
100
AcDbEntity
  8
0
  6
Continuous
100
AcDbSpline
210
0.0
220
0.0
230
1.0
 70
     8
 71
     3
 72
    10
 73
     6
 74
     4
 42
0.0000000001
 43
0.0000000001
 44
0.0000000001
 40
0.0
 40
0.0
 40
0.0
 40
0.0
 40
0.5687102246463017
 40
1.118783314597008
 40
1.684098482921364
 40
1.684098482921364
 40
1.684098482921364
 40
1.684098482921364
 10
673.2943846729251
 20
249.5331128606456
 30
0.0
 10
673.478310586238
 20
249.5794334982114
 30
0.0
 10
673.8401349987753
 20
249.6705568052742
 30
0.0
 10
674.3979887284532
 20
249.7457451526779
 30
0.0
 10
674.7698095830147
 20
249.7556412780578
 30
0.0
 10
674.9582605259249
 20
249.7606569573456
 30
0.0
 11
673.2943846729251
 21
249.5331128606456
 31
0.0
 11
673.8484285617249
 21
249.6614354576456
 31
0.0
 11
674.393511639025
 21
249.7353600349456
 31
0.0
 11
674.9582605259249
 21
249.7606569573456
 31
0.0
  0
SPLINE
  5
6FD
330
21
100
AcDbEntity
  8
0
  6
Continuous
100
AcDbSpline
210
0.0
220
0.0
230
1.0
 70
     8
 71
     3
 72
    10
 73
     6
 74
     4
 42
0.0000000001
 43
0.0000000001
 44
0.0000000001
 40
0.0
 40
0.0
 40
0.0
 40
0.0
 40
0.269134173360306
 40
0.664027154662419
 40
1.187913993878143
 40
1.187913993878143
 40
1.187913993878143
 40
1.187913993878143
 10
674.1319406792248
 20
248.7301240070456
 30
0.0
 10
674.0457131209137
 20
248.7589257019177
 30
0.0
 10
673.8329662984502
 20
248.8299873112875
 30
0.0
 10
673.5612923523261
 20
249.1368820119326
 30
0.0
 10
673.3913089876671
 20
249.3892264974073
 30
0.0
 10
673.2943847348248
 20
249.5331129345456
 30
0.0
 11
674.1319406792248
 21
248.7301240070456
 31
0.0
 11
673.8832597489248
 21
248.8330365824456
 31
0.0
 11
673.598208077225
 21
249.1063239973457
 31
0.0
 11
673.2943847348248
 21
249.5331129345456
 31
0.0
  0
SPLINE
  5
6FE
330
21
100
AcDbEntity
  8
0
  6
Continuous
100
AcDbSpline
210
0.0
220
0.0
230
1.0
 70
     8
 71
     3
 72
    10
 73
     6
 74
     4
 42
0.0000000001
 43
0.0000000001
 44
0.0000000001
 40
0.0
 40
0.0
 40
0.0
 40
0.0
 40
0.2830826231042655
 40
0.558898704063898
 40
0.8417419453292627
 40
0.8417419453292627
 40
0.8417419453292627
 40
0.8417419453292627
 10
674.131717127225
 20
248.7300296277457
 30
0.0
 10
674.2217572058388
 20
248.7585270811092
 30
0.0
 10
674.3995260942974
 20
248.8147904772135
 30
0.0
 10
674.6776650261313
 20
248.8602624457601
 30
0.0
 10
674.8639476336182
 20
248.8650527726585
 30
0.0
 10
674.9582605259249
 20
248.8674780639456
 30
0.0
 11
674.131717127225
 21
248.7300296277457
 31
0.0
 11
674.4036099296249
 21
248.8088336600457
 31
0.0
 11
674.6757533496248
 21
248.8536942158457
 31
0.0
 11
674.9582605259249
 21
248.8674780639456
 31
0.0
  0
SPLINE
  5
6FF
330
21
100
AcDbEntity
  8
0
  6
Continuous
100
AcDbSpline
210
0.0
220
0.0
230
1.0
 70
     8
 71
     3
 72
    12
 73
     8
 74
     6
 42
0.0000000001
 43
0.0000000001
 44
0.0000000001
 40
0.0
 40
0.0
 40
0.0
 40
0.0
 40
1.835170171327486
 40
3.631932511820806
 40
5.35200323186149
 40
6.956635732817491
 40
8.401277755051593
 40
8.401277755051593
 40
8.401277755051593
 40
8.401277755051593
 10
688.347397143125
 20
249.7606569573456
 30
0.0
 10
688.9591238904403
 20
249.762933799952
 30
0.0
 10
690.169774704538
 20
249.7674398336788
 30
0.0
 10
691.9535043577529
 20
249.8034013870937
 30
0.0
 10
693.6597054114022
 20
249.8610831766949
 30
0.0
 10
695.2478121218583
 20
249.9371656469903
 30
0.0
 10
696.2615682356327
 20
250.011224622388
 30
0.0
 10
696.7418512246248
 20
250.0463112330456
 30
0.0
 11
688.347397143125
 21
249.7606569573456
 31
0.0
 11
690.182528661925
 21
249.7725677271456
 31
0.0
 11
691.9789398773249
 21
249.8080874878456
 31
0.0
 11
693.698016560225
 21
249.8665566271456
 31
0.0
 11
695.3006436262249
 21
249.9467560688457
 31
0.0
 11
696.7418512246248
 21
250.0463112330456
 31
0.0
  0
SPLINE
  5
700
330
21
100
AcDbEntity
  8
0
  6
Continuous
100
AcDbSpline
210
0.0
220
0.0
230
1.0
 70
     8
 71
     3
 72
    12
 73
     8
 74
     6
 42
0.0000000001
 43
0.0000000001
 44
0.0000000001
 40
0.0
 40
0.0
 40
0.0
 40
0.0
 40
2.124171567064864
 40
4.205940122218085
 40
6.198664825854311
 40
8.057398785187058
 40
9.727795306014185
 40
9.727795306014185
 40
9.727795306014185
 40
9.727795306014185
 10
688.347397143125
 20
248.8674780639456
 30
0.0
 10
689.0554582148709
 20
248.8701129321819
 30
0.0
 10
690.4574459435512
 20
248.8753300710438
 30
0.0
 10
692.523353226257
 20
248.916980904752
 30
0.0
 10
694.4999901994743
 20
248.9838112244582
 30
0.0
 10
696.3386672443085
 20
249.0719423684111
 30
0.0
 10
697.5119547362865
 20
249.1576627533923
 30
0.0
 10
698.0672913427248
 20
249.1982356462456
 30
0.0
 11
688.347397143125
 21
248.8674780639456
 31
0.0
 11
690.4715239975249
 21
248.8812603984456
 31
0.0
 11
692.5528857625249
 21
248.9224128032457
 31
0.0
 11
694.544458426025
 21
248.9901628621456
 31
0.0
 11
696.4008673887247
 21
249.0831020615456
 31
0.0
 11
698.0672913427248
 21
249.1982356462456
 31
0.0
  0
SPLINE
  5
701
330
21
100
AcDbEntity
  8
0
  6
Continuous
100
AcDbSpline
210
0.0
220
0.0
230
1.0
 70
     8
 71
     3
 72
    26
 73
    22
 74
    20
 42
0.0000000001
 43
0.0000000001
 44
0.0000000001
 40
0.0
 40
0.0
 40
0.0
 40
0.0
 40
0.562243265429898
 40
1.079652883867722
 40
1.561082777946631
 40
2.016318926299163
 40
2.451459848256588
 40
2.86952552048611
 40
3.274938811401857
 40
3.663534696251653
 40
4.037860092077612
 40
4.407946625586988
 40
4.787634766932859
 40
5.182814133225994
 40
5.590413066480632
 40
6.009605692294311
 40
6.44256363760771
 40
6.892911373194727
 40
7.36902003802965
 40
7.879554382095075
 40
8.431292898279574
 40
8.431292898279574
 40
8.431292898279574
 40
8.431292898279574
 10
696.7418512246248
 20
250.0463112330456
 30
0.0
 10
696.9291374724462
 20
250.0563651770509
 30
0.0
 10
697.2887756397697
 20
250.0756713569679
 30
0.0
 10
697.809169590339
 20
250.0425585741954
 30
0.0
 10
698.2891207752693
 20
249.9714836822568
 30
0.0
 10
698.7341998232437
 20
249.8638142524289
 30
0.0
 10
699.1478870712663
 20
249.7238624781353
 30
0.0
 10
699.5320257150136
 20
249.5537316711767
 30
0.0
 10
699.8852950280782
 20
249.3564740693321
 30
0.0
 10
700.2066219450783
 20
249.135442271141
 30
0.0
 10
700.4970511247834
 20
248.8931885892891
 30
0.0
 10
700.7618975643225
 20
248.6273890616138
 30
0.0
 10
701.0054709055916
 20
248.3328522836422
 30
0.0
 10
701.2273735330787
 20
248.0063839679605
 30
0.0
 10
701.4239804838478
 20
247.6489756329305
 30
0.0
 10
701.5918094210316
 20
247.2634154072949
 30
0.0
 10
701.7286885800336
 20
246.8508020637868
 30
0.0
 10
701.8332261825674
 20
246.4092457495207
 30
0.0
 10
701.9017278745665
 20
245.9346918766066
 30
0.0
 10
701.9330715534493
 20
245.4218174970405
 30
0.0
 10
701.9139056734887
 20
245.0679883117101
 30
0.0
 10
701.903951023825
 20
244.8842114338455
 30
0.0
 11
696.7418512246248
 21
250.0463112330456
 31
0.0
 11
697.303782910425
 21
250.0650267350456
 31
0.0
 11
697.820284088925
 21
250.0343796167456
 31
0.0
 11
698.2963745499249
 21
249.9628770583457
 31
0.0
 11
698.7387925324248
 21
249.8556097309457
 31
0.0
 11
699.1508531083248
 21
249.7157751724456
 31
0.0
 11
699.5329693822249
 21
249.5461695725457
 31
0.0
 11
699.8867959109248
 21
249.3482637261456
 31
0.0
 11
700.206846369325
 21
249.1278675696456
 31
0.0
 11
700.4942362552248
 21
248.8880206279457
 31
0.0
 11
700.7554573922249
 21
248.6258612110457
 31
0.0
 11
700.9975100907248
 21
248.3333315957456
 31
0.0
 11
701.2198357072248
 21
248.0066236959456
 31
0.0
 11
701.4165552288249
 21
247.6496386539456
 31
0.0
 11
701.5841739483249
 21
247.2654168138457
 31
0.0
 11
701.7208785425249
 21
246.8546073247457
 31
0.0
 11
701.8248466457249
 21
246.4164250379456
 31
0.0
 11
701.8938156359249
 21
245.9453382740457
 31
0.0
 11
701.9228058804247
 21
245.4356276873456
 31
0.0
 11
701.903951023825
 21
244.8842114338455
 31
0.0
  0
SPLINE
  5
702
330
21
100
AcDbEntity
  8
0
  6
Continuous
100
AcDbSpline
210
0.0
220
0.0
230
1.0
 70
     8
 71
     3
 72
    10
 73
     6
 74
     4
 42
0.0000000001
 43
0.0000000001
 44
0.0000000001
 40
0.0
 40
0.0
 40
0.0
 40
0.0
 40
0.4937925555939693
 40
1.028244507784233
 40
1.615622121662716
 40
1.615622121662716
 40
1.615622121662716
 40
1.615622121662716
 10
698.0672913427248
 20
249.1982384694456
 30
0.0
 10
697.9048161140593
 20
249.2312824708639
 30
0.0
 10
697.5664872761013
 20
249.3000913514122
 30
0.0
 10
697.1073756286537
 20
249.6081181493452
 30
0.0
 10
696.8674653682219
 20
249.8957237416284
 30
0.0
 10
696.7418509963248
 20
250.0463108643457
 30
0.0
 11
698.0672913427248
 21
249.1982384694456
 31
0.0
 11
697.5905046938249
 21
249.3267125111457
 31
0.0
 11
697.140318775725
 21
249.6147602994457
 31
0.0
 11
696.7418509963248
 21
250.0463108643457
 31
0.0
  0
SPLINE
  5
703
330
21
100
AcDbEntity
  8
0
  6
Continuous
100
AcDbSpline
210
0.0
220
0.0
230
1.0
 70
     8
 71
     3
 72
    26
 73
    22
 74
    20
 42
0.0000000001
 43
0.0000000001
 44
0.0000000001
 40
0.0
 40
0.0
 40
0.0
 40
0.0
 40
0.3556846499297053
 40
0.6794475013134809
 40
0.9773518799713561
 40
1.255653570770251
 40
1.518318793010089
 40
1.767486613496221
 40
2.006326555040987
 40
2.233062339843169
 40
2.450183699348508
 40
2.664428688827113
 40
2.884714332700396
 40
3.11542436523235
 40
3.35573063929855
 40
3.605815315607957
 40
3.867394672357923
 40
4.142913787216719
 40
4.437699867714945
 40
4.75728187043611
 40
5.106043939448316
 40
5.106043939448316
 40
5.106043939448316
 40
5.106043939448316
 10
698.0672913427248
 20
249.1982356462456
 30
0.0
 10
698.1849538398976
 20
249.2134376558195
 30
0.0
 10
698.4097189224452
 20
249.2424773330222
 30
0.0
 10
698.7360632606506
 20
249.2483889065819
 30
0.0
 10
699.0357538797233
 20
249.2292604713639
 30
0.0
 10
699.3124404011393
 20
249.1860614880473
 30
0.0
 10
699.568128225616
 20
249.1212368304126
 30
0.0
 10
699.8037987025848
 20
249.0358558531396
 30
0.0
 10
700.0184641237802
 20
248.9314416814986
 30
0.0
 10
700.211342993263
 20
248.8097926078658
 30
0.0
 10
700.3829757454926
 20
248.6724374825296
 30
0.0
 10
700.536547389095
 20
248.5181714816828
 30
0.0
 10
700.6744873982716
 20
248.3439402738566
 30
0.0
 10
700.7963524482755
 20
248.1477895467479
 30
0.0
 10
700.9000824419543
 20
247.9304392202812
 30
0.0
 10
700.9839076821604
 20
247.6937544825356
 30
0.0
 10
701.0468591383408
 20
247.4386237080624
 30
0.0
 10
701.0883006522611
 20
247.164040465467
 30
0.0
 10
701.1061196694718
 20
246.8676478616969
 30
0.0
 10
701.0995011314626
 20
246.5460866019961
 30
0.0
 10
701.0708345320932
 20
246.3250139309966
 30
0.0
 10
701.0558754370248
 20
246.2096515519456
 30
0.0
 11
698.0672913427248
 21
249.1982356462456
 31
0.0
 11
698.4208562393249
 21
249.2370097882457
 31
0.0
 11
698.7445448766249
 21
249.2439416003456
 31
0.0
 11
699.0417934824249
 21
249.2241859638456
 31
0.0
 11
699.3167056070248
 21
249.1808829056457
 31
0.0
 11
699.5711945757249
 21
249.1158568817456
 31
0.0
 11
699.8053100670248
 21
249.0305659707456
 31
0.0
 11
700.0199167879249
 21
248.9257400530457
 31
0.0
 11
700.2115430112249
 21
248.8045439035456
 31
0.0
 11
700.3809790940248
 21
248.6687753556457
 31
0.0
 11
700.5321331718249
 21
248.5169420250456
 31
0.0
 11
700.6689828100249
 21
248.3443212226457
 31
0.0
 11
700.7909956007248
 21
248.1485152012457
 31
0.0
 11
700.8948633927249
 21
247.9318159000456
 31
0.0
 11
700.9787755356247
 21
247.6962291907457
 31
0.0
 11
701.0419028801249
 21
247.4423814051456
 31
0.0
 11
701.0833752915249
 21
247.1700014834457
 31
0.0
 11
701.1018189006248
 21
246.8757929408456
 31
0.0
 11
701.0941972649249
 21
246.5563018343457
 31
0.0
 11
701.0558754370248
 21
246.2096515519456
 31
0.0
  0
SPLINE
  5
704
330
21
100
AcDbEntity
  8
0
  6
Continuous
100
AcDbSpline
210
0.0
220
0.0
230
1.0
 70
     8
 71
     3
 72
    12
 73
     8
 74
     6
 42
0.0000000001
 43
0.0000000001
 44
0.0000000001
 40
0.0
 40
0.0
 40
0.0
 40
0.0
 40
1.439617936816522
 40
3.04575845201827
 40
4.767889353656779
 40
6.570277566079171
 40
8.401277806040556
 40
8.401277806040556
 40
8.401277806040556
 40
8.401277806040556
 10
701.903951023825
 20
244.8842114338455
 30
0.0
 10
701.8689761707857
 20
244.4055995847934
 30
0.0
 10
701.7949808755562
 20
243.3930141986248
 30
0.0
 10
701.7188495667253
 20
241.8053954806385
 30
0.0
 10
701.6610298353329
 20
240.0961324701148
 30
0.0
 10
701.6250641938748
 20
238.3112301291506
 30
0.0
 10
701.6205643750251
 20
237.100094076028
 30
0.0
 10
701.6182967481248
 20
236.4897573523456
 30
0.0
 11
701.903951023825
 21
244.8842114338455
 31
0.0
 11
701.8046926296248
 21
243.4480193940456
 31
0.0
 11
701.7243430267249
 21
241.8438899429456
 31
0.0
 11
701.6657661499249
 21
240.1227555519457
 31
0.0
 11
701.6301534544249
 21
238.3207192026457
 31
0.0
 11
701.6182967481248
 21
236.4897573523456
 31
0.0
  0
SPLINE
  5
705
330
21
100
AcDbEntity
  8
0
  6
Continuous
100
AcDbSpline
210
0.0
220
0.0
230
1.0
 70
     8
 71
     3
 72
    10
 73
     6
 74
     4
 42
0.0000000001
 43
0.0000000001
 44
0.0000000001
 40
0.0
 40
0.0
 40
0.0
 40
0.0
 40
0.4937931694009651
 40
1.028245097883371
 40
1.615623000044108
 40
1.615623000044108
 40
1.615623000044108
 40
1.615623000044108
 10
701.0558783658249
 20
246.2096515519456
 30
0.0
 10
701.0889206713421
 20
246.0471757343092
 30
0.0
 10
701.157725974404
 20
245.7088458963087
 30
0.0
 10
701.4657504799195
 20
245.2497319329418
 30
0.0
 10
701.7533556102751
 20
245.0098209543759
 30
0.0
 10
701.9039425295249
 20
244.8842061744457
 30
0.0
 11
701.0558783658249
 21
246.2096515519456
 31
0.0
 11
701.1843478490249
 21
245.7328630390456
 31
0.0
 11
701.472392913125
 21
245.2826754060456
 31
0.0
 11
701.9039425295249
 21
244.8842061744457
 31
0.0
  0
SPLINE
  5
706
330
21
100
AcDbEntity
  8
0
  6
Continuous
100
AcDbSpline
210
0.0
220
0.0
230
1.0
 70
     8
 71
     3
 72
    12
 73
     8
 74
     6
 42
0.0000000001
 43
0.0000000001
 44
0.0000000001
 40
0.0
 40
0.0
 40
0.0
 40
0.0
 40
1.665867383024663
 40
3.525885231354663
 40
5.520361331397046
 40
7.607864739269433
 40
9.72779535567496
 40
9.72779535567496
 40
9.72779535567496
 40
9.72779535567496
 10
701.0558754370248
 20
246.2096515519456
 30
0.0
 10
701.0154032312428
 20
245.655821456844
 30
0.0
 10
700.9297419390526
 20
244.4836144895325
 30
0.0
 10
700.841569182636
 20
242.645437793451
 30
0.0
 10
700.7746071456579
 20
240.6658800688794
 30
0.0
 10
700.7329537849098
 20
238.5988903495461
 30
0.0
 10
700.7277432176129
 20
237.1964047274767
 30
0.0
 10
700.7251178547249
 20
236.4897573523456
 30
0.0
 11
701.0558754370248
 21
246.2096515519456
 31
0.0
 11
700.941009352725
 21
244.5477490516457
 31
0.0
 11
700.847938044025
 21
242.6900612071457
 31
0.0
 11
700.7800925105249
 21
240.6967393823456
 31
0.0
 11
700.738844966325
 21
238.6096435249456
 31
0.0
 11
700.7251178547249
 21
236.4897573523456
 31
0.0
  0
SPLINE
  5
707
330
21
100
AcDbEntity
  8
0
  6
Continuous
100
AcDbSpline
210
0.0
220
0.0
230
1.0
 70
     8
 71
     3
 72
    10
 73
     6
 74
     4
 42
0.0000000001
 43
0.0000000001
 44
0.0000000001
 40
0.0
 40
0.0
 40
0.0
 40
0.0
 40
0.2690200066672396
 40
0.6640463807736436
 40
1.187915535893812
 40
1.187915535893812
 40
1.187915535893812
 40
1.187915535893812
 10
700.5877637979248
 20
222.2743008887456
 30
0.0
 10
700.6165466694456
 20
222.1881080669104
 30
0.0
 10
700.6875940309355
 20
221.9753505397012
 30
0.0
 10
700.9944971070704
 20
221.7036699687424
 30
0.0
 10
701.2468719535217
 20
221.5336656604437
 30
0.0
 10
701.3907527249249
 20
221.4367449436456
 30
0.0
 11
700.5877637979248
 21
222.2743008887456
 31
0.0
 11
700.6906088317249
 21
222.0257155653456
 31
0.0
 11
700.9639773762249
 21
221.7405568812456
 31
0.0
 11
701.3907527249249
 21
221.4367449436456
 31
0.0
  0
SPLINE
  5
708
330
21
100
AcDbEntity
  8
0
  6
Continuous
100
AcDbSpline
210
0.0
220
0.0
230
1.0
 70
     8
 71
     3
 72
    10
 73
     6
 74
     4
 42
0.0000000001
 43
0.0000000001
 44
0.0000000001
 40
0.0
 40
0.0
 40
0.0
 40
0.0
 40
0.5653172020041737
 40
1.115398352994407
 40
1.684098442058205
 40
1.684098442058205
 40
1.684098442058205
 40
1.684098442058205
 10
701.6182967481248
 20
223.1006207351456
 30
0.0
 10
701.6132810128352
 20
222.9121691147103
 30
0.0
 10
701.6033847229978
 20
222.5403448958336
 30
0.0
 10
701.5281957728773
 20
221.9824912302727
 30
0.0
 10
701.437072525973
 20
221.6206675284806
 30
0.0
 10
701.3907526586251
 20
221.4367449133456
 30
0.0
 11
701.6182967481248
 21
223.1006207351456
 31
0.0
 11
701.5929995931247
 21
222.5358698229456
 31
0.0
 11
701.519073380125
 21
221.9907788326456
 31
0.0
 11
701.3907526586251
 21
221.4367449133456
 31
0.0
  0
SPLINE
  5
709
330
21
100
AcDbEntity
  8
0
  6
Continuous
100
AcDbSpline
210
0.0
220
0.0
230
1.0
 70
     8
 71
     3
 72
    10
 73
     6
 74
     4
 42
0.0000000001
 43
0.0000000001
 44
0.0000000001
 40
0.0
 40
0.0
 40
0.0
 40
0.0
 40
0.2828485739957403
 40
0.5586629064543457
 40
0.8417422593828945
 40
0.8417422593828945
 40
0.8417422593828945
 40
0.8417422593828945
 10
700.7251178547249
 20
223.1006207351456
 30
0.0
 10
700.722692477748
 20
223.0063060603225
 30
0.0
 10
700.7179020411828
 20
222.8200222491169
 30
0.0
 10
700.6724294313603
 20
222.5418833278354
 30
0.0
 10
700.616166489172
 20
222.3641160598609
 30
0.0
 10
700.587669339025
 20
222.2740770336456
 30
0.0
 11
700.7251178547249
 21
223.1006207351456
 31
0.0
 11
700.711333459925
 21
222.8181082464457
 31
0.0
 11
700.6664726493248
 21
222.5459666405456
 31
0.0
 11
700.587669339025
 21
222.2740770336456
 31
0.0
  0
SPLINE
  5
70A
330
21
100
AcDbEntity
  8
0
  6
Continuous
100
AcDbSpline
210
0.0
220
0.0
230
1.0
 70
     8
 71
     3
 72
     9
 73
     5
 74
     3
 42
0.0000000001
 43
0.0000000001
 44
0.0000000001
 40
0.0
 40
0.0
 40
0.0
 40
0.0
 40
0.5145927531785269
 40
1.044101621816979
 40
1.044101621816979
 40
1.044101621816979
 40
1.044101621816979
 10
701.7339169335249
 20
219.7784324610456
 30
0.0
 10
701.6037379273116
 20
219.6665526929303
 30
0.0
 10
701.3396065133449
 20
219.4395501814956
 30
0.0
 10
701.0539741764535
 20
219.2402625216354
 30
0.0
 10
700.909117725325
 20
219.1391951723456
 30
0.0
 11
701.7339169335249
 21
219.7784324610456
 31
0.0
 11
701.3381571690248
 21
219.4495253154457
 31
0.0
 11
700.909117725325
 21
219.1391951723456
 31
0.0
  0
SPLINE
  5
70B
330
21
100
AcDbEntity
  8
0
  6
Continuous
100
AcDbSpline
210
0.0
220
0.0
230
1.0
 70
     8
 71
     3
 72
    12
 73
     8
 74
     6
 42
0.0000000001
 43
0.0000000001
 44
0.0000000001
 40
0.0
 40
0.0
 40
0.0
 40
0.0
 40
0.5200481406057582
 40
1.065060925107354
 40
1.641705023520438
 40
2.250124287320972
 40
2.884853421621187
 40
2.884853421621187
 40
2.884853421621187
 40
2.884853421621187
 10
700.5877637979248
 20
222.2743008887456
 30
0.0
 10
700.5678366231417
 20
222.1010786413532
 30
0.0
 10
700.5270256797846
 20
221.7463187015485
 30
0.0
 10
700.6481955584359
 20
221.2031182187126
 30
0.0
 10
700.8924339825239
 20
220.6780753200699
 30
0.0
 10
701.2558000212176
 20
220.1848124256798
 30
0.0
 10
701.5723660386637
 20
219.915790305559
 30
0.0
 10
701.7339989334248
 20
219.7784324666456
 30
0.0
 11
700.5877637979248
 21
222.2743008887456
 31
0.0
 11
700.5564541565249
 21
221.7551961065456
 31
0.0
 11
700.6637005681248
 21
221.2208393507456
 31
0.0
 11
700.9043634699249
 21
220.6968166566456
 31
0.0
 11
701.2669163494248
 21
220.2082172193456
 31
0.0
 11
701.7339989334248
 21
219.7784324666456
 31
0.0
  0
SPLINE
  5
70C
330
21
100
AcDbEntity
  8
0
  6
Continuous
100
AcDbSpline
210
0.0
220
0.0
230
1.0
 70
     8
 71
     3
 72
     9
 73
     5
 74
     3
 42
0.0000000001
 43
0.0000000001
 44
0.0000000001
 40
0.0
 40
0.0
 40
0.0
 40
0.0
 40
0.3575618259328007
 40
0.7252426059060395
 40
0.7252426059060395
 40
0.7252426059060395
 40
0.7252426059060395
 10
700.587669339025
 20
222.2740770336456
 30
0.0
 10
700.5223559294234
 20
222.1741703339505
 30
0.0
 10
700.3898807490641
 20
221.9715295877094
 30
0.0
 10
700.2292688883858
 20
221.7903594975094
 30
0.0
 10
700.147842488825
 20
221.6985105637456
 30
0.0
 11
700.587669339025
 21
222.2740770336456
 31
0.0
 11
700.3848898594248
 21
221.9795758587456
 31
0.0
 11
700.147842488825
 21
221.6985105637456
 31
0.0
  0
SPLINE
  5
70D
330
21
100
AcDbEntity
  8
0
  6
Continuous
100
AcDbSpline
210
0.0
220
0.0
230
1.0
 70
     8
 71
     3
 72
    13
 73
     9
 74
     7
 42
0.0000000001
 43
0.0000000001
 44
0.0000000001
 40
0.0
 40
0.0
 40
0.0
 40
0.0
 40
0.6290792622840699
 40
1.377914106047534
 40
2.18046731367247
 40
3.010028965512636
 40
3.845475516451357
 40
4.662809470073132
 40
4.662809470073132
 40
4.662809470073132
 40
4.662809470073132
 10
700.909117725325
 20
219.1391951723456
 30
0.0
 10
700.728468771551
 20
219.0318989894792
 30
0.0
 10
700.3327813652545
 20
218.7968810310745
 30
0.0
 10
699.6414201404834
 20
218.5578598067634
 30
0.0
 10
698.8623938345878
 20
218.3973457375047
 30
0.0
 10
698.0394530885761
 20
218.3431776192058
 30
0.0
 10
697.2103949638869
 20
218.3827494070623
 30
0.0
 10
696.6683633107958
 20
218.4842309638555
 30
0.0
 10
696.4003175099247
 20
218.5344156809456
 30
0.0
 11
700.909117725325
 21
219.1391951723456
 31
0.0
 11
700.3585817355248
 21
218.8348091638456
 31
0.0
 11
699.6547942937248
 21
218.5790028699457
 31
0.0
 11
698.8687397282248
 21
218.4171082402456
 31
0.0
 11
698.0412179286248
 21
218.3589687064456
 31
0.0
 11
697.2068925038248
 21
218.4022356107456
 31
0.0
 11
696.4003175099247
 21
218.5344156809456
 31
0.0
  0
SPLINE
  5
70E
330
21
100
AcDbEntity
  8
0
  6
Continuous
100
AcDbSpline
210
0.0
220
0.0
230
1.0
 70
     8
 71
     3
 72
    12
 73
     8
 74
     6
 42
0.0000000001
 43
0.0000000001
 44
0.0000000001
 40
0.0
 40
0.0
 40
0.0
 40
0.0
 40
0.4674488826859375
 40
0.9776580369464136
 40
1.540444148110694
 40
2.153838795442339
 40
2.807102796198685
 40
2.807102796198685
 40
2.807102796198685
 40
2.807102796198685
 10
700.1478245285248
 20
221.6985214186456
 30
0.0
 10
700.1005455782396
 20
221.5487612228645
 30
0.0
 10
700.001662796749
 20
221.235541394038
 30
0.0
 10
700.0430208432808
 20
220.7127458558969
 30
0.0
 10
700.2080236022104
 20
220.1735860902833
 30
0.0
 10
700.4972114656891
 20
219.630590413544
 30
0.0
 10
700.7689668946034
 20
219.3063964623771
 30
0.0
 10
700.9091214966248
 20
219.1391973216457
 30
0.0
 11
700.1478245285248
 21
221.6985214186456
 31
0.0
 11
700.0345938315248
 21
221.2449938371456
 31
0.0
 11
700.0588331069248
 21
220.7353607940457
 31
0.0
 11
700.2192910177249
 21
220.1959338149456
 31
0.0
 11
700.5076835091248
 21
219.6545626259456
 31
0.0
 11
700.9091214966248
 21
219.1391973216457
 31
0.0
  0
SPLINE
  5
70F
330
21
100
AcDbEntity
  8
0
  6
Continuous
100
AcDbSpline
210
0.0
220
0.0
230
1.0
 70
     8
 71
     3
 72
    13
 73
     9
 74
     7
 42
0.0000000001
 43
0.0000000001
 44
0.0000000001
 40
0.0
 40
0.0
 40
0.0
 40
0.0
 40
0.4208955066331623
 40
0.8877408829336698
 40
1.362732977107529
 40
1.840972574427757
 40
2.323513753713204
 40
2.808202306721545
 40
2.808202306721545
 40
2.808202306721545
 40
2.808202306721545
 10
700.1478432385248
 20
221.6985115430456
 30
0.0
 10
700.0553248343314
 20
221.5922779813292
 30
0.0
 10
699.8601876363044
 20
221.368213161465
 30
0.0
 10
699.4710905319296
 20
221.1218581384225
 30
0.0
 10
699.0232986041419
 20
220.9582127014678
 30
0.0
 10
698.5442141090443
 20
220.9018720726162
 30
0.0
 10
698.0598238281953
 20
220.9436588403436
 30
0.0
 10
697.7524368023201
 20
221.043633383254
 30
0.0
 10
697.598402070125
 20
221.0937316328456
 30
0.0
 11
700.1478432385248
 21
221.6985115430456
 31
0.0
 11
699.8571745172249
 21
221.3941027357456
 31
0.0
 11
699.4665202843249
 21
221.1384978146456
 31
0.0
 11
699.0199799612249
 21
220.9765742852456
 31
0.0
 11
698.5453084980248
 21
220.9182637847456
 31
0.0
 11
698.0647100447249
 21
220.9615201876456
 31
0.0
 11
697.598402070125
 21
221.0937316328456
 31
0.0
  0
SPLINE
  5
710
330
21
100
AcDbEntity
  8
0
  6
Continuous
100
AcDbSpline
210
0.0
220
0.0
230
1.0
 70
     8
 71
     3
 72
     9
 73
     5
 74
     3
 42
0.0000000001
 43
0.0000000001
 44
0.0000000001
 40
0.0
 40
0.0
 40
0.0
 40
0.0
 40
1.517313438917003
 40
3.157399067943839
 40
3.157399067943839
 40
3.157399067943839
 40
3.157399067943839
 10
696.4003175099247
 20
218.5344156809456
 30
0.0
 10
695.9058866564905
 20
218.641278305029
 30
0.0
 10
694.8770184768805
 20
218.8636502560213
 30
0.0
 10
693.8387055125127
 20
219.0367336105575
 30
0.0
 10
693.299362168625
 20
219.1266403712456
 30
0.0
 11
696.4003175099247
 21
218.5344156809456
 31
0.0
 11
694.9148438087249
 21
218.8436210414456
 31
0.0
 11
693.299362168625
 21
219.1266403712456
 31
0.0
  0
SPLINE
  5
711
330
21
100
AcDbEntity
  8
0
  6
Continuous
100
AcDbSpline
210
0.0
220
0.0
230
1.0
 70
     8
 71
     3
 72
    11
 73
     7
 74
     5
 42
0.0000000001
 43
0.0000000001
 44
0.0000000001
 40
0.0
 40
0.0
 40
0.0
 40
0.0
 40
0.6348731194514756
 40
1.346013209205047
 40
2.095196446507995
 40
2.840821380065492
 40
2.840821380065492
 40
2.840821380065492
 40
2.840821380065492
 10
697.5984036255248
 20
221.0937145606457
 30
0.0
 10
697.4767099770825
 20
220.9202927388037
 30
0.0
 10
697.2187036869103
 20
220.5526160238634
 30
0.0
 10
696.9014862615061
 20
219.9284467266588
 30
0.0
 10
696.6143124884234
 20
219.250497103183
 30
0.0
 10
696.4715341861484
 20
218.7727298041532
 30
0.0
 10
696.4003149727249
 20
218.5344148032456
 30
0.0
 11
697.5984036255248
 21
221.0937145606457
 31
0.0
 11
697.245384414825
 21
220.5660391730456
 31
0.0
 11
696.9145949500249
 21
219.9365166895456
 31
0.0
 11
696.6268655485249
 21
219.2447889146456
 31
0.0
 11
696.4003149727249
 21
218.5344148032456
 31
0.0
  0
SPLINE
  5
712
330
21
100
AcDbEntity
  8
0
  6
Continuous
100
AcDbSpline
210
0.0
220
0.0
230
1.0
 70
     8
 71
     3
 72
    11
 73
     7
 74
     0
 42
0.0000000001
 43
0.0000000001
 40
0.0
 40
0.0
 40
0.0
 40
0.0
 40
2.794875310814572
 40
5.895872785405076
 40
9.154713729416445
 40
9.315208820790414
 40
9.315208820790414
 40
9.315208820790414
 40
9.315208820790414
 10
697.5984036211249
 20
221.0937310723456
 30
0.0
 10
696.6817610133817
 20
221.2608788556927
 30
0.0
 10
694.7480761065727
 20
221.6134820874589
 30
0.0
 10
691.7145531069047
 20
221.9701313979931
 30
0.0
 10
689.5409566328405
 20
222.0628094616777
 30
0.0
 10
688.4009082005217
 20
222.0650530166267
 30
0.0
 10
688.347397143125
 20
222.0650562362445
 30
0.0
  0
SPLINE
  5
713
330
21
100
AcDbEntity
  8
0
  6
Continuous
100
AcDbSpline
210
0.0
220
0.0
230
1.0
 70
    24
 71
     3
 72
     8
 73
     4
 74
     2
 42
0.0000000001
 43
0.0000000001
 44
0.0000000001
 40
0.0
 40
0.0
 40
0.0
 40
0.0
 40
0.1135791683864055
 40
0.1135791683864055
 40
0.1135791683864055
 40
0.1135791683864055
 10
689.7763640590247
 20
243.8834884983457
 30
0.0
 10
689.7436349083581
 20
243.864457962179
 30
0.0
 10
689.7109057576915
 20
243.8454274260123
 30
0.0
 10
689.6781766070249
 20
243.8263968898456
 30
0.0
 11
689.7763640590247
 21
243.8834884983457
 31
0.0
 11
689.6781766070249
 21
243.8263968898456
 31
0.0
  0
SPLINE
  5
714
330
21
100
AcDbEntity
  8
0
  6
Continuous
100
AcDbSpline
210
0.0
220
0.0
230
1.0
 70
     8
 71
     3
 72
    15
 73
    11
 74
     9
 42
0.0000000001
 43
0.0000000001
 44
0.0000000001
 40
0.0
 40
0.0
 40
0.0
 40
0.0
 40
0.9100834688230998
 40
2.337585054640525
 40
3.124610485738591
 40
3.99224156733568
 40
5.876504767869885
 40
6.451679632740378
 40
6.924246559835265
 40
7.666261252198402
 40
7.666261252198402
 40
7.666261252198402
 40
7.666261252198402
 10
689.6781766070249
 20
243.8263968898456
 30
0.0
 10
689.4489267203554
 20
243.6269493779981
 30
0.0
 10
688.8600894024445
 20
243.1146606277336
 30
0.0
 10
688.1791008099817
 20
242.3302951084722
 30
0.0
 10
687.5564043844813
 20
241.4904237344866
 30
0.0
 10
686.4468567982779
 20
240.9934800344579
 30
0.0
 10
685.4353564820361
 20
240.6732051144079
 30
0.0
 10
684.4302668024815
 20
240.3970764282613
 30
0.0
 10
684.1754642673725
 20
239.7945089850632
 30
0.0
 10
684.249249796773
 20
239.3915471083047
 30
0.0
 10
684.294327003625
 20
239.1453688126456
 30
0.0
 11
689.6781766070249
 21
243.8263968898456
 31
0.0
 11
689.0024583369248
 21
243.2167603262456
 31
0.0
 11
688.0541540686248
 21
242.1497646410456
 31
0.0
 11
687.5309521361249
 21
241.5618286181456
 31
0.0
 11
686.7681989331248
 21
241.1483177415457
 31
0.0
 11
684.981385586325
 21
240.5501991307456
 31
0.0
 11
684.4583796707248
 21
240.3108438771456
 31
0.0
 11
684.2511709433248
 21
239.8861274495457
 31
0.0
 11
684.294327003625
 21
239.1453688126456
 31
0.0
  0
SPLINE
  5
715
330
21
100
AcDbEntity
  8
0
  6
Continuous
100
AcDbSpline
210
0.0
220
0.0
230
1.0
 70
     8
 71
     3
 72
    11
 73
     7
 74
     0
 42
0.0000000001
 43
0.0000000001
 40
0.0
 40
0.0
 40
0.0
 40
0.0
 40
0.721123676968877
 40
1.442247771812485
 40
2.163359171688815
 40
2.693186555475547
 40
2.693186555475547
 40
2.693186555475547
 40
2.693186555475547
 10
684.294327003625
 20
239.1453688126456
 30
0.0
 10
684.3239832305372
 20
238.9062359391161
 30
0.0
 10
684.3832957015469
 20
238.4279700534851
 30
0.0
 10
684.6137308490398
 20
237.7412455892367
 30
0.0
 10
684.6887718886397
 20
237.0830089308685
 30
0.0
 10
684.674047880566
 20
236.6662404040539
 30
0.0
 10
684.6648457083062
 20
236.4897573523456
 30
0.0
  0
SPLINE
  5
716
330
21
100
AcDbEntity
  8
0
  6
Continuous
100
AcDbSpline
210
0.0
220
0.0
230
1.0
 70
     8
 71
     3
 72
    13
 73
     9
 74
     7
 42
0.0000000001
 43
0.0000000001
 44
0.0000000001
 40
0.0
 40
0.0
 40
0.0
 40
0.0
 40
0.0427097917205158
 40
0.0886573349785751
 40
0.1373328661844677
 40
0.184202518341163
 40
0.2722082857086189
 40
0.3591864518504415
 40
0.3591864518504415
 40
0.3591864518504415
 40
0.3591864518504415
 10
689.0563274656248
 20
231.8467371724457
 30
0.0
 10
689.0648987826344
 20
231.8349931357875
 30
0.0
 10
689.0826911925882
 20
231.8106147684376
 30
0.0
 10
689.0842432970095
 20
231.7629414246256
 30
0.0
 10
689.0773905486982
 20
231.7165442978335
 30
0.0
 10
689.0603554720634
 20
231.6574648701581
 30
0.0
 10
689.0279779633311
 20
231.5906295665133
 30
0.0
 10
688.9977745566939
 20
231.5407387457524
 30
0.0
 10
688.982761538825
 20
231.5159398284456
 30
0.0
 11
689.0563274656248
 21
231.8467371724457
 31
0.0
 11
689.0781448038247
 21
231.8100202817456
 31
0.0
 11
689.0828797240247
 21
231.7643173577456
 31
0.0
 11
689.0762026453249
 21
231.7161019664456
 31
0.0
 11
689.0633078633249
 21
231.6710410200456
 31
0.0
 11
689.0266477290248
 21
231.5910344600456
 31
0.0
 11
688.982761538825
 21
231.5159398284456
 31
0.0
  0
SPLINE
  5
717
330
21
100
AcDbEntity
  8
0
  6
Continuous
100
AcDbSpline
210
0.0
220
0.0
230
1.0
 70
     8
 71
     3
 72
    10
 73
     6
 74
     4
 42
0.0000000001
 43
0.0000000001
 44
0.0000000001
 40
0.0
 40
0.0
 40
0.0
 40
0.0
 40
0.3783972953906514
 40
1.228954334849482
 40
2.470089287748854
 40
2.470089287748854
 40
2.470089287748854
 40
2.470089287748854
 10
688.982761538825
 20
231.5159398284456
 30
0.0
 10
688.9185400755231
 20
231.4068914041319
 30
0.0
 10
688.709962353968
 20
231.0527251999827
 30
0.0
 10
688.5959261154065
 20
230.2003650041719
 30
0.0
 10
688.8003036414962
 20
229.5281525186117
 30
0.0
 10
688.9215739299248
 20
229.1292857568456
 30
0.0
 11
688.982761538825
 21
231.5159398284456
 31
0.0
 11
688.8044921917249
 21
231.1821666224457
 31
0.0
 11
688.663719843025
 21
230.3433398088456
 31
0.0
 11
688.9215739299248
 21
229.1292857568456
 31
0.0
  0
SPLINE
  5
718
330
21
100
AcDbEntity
  8
0
  6
Continuous
100
AcDbSpline
210
0.0
220
0.0
230
1.0
 70
     8
 71
     3
 72
    23
 73
    19
 74
    17
 42
0.0000000001
 43
0.0000000001
 44
0.0000000001
 40
0.0
 40
0.0
 40
0.0
 40
0.0
 40
0.2616925622958594
 40
0.3921733402110045
 40
0.5225740495592036
 40
0.6533409638745578
 40
0.7841507300343278
 40
0.9148371350638618
 40
1.045039086696612
 40
1.306298567443069
 40
1.436791310031808
 40
1.567988366483711
 40
1.634470937710459
 40
1.700579946870197
 40
1.76559389624045
 40
1.830477158148538
 40
1.964118494330163
 40
2.098764468511441
 40
2.098764468511441
 40
2.098764468511441
 40
2.098764468511441
 10
688.9215739299248
 20
229.1292857568456
 30
0.0
 10
688.9372990469202
 20
229.0430590674395
 30
0.0
 10
688.9608647593091
 20
228.913839465235
 30
0.0
 10
688.9514108797544
 20
228.7390903618791
 30
0.0
 10
688.9306904061666
 20
228.6101696084275
 30
0.0
 10
688.9057069197249
 20
228.481893244553
 30
0.0
 10
688.8880084930057
 20
228.3522842476253
 30
0.0
 10
688.8740465546463
 20
228.2224695254786
 30
0.0
 10
688.8464441140285
 20
228.0504711461978
 30
0.0
 10
688.7909342027494
 20
227.8838661647025
 30
0.0
 10
688.7882570568758
 20
227.7075106271064
 30
0.0
 10
688.8207419553039
 20
227.6005870858968
 30
0.0
 10
688.868332725358
 20
227.5261101579317
 30
0.0
 10
688.9139541560451
 20
227.4779733572105
 30
0.0
 10
688.9687643111171
 20
227.4412111265972
 30
0.0
 10
689.0521252560138
 20
227.4114288984407
 30
0.0
 10
689.1649092788059
 20
227.4036431962175
 30
0.0
 10
689.2531729231804
 20
227.4186697004461
 30
0.0
 10
689.297470002925
 20
227.4262110869457
 30
0.0
 11
688.9215739299248
 21
229.1292857568456
 31
0.0
 11
688.9550969733249
 21
228.8697492416456
 31
0.0
 11
688.9491374018249
 21
228.7394046333456
 31
0.0
 11
688.9300045690249
 21
228.6104151775457
 31
0.0
 11
688.9069267799249
 21
228.4817007590456
 31
0.0
 11
688.8886228736249
 21
228.3521779350456
 31
0.0
 11
688.8729020769248
 21
228.2224405348456
 31
0.0
 11
688.851055950725
 21
228.0940844092456
 31
0.0
 11
688.794664982625
 21
227.8389833018457
 31
0.0
 11
688.7950349605248
 21
227.7084910837456
 31
0.0
 11
688.8342378497249
 21
227.5832880442457
 31
0.0
 11
688.8700821588249
 21
227.5272959217456
 31
0.0
 11
688.9158322900249
 21
227.4795745786457
 31
0.0
 11
688.969994387725
 21
227.4436123653456
 31
0.0
 11
689.0308469462248
 21
227.4211000620456
 31
0.0
 11
689.1639349016249
 21
227.4089508701456
 31
0.0
 11
689.297470002925
 21
227.4262110869457
 31
0.0
  0
SPLINE
  5
719
330
21
100
AcDbEntity
  8
0
  6
Continuous
100
AcDbSpline
210
0.0
220
0.0
230
1.0
 70
     8
 71
     3
 72
     9
 73
     5
 74
     3
 42
0.0000000001
 43
0.0000000001
 44
0.0000000001
 40
0.0
 40
0.0
 40
0.0
 40
0.0
 40
0.3454888507520333
 40
0.6909600996694512
 40
0.6909600996694512
 40
0.6909600996694512
 40
0.6909600996694512
 10
689.297470002925
 20
227.4262110869457
 30
0.0
 10
689.4100081948558
 20
227.4539896498103
 30
0.0
 10
689.6350788451643
 20
227.5095453602879
 30
0.0
 10
689.8664220519189
 20
227.4945950178424
 30
0.0
 10
689.9820907086249
 20
227.4871200370456
 30
0.0
 11
689.297470002925
 21
227.4262110869457
 31
0.0
 11
689.6366527977249
 21
227.4919193642456
 31
0.0
 11
689.9820907086249
 21
227.4871200370456
 31
0.0
  0
SPLINE
  5
71A
330
21
100
AcDbEntity
  8
0
  6
Continuous
100
AcDbSpline
210
0.0
220
0.0
230
1.0
 70
     8
 71
     3
 72
     9
 73
     5
 74
     3
 42
0.0000000001
 43
0.0000000001
 44
0.0000000001
 40
0.0
 40
0.0
 40
0.0
 40
0.0
 40
0.3470005335480115
 40
0.6940049083625516
 40
0.6940049083625516
 40
0.6940049083625516
 40
0.6940049083625516
 10
689.9820907086249
 20
227.4871200370456
 30
0.0
 10
690.0966864624016
 20
227.4711546250005
 30
0.0
 10
690.32587923852
 20
227.4392236241743
 30
0.0
 10
690.5524354009327
 20
227.392093770042
 30
0.0
 10
690.6657141091248
 20
227.3685287125456
 30
0.0
 11
689.9820907086249
 21
227.4871200370456
 31
0.0
 11
690.3252188238249
 21
227.4354241296456
 31
0.0
 11
690.6657141091248
 21
227.3685287125456
 31
0.0
  0
SPLINE
  5
71B
330
21
100
AcDbEntity
  8
0
  6
Continuous
100
AcDbSpline
210
0.0
220
0.0
230
1.0
 70
     8
 71
     3
 72
     9
 73
     5
 74
     3
 42
0.0000000001
 43
0.0000000001
 44
0.0000000001
 40
0.0
 40
0.0
 40
0.0
 40
0.0
 40
0.1735092749098306
 40
0.3469771970967576
 40
0.3469771970967576
 40
0.3469771970967576
 40
0.3469771970967576
 10
690.6657141091248
 20
227.3685287125456
 30
0.0
 10
690.7223580208381
 20
227.356767167388
 30
0.0
 10
690.8356323442372
 20
227.3332468802193
 30
0.0
 10
690.9501543172698
 20
227.3168459086813
 30
0.0
 10
691.007408479425
 20
227.3086464002457
 30
0.0
 11
690.6657141091248
 21
227.3685287125456
 31
0.0
 11
690.835957831025
 21
227.3350243302456
 31
0.0
 11
691.007408479425
 21
227.3086464002457
 31
0.0
  0
SPLINE
  5
71C
330
21
100
AcDbEntity
  8
0
  6
Continuous
100
AcDbSpline
210
0.0
220
0.0
230
1.0
 70
     8
 71
     3
 72
    13
 73
     9
 74
     7
 42
0.0000000001
 43
0.0000000001
 44
0.0000000001
 40
0.0
 40
0.0
 40
0.0
 40
0.0
 40
0.0811728865655098
 40
0.1642697658666701
 40
0.2103159218860669
 40
0.2593257473957198
 40
0.3039780090049847
 40
0.3429329034976228
 40
0.3429329034976228
 40
0.3429329034976228
 40
0.3429329034976228
 10
691.007408479425
 20
227.3086464002457
 30
0.0
 10
691.0342561256093
 20
227.3051661412534
 30
0.0
 10
691.0885877717956
 20
227.2981231327563
 30
0.0
 10
691.158754869786
 20
227.2960105143254
 30
0.0
 10
691.2182724151212
 20
227.3005696652968
 30
0.0
 10
691.2634857114645
 20
227.3079249753816
 30
0.0
 10
691.3086875176267
 20
227.3217390739893
 30
0.0
 10
691.3221706154388
 20
227.3473041590655
 30
0.0
 10
691.3284527649249
 20
227.3592156417456
 30
0.0
 11
691.007408479425
 21
227.3086464002457
 31
0.0
 11
691.0880669642248
 21
227.2995224568457
 31
0.0
 11
691.1711402818249
 21
227.2975437571457
 31
0.0
 11
691.217049111725
 21
227.3010973217457
 31
0.0
 11
691.2653374962247
 21
227.3094755625456
 31
0.0
 11
691.306346954725
 21
227.3271404650456
 31
0.0
 11
691.3284527649249
 21
227.3592156417456
 31
0.0
  0
SPLINE
  5
71D
330
21
100
AcDbEntity
  8
0
  6
Continuous
100
AcDbSpline
210
0.0
220
0.0
230
1.0
 70
     8
 71
     3
 72
    13
 73
     9
 74
     7
 42
0.0000000001
 43
0.0000000001
 44
0.0000000001
 40
0.0
 40
0.0
 40
0.0
 40
0.0
 40
0.0348606431989336
 40
0.0722349670870635
 40
0.1120936048205148
 40
0.1508336640566651
 40
0.2232295981940015
 40
0.294266184968664
 40
0.294266184968664
 40
0.294266184968664
 40
0.294266184968664
 10
691.3284527649249
 20
227.3592156417456
 30
0.0
 10
691.3300287851062
 20
227.3709699566143
 30
0.0
 10
691.3332944668459
 20
227.3953261494369
 30
0.0
 10
691.3163021178708
 20
227.4302494233955
 30
0.0
 10
691.2943298032224
 20
227.4617323026821
 30
0.0
 10
691.2621187128539
 20
227.5005684909682
 30
0.0
 10
691.2193158723413
 20
227.5438972212721
 30
0.0
 10
691.1811251652373
 20
227.5727510395049
 30
0.0
 10
691.1622107833249
 20
227.5870412210456
 30
0.0
 11
691.3284527649249
 21
227.3592156417456
 31
0.0
 11
691.3298699099249
 21
227.3940474683456
 31
0.0
 11
691.3159938001248
 21
227.4287504028456
 31
0.0
 11
691.2936354848248
 21
227.4617476260456
 31
0.0
 11
691.269006273025
 21
227.4916507047456
 31
0.0
 11
691.217852570425
 21
227.5428802859456
 31
0.0
 11
691.1622107833249
 21
227.5870412210456
 31
0.0
  0
SPLINE
  5
71E
330
21
100
AcDbEntity
  8
0
  6
Continuous
100
AcDbSpline
210
0.0
220
0.0
230
1.0
 70
     8
 71
     3
 72
    10
 73
     6
 74
     4
 42
0.0000000001
 43
0.0000000001
 44
0.0000000001
 40
0.0
 40
0.0
 40
0.0
 40
0.0
 40
0.1746863684406864
 40
0.2621764558233757
 40
0.3492111029227162
 40
0.3492111029227162
 40
0.3492111029227162
 40
0.3492111029227162
 10
691.1622107833249
 20
227.5870412210456
 30
0.0
 10
691.1128299565071
 20
227.6183974450966
 30
0.0
 10
691.0387171892872
 20
227.6654581503082
 30
0.0
 10
690.9280127939599
 20
227.7034667766546
 30
0.0
 10
690.8709358114469
 20
227.7148348986106
 30
0.0
 10
690.8424717943249
 20
227.7205041264456
 30
0.0
 11
691.1622107833249
 21
227.5870412210456
 31
0.0
 11
691.0100725491249
 21
227.6728857608457
 31
0.0
 11
690.9274285254249
 21
227.7015995334456
 31
0.0
 11
690.8424717943249
 21
227.7205041264456
 31
0.0
  0
SPLINE
  5
71F
330
21
100
AcDbEntity
  8
0
  6
Continuous
100
AcDbSpline
210
0.0
220
0.0
230
1.0
 70
     8
 71
     3
 72
    21
 73
    17
 74
    15
 42
0.0000000001
 43
0.0000000001
 44
0.0000000001
 40
0.0
 40
0.0
 40
0.0
 40
0.0
 40
0.2589325591480441
 40
0.3881516533828231
 40
0.5175463049937397
 40
0.6473580264043461
 40
0.7772456413229583
 40
0.9067871525028663
 40
1.036307115891112
 40
1.166850046550201
 40
1.297202714589628
 40
1.426337939662062
 40
1.555906853348967
 40
1.686578668055009
 40
1.816586608208381
 40
2.075088664573767
 40
2.075088664573767
 40
2.075088664573767
 40
2.075088664573767
 10
690.8424717943249
 20
227.7205041264456
 30
0.0
 10
690.7577853641262
 20
227.7382922988922
 30
0.0
 10
690.6308365632153
 20
227.7649575764013
 30
0.0
 10
690.4702397555975
 20
227.8292199375365
 30
0.0
 10
690.3548455100424
 20
227.8881903956072
 30
0.0
 10
690.2438421172351
 20
227.9554191797991
 30
0.0
 10
690.135935851284
 20
228.0275320953151
 30
0.0
 10
690.0324433835766
 20
228.1058266675547
 30
0.0
 10
689.936629627839
 20
228.193900461367
 30
0.0
 10
689.8524548875466
 20
228.2936780636097
 30
0.0
 10
689.7841518793707
 20
228.4050515432683
 30
0.0
 10
689.7388254187213
 20
228.5276326290978
 30
0.0
 10
689.7204514467318
 20
228.6568774762191
 30
0.0
 10
689.7210015873034
 20
228.7872153991923
 30
0.0
 10
689.738445769442
 20
228.9596469005861
 30
0.0
 10
689.766007155245
 20
229.0863178300141
 30
0.0
 10
689.7843456149249
 20
229.1706005924456
 30
0.0
 11
690.8424717943249
 21
227.7205041264456
 31
0.0
 11
690.5913067202249
 21
227.7834499423456
 31
0.0
 11
690.4711479290248
 21
227.8309835011456
 31
0.0
 11
690.3557313068249
 21
227.8894811864456
 31
0.0
 11
690.244387047525
 21
227.9562160269456
 31
0.0
 11
690.1365643467248
 21
228.0286387975456
 31
0.0
 11
690.033743313525
 21
228.1074349792456
 31
0.0
 11
689.9388371826249
 21
228.1955726399456
 31
0.0
 11
689.8550580380248
 21
228.2956851350456
 31
0.0
 11
689.787777150325
 21
228.4073323482456
 31
0.0
 11
689.743343958925
 21
228.5285824940456
 31
0.0
 11
689.7236385411248
 21
228.6566441975456
 31
0.0
 11
689.7231110194248
 21
228.7873149474456
 31
0.0
 11
689.7357530005248
 21
228.9167067741457
 31
0.0
 11
689.7843456149249
 21
229.1706005924456
 31
0.0
  0
SPLINE
  5
720
330
21
100
AcDbEntity
  8
0
  6
Continuous
100
AcDbSpline
210
0.0
220
0.0
230
1.0
 70
     8
 71
     3
 72
    14
 73
    10
 74
     8
 42
0.0000000001
 43
0.0000000001
 44
0.0000000001
 40
0.0
 40
0.0
 40
0.0
 40
0.0
 40
0.6909181587268763
 40
1.038125883121881
 40
1.382648731207214
 40
1.728087205708409
 40
2.073560100778357
 40
2.419017330660593
 40
2.764425210292374
 40
2.764425210292374
 40
2.764425210292374
 40
2.764425210292374
 10
690.2253745190249
 20
231.2041352825456
 30
0.0
 10
690.2658694773451
 20
231.4310503120589
 30
0.0
 10
690.326714403531
 20
231.7719971556636
 30
0.0
 10
690.446159600451
 20
232.217082843306
 30
0.0
 10
690.5036147871306
 20
232.5597501064101
 30
0.0
 10
690.4815136041026
 20
232.9075267326505
 30
0.0
 10
690.3946067262129
 20
233.2421518940755
 30
0.0
 10
690.2238047739128
 20
233.5565611707282
 30
0.0
 10
690.0241535061217
 20
233.6786372247407
 30
0.0
 10
689.9243350030247
 20
233.7396708916456
 30
0.0
 11
690.2253745190249
 21
231.2041352825456
 31
0.0
 11
690.3596328740249
 21
231.8818834630457
 31
0.0
 11
690.4409902396249
 21
232.2194248426456
 31
0.0
 11
690.4903620926249
 21
232.5603917222456
 31
0.0
 11
690.4707178056249
 21
232.9052711818456
 31
0.0
 11
690.3806210669249
 21
233.2387889458457
 31
0.0
 11
690.2023466432248
 21
233.5346925239456
 31
0.0
 11
689.9243350030247
 21
233.7396708916456
 31
0.0
  0
SPLINE
  5
721
330
21
100
AcDbEntity
  8
0
  6
Continuous
100
AcDbSpline
210
0.0
220
0.0
230
1.0
 70
     8
 71
     3
 72
    14
 73
    10
 74
     8
 42
0.0000000001
 43
0.0000000001
 44
0.0000000001
 40
0.0
 40
0.0
 40
0.0
 40
0.0
 40
0.1912205843583221
 40
0.385781933690921
 40
0.5805630574448411
 40
0.7724046675458522
 40
0.9640683804492657
 40
1.156389151165866
 40
1.540711257099273
 40
1.540711257099273
 40
1.540711257099273
 40
1.540711257099273
 10
689.9243350030247
 20
233.7396708916456
 30
0.0
 10
689.8633164610836
 20
233.7591763043006
 30
0.0
 10
689.740213338164
 20
233.7985279035895
 30
0.0
 10
689.5450270479288
 20
233.8031173456651
 30
0.0
 10
689.3517917275083
 20
233.79615462028
 30
0.0
 10
689.1592442206151
 20
233.7848580757043
 30
0.0
 10
688.9676843058978
 20
233.7738068779387
 30
0.0
 10
688.7118702046585
 20
233.7582184982041
 30
0.0
 10
688.5222091175115
 20
233.7257055746951
 30
0.0
 10
688.3958034141247
 20
233.7040362959456
 30
0.0
 11
689.9243350030247
 21
233.7396708916456
 31
0.0
 11
689.7396584641247
 21
233.7892681482456
 31
0.0
 11
689.545462240725
 21
233.8011822353456
 31
0.0
 11
689.3507676128248
 21
233.7953780956456
 31
0.0
 11
689.159213050525
 21
233.7848874794457
 31
0.0
 11
688.9678752772248
 21
233.7737145052457
 31
0.0
 11
688.7760586062248
 21
233.7597989177456
 31
0.0
 11
688.3958034141247
 21
233.7040362959456
 31
0.0
  0
SPLINE
  5
722
330
21
100
AcDbEntity
  8
0
  6
Continuous
100
AcDbSpline
210
0.0
220
0.0
230
1.0
 70
    24
 71
     3
 72
     8
 73
     4
 74
     0
 42
0.0000000001
 43
0.0000000001
 40
0.0
 40
0.0
 40
0.0
 40
0.0
 40
0.0493623682850389
 40
0.0493623682850389
 40
0.0493623682850389
 40
0.0493623682850389
 10
688.3958034141247
 20
233.7040362959456
 30
0.0
 10
688.3796679904581
 20
233.7008135240092
 30
0.0
 10
688.3635325667916
 20
233.6975907520728
 30
0.0
 10
688.347397143125
 20
233.6943679801363
 30
0.0
  0
SPLINE
  5
723
330
21
100
AcDbEntity
  8
0
  6
Continuous
100
AcDbSpline
210
0.0
220
0.0
230
1.0
 70
     8
 71
     3
 72
    14
 73
    10
 74
     0
 42
0.0000000001
 43
0.0000000001
 40
0.1366523837182802
 40
0.1366523837182802
 40
0.1366523837182802
 40
0.1366523837182802
 40
0.2157334026496361
 40
0.4328676086900657
 40
0.650870330086174
 40
0.8680569526141271
 40
1.084822418249312
 40
1.301491194748704
 40
1.734879723198286
 40
1.734879723198286
 40
1.734879723198286
 40
1.734879723198286
 10
688.3473971431247
 20
236.4055197977411
 30
0.0
 10
688.3702526603742
 20
236.4186390631224
 30
0.0
 10
688.4567383310088
 20
236.4660816549792
 30
0.0
 10
688.6158597432996
 20
236.5310045608477
 30
0.0
 10
688.8176114938243
 20
236.6118367628796
 30
0.0
 10
689.0129823788941
 20
236.7077432975628
 30
0.0
 10
689.1991352902201
 20
236.8193678659478
 30
0.0
 10
689.4372010910932
 20
236.9834387041793
 30
0.0
 10
689.6057718808539
 20
237.119748946895
 30
0.0
 10
689.7181568136248
 20
237.2106260050456
 30
0.0
  0
SPLINE
  5
724
330
21
100
AcDbEntity
  8
0
  6
Continuous
100
AcDbSpline
210
0.0
220
0.0
230
1.0
 70
     8
 71
     3
 72
    11
 73
     7
 74
     5
 42
0.0000000001
 43
0.0000000001
 44
0.0000000001
 40
0.0
 40
0.0
 40
0.0
 40
0.0
 40
0.1759364502472081
 40
0.3520342625287108
 40
0.5250204445323981
 40
0.698054587197237
 40
0.698054587197237
 40
0.698054587197237
 40
0.698054587197237
 10
689.7181568136248
 20
237.2106260050456
 30
0.0
 10
689.7632118065334
 20
237.2482939689646
 30
0.0
 10
689.853363115029
 20
237.3236644443864
 30
0.0
 10
689.9714440845363
 20
237.4529737939138
 30
0.0
 10
690.065166501852
 20
237.6042439475431
 30
0.0
 10
690.0805710441107
 20
237.7197759965143
 30
0.0
 10
690.0882743828248
 20
237.7775500277456
 30
0.0
 11
689.7181568136248
 21
237.2106260050456
 31
0.0
 11
689.8505802556248
 21
237.3264606567456
 31
0.0
 11
689.9681105822248
 21
237.4575982250456
 31
0.0
 11
690.0534842365249
 21
237.6080494075456
 31
0.0
 11
690.0882743828248
 21
237.7775500277456
 31
0.0
  0
SPLINE
  5
725
330
21
100
AcDbEntity
  8
0
  6
Continuous
100
AcDbSpline
210
0.0
220
0.0
230
1.0
 70
     8
 71
     3
 72
     9
 73
     5
 74
     3
 42
0.0000000001
 43
0.0000000001
 44
0.0000000001
 40
0.0
 40
0.0
 40
0.0
 40
0.0
 40
0.3455727203421457
 40
0.6911347874307445
 40
0.6911347874307445
 40
0.6911347874307445
 40
0.6911347874307445
 10
690.0882743828248
 20
237.7775500277456
 30
0.0
 10
690.0738436952554
 20
237.8919456066051
 30
0.0
 10
690.0449827649832
 20
238.1207332377578
 30
0.0
 10
689.9894050487833
 20
238.3445363814612
 30
0.0
 10
689.9616166190249
 20
238.4564362284456
 30
0.0
 11
690.0882743828248
 21
237.7775500277456
 31
0.0
 11
690.0383029177249
 21
238.1194906040457
 31
0.0
 11
689.9616166190249
 21
238.4564362284456
 31
0.0
  0
SPLINE
  5
726
330
21
100
AcDbEntity
  8
0
  6
Continuous
100
AcDbSpline
210
0.0
220
0.0
230
1.0
 70
    24
 71
     3
 72
     8
 73
     4
 74
     2
 42
0.0000000001
 43
0.0000000001
 44
0.0000000001
 40
0.0
 40
0.0
 40
0.0
 40
0.0
 40
1.04103987989756
 40
1.04103987989756
 40
1.04103987989756
 40
1.04103987989756
 10
689.9616166190249
 20
238.4564362284456
 30
0.0
 10
689.9117073589249
 20
238.7998416615457
 30
0.0
 10
689.8617980988249
 20
239.1432470946457
 30
0.0
 10
689.8118888387249
 20
239.4866525277457
 30
0.0
 11
689.9616166190249
 21
238.4564362284456
 31
0.0
 11
689.8118888387249
 21
239.4866525277457
 31
0.0
  0
SPLINE
  5
727
330
21
100
AcDbEntity
  8
0
  6
Continuous
100
AcDbSpline
210
0.0
220
0.0
230
1.0
 70
     8
 71
     3
 72
     9
 73
     5
 74
     3
 42
0.0000000001
 43
0.0000000001
 44
0.0000000001
 40
0.0
 40
0.0
 40
0.0
 40
0.0
 40
0.3485574513055628
 40
0.6956751105226524
 40
0.6956751105226524
 40
0.6956751105226524
 40
0.6956751105226524
 10
689.8118888387249
 20
239.4866525277457
 30
0.0
 10
689.7909087263461
 20
239.6015716664574
 30
0.0
 10
689.7490351644892
 20
239.8309352454743
 30
0.0
 10
689.7720535820711
 20
240.0629444891088
 30
0.0
 10
689.783538971025
 20
240.1787090239456
 30
0.0
 11
689.8118888387249
 21
239.4866525277457
 31
0.0
 11
689.7652387172248
 21
239.8320741006456
 31
0.0
 11
689.783538971025
 21
240.1787090239456
 31
0.0
  0
SPLINE
  5
728
330
21
100
AcDbEntity
  8
0
  6
Continuous
100
AcDbSpline
210
0.0
220
0.0
230
1.0
 70
     8
 71
     3
 72
    14
 73
    10
 74
     8
 42
0.0000000001
 43
0.0000000001
 44
0.0000000001
 40
0.0
 40
0.0
 40
0.0
 40
0.0
 40
0.2206705555441095
 40
0.4449080005462177
 40
0.6600118674502745
 40
0.8726125135543994
 40
1.088687640679986
 40
1.302149535655795
 40
1.726994364764889
 40
1.726994364764889
 40
1.726994364764889
 40
1.726994364764889
 10
689.783538971025
 20
240.1787090239456
 30
0.0
 10
689.8015242619129
 20
240.2503788576928
 30
0.0
 10
689.837785555534
 20
240.3948769868307
 30
0.0
 10
689.9532832110172
 20
240.5858350080449
 30
0.0
 10
690.1188170674454
 20
240.7354371074438
 30
0.0
 10
690.3330833784618
 20
240.7922055770256
 30
0.0
 10
690.5485074289052
 20
240.7753920394664
 30
0.0
 10
690.8233229645405
 20
240.6851574640738
 30
0.0
 10
690.9832274442611
 20
240.5399149160303
 30
0.0
 10
691.0896568281249
 20
240.4432442353456
 30
0.0
 11
689.783538971025
 21
240.1787090239456
 31
0.0
 11
689.847727433625
 21
240.3898377414456
 31
0.0
 11
689.9639133821247
 21
240.5816273582456
 31
0.0
 11
690.1279899724248
 21
240.7207264095457
 31
0.0
 11
690.3322068162248
 21
240.7798408361456
 31
0.0
 11
690.547881374625
 21
240.7666899646457
 31
0.0
 11
690.7502523213248
 21
240.6987784005456
 31
0.0
 11
691.0896568281249
 21
240.4432442353456
 31
0.0
  0
SPLINE
  5
729
330
21
100
AcDbEntity
  8
0
  6
Continuous
100
AcDbSpline
210
0.0
220
0.0
230
1.0
 70
     8
 71
     3
 72
     9
 73
     5
 74
     3
 42
0.0000000001
 43
0.0000000001
 44
0.0000000001
 40
0.0
 40
0.0
 40
0.0
 40
0.0
 40
0.5227609238734927
 40
0.6970414212905467
 40
0.6970414212905467
 40
0.6970414212905467
 40
0.6970414212905467
 10
691.0896568281249
 20
240.4432442353456
 30
0.0
 10
691.1937221942103
 20
240.3001751652667
 30
0.0
 10
691.3324813618733
 20
240.1094090551842
 30
0.0
 10
691.5279992966389
 20
239.9820869908884
 30
0.0
 10
691.5768844301247
 20
239.9502527956457
 30
0.0
 11
691.0896568281249
 21
240.4432442353456
 31
0.0
 11
691.433777272725
 21
240.0497215509457
 31
0.0
 11
691.5768844301247
 21
239.9502527956457
 31
0.0
  0
SPLINE
  5
72A
330
21
100
AcDbEntity
  8
0
  6
Continuous
100
AcDbSpline
210
0.0
220
0.0
230
1.0
 70
     8
 71
     3
 72
    17
 73
    13
 74
    11
 42
0.0000000001
 43
0.0000000001
 44
0.0000000001
 40
0.0
 40
0.0
 40
0.0
 40
0.0
 40
0.1257887283259688
 40
0.2520741626997727
 40
0.3763858572724542
 40
0.5010560851685196
 40
0.5641369387325734
 40
0.6267768464846887
 40
0.6886906273045369
 40
0.7508602568260729
 40
0.8784681672478766
 40
1.006077213098089
 40
1.006077213098089
 40
1.006077213098089
 40
1.006077213098089
 10
691.5768844301247
 20
239.9502527956457
 30
0.0
 10
691.6148323384398
 20
239.9320427014056
 30
0.0
 10
691.6908780012113
 20
239.8955506061333
 30
0.0
 10
691.8168404033556
 20
239.8756973535574
 30
0.0
 10
691.9428326504954
 20
239.8930889417055
 30
0.0
 10
692.0366597891659
 20
239.9430934475352
 30
0.0
 10
692.0987432703842
 20
239.9993350250525
 30
0.0
 10
692.1370134100919
 20
240.0493188468162
 30
0.0
 10
692.163699896765
 20
240.1062300032355
 30
0.0
 10
692.1799838116129
 20
240.1891029050987
 30
0.0
 10
692.171349813058
 20
240.2971066768228
 30
0.0
 10
692.1381564845935
 20
240.3757881273567
 30
0.0
 10
692.1215597465248
 20
240.4151290276456
 30
0.0
 11
691.5768844301247
 21
239.9502527956457
 31
0.0
 11
691.6927985268248
 21
239.9013986621456
 31
0.0
 11
691.817569481725
 21
239.8818994378457
 31
0.0
 11
691.9405354580249
 21
239.9001413149457
 31
0.0
 11
692.0508132613248
 21
239.9582917390456
 31
0.0
 11
692.0974604269248
 21
240.0007562657456
 31
0.0
 11
692.1352385614248
 21
240.0507219599457
 31
0.0
 11
692.161246814325
 21
240.1069081418456
 31
0.0
 11
692.1738783991249
 21
240.1677810085457
 31
0.0
 11
692.1647872633249
 21
240.2950646683457
 31
0.0
 11
692.1215597465248
 21
240.4151290276456
 31
0.0
  0
SPLINE
  5
72B
330
21
100
AcDbEntity
  8
0
  6
Continuous
100
AcDbSpline
210
0.0
220
0.0
230
1.0
 70
     8
 71
     3
 72
    11
 73
     7
 74
     5
 42
0.0000000001
 43
0.0000000001
 44
0.0000000001
 40
0.0
 40
0.0
 40
0.0
 40
0.0
 40
0.3599751652664837
 40
0.7199431992693128
 40
1.079910976137628
 40
1.439975420809524
 40
1.439975420809524
 40
1.439975420809524
 40
1.439975420809524
 10
692.1215597465248
 20
240.4151290276456
 30
0.0
 10
692.0549318252445
 20
240.5155727181686
 30
0.0
 10
691.9216773026118
 20
240.7164581093818
 30
0.0
 10
691.6518930263535
 20
240.9573895482013
 30
0.0
 10
691.42050020739
 20
241.2362338515056
 30
0.0
 10
691.309372732547
 20
241.4496378660258
 30
0.0
 10
691.2538015354249
 20
241.5563541985457
 30
0.0
 11
692.1215597465248
 21
240.4151290276456
 31
0.0
 11
691.9100251773248
 21
240.7063939339457
 31
0.0
 11
691.6582946879249
 21
240.9637045365457
 31
0.0
 11
691.4313033408249
 21
241.2430819313457
 31
0.0
 11
691.2538015354249
 21
241.5563541985457
 31
0.0
  0
SPLINE
  5
72C
330
21
100
AcDbEntity
  8
0
  6
Continuous
100
AcDbSpline
210
0.0
220
0.0
230
1.0
 70
     8
 71
     3
 72
    10
 73
     6
 74
     4
 42
0.0000000001
 43
0.0000000001
 44
0.0000000001
 40
0.0
 40
0.0
 40
0.0
 40
0.0
 40
0.4512711759821687
 40
0.9022570305114324
 40
1.804113669942465
 40
1.804113669942465
 40
1.804113669942465
 40
1.804113669942465
 10
691.2538015354249
 20
241.5563541985457
 30
0.0
 10
691.2093643987869
 20
241.7002452966297
 30
0.0
 10
691.1205182214076
 20
241.9879365159765
 30
0.0
 10
691.019609774022
 20
242.5816552587004
 30
0.0
 10
690.9411592672204
 20
243.0255411269069
 30
0.0
 10
690.888861153625
 20
243.3214524537456
 30
0.0
 11
691.2538015354249
 21
241.5563541985457
 31
0.0
 11
691.1300913841249
 21
241.9903374617456
 31
0.0
 11
691.0445188221248
 21
242.4331303903457
 31
0.0
 11
690.888861153625
 21
243.3214524537456
 31
0.0
  0
SPLINE
  5
72D
330
21
100
AcDbEntity
  8
0
  6
Continuous
100
AcDbSpline
210
0.0
220
0.0
230
1.0
 70
    24
 71
     3
 72
     8
 73
     4
 74
     2
 42
0.0000000001
 43
0.0000000001
 44
0.0000000001
 40
0.0
 40
0.0
 40
0.0
 40
0.0
 40
0.0970966970346656
 40
0.0970966970346656
 40
0.0970966970346656
 40
0.0970966970346656
 10
690.888861153625
 20
243.3214524537456
 30
0.0
 10
690.879006018225
 20
243.3522811116456
 30
0.0
 10
690.8691508828249
 20
243.3831097695457
 30
0.0
 10
690.8592957474248
 20
243.4139384274457
 30
0.0
 11
690.888861153625
 21
243.3214524537456
 31
0.0
 11
690.8592957474248
 21
243.4139384274457
 31
0.0
  0
SPLINE
  5
72E
330
21
100
AcDbEntity
  8
0
  6
Continuous
100
AcDbSpline
210
0.0
220
0.0
230
1.0
 70
     8
 71
     3
 72
    18
 73
    14
 74
    12
 42
0.0000000001
 43
0.0000000001
 44
0.0000000001
 40
0.0
 40
0.0
 40
0.0
 40
0.0
 40
0.1596719332108887
 40
0.31937357127329
 40
0.4816065043022522
 40
0.6446885723394095
 40
0.8079374186722316
 40
0.9692727911439711
 40
1.04942112422078
 40
1.129864979339396
 40
1.210226958410723
 40
1.250216479510558
 40
1.290145592917748
 40
1.290145592917748
 40
1.290145592917748
 40
1.290145592917748
 10
694.538147641225
 20
235.1251126465456
 30
0.0
 10
694.5438025987605
 20
235.0715027590563
 30
0.0
 10
694.5551135658619
 20
234.9642730106672
 30
0.0
 10
694.6500020709073
 20
234.8265591472607
 30
0.0
 10
694.789244094802
 20
234.7375913294638
 30
0.0
 10
694.954424417249
 20
234.7081345447673
 30
0.0
 10
695.1161556132275
 20
234.7498312279776
 30
0.0
 10
695.2276346216327
 20
234.8327014008731
 30
0.0
 10
695.2894201973491
 20
234.9212967861928
 30
0.0
 10
695.3221130599227
 20
234.9951549312192
 30
0.0
 10
695.337129315843
 20
235.0609360377704
 30
0.0
 10
695.3399107494649
 20
235.1144099917457
 30
0.0
 10
695.3384710691703
 20
235.1410236960675
 30
0.0
 10
695.3377517731249
 20
235.1543204900456
 30
0.0
 11
694.538147641225
 21
235.1251126465456
 31
0.0
 11
694.568013513625
 21
234.9682587147457
 31
0.0
 11
694.6566383330249
 21
234.8354044540457
 31
0.0
 11
694.7931269880249
 21
234.7477096901457
 31
0.0
 11
694.9538423230247
 21
234.7200268071456
 31
0.0
 11
695.112175501025
 21
234.7597859642456
 31
0.0
 11
695.2409947555248
 21
234.8569183588456
 31
0.0
 11
695.2871137354248
 21
234.9224683015456
 31
0.0
 11
695.3196735289249
 21
234.9960283020457
 31
0.0
 11
695.3370668186249
 21
235.0744854314456
 31
0.0
 11
695.339204091525
 21
235.1144177975456
 31
0.0
 11
695.3377517731249
 21
235.1543204900456
 31
0.0
  0
SPLINE
  5
72F
330
21
100
AcDbEntity
  8
0
  6
Continuous
100
AcDbSpline
210
0.0
220
0.0
230
1.0
 70
     8
 71
     3
 72
     9
 73
     5
 74
     3
 42
0.0000000001
 43
0.0000000001
 44
0.0000000001
 40
0.0
 40
0.0
 40
0.0
 40
0.0
 40
2.293945379301537
 40
4.587890824640432
 40
4.587890824640432
 40
4.587890824640432
 40
4.587890824640432
 10
695.3377517731249
 20
235.1543204900456
 30
0.0
 10
695.1971934658615
 20
235.9217596698465
 30
0.0
 10
694.9160768472883
 20
237.4566380515411
 30
0.0
 10
693.8861966387208
 20
238.6289114663863
 30
0.0
 10
693.3712565270249
 20
239.2150481822457
 30
0.0
 11
695.3377517731249
 21
235.1543204900456
 31
0.0
 11
694.7288859592248
 21
237.3659867903456
 31
0.0
 11
693.3712565270249
 21
239.2150481822457
 31
0.0
  0
SPLINE
  5
730
330
21
100
AcDbEntity
  8
0
  6
Continuous
100
AcDbSpline
210
0.0
220
0.0
230
1.0
 70
     8
 71
     3
 72
    11
 73
     7
 74
     5
 42
0.0000000001
 43
0.0000000001
 44
0.0000000001
 40
0.0
 40
0.0
 40
0.0
 40
0.0
 40
0.1010133515558171
 40
0.2020251750018365
 40
0.3030371468487813
 40
0.4040507086851997
 40
0.4040507086851997
 40
0.4040507086851997
 40
0.4040507086851997
 10
693.3712565270249
 20
239.2150481822457
 30
0.0
 10
693.3407406191991
 20
239.2328777371982
 30
0.0
 10
693.2797092651859
 20
239.268536577381
 30
0.0
 10
693.1742821033997
 20
239.2250947299259
 30
0.0
 10
693.123789587025
 20
239.1228569295314
 30
0.0
 10
693.15522633922
 20
239.0595472248284
 30
0.0
 10
693.1709448390249
 20
239.0278921233456
 30
0.0
 11
693.3712565270249
 21
239.2150481822457
 31
0.0
 11
693.2773953777249
 21
239.2523815700457
 31
0.0
 11
693.1834378777249
 21
239.2152954989456
 31
0.0
 11
693.1400642294248
 21
239.1240697071456
 31
0.0
 11
693.1709448390249
 21
239.0278921233456
 31
0.0
  0
SPLINE
  5
731
330
21
100
AcDbEntity
  8
0
  6
Continuous
100
AcDbSpline
210
0.0
220
0.0
230
1.0
 70
     8
 71
     3
 72
     9
 73
     5
 74
     3
 42
0.0000000001
 43
0.0000000001
 44
0.0000000001
 40
0.0
 40
0.0
 40
0.0
 40
0.0
 40
2.099774527827641
 40
4.19954903427111
 40
4.19954903427111
 40
4.19954903427111
 40
4.19954903427111
 10
693.1709448390249
 20
239.0278921233456
 30
0.0
 10
693.5714335331307
 20
238.4379008222237
 30
0.0
 10
694.3724109172638
 20
237.2579182259883
 30
0.0
 10
694.4829020667588
 20
235.8360478372797
 30
0.0
 10
694.538147641225
 20
235.1251126465456
 30
0.0
 11
693.1709448390249
 21
239.0278921233456
 31
0.0
 11
694.1997893609249
 21
237.1974462712456
 31
0.0
 11
694.538147641225
 21
235.1251126465456
 31
0.0
  0
SPLINE
  5
732
330
21
100
AcDbEntity
  8
0
  6
Continuous
100
AcDbSpline
210
0.0
220
0.0
230
1.0
 70
     8
 71
     3
 72
    11
 73
     7
 74
     5
 42
0.0000000001
 43
0.0000000001
 44
0.0000000001
 40
0.0
 40
0.0
 40
0.0
 40
0.0
 40
0.084838673369461
 40
0.1696755745541685
 40
0.2545125495250665
 40
0.3393510447295411
 40
0.3393510447295411
 40
0.3393510447295411
 40
0.3393510447295411
 10
692.3841003475249
 20
239.4383712217456
 30
0.0
 10
692.3621302854581
 20
239.4583721893456
 30
0.0
 10
692.3181906202547
 20
239.4983737067477
 30
0.0
 10
692.2239126113514
 20
239.4802845476551
 30
0.0
 10
692.1656934596651
 20
239.403959706763
 30
0.0
 10
692.1819025386957
 20
239.3467938117469
 30
0.0
 10
692.190007150825
 20
239.3182106081456
 30
0.0
 11
692.3841003475249
 21
239.4383712217456
 31
0.0
 11
692.3134619272249
 21
239.4853586038457
 31
0.0
 11
692.2299223952249
 21
239.4705786716456
 31
0.0
 11
692.1794490544249
 21
239.4023895655457
 31
0.0
 11
692.190007150825
 21
239.3182106081456
 31
0.0
  0
SPLINE
  5
733
330
21
100
AcDbEntity
  8
0
  6
Continuous
100
AcDbSpline
210
0.0
220
0.0
230
1.0
 70
     8
 71
     3
 72
    15
 73
    11
 74
     9
 42
0.0000000001
 43
0.0000000001
 44
0.0000000001
 40
0.0
 40
0.0
 40
0.0
 40
0.0
 40
0.8757212455239828
 40
3.288645846787927
 40
5.803921325860316
 40
6.071432480193086
 40
6.334998553468899
 40
6.78384269657192
 40
7.207781323437327
 40
7.596849517736394
 40
7.596849517736394
 40
7.596849517736394
 40
7.596849517736394
 10
692.190007150825
 20
239.3182106081456
 30
0.0
 10
692.3223898618655
 20
239.0582669098416
 30
0.0
 10
692.8195341929808
 20
238.0820855414031
 30
0.0
 10
693.4776462739272
 20
236.2329192036772
 30
0.0
 10
693.5071462763376
 20
234.4799427623109
 30
0.0
 10
693.5308817286534
 20
233.4700555757084
 30
0.0
 10
693.6109875591054
 20
233.1392004959693
 30
0.0
 10
694.0061064181865
 20
232.9340816623269
 30
0.0
 10
694.4638887403286
 20
233.1276989641352
 30
0.0
 10
694.5018127675652
 20
233.4124829193096
 30
0.0
 10
694.5199614871249
 20
233.5487676051457
 30
0.0
 11
692.190007150825
 21
239.3182106081456
 31
0.0
 11
692.5783455067249
 21
238.5333023197456
 31
0.0
 11
693.3387876181249
 21
236.2433387989457
 31
0.0
 11
693.5247139362249
 21
233.7349444639456
 31
0.0
 11
693.540877945325
 21
233.4679221006457
 31
0.0
 11
693.621775525225
 21
233.2170782118456
 31
0.0
 11
694.0182465144249
 21
233.0066695154456
 31
0.0
 11
694.4066531469249
 21
233.1765643275456
 31
0.0
 11
694.5199614871249
 21
233.5487676051457
 31
0.0
  0
SPLINE
  5
734
330
21
100
AcDbEntity
  8
0
  6
Continuous
100
AcDbSpline
210
0.0
220
0.0
230
1.0
 70
     8
 71
     3
 72
     9
 73
     5
 74
     3
 42
0.0000000001
 43
0.0000000001
 44
0.0000000001
 40
0.0
 40
0.0
 40
0.0
 40
0.0
 40
3.158231892562361
 40
6.316463775359729
 40
6.316463775359729
 40
6.316463775359729
 40
6.316463775359729
 10
694.5199614871249
 20
233.5487676051457
 30
0.0
 10
694.3532299251951
 20
234.5989978997243
 30
0.0
 10
694.0197668018509
 20
236.6994584856343
 30
0.0
 10
692.9293224984051
 20
238.5254003106495
 30
0.0
 10
692.3841003475249
 20
239.4383712217456
 30
0.0
 11
694.5199614871249
 21
233.5487676051457
 31
0.0
 11
693.8305215057249
 21
236.6308287984456
 31
0.0
 11
692.3841003475249
 21
239.4383712217456
 31
0.0
  0
SPLINE
  5
735
330
21
100
AcDbEntity
  8
0
  6
Continuous
100
AcDbSpline
210
0.0
220
0.0
230
1.0
 70
     8
 71
     3
 72
    14
 73
    10
 74
     8
 42
0.0000000001
 43
0.0000000001
 44
0.0000000001
 40
0.0
 40
0.0
 40
0.0
 40
0.0
 40
0.4129907242346147
 40
1.428278794870211
 40
1.692293298390199
 40
1.994205433693279
 40
3.83003591517629
 40
4.158914082121387
 40
4.290350896584767
 40
4.290350896584767
 40
4.290350896584767
 40
4.290350896584767
 10
685.7314145030248
 20
238.1430951874456
 30
0.0
 10
685.6827805725141
 20
238.2697784598992
 30
0.0
 10
685.5145859676881
 20
238.7078973354398
 30
0.0
 10
685.3596382879442
 20
239.3329626570451
 30
0.0
 10
685.6658245988879
 20
239.7858698349279
 30
0.0
 10
686.3598287168098
 20
240.2042292033625
 30
0.0
 10
686.9792874613988
 20
240.6870738200806
 30
0.0
 10
687.784440370042
 20
240.930259486627
 30
0.0
 10
687.9171392764954
 20
240.845422747979
 30
0.0
 10
687.9550296825249
 20
240.8211987467457
 30
0.0
 11
685.7314145030248
 21
238.1430951874456
 31
0.0
 11
685.5886413965249
 21
238.5306221908456
 31
0.0
 11
685.5206542029248
 21
239.5436313753456
 31
0.0
 11
685.6702260288249
 21
239.7611903948456
 31
0.0
 11
685.9149799257249
 21
239.9379570981456
 31
0.0
 11
687.5126789750249
 21
240.8421867728456
 31
0.0
 11
687.8390175042248
 21
240.8829790889456
 31
0.0
 11
687.9550296825249
 21
240.8211987467457
 31
0.0
  0
SPLINE
  5
736
330
21
100
AcDbEntity
  8
0
  6
Continuous
100
AcDbSpline
210
0.0
220
0.0
230
1.0
 70
     8
 71
     3
 72
    18
 73
    14
 74
    12
 42
0.0000000001
 43
0.0000000001
 44
0.0000000001
 40
0.0
 40
0.0
 40
0.0
 40
0.0
 40
0.0900324073701834
 40
0.1635718012221595
 40
0.2329054064882466
 40
0.356035451007743
 40
1.274869230050655
 40
2.229042304073349
 40
3.189203465667495
 40
3.365708486120168
 40
3.615046362720783
 40
4.002632999444948
 40
4.292516871737687
 40
4.292516871737687
 40
4.292516871737687
 40
4.292516871737687
 10
687.9550296825249
 20
240.8211987467457
 30
0.0
 10
687.9675073970202
 20
240.7921398663539
 30
0.0
 10
687.9901770367062
 20
240.7393453943852
 30
0.0
 10
687.9403437557359
 20
240.6612830831491
 30
0.0
 10
687.8465748577385
 20
240.6588836275173
 30
0.0
 10
687.4848059766217
 20
240.6155988538218
 30
0.0
 10
686.8347319017355
 20
240.3228197572635
 30
0.0
 10
686.2976928839922
 20
239.5068396514977
 30
0.0
 10
686.2164290829431
 20
238.7599319396916
 30
0.0
 10
686.3849408443276
 20
238.3281034261713
 30
0.0
 10
686.3460734620144
 20
238.033098400035
 30
0.0
 10
685.9545046621215
 20
237.878009221298
 30
0.0
 10
685.7982671895261
 20
238.063657757025
 30
0.0
 10
685.7314145030248
 20
238.1430951874456
 30
0.0
 11
687.9550296825249
 21
240.8211987467457
 31
0.0
 11
687.9749918914249
 21
240.7334072631456
 31
0.0
 11
687.9341995752249
 21
240.6722187888457
 31
0.0
 11
687.866212381725
 21
240.6586213501457
 31
0.0
 11
687.7438354332249
 21
240.6450239114457
 31
0.0
 11
686.9075929521248
 21
240.2642956273457
 31
0.0
 11
686.3704941227248
 21
239.4756441817456
 31
0.0
 11
686.3161043679248
 21
238.5170247521456
 31
0.0
 11
686.3636954034249
 21
238.3470567681456
 31
0.0
 11
686.3161043679248
 21
238.1023028712456
 31
0.0
 11
685.9557722419251
 21
237.9595297647457
 31
0.0
 11
685.7314145030248
 21
238.1430951874456
 31
0.0
  0
SPLINE
  5
737
330
21
100
AcDbEntity
  8
0
  6
Continuous
100
AcDbSpline
210
0.0
220
0.0
230
1.0
 70
     8
 71
     3
 72
    11
 73
     7
 74
     5
 42
0.0000000001
 43
0.0000000001
 44
0.0000000001
 40
0.0
 40
0.0
 40
0.0
 40
0.0
 40
0.113334714099726
 40
0.2266679479287432
 40
0.3400013407142371
 40
0.4533361567847704
 40
0.4533361567847704
 40
0.4533361567847704
 40
0.4533361567847704
 10
687.3963261151248
 20
237.5458085587457
 30
0.0
 10
687.3598973284754
 20
237.5611077643547
 30
0.0
 10
687.2870402309745
 20
237.5917059757489
 30
0.0
 10
687.251066029974
 20
237.7132359538871
 30
0.0
 10
687.300445203143
 20
237.8299618273576
 30
0.0
 10
687.37627269462
 20
237.8521994140718
 30
0.0
 10
687.4141866784249
 20
237.8633182772456
 30
0.0
 11
687.3963261151248
 21
237.5458085587457
 31
0.0
 11
687.2992584787249
 21
237.6043118183456
 31
0.0
 11
687.265291528125
 21
237.7124352115456
 31
0.0
 11
687.3111718513248
 21
237.8160665478457
 31
0.0
 11
687.4141866784249
 21
237.8633182772456
 31
0.0
  0
SPLINE
  5
738
330
21
100
AcDbEntity
  8
0
  6
Continuous
100
AcDbSpline
210
0.0
220
0.0
230
1.0
 70
     8
 71
     3
 72
     9
 73
     5
 74
     3
 42
0.0000000001
 43
0.0000000001
 44
0.0000000001
 40
0.0
 40
0.0
 40
0.0
 40
0.0
 40
0.9444512829155334
 40
1.888902543377067
 40
1.888902543377067
 40
1.888902543377067
 40
1.888902543377067
 10
687.4141866784249
 20
237.8633182772456
 30
0.0
 10
687.7328931163906
 20
237.92372222798
 30
0.0
 10
688.3703059847453
 20
238.0445301280128
 30
0.0
 10
688.8004819616365
 20
238.530162027359
 30
0.0
 10
689.015569947525
 20
238.7729779741456
 30
0.0
 11
687.4141866784249
 21
237.8633182772456
 31
0.0
 11
688.3184967682248
 21
238.1357361314456
 31
0.0
 11
689.015569947525
 21
238.7729779741456
 31
0.0
  0
SPLINE
  5
739
330
21
100
AcDbEntity
  8
0
  6
Continuous
100
AcDbSpline
210
0.0
220
0.0
230
1.0
 70
     8
 71
     3
 72
    11
 73
     7
 74
     5
 42
0.0000000001
 43
0.0000000001
 44
0.0000000001
 40
0.0
 40
0.0
 40
0.0
 40
0.0
 40
0.0935288155022122
 40
0.1870568163237756
 40
0.2805845481727426
 40
0.3741131171410618
 40
0.3741131171410618
 40
0.3741131171410618
 40
0.3741131171410618
 10
689.015569947525
 20
238.7729779741456
 30
0.0
 10
689.0390519895959
 20
238.7953704084426
 30
0.0
 10
689.0860158691978
 20
238.8401550819879
 30
0.0
 10
689.189001874845
 20
238.8324336395773
 30
0.0
 10
689.2668950208672
 20
238.7646196569072
 30
0.0
 10
689.268055771174
 20
238.6997352841902
 30
0.0
 10
689.2686361489248
 20
238.6672929526456
 30
0.0
 11
689.015569947525
 21
238.7729779741456
 31
0.0
 11
689.0914395267249
 21
238.8276720897457
 31
0.0
 11
689.1848198438248
 21
238.8224182039456
 31
0.0
 11
689.2542028917248
 21
238.7597011465456
 31
0.0
 11
689.2686361489248
 21
238.6672929526456
 31
0.0
  0
SPLINE
  5
73A
330
21
100
AcDbEntity
  8
0
  6
Continuous
100
AcDbSpline
210
0.0
220
0.0
230
1.0
 70
     8
 71
     3
 72
    11
 73
     7
 74
     5
 42
0.0000000001
 43
0.0000000001
 44
0.0000000001
 40
0.0
 40
0.0
 40
0.0
 40
0.0
 40
0.4232347605940564
 40
0.8411895079856595
 40
1.583448598174393
 40
2.435950700306259
 40
2.435950700306259
 40
2.435950700306259
 40
2.435950700306259
 10
689.2686361489248
 20
238.6672929526456
 30
0.0
 10
689.235583084454
 20
238.5293690443014
 30
0.0
 10
689.169889304953
 20
238.2552418803684
 30
0.0
 10
688.8658154528494
 20
237.8056483684442
 30
0.0
 10
688.2172081782771
 20
237.5052041189114
 30
0.0
 10
687.6822796886638
 20
237.5316640364162
 30
0.0
 10
687.3963261151248
 20
237.5458085587457
 30
0.0
 11
689.2686361489248
 21
238.6672929526456
 31
0.0
 11
689.1452146981249
 21
238.2624537153457
 31
0.0
 11
688.9084857510248
 21
237.9180040434456
 31
0.0
 11
688.2481832955249
 21
237.5789624173456
 31
0.0
 11
687.3963261151248
 21
237.5458085587457
 31
0.0
  0
ARC
  5
73B
330
21
100
AcDbEntity
  8
0
  6
Continuous
100
AcDbCircle
 10
686.3473971431249
 20
234.4897573523456
 30
0.0
 40
10.0
100
AcDbArc
 50
69.94654511420005
 51
168.463040967185
  0
ARC
  5
73C
330
21
100
AcDbEntity
  8
0
  6
Continuous
100
AcDbCircle
 10
688.3473971431249
 20
236.4897573523456
 30
0.0
 40
19.0
100
AcDbArc
 50
0.0
 51
90.0
  0
ARC
  5
73D
330
21
100
AcDbEntity
  8
0
  6
Continuous
100
AcDbCircle
 10
710.3473971431249
 20
221.4367448821457
 30
0.0
 40
3.0
100
AcDbArc
 50
180.0
 51
213.5573097619012
  0
ARC
  5
73E
330
21
100
AcDbEntity
  8
0
  6
Continuous
100
AcDbCircle
 10
705.3473971431249
 20
218.1201200918457
 30
0.0
 40
3.0
100
AcDbArc
 50
0.0
 51
33.55730976190126
  0
ARC
  5
73F
330
21
100
AcDbEntity
  8
0
  6
Continuous
100
AcDbCircle
 10
669.9777598826249
 20
253.4897573523456
 30
0.0
 40
3.0
100
AcDbArc
 50
56.44269023810327
 51
90.0
  0
ARC
  5
740
330
21
100
AcDbEntity
  8
0
  6
Continuous
100
AcDbCircle
 10
673.2943846729249
 20
258.4897573523456
 30
0.0
 40
3.0
100
AcDbArc
 50
236.4426902381033
 51
270.0
  0
ARC
  5
741
330
21
100
AcDbEntity
  8
0
  6
Continuous
100
AcDbCircle
 10
712.3473971431248
 20
210.1466116018456
 30
0.0
 40
4.0
100
AcDbArc
 50
180.0
 51
225.0
  0
ARC
  5
742
330
21
100
AcDbEntity
  8
0
  6
Continuous
100
AcDbCircle
 10
662.004251392625
 20
260.4897573523456
 30
0.0
 40
4.0
100
AcDbArc
 50
225.0
 51
270.0
  0
CIRCLE
  5
743
330
21
100
AcDbEntity
  8
0
  6
Continuous
100
AcDbCircle
 10
689.1802065610248
 20
240.5365301129456
 30
0.0
 40
0.328409678
  0
ARC
  5
744
330
21
100
AcDbEntity
  8
0
  6
Continuous
100
AcDbCircle
 10
645.7130825681248
 20
260.0897573523456
 30
0.0
 40
0.4
100
AcDbArc
 50
90.0
 51
135.0000000024987
  0
ARC
  5
745
330
21
100
AcDbEntity
  8
0
  6
Continuous
100
AcDbCircle
 10
643.7473971431248
 20
258.1240719274457
 30
0.0
 40
0.4
100
AcDbArc
 50
135.0000000038989
 51
180.0
  0
ARC
  5
746
330
21
100
AcDbEntity
  8
0
  6
Continuous
100
AcDbCircle
 10
709.9817117182249
 20
191.8897573523456
 30
0.0
 40
0.4
100
AcDbArc
 50
270.0
 51
314.9999999913984
  0
ARC
  5
747
330
21
100
AcDbEntity
  8
0
  6
Continuous
100
AcDbCircle
 10
711.9473971431249
 20
193.8554427773456
 30
0.0
 40
0.4
100
AcDbArc
 50
314.9999999997996
 51
0.0
  0
LINE
  5
748
330
21
100
AcDbEntity
  8
0
  6
Continuous
100
AcDbLine
 10
710.2645544307248
 20
191.6069146399456
 30
0.0
 11
712.2302398556249
 21
193.5726000648456
 31
0.0
  0
LINE
  5
749
330
21
100
AcDbEntity
  8
0
  6
Continuous
100
AcDbLine
 10
656.3473971431249
 20
260.4897573523456
 30
0.0
 11
645.7130825681248
 21
260.4897573523456
 31
0.0
  0
LINE
  5
74A
330
21
100
AcDbEntity
  8
0
  6
Continuous
100
AcDbLine
 10
712.3473971431248
 20
193.8554427773456
 30
0.0
 11
712.3473971431248
 21
204.4897573523456
 31
0.0
  0
LINE
  5
74B
330
21
100
AcDbEntity
  8
0
  6
Continuous
100
AcDbLine
 10
643.8473971431249
 20
258.7897573523457
 30
0.0
 11
658.0473971431248
 21
258.7897573523457
 31
0.0
  0
LINE
  5
74C
330
21
100
AcDbEntity
  8
0
  6
Continuous
100
AcDbLine
 10
669.9777598826249
 20
256.4897573523456
 30
0.0
 11
662.004251392625
 21
256.4897573523456
 31
0.0
  0
LINE
  5
74D
330
21
100
AcDbEntity
  8
0
  6
Continuous
100
AcDbLine
 10
710.6473971431249
 20
191.9897573523456
 30
0.0
 11
710.6473971431249
 21
206.1897573523456
 31
0.0
  0
LINE
  5
74E
330
21
100
AcDbEntity
  8
0
  6
Continuous
100
AcDbLine
 10
708.3473971431248
 20
210.1466116018456
 30
0.0
 11
708.3473971431248
 21
218.1201200918457
 31
0.0
  0
LINE
  5
74F
330
21
100
AcDbEntity
  8
0
  6
Continuous
100
AcDbLine
 10
688.3473971431249
 20
255.4897573523456
 30
0.0
 11
673.2943846729249
 21
255.4897573523456
 31
0.0
  0
LINE
  5
750
330
21
100
AcDbEntity
  8
0
  6
Continuous
100
AcDbLine
 10
707.3473971431249
 20
221.4367448821457
 30
0.0
 11
707.3473971431249
 21
236.4897573523456
 31
0.0
  0
LWPOLYLINE
  5
751
330
21
100
AcDbEntity
  8
0
  6
Continuous
100
AcDbPolyline
 90
        6
 70
     0
 43
0.0
 10
697.5984036211249
 20
248.7293479246456
 10
698.5176341992249
 20
248.5774933908456
 10
699.3477451693248
 20
248.1506172982457
 10
700.0082570890248
 20
247.4901053785456
 10
700.4351331816248
 20
246.6599944084456
 10
700.5869877154249
 20
245.7407638303457
  0
LINE
  5
752
330
21
100
AcDbEntity
  8
0
  6
Continuous
100
AcDbLine
 10
674.9582605259249
 20
249.7606569573457
 30
0.0
 11
688.3473971431249
 21
249.7606569573457
 31
0.0
  0
LINE
  5
753
330
21
100
AcDbEntity
  8
0
  6
Continuous
100
AcDbLine
 10
701.6182967481248
 20
236.4897573523456
 30
0.0
 11
701.6182967481248
 21
223.1006207351456
 31
0.0
  0
LWPOLYLINE
  5
754
330
21
100
AcDbEntity
  8
0
  6
Continuous
100
AcDbPolyline
 90
        4
 70
     0
 43
0.0
 10
671.6360722569248
 20
249.8763591432456
 10
672.1525514189249
 20
249.6881190665456
 10
672.7124125650249
 20
249.5722360714456
 10
673.2943847348249
 20
249.5331129345456
  0
LINE
  5
755
330
21
100
AcDbEntity
  8
0
  6
Continuous
100
AcDbLine
 10
674.9582605259249
 20
248.8674780639456
 30
0.0
 11
688.3473971431249
 21
248.8674780639456
 31
0.0
  0
LINE
  5
756
330
21
100
AcDbEntity
  8
0
  6
Continuous
100
AcDbLine
 10
697.5984036211249
 20
248.7293479246456
 30
0.0
 11
675.0963906652249
 21
248.7293479246456
 31
0.0
  0
LWPOLYLINE
  5
757
330
21
100
AcDbEntity
  8
0
  6
Continuous
100
AcDbPolyline
 90
        3
 70
     0
 43
0.0
 10
700.5869877154249
 20
223.2387508744456
 10
700.4720749549249
 20
222.4395288171456
 10
700.147842488825
 20
221.6985105637456
  0
LINE
  5
758
330
21
100
AcDbEntity
  8
0
  6
Continuous
100
AcDbLine
 10
700.7251178547249
 20
236.4897573523456
 30
0.0
 11
700.7251178547249
 21
223.1006207351456
 31
0.0
  0
LINE
  5
759
330
21
100
AcDbEntity
  8
0
  6
Continuous
100
AcDbLine
 10
700.5869877154249
 20
223.2387508744456
 30
0.0
 11
700.5869877154249
 21
245.7407638303457
 31
0.0
  0
LWPOLYLINE
  5
75A
330
21
100
AcDbEntity
  8
0
  6
Continuous
100
AcDbPolyline
 90
        4
 70
     0
 43
0.0
 10
701.3907527249249
 20
221.4367449436456
 10
701.4298758618248
 20
220.8547727740457
 10
701.5457588568249
 20
220.2949116281456
 10
701.7339989334248
 20
219.7784324666456
  0
LINE
  5
75B
330
21
100
AcDbEntity
  8
0
  6
Continuous
100
AcDbLine
 10
672.9513708630248
 20
245.7407638303457
 30
0.0
 11
700.5869877154249
 21
245.7407638303457
 31
0.0
  0
LINE
  5
75C
330
21
100
AcDbEntity
  8
0
  6
Continuous
100
AcDbLine
 10
697.5984036211249
 20
221.0937310723456
 30
0.0
 11
697.5984036211249
 21
248.7293479246456
 31
0.0
  0
LINE
  5
75D
330
21
100
AcDbEntity
  8
0
  6
Continuous
100
AcDbLine
 10
700.5869877154249
 20
223.2387508744456
 30
0.0
 11
700.7251178547249
 21
223.1006207351456
 31
0.0
  0
LINE
  5
75E
330
21
100
AcDbEntity
  8
0
  6
Continuous
100
AcDbLine
 10
675.0963906652249
 20
248.7293479246456
 30
0.0
 11
674.9582605259249
 21
248.8674780639456
 31
0.0
  0
LINE
  5
75F
330
21
100
AcDbEntity
  8
0
  6
Continuous
100
AcDbLine
 10
693.4453135912249
 20
217.6004714138457
 30
0.0
 11
693.4453135912249
 21
218.2387692101457
 31
0.0
  0
LINE
  5
760
330
21
100
AcDbEntity
  8
0
  6
Continuous
100
AcDbLine
 10
693.4453135912249
 20
213.2387692101457
 30
0.0
 11
693.4453135912249
 21
213.8770670808456
 31
0.0
  0
LINE
  5
761
330
21
100
AcDbEntity
  8
0
  6
Continuous
100
AcDbLine
 10
693.2161471431249
 20
215.5791947610457
 30
0.0
 11
693.2161471431249
 21
216.2174925572456
 31
0.0
  0
LINE
  5
762
330
21
100
AcDbEntity
  8
0
  6
Continuous
100
AcDbLine
 10
691.7265635912249
 20
216.2174925572456
 30
0.0
 11
691.7265635912249
 21
217.6004714138457
 31
0.0
  0
LINE
  5
763
330
21
100
AcDbEntity
  8
0
  6
Continuous
100
AcDbLine
 10
691.7265635912249
 20
213.8770670808456
 30
0.0
 11
691.7265635912249
 21
215.5791947610457
 31
0.0
  0
LINE
  5
764
330
21
100
AcDbEntity
  8
0
  6
Continuous
100
AcDbLine
 10
691.3828135912249
 20
213.2387692101457
 30
0.0
 11
691.3828135912249
 21
218.2387692101457
 31
0.0
  0
LINE
  5
767
330
21
100
AcDbEntity
  8
0
  6
Continuous
100
AcDbLine
 10
689.7843456149249
 20
229.1706005924456
 30
0.0
 11
690.2253745190249
 21
231.2041352825456
 31
0.0
  0
LINE
  5
768
330
21
100
AcDbEntity
  8
0
  6
Continuous
100
AcDbLine
 10
690.924480695025
 20
217.7068543798457
 30
0.0
 11
690.924480695025
 21
218.2387692101457
 31
0.0
  0
LINE
  5
769
330
21
100
AcDbEntity
  8
0
  6
Continuous
100
AcDbLine
 10
690.0078135912249
 20
213.2387692101457
 30
0.0
 11
690.0078135912249
 21
217.7068543798457
 31
0.0
  0
LINE
  5
76A
330
21
100
AcDbEntity
  8
0
  6
Continuous
100
AcDbLine
 10
689.6640635912249
 20
213.2387692101457
 30
0.0
 11
689.6640635912249
 21
217.7068543798457
 31
0.0
  0
LINE
  5
76B
330
21
100
AcDbEntity
  8
0
  6
Continuous
100
AcDbLine
 10
688.7473971431249
 20
217.7068543798457
 30
0.0
 11
688.7473971431249
 21
218.2387692101457
 31
0.0
  0
LINE
  5
76F
330
21
100
AcDbEntity
  8
0
  6
Continuous
100
AcDbLine
 10
659.1758242679248
 20
257.6613302276456
 30
0.0
 11
656.3473971431249
 21
260.4897573523456
 31
0.0
  0
LINE
  5
770
330
21
100
AcDbEntity
  8
0
  6
Continuous
100
AcDbLine
 10
712.3473971431248
 20
204.4897573523456
 30
0.0
 11
709.5189700184249
 21
207.3181844771456
 31
0.0
  0
LINE
  5
771
330
21
100
AcDbEntity
  8
0
  6
Continuous
100
AcDbLine
 10
700.5869877154249
 20
245.7407638303457
 30
0.0
 11
701.0558754370248
 21
246.2096515519456
 31
0.0
  0
LINE
  5
772
330
21
100
AcDbEntity
  8
0
  6
Continuous
100
AcDbLine
 10
688.3473971431247
 20
223.2387508744456
 30
0.0
 11
700.5869877154249
 21
223.2387508744456
 31
0.0
  0
LINE
  5
773
330
21
100
AcDbEntity
  8
0
  6
Continuous
100
AcDbLine
 10
697.5984036211249
 20
248.7293479246456
 30
0.0
 11
698.0672913427248
 21
249.1982356462456
 31
0.0
  0
LINE
  5
774
330
21
100
AcDbEntity
  8
0
  6
Continuous
100
AcDbLine
 10
675.0963906652249
 20
236.4897573523456
 30
0.0
 11
675.0963906652249
 21
248.7293479246456
 31
0.0
  0
LINE
  5
775
330
21
100
AcDbEntity
  8
0
  6
Continuous
100
AcDbLine
 10
700.7251178547249
 20
223.1006207351456
 30
0.0
 11
701.6182967481248
 21
223.1006207351456
 31
0.0
  0
LINE
  5
776
330
21
100
AcDbEntity
  8
0
  6
Continuous
100
AcDbLine
 10
701.3907526586249
 20
221.4367449133456
 30
0.0
 11
707.3473971431249
 21
221.4367448821457
 31
0.0
  0
LINE
  5
777
330
21
100
AcDbEntity
  8
0
  6
Continuous
100
AcDbLine
 10
674.9582605259249
 20
248.8674780639456
 30
0.0
 11
674.9582605259249
 21
249.7606569573457
 31
0.0
  0
LINE
  5
778
330
21
100
AcDbEntity
  8
0
  6
Continuous
100
AcDbLine
 10
673.2943846729249
 20
255.4897573523456
 30
0.0
 11
673.2943846729249
 21
249.5331128606456
 31
0.0
  0
LINE
  5
779
330
21
100
AcDbEntity
  8
0
  6
Continuous
100
AcDbLine
 10
701.7339169335249
 20
219.7784324610456
 30
0.0
 11
707.8473971431249
 21
219.7784324869456
 31
0.0
  0
LINE
  5
77A
330
21
100
AcDbEntity
  8
0
  6
Continuous
100
AcDbLine
 10
691.3828135912249
 20
218.2387692101457
 30
0.0
 11
693.4453135912249
 21
218.2387692101457
 31
0.0
  0
LINE
  5
77B
330
21
100
AcDbEntity
  8
0
  6
Continuous
100
AcDbLine
 10
688.7473971431249
 20
218.2387692101457
 30
0.0
 11
690.924480695025
 21
218.2387692101457
 31
0.0
  0
LINE
  5
77C
330
21
100
AcDbEntity
  8
0
  6
Continuous
100
AcDbLine
 10
693.8545895293249
 20
218.1201200918457
 30
0.0
 11
708.3473971431248
 21
218.1201200918457
 31
0.0
  0
LINE
  5
77D
330
21
100
AcDbEntity
  8
0
  6
Continuous
100
AcDbLine
 10
690.924480695025
 20
218.1201200918457
 30
0.0
 11
688.7473971431249
 21
218.1201200918457
 31
0.0
  0
LINE
  5
77E
330
21
100
AcDbEntity
  8
0
  6
Continuous
100
AcDbLine
 10
693.4453135912249
 20
218.1201200918457
 30
0.0
 11
691.3828135912249
 21
218.1201200918457
 31
0.0
  0
LINE
  5
77F
330
21
100
AcDbEntity
  8
0
  6
Continuous
100
AcDbLine
 10
690.0078135912249
 20
217.7068543798457
 30
0.0
 11
690.924480695025
 21
217.7068543798457
 31
0.0
  0
LINE
  5
780
330
21
100
AcDbEntity
  8
0
  6
Continuous
100
AcDbLine
 10
688.7473971431249
 20
217.7068543798457
 30
0.0
 11
689.6640635912249
 21
217.7068543798457
 31
0.0
  0
LINE
  5
781
330
21
100
AcDbEntity
  8
0
  6
Continuous
100
AcDbLine
 10
691.7265635912249
 20
217.6004714138457
 30
0.0
 11
693.4453135912249
 21
217.6004714138457
 31
0.0
  0
LINE
  5
782
330
21
100
AcDbEntity
  8
0
  6
Continuous
100
AcDbLine
 10
671.6360722777249
 20
249.8763591340456
 30
0.0
 11
671.6360722777249
 21
255.9897573523457
 31
0.0
  0
LINE
  5
783
330
21
100
AcDbEntity
  8
0
  6
Continuous
100
AcDbLine
 10
669.9777598826249
 20
256.4897573523456
 30
0.0
 11
669.977759882625
 21
236.4897573523456
 31
0.0
  0
LINE
  5
784
330
21
100
AcDbEntity
  8
0
  6
Continuous
100
AcDbLine
 10
691.7265635912249
 20
216.2174925572456
 30
0.0
 11
693.2161471431249
 21
216.2174925572456
 31
0.0
  0
LINE
  5
785
330
21
100
AcDbEntity
  8
0
  6
Continuous
100
AcDbLine
 10
691.7265635912249
 20
215.5791947610457
 30
0.0
 11
693.2161471431249
 21
215.5791947610457
 31
0.0
  0
LINE
  5
786
330
21
100
AcDbEntity
  8
0
  6
Continuous
100
AcDbLine
 10
691.7265635912249
 20
213.8770670808456
 30
0.0
 11
693.4453135912249
 21
213.8770670808456
 31
0.0
  0
LINE
  5
787
330
21
100
AcDbEntity
  8
0
  6
Continuous
100
AcDbLine
 10
691.3828135912249
 20
213.2387692101457
 30
0.0
 11
693.4453135912249
 21
213.2387692101457
 31
0.0
  0
LINE
  5
788
330
21
100
AcDbEntity
  8
0
  6
Continuous
100
AcDbLine
 10
689.6640635912249
 20
213.2387692101457
 30
0.0
 11
690.0078135912249
 21
213.2387692101457
 31
0.0
  0
LINE
  5
789
330
21
100
AcDbEntity
  8
0
  6
Continuous
100
AcDbLine
 10
688.3473971431249
 20
210.1466116018456
 30
0.0
 11
708.3473971431248
 21
210.1466116018456
 31
0.0
  0
LINE
  5
78A
330
21
100
AcDbEntity
  8
0
  6
Continuous
100
AcDbLine
 10
688.3473971431249
 20
207.3181844771456
 30
0.0
 11
709.5189700184249
 21
207.3181844771456
 31
0.0
  0
LINE
  5
78B
330
21
100
AcDbEntity
  8
0
  6
Continuous
100
AcDbLine
 10
662.004251392625
 20
236.4897573523456
 30
0.0
 11
662.004251392625
 21
256.4897573523456
 31
0.0
  0
LINE
  5
78C
330
21
100
AcDbEntity
  8
0
  6
Continuous
100
AcDbLine
 10
659.1758242679248
 20
236.4897573523456
 30
0.0
 11
659.1758242679248
 21
257.6613302276456
 31
0.0
  0
LINE
  5
78D
330
21
100
AcDbEntity
  8
0
  6
Continuous
100
AcDbLine
 10
688.3473971431249
 20
206.1897571616456
 30
0.0
 11
710.6473963802248
 21
206.1897571616456
 31
0.0
  0
LINE
  5
78E
330
21
100
AcDbEntity
  8
0
  6
Continuous
100
AcDbLine
 10
712.3473971431248
 20
204.4897573523456
 30
0.0
 11
688.3473971431247
 21
204.4897573523456
 31
0.0
  0
LWPOLYLINE
  5
78F
330
21
100
AcDbEntity
  8
0
  6
Continuous
100
AcDbPolyline
 90
        3
 70
     0
 43
0.0
 10
673.5561503545248
 20
248.2902026981456
 10
674.2972059170248
 20
248.6144458012456
 10
675.0963906652249
 20
248.7293479246456
  0
LINE
  5
790
330
21
100
AcDbEntity
  8
0
  6
Continuous
100
AcDbLine
 10
658.047397906125
 20
258.7897565894456
 30
0.0
 11
658.0473979061248
 21
236.4897573523456
 31
0.0
  0
LINE
  5
791
330
21
100
AcDbEntity
  8
0
  6
Continuous
100
AcDbLine
 10
656.3473971431249
 20
260.4897573523456
 30
0.0
 11
656.3473971431249
 21
236.4897573523456
 31
0.0
  0
LINE
  5
792
330
21
100
AcDbEntity
  8
0
  6
Continuous
100
AcDbLine
 10
712.3473971431248
 20
193.8554427773456
 30
0.0
 11
688.3473971431247
 21
193.8554427773456
 31
0.0
  0
LINE
  5
793
330
21
100
AcDbEntity
  8
0
  6
Continuous
100
AcDbLine
 10
712.2302398556249
 20
193.5726000648456
 30
0.0
 11
688.3473971431249
 21
193.5726000648456
 31
0.0
  0
LINE
  5
794
330
21
100
AcDbEntity
  8
0
  6
Continuous
100
AcDbLine
 10
688.3473971431249
 20
191.9897573523456
 30
0.0
 11
710.6473963802248
 21
191.9897573523456
 31
0.0
  0
LINE
  5
795
330
21
100
AcDbEntity
  8
0
  6
Continuous
100
AcDbLine
 10
710.2645544307248
 20
191.6069146399456
 30
0.0
 11
688.3473971431249
 21
191.6069146399456
 31
0.0
  0
LINE
  5
796
330
21
100
AcDbEntity
  8
0
  6
Continuous
100
AcDbLine
 10
709.9817117182249
 20
191.4897573523456
 30
0.0
 11
688.3473971431247
 21
191.4897573523456
 31
0.0
  0
LINE
  5
797
330
21
100
AcDbEntity
  8
0
  6
Continuous
100
AcDbLine
 10
645.7130825681248
 20
260.4897573523456
 30
0.0
 11
645.7130825681248
 21
236.4897573523456
 31
0.0
  0
LINE
  5
798
330
21
100
AcDbEntity
  8
0
  6
Continuous
100
AcDbLine
 10
645.4302398556249
 20
260.3726000648456
 30
0.0
 11
645.4302398556247
 21
236.4897573523456
 31
0.0
  0
LINE
  5
799
330
21
100
AcDbEntity
  8
0
  6
Continuous
100
AcDbLine
 10
643.8473971431249
 20
258.7897565894456
 30
0.0
 11
643.8473971431249
 21
236.4897573523456
 31
0.0
  0
LINE
  5
79A
330
21
100
AcDbEntity
  8
0
  6
Continuous
100
AcDbLine
 10
643.4645544307248
 20
258.4069146399456
 30
0.0
 11
643.4645544307248
 21
236.4897573523456
 31
0.0
  0
LINE
  5
79B
330
21
100
AcDbEntity
  8
0
  6
Continuous
100
AcDbLine
 10
643.3473971431249
 20
258.1240719274457
 30
0.0
 11
643.3473971431249
 21
236.4897573523456
 31
0.0
  0
LINE
  5
79C
330
21
100
AcDbEntity
  8
0
  6
Continuous
100
AcDbLine
 10
645.4302398556249
 20
260.3726000648456
 30
0.0
 11
643.4645544307248
 21
258.4069146399456
 31
0.0
  0
MTEXT
  5
2E3E
330
21
100
AcDbEntity
  8
0
100
AcDbMText
 10
2320.303926075331
 20
185.571951966812
 30
0.0
 40
0.18
 41
14.68390410115808
 71
     9
 72
     1
  1
\A1;
 73
     1
 44
1.0
  0
ENDSEC
  0
SECTION
  2
OBJECTS
  0
DICTIONARY
  5
232
330
0
100
AcDbDictionary
281
     1
  3
ACAD_COLOR
350
2B7
  3
ACAD_GROUP
350
233
  3
ACAD_LAYOUT
350
274
  3
ACAD_MATERIAL
350
2B6
  3
ACAD_MLINESTYLE
350
234
  3
ACAD_PLOTSETTINGS
350
275
  3
ACAD_PLOTSTYLENAME
350
272
  3
ACDBHEADERROUNDTRIPXREC
350
5E70
  3
AcDbVariableDictionary
350
2AE
  0
DICTIONARY
  5
2B7
102
{ACAD_REACTORS
330
232
102
}
330
232
100
AcDbDictionary
281
     1
  0
DICTIONARY
  5
233
102
{ACAD_REACTORS
330
232
102
}
330
232
100
AcDbDictionary
281
     1
  0
DICTIONARY
  5
274
102
{ACAD_REACTORS
330
232
102
}
330
232
100
AcDbDictionary
281
     1
  3
Layout1
350
277
  3
Model
350
276
  0
DICTIONARY
  5
2B6
102
{ACAD_REACTORS
330
232
102
}
330
232
100
AcDbDictionary
281
     1
  0
DICTIONARY
  5
234
102
{ACAD_REACTORS
330
232
102
}
330
232
100
AcDbDictionary
281
     1
  3
STANDARD
350
235
  0
DICTIONARY
  5
275
102
{ACAD_REACTORS
330
232
102
}
330
232
100
AcDbDictionary
281
     1
  0
ACDBDICTIONARYWDFLT
  5
272
102
{ACAD_REACTORS
330
232
102
}
330
232
100
AcDbDictionary
281
     1
  3
Normal
350
273
100
AcDbDictionaryWithDefault
340
273
  0
DICTIONARY
  5
5E70
102
{ACAD_REACTORS
330
232
102
}
330
232
100
AcDbDictionary
281
     1
  3
COLORDICT
350
5E71
  3
MATERIALDICT
350
5E72
  0
DICTIONARY
  5
2AE
102
{ACAD_REACTORS
330
232
102
}
330
232
100
AcDbDictionary
281
     1
  0
LAYOUT
  5
277
102
{ACAD_REACTORS
330
274
102
}
330
274
100
AcDbPlotSettings
  1

  2
\\alderaan\HP LaserJet 5Si/5Si MX PS Tecnico
  4

  6

 40
0.0
 41
0.0
 42
0.0
 43
0.0
 44
0.0
 45
0.0
 46
0.0
 47
0.0
 48
0.0
 49
0.0
140
0.0
141
0.0
142
1.0
143
1.0
 70
   688
 72
     0
 73
     0
 74
     5
  7

 75
    16
147
1.0
148
0.0
149
0.0
100
AcDbLayout
  1
Layout1
 70
     0
 71
     1
 10
0.0
 20
0.0
 11
12.0
 21
9.0
 12
0.0
 22
0.0
 32
0.0
 14
1.000000000000000E+20
 24
1.000000000000000E+20
 34
1.000000000000000E+20
 15
-1.000000000000000E+20
 25
-1.000000000000000E+20
 35
-1.000000000000000E+20
146
0.0
 13
0.0
 23
0.0
 33
0.0
 16
1.0
 26
0.0
 36
0.0
 17
0.0
 27
1.0
 37
0.0
 76
     0
330
22
  0
LAYOUT
  5
276
102
{ACAD_REACTORS
330
274
102
}
330
274
100
AcDbPlotSettings
  1

  2
\\alderaan\HP LaserJet 4050 Ricerca
  4
A4
  6

 40
5.027083396911621
 41
5.069430828094482
 42
5.365737915039062
 43
5.365753173828125
 44
209.8886566162109
 45
297.0530090332031
 46
0.0
 47
0.0
 48
70.15568666023683
 49
-413.5017910393744
140
1567.471881557387
141
355.5977189696187
142
1.0
143
5.224086096996019
 70
 11952
 72
     1
 73
     1
 74
     4
  7

 75
     0
147
0.1914210411989621
148
-70.15568666023683
149
413.5017910393744
100
AcDbLayout
  1
Model
 70
     1
 71
     0
 10
0.0
 20
0.0
 11
12.0
 21
9.0
 12
0.0
 22
0.0
 32
0.0
 14
0.0
 24
0.0
 34
0.0
 15
0.0
 25
0.0
 35
0.0
146
0.0
 13
0.0
 23
0.0
 33
0.0
 16
1.0
 26
0.0
 36
0.0
 17
0.0
 27
1.0
 37
0.0
 76
     0
330
21
  0
MLINESTYLE
  5
235
102
{ACAD_REACTORS
330
234
102
}
330
234
100
AcDbMlineStyle
  2
STANDARD
 70
     0
  3

 62
     0
 51
90.00000000000019
 52
90.00000000000019
 71
     2
 49
0.5
 62
   256
  6
BYLAYER
 49
-0.5
 62
   256
  6
BYLAYER
  0
ACDBPLACEHOLDER
  5
273
102
{ACAD_REACTORS
330
272
102
}
330
272
  0
XRECORD
  5
5E71
102
{ACAD_REACTORS
330
5E70
102
}
330
5E70
100
AcDbXrecord
280
     1
340
2B7
  0
XRECORD
  5
5E72
102
{ACAD_REACTORS
330
5E70
102
}
330
5E70
100
AcDbXrecord
280
     1
340
2B6
  0
ENDSEC
  0
EOF
