  0
SECTION
  2
HEADER
  9
$ACADVER
  1
AC1015
  9
$ACADMAINTVER
 70
     6
  9
$DWGCODEPAGE
  3
ANSI_1252
  9
$INSBASE
 10
0.0
 20
0.0
 30
0.0
  9
$EXTMIN
 10
284.3190627940706
 20
-451.816176746759
 30
-40.73332500000001
  9
$EXTMAX
 10
4800.663162093308
 20
246.9266154161779
 30
20.8
  9
$LIMMIN
 10
0.0
 20
0.0
  9
$LIMMAX
 10
420.0
 20
297.0
  9
$ORTHOMODE
 70
     1
  9
$REGENMODE
 70
     1
  9
$FILLMODE
 70
     1
  9
$QTEXTMODE
 70
     0
  9
$MIRRTEXT
 70
     1
  9
$LTSCALE
 40
23.1
  9
$ATTMODE
 70
     1
  9
$TEXTSIZE
 40
0.2
  9
$TRACEWID
 40
0.05
  9
$TEXTSTYLE
  7
STANDARD
  9
$CLAYER
  8
0
  9
$CELTYPE
  6
BYLAYER
  9
$CECOLOR
 62
   256
  9
$CELTSCALE
 40
1.0
  9
$DISPSILH
 70
     0
  9
$DIMSCALE
 40
1.0
  9
$DIMASZ
 40
3.0
  9
$DIMEXO
 40
2.625
  9
$DIMDLI
 40
15.96
  9
$DIMRND
 40
0.0
  9
$DIMDLE
 40
0.0
  9
$DIMEXE
 40
7.559999999999999
  9
$DIMTP
 40
0.0
  9
$DIMTM
 40
0.0
  9
$DIMTXT
 40
0.18
  9
$DIMCEN
 40
3.779999999999999
  9
$DIMTSZ
 40
0.0
  9
$DIMTOL
 70
     0
  9
$DIMLIM
 70
     0
  9
$DIMTIH
 70
     1
  9
$DIMTOH
 70
     1
  9
$DIMSE1
 70
     0
  9
$DIMSE2
 70
     0
  9
$DIMTAD
 70
     0
  9
$DIMZIN
 70
     0
  9
$DIMBLK
  1

  9
$DIMASO
 70
     1
  9
$DIMSHO
 70
     1
  9
$DIMPOST
  1

  9
$DIMAPOST
  1

  9
$DIMALT
 70
     0
  9
$DIMALTD
 70
     2
  9
$DIMALTF
 40
25.4
  9
$DIMLFAC
 40
1.0
  9
$DIMTOFL
 70
     0
  9
$DIMTVP
 40
0.0
  9
$DIMTIX
 70
     0
  9
$DIMSOXD
 70
     0
  9
$DIMSAH
 70
     0
  9
$DIMBLK1
  1

  9
$DIMBLK2
  1

  9
$DIMSTYLE
  2
STANDARD
  9
$DIMCLRD
 70
     0
  9
$DIMCLRE
 70
     0
  9
$DIMCLRT
 70
     0
  9
$DIMTFAC
 40
1.0
  9
$DIMGAP
 40
0.09
  9
$DIMJUST
 70
     0
  9
$DIMSD1
 70
     0
  9
$DIMSD2
 70
     0
  9
$DIMTOLJ
 70
     1
  9
$DIMTZIN
 70
     0
  9
$DIMALTZ
 70
     0
  9
$DIMALTTZ
 70
     0
  9
$DIMUPT
 70
     0
  9
$DIMDEC
 70
     4
  9
$DIMTDEC
 70
     4
  9
$DIMALTU
 70
     2
  9
$DIMALTTD
 70
     2
  9
$DIMTXSTY
  7
STANDARD
  9
$DIMAUNIT
 70
     0
  9
$DIMADEC
 70
     0
  9
$DIMALTRND
 40
0.0
  9
$DIMAZIN
 70
     0
  9
$DIMDSEP
 70
    46
  9
$DIMATFIT
 70
     3
  9
$DIMFRAC
 70
     0
  9
$DIMLDRBLK
  1

  9
$DIMLUNIT
 70
     2
  9
$DIMLWD
 70
    -2
  9
$DIMLWE
 70
    -2
  9
$DIMTMOVE
 70
     0
  9
$LUNITS
 70
     2
  9
$LUPREC
 70
     4
  9
$SKETCHINC
 40
0.1
  9
$FILLETRAD
 40
0.0
  9
$AUNITS
 70
     0
  9
$AUPREC
 70
     0
  9
$MENU
  1
acad
  9
$ELEVATION
 40
0.0
  9
$PELEVATION
 40
0.0
  9
$THICKNESS
 40
0.0
  9
$LIMCHECK
 70
     0
  9
$CHAMFERA
 40
0.0
  9
$CHAMFERB
 40
0.0
  9
$CHAMFERC
 40
0.0
  9
$CHAMFERD
 40
0.0
  9
$SKPOLY
 70
     0
  9
$TDCREATE
 40
2444972.041666667
  9
$TDUCREATE
 40
2444972.0
  9
$TDUPDATE
 40
2453410.511619607
  9
$TDUUPDATE
 40
2453410.46995294
  9
$TDINDWG
 40
1.2636636227
  9
$TDUSRTIMER
 40
1.2636636227
  9
$USRTIMER
 70
     1
  9
$ANGBASE
 50
0.0
  9
$ANGDIR
 70
     0
  9
$PDMODE
 70
     0
  9
$PDSIZE
 40
0.0
  9
$PLINEWID
 40
0.0
  9
$SPLFRAME
 70
     0
  9
$SPLINETYPE
 70
     6
  9
$SPLINESEGS
 70
     8
  9
$HANDSEED
  5
5F09
  9
$SURFTAB1
 70
     6
  9
$SURFTAB2
 70
     6
  9
$SURFTYPE
 70
     6
  9
$SURFU
 70
     6
  9
$SURFV
 70
     6
  9
$UCSBASE
  2

  9
$UCSNAME
  2

  9
$UCSORG
 10
0.0
 20
0.0
 30
0.0
  9
$UCSXDIR
 10
1.0
 20
0.0
 30
0.0
  9
$UCSYDIR
 10
0.0
 20
1.0
 30
0.0
  9
$UCSORTHOREF
  2

  9
$UCSORTHOVIEW
 70
     0
  9
$UCSORGTOP
 10
0.0
 20
0.0
 30
0.0
  9
$UCSORGBOTTOM
 10
0.0
 20
0.0
 30
0.0
  9
$UCSORGLEFT
 10
0.0
 20
0.0
 30
0.0
  9
$UCSORGRIGHT
 10
0.0
 20
0.0
 30
0.0
  9
$UCSORGFRONT
 10
0.0
 20
0.0
 30
0.0
  9
$UCSORGBACK
 10
0.0
 20
0.0
 30
0.0
  9
$PUCSBASE
  2

  9
$PUCSNAME
  2

  9
$PUCSORG
 10
0.0
 20
0.0
 30
0.0
  9
$PUCSXDIR
 10
1.0
 20
0.0
 30
0.0
  9
$PUCSYDIR
 10
0.0
 20
1.0
 30
0.0
  9
$PUCSORTHOREF
  2

  9
$PUCSORTHOVIEW
 70
     0
  9
$PUCSORGTOP
 10
0.0
 20
0.0
 30
0.0
  9
$PUCSORGBOTTOM
 10
0.0
 20
0.0
 30
0.0
  9
$PUCSORGLEFT
 10
0.0
 20
0.0
 30
0.0
  9
$PUCSORGRIGHT
 10
0.0
 20
0.0
 30
0.0
  9
$PUCSORGFRONT
 10
0.0
 20
0.0
 30
0.0
  9
$PUCSORGBACK
 10
0.0
 20
0.0
 30
0.0
  9
$USERI1
 70
     0
  9
$USERI2
 70
     0
  9
$USERI3
 70
     0
  9
$USERI4
 70
     0
  9
$USERI5
 70
     0
  9
$USERR1
 40
0.0
  9
$USERR2
 40
0.0
  9
$USERR3
 40
0.0
  9
$USERR4
 40
0.0
  9
$USERR5
 40
0.0
  9
$WORLDVIEW
 70
     1
  9
$SHADEDGE
 70
     3
  9
$SHADEDIF
 70
    70
  9
$TILEMODE
 70
     1
  9
$MAXACTVP
 70
    16
  9
$PINSBASE
 10
0.0
 20
0.0
 30
0.0
  9
$PLIMCHECK
 70
     0
  9
$PEXTMIN
 10
1.000000000000000E+20
 20
1.000000000000000E+20
 30
1.000000000000000E+20
  9
$PEXTMAX
 10
-1.000000000000000E+20
 20
-1.000000000000000E+20
 30
-1.000000000000000E+20
  9
$PLIMMIN
 10
0.0
 20
0.0
  9
$PLIMMAX
 10
12.0
 20
9.0
  9
$UNITMODE
 70
     0
  9
$VISRETAIN
 70
     0
  9
$PLINEGEN
 70
     1
  9
$PSLTSCALE
 70
     0
  9
$TREEDEPTH
 70
  3020
  9
$CMLSTYLE
  2
STANDARD
  9
$CMLJUST
 70
     0
  9
$CMLSCALE
 40
1.0
  9
$PROXYGRAPHICS
 70
     1
  9
$MEASUREMENT
 70
     0
  9
$CELWEIGHT
370
    -1
  9
$ENDCAPS
280
     0
  9
$JOINSTYLE
280
     0
  9
$LWDISPLAY
290
     0
  9
$INSUNITS
 70
     0
  9
$HYPERLINKBASE
  1

  9
$STYLESHEET
  1

  9
$XEDIT
290
     1
  9
$CEPSNTYPE
380
     0
  9
$PSTYLEMODE
290
     1
  9
$FINGERPRINTGUID
  2
{0BC36D6C-D7C2-4D71-98D4-CB92CFD2B5E3}
  9
$VERSIONGUID
  2
{C1560785-68CC-41FD-998C-96A3EDA8B307}
  9
$EXTNAMES
290
     1
  9
$PSVPSCALE
 40
0.0
  9
$OLESTARTUP
290
     0
  0
ENDSEC
  0
SECTION
  2
CLASSES
  0
CLASS
  1
IMAGE
  2
AcDbRasterImage
  3
ISM
 90
      127
280
     0
281
     1
  0
CLASS
  1
DICTIONARYVAR
  2
AcDbDictionaryVar
  3
ObjectDBX Classes
 90
        0
280
     0
281
     0
  0
CLASS
  1
RASTERVARIABLES
  2
AcDbRasterVariables
  3
ISM
 90
        0
280
     0
281
     0
  0
CLASS
  1
IMAGEDEF
  2
AcDbRasterImageDef
  3
ISM
 90
        0
280
     0
281
     0
  0
CLASS
  1
IMAGEDEF_REACTOR
  2
AcDbRasterImageDefReactor
  3
ISM
 90
        1
280
     0
281
     0
  0
CLASS
  1
IDBUFFER
  2
AcDbIdBuffer
  3
ObjectDBX Classes
 90
        0
280
     0
281
     0
  0
CLASS
  1
SPATIAL_FILTER
  2
AcDbSpatialFilter
  3
ObjectDBX Classes
 90
        0
280
     0
281
     0
  0
CLASS
  1
SORTENTSTABLE
  2
AcDbSortentsTable
  3
ObjectDBX Classes
 90
        0
280
     0
281
     0
  0
CLASS
  1
LAYER_INDEX
  2
AcDbLayerIndex
  3
ObjectDBX Classes
 90
        0
280
     0
281
     0
  0
CLASS
  1
SPATIAL_INDEX
  2
AcDbSpatialIndex
  3
AutoCAD 2000
 90
        0
280
     0
281
     0
  0
CLASS
  1
OBJECT_PTR
  2
CAseDLPNTableRecord
  3
ASE-LPNTableRecord
 90
        1
280
     0
281
     0
  0
CLASS
  1
PLOTSETTINGS
  2
AcDbPlotSettings
  3
ObjectDBX Classes
 90
        0
280
     0
281
     0
  0
CLASS
  1
ACDBDICTIONARYWDFLT
  2
AcDbDictionaryWithDefault
  3
ObjectDBX Classes
 90
        0
280
     0
281
     0
  0
CLASS
  1
WIPEOUT
  2
AcDbWipeout
  3
WipeOut|AutoCAD Express Tool|expresstools@autodesk.com
 90
      127
280
     0
281
     1
  0
CLASS
  1
WIPEOUTVARIABLES
  2
AcDbWipeoutVariables
  3
WipeOut|AutoCAD Express Tool|expresstools@autodesk.com
 90
        0
280
     0
281
     0
  0
CLASS
  1
RTEXT
  2
RText
  3
RText|AutoCAD Express Tool|expresstools@autodesk.com
 90
        0
280
     0
281
     1
  0
CLASS
  1
ARCALIGNEDTEXT
  2
AcDbArcAlignedText
  3
ATEXT|AutoCAD Express Tool|expresstools@autodesk.com
 90
        0
280
     0
281
     1
  0
CLASS
  1
ACDBPLACEHOLDER
  2
AcDbPlaceHolder
  3
ObjectDBX Classes
 90
        0
280
     0
281
     0
  0
CLASS
  1
LAYOUT
  2
AcDbLayout
  3
ObjectDBX Classes
 90
        0
280
     0
281
     0
  0
ENDSEC
  0
SECTION
  2
TABLES
  0
TABLE
  2
VPORT
  5
6
330
0
100
AcDbSymbolTable
 70
     1
  0
VPORT
  5
5EFD
330
6
100
AcDbSymbolTableRecord
100
AcDbViewportTableRecord
  2
*Active
 70
     0
 10
0.0
 20
0.0
 11
1.0
 21
1.0
 12
585.5555288583259
 22
-129.3757928105124
 13
0.0
 23
0.0
 14
1.0
 24
1.0
 15
0.0
 25
0.0
 16
0.0
 26
0.0
 36
1.0
 17
0.0
 27
0.0
 37
0.0
 40
182.3737555752141
 41
1.888667992047713
 42
50.0
 43
0.0
 44
0.0
 50
0.0
 51
0.0
 71
     0
 72
   100
 73
     1
 74
     1
 75
     0
 76
     0
 77
     0
 78
     0
281
     0
 65
     1
110
0.0
120
0.0
130
0.0
111
1.0
121
0.0
131
0.0
112
0.0
122
1.0
132
0.0
 79
     0
146
0.0
  0
ENDTAB
  0
TABLE
  2
LTYPE
  5
3
330
0
100
AcDbSymbolTable
 70
     2
  0
LTYPE
  5
C
330
3
100
AcDbSymbolTableRecord
100
AcDbLinetypeTableRecord
  2
BYBLOCK
 70
     0
  3

 72
    65
 73
     0
 40
0.0
  0
LTYPE
  5
D
330
3
100
AcDbSymbolTableRecord
100
AcDbLinetypeTableRecord
  2
BYLAYER
 70
     0
  3

 72
    65
 73
     0
 40
0.0
  0
LTYPE
  5
E
330
3
100
AcDbSymbolTableRecord
100
AcDbLinetypeTableRecord
  2
CONTINUOUS
 70
     0
  3
Solid line
 72
    65
 73
     0
 40
0.0
  0
LTYPE
  5
F
330
3
100
AcDbSymbolTableRecord
100
AcDbLinetypeTableRecord
  2
CENTER
 70
     0
  3
____ _ ____ _ ____ _ ____ _ ____ _ ____ _ ____
 72
    65
 73
     4
 40
0.6
 49
0.375
 74
     0
 49
-0.075
 74
     0
 49
0.075
 74
     0
 49
-0.075
 74
     0
  0
ENDTAB
  0
TABLE
  2
LAYER
  5
1
330
0
100
AcDbSymbolTable
 70
     2
  0
LAYER
  5
14
330
1
100
AcDbSymbolTableRecord
100
AcDbLayerTableRecord
  2
0
 70
     0
 62
     7
  6
CONTINUOUS
370
    -3
390
616
  0
LAYER
  5
61F
330
1
100
AcDbSymbolTableRecord
100
AcDbLayerTableRecord
  2
Defpoints
 70
     0
 62
     7
  6
CONTINUOUS
290
     0
370
    -3
390
616
  0
ENDTAB
  0
TABLE
  2
STYLE
  5
2
330
0
100
AcDbSymbolTable
 70
     3
  0
STYLE
  5
1D
330
2
100
AcDbSymbolTableRecord
100
AcDbTextStyleTableRecord
  2
STANDARD
 70
     0
 40
0.0
 41
1.0
 50
0.0
 71
     0
 42
0.2
  3
VERDANA.TTF
  4

1001
ACAD
1000
Verdana
1071
       34
  0
STYLE
  5
1A
330
2
100
AcDbSymbolTableRecord
100
AcDbTextStyleTableRecord
  2
TEXTSTYLE_0
 70
     0
 40
0.0
 41
0.8
 50
0.0
 71
     0
 42
0.2
  3
txt
  4

  0
STYLE
  5
1B
330
2
100
AcDbSymbolTableRecord
100
AcDbTextStyleTableRecord
  2
TEXTSTYLE_1
 70
     0
 40
0.0
 41
0.8
 50
0.0
 71
     0
 42
0.2
  3
txt
  4

  0
ENDTAB
  0
TABLE
  2
VIEW
  5
4
330
0
100
AcDbSymbolTable
 70
     0
  0
ENDTAB
  0
TABLE
  2
UCS
  5
5
330
0
100
AcDbSymbolTable
 70
     0
  0
ENDTAB
  0
TABLE
  2
APPID
  5
7
330
0
100
AcDbSymbolTable
 70
     1
  0
APPID
  5
19
330
7
100
AcDbSymbolTableRecord
100
AcDbRegAppTableRecord
  2
ACAD
 70
     0
  0
ENDTAB
  0
TABLE
  2
DIMSTYLE
  5
8
330
0
100
AcDbSymbolTable
 70
     2
100
AcDbDimStyleTable
  0
DIMSTYLE
105
2D
330
8
100
AcDbSymbolTableRecord
100
AcDbDimStyleTableRecord
  2
STANDARD
 70
     0
 47
0.003
 48
0.003
 71
     1
140
1.5
289
     0
340
1D
  0
DIMSTYLE
105
784
330
8
100
AcDbSymbolTableRecord
100
AcDbDimStyleTableRecord
  2
dimensionali
 70
     0
 41
6.0
 42
5.0
 43
31.958
 44
0.0
 47
0.003
 48
0.003
 71
     1
 73
     0
 74
     0
140
8.0
141
7.568999999999999
147
5.0
340
1D
341
785
342
785
  0
ENDTAB
  0
TABLE
  2
BLOCK_RECORD
  5
28
330
0
100
AcDbSymbolTable
 70
     1
  0
BLOCK_RECORD
  5
26
330
28
100
AcDbSymbolTableRecord
100
AcDbBlockTableRecord
  2
*MODEL_SPACE
340
61B
  0
BLOCK_RECORD
  5
27
330
28
100
AcDbSymbolTableRecord
100
AcDbBlockTableRecord
  2
*PAPER_SPACE
340
61C
  0
BLOCK_RECORD
  5
785
330
28
100
AcDbSymbolTableRecord
100
AcDbBlockTableRecord
  2
_Dot
340
0
  0
ENDTAB
  0
ENDSEC
  0
SECTION
  2
BLOCKS
  0
BLOCK
  5
29
330
26
100
AcDbEntity
  8
0
100
AcDbBlockBegin
  2
*MODEL_SPACE
 70
     0
 71
     0
 10
0.0
 20
0.0
 30
0.0
  3
*MODEL_SPACE
  1

  0
ENDBLK
  5
2A
330
26
100
AcDbEntity
  8
0
100
AcDbBlockEnd
  0
BLOCK
  5
2B
330
27
100
AcDbEntity
 67
     1
  8
0
100
AcDbBlockBegin
  2
*PAPER_SPACE
 70
     0
 71
     0
 10
0.0
 20
0.0
 30
0.0
  3
*PAPER_SPACE
  1

  0
ENDBLK
  5
2C
330
27
100
AcDbEntity
 67
     1
  8
0
100
AcDbBlockEnd
  0
BLOCK
  5
786
330
785
100
AcDbEntity
  8
0
100
AcDbBlockBegin
  2
_Dot
 70
     0
 71
     0
 10
0.0
 20
0.0
 30
0.0
  3
_Dot
  1

  0
LWPOLYLINE
  5
787
330
785
100
AcDbEntity
  8
0
  6
ByBlock
 62
     0
100
AcDbPolyline
 90
        2
 70
     1
 43
0.5
 10
-0.25
 20
0.0
 42
1.0
 10
0.25
 20
0.0
 42
1.0
  0
LINE
  5
788
330
785
100
AcDbEntity
  8
0
  6
ByBlock
 62
     0
370
    -2
100
AcDbLine
 10
-0.5
 20
0.0
 30
0.0
 11
-1.0
 21
0.0
 31
0.0
  0
ENDBLK
  5
789
330
785
100
AcDbEntity
  8
0
100
AcDbBlockEnd
  0
ENDSEC
  0
SECTION
  2
ENTITIES
  0
TEXT
  5
E5
330
26
100
AcDbEntity
  8
0
  6
Continuous
 62
     2
100
AcDbText
 10
98.4898777622
 20
41.38631207849999
 30
0.0
 40
1.8
  1
 
  7
TEXTSTYLE_1
 72
     5
 11
100.8041634764
 21
41.38631207849999
 31
0.0
100
AcDbText
  0
TEXT
  5
11D
330
26
100
AcDbEntity
  8
0
  6
Continuous
 62
     1
100
AcDbText
 10
328.1631333629
 20
32.0853596703
 30
0.0
 40
1.5
  1
 
  7
TEXTSTYLE_0
 72
     5
 11
330.0092872091
 21
32.0853596703
 31
0.0
100
AcDbText
  0
TEXT
  5
11E
330
26
100
AcDbEntity
  8
0
  6
Continuous
 62
     1
100
AcDbText
 10
330.0092872091
 20
32.0853596703
 30
0.0
 40
1.5
  1
 
  7
TEXTSTYLE_0
 72
     5
 11
331.8554410552
 21
32.0853596703
 31
0.0
100
AcDbText
  0
TEXT
  5
120
330
26
100
AcDbEntity
  8
0
  6
Continuous
 62
     1
100
AcDbText
 10
352.836210286
 20
32.0853596703
 30
0.0
 40
1.5
  1
 
  7
TEXTSTYLE_0
 72
     5
 11
354.6823641321
 21
32.0853596703
 31
0.0
100
AcDbText
  0
TEXT
  5
12A
330
26
100
AcDbEntity
  8
0
  6
Continuous
 62
     1
100
AcDbText
 10
401.5862102859999
 20
20.9420904395
 30
0.0
 40
1.5
  1
 
  7
TEXTSTYLE_0
 72
     5
 11
403.4323641321
 21
20.9420904395
 31
0.0
100
AcDbText
  0
SPLINE
  5
268C
330
26
100
AcDbEntity
  8
0
  6
Continuous
100
AcDbSpline
210
0.0
220
0.0
230
1.0
 70
     8
 71
     3
 72
    13
 73
     9
 74
     0
 42
0.0000000001
 43
0.0000000001
 40
0.3266010773424148
 40
0.3266010773424148
 40
0.3266010773424148
 40
0.3266010773424148
 40
0.3935231627880926
 40
0.5917110583524213
 40
0.789157032537119
 40
0.9862201296815024
 40
1.183195326098775
 40
1.577192060905531
 40
1.577192060905531
 40
1.577192060905531
 40
1.577192060905531
 10
558.3641089581147
 20
-95.39555745564184
 30
0.0
 10
558.384716678166
 20
-95.38695115081077
 30
0.0
 10
558.4667390963331
 20
-95.3536842555302
 30
0.0
 10
558.6097991984559
 20
-95.2963669680821
 30
0.0
 10
558.7874123233457
 20
-95.20917762404596
 30
0.0
 10
558.9566453197384
 20
-95.10769889859213
 30
0.0
 10
559.1730727100493
 20
-94.95854087908558
 30
0.0
 10
559.3263216689336
 20
-94.83462022357364
 30
0.0
 10
559.4284916472738
 20
-94.75200321408951
 30
0.0
  0
SPLINE
  5
268D
330
26
100
AcDbEntity
  8
0
  6
Continuous
100
AcDbSpline
210
0.0
220
0.0
230
1.0
 70
     8
 71
     3
 72
    11
 73
     7
 74
     0
 42
0.0000000001
 43
0.0000000001
 40
2.642262755802801
 40
2.642262755802801
 40
2.642262755802801
 40
2.642262755802801
 40
2.730543009860855
 40
2.924870991283953
 40
3.022318877645193
 40
3.119588602262777
 40
3.119588602262777
 40
3.119588602262777
 40
3.119588602262777
 10
558.3641089580735
 20
-99.63333387615428
 30
0.0
 10
558.3919530950659
 20
-99.62355633206796
 30
0.0
 10
558.4825650758928
 20
-99.59656813597863
 30
0.0
 10
558.6077197315389
 20
-99.57898518817429
 30
0.0
 10
558.7405910582151
 20
-99.57981231465446
 30
0.0
 10
558.7980929997335
 20
-99.61218361125336
 30
0.0
 10
558.8268176640737
 20
-99.62835445008952
 30
0.0
  0
SPLINE
  5
2692
330
26
100
AcDbEntity
  8
0
  6
Continuous
100
AcDbSpline
210
0.0
220
0.0
230
1.0
 70
     8
 71
     3
 72
    22
 73
    18
 74
    16
 42
0.0000000001
 43
0.0000000001
 44
0.0000000001
 40
0.0
 40
0.0
 40
0.0
 40
0.0
 40
0.0969026939765813
 40
0.6284882943832321
 40
1.819898058898708
 40
3.538503301592445
 40
5.409594602094911
 40
7.250785971264845
 40
8.990286501787812
 40
10.60320658683686
 40
12.09454241626422
 40
13.48659864369128
 40
14.81259681605628
 40
16.07123934946981
 40
17.25772877828864
 40
18.32508299180902
 40
19.22146375984206
 40
19.22146375984206
 40
19.22146375984206
 40
19.22146375984206
 10
543.3641089580738
 20
-110.7255651448895
 30
0.0
 10
543.3873215094159
 20
-110.7031035004025
 30
0.0
 10
543.5378727087958
 20
-110.5574225079206
 30
0.0
 10
543.9740409746073
 20
-110.1358059236117
 30
0.0
 10
544.8000006154703
 20
-109.3396521852853
 30
0.0
 10
545.9506030146672
 20
-108.2369224874466
 30
0.0
 10
547.2633522177061
 20
-106.9903695709805
 30
0.0
 10
548.5894047316006
 20
-105.7477551940028
 30
0.0
 10
549.8634377262838
 20
-104.5755725657994
 30
0.0
 10
551.0653201359243
 20
-103.4973461464804
 30
0.0
 10
552.1983547727441
 20
-102.516127747231
 30
0.0
 10
553.2817719556654
 20
-101.6240714745968
 30
0.0
 10
554.3362058041143
 20
-100.8204372956889
 30
0.0
 10
555.3798304486892
 20
-100.116307688064
 30
0.0
 10
556.411970456346
 20
-99.56241628591874
 30
0.0
 10
557.4091861491629
 20
-99.19696880652744
 30
0.0
 10
558.0648293079451
 20
-99.15146224102244
 30
0.0
 10
558.3641089580736
 20
-99.13068998278951
 30
0.0
 11
543.3641089580738
 21
-110.7255651448895
 31
0.0
 11
543.4337484253737
 21
-110.6581820854895
 31
0.0
 11
543.8159569055738
 21
-110.2887231185895
 31
0.0
 11
544.6738009624737
 21
-109.4619457597895
 31
0.0
 11
545.9147809307737
 21
-108.2730081253895
 31
0.0
 11
547.2720071700737
 21
-106.9850176012895
 31
0.0
 11
548.6161036644739
 21
-105.7266892372895
 31
0.0
 11
549.8970364762739
 21
-104.5497978967895
 31
0.0
 11
551.0987251974738
 21
-103.4739468763895
 31
0.0
 11
552.227529231574
 21
-102.4993269459895
 31
0.0
 11
553.3043151569739
 21
-101.6170840025895
 31
0.0
 11
554.3619479865737
 21
-100.8172815576895
 31
0.0
 11
555.4108824608738
 21
-100.1216397708895
 31
0.0
 11
556.4611598177739
 21
-99.56966636728949
 31
0.0
 11
557.4733575108739
 21
-99.23099123208951
 31
0.0
 11
558.3641089580736
 21
-99.13068998278951
 31
0.0
  0
SPLINE
  5
2693
330
26
100
AcDbEntity
  8
0
  6
Continuous
100
AcDbSpline
210
1.0
220
-3.970000000000000E-14
230
-1.550000000000000E-14
 70
     8
 71
     3
 72
    11
 73
     7
 74
     5
 42
0.0000000001
 43
0.0000000001
 44
0.0000000001
 40
0.0
 40
0.0
 40
0.0
 40
0.0
 40
3.716070546243556
 40
7.432141092510049
 40
11.14821163873131
 40
14.43004927930945
 40
14.43004927930945
 40
14.43004927930945
 40
14.43004927930945
 10
508.3022287426738
 20
-117.7255651448895
 30
-0.9333349999999999
 10
508.3022287426738
 20
-117.6666950516226
 30
-2.173781631666939
 10
508.3022287426737
 20
-117.5489548650884
 30
-4.654674895008473
 10
508.3022287426737
 20
-116.5907822230897
 30
-8.268245107804262
 10
508.3022287426738
 20
-115.1836646070765
 30
-11.57284886114089
 10
508.3022287426738
 20
-113.8641890843837
 30
-13.50207364694754
 10
508.3022287426738
 20
-113.2453892486895
 30
-14.4068300899
 11
508.3022287426738
 21
-117.7255651448895
 31
-0.9333349999999999
 11
508.3022287426738
 21
-117.4186944713895
 31
-4.636713281299999
 11
508.3022287426738
 21
-116.5064530830895
 31
-8.239073057100001
 11
508.3022287426738
 21
-115.0137245469895
 31
-11.6421513433
 11
508.3022287426738
 21
-113.2453892486895
 31
-14.4068300899
  0
ARC
  5
2694
330
26
100
AcDbEntity
  8
0
  6
Continuous
100
AcDbCircle
 10
541.3641089580736
 20
-149.2255651448895
 30
0.0
 40
2.0
100
AcDbArc
 50
270.0
 51
0.0
  0
ARC
  5
2695
330
26
100
AcDbEntity
  8
0
  6
Continuous
100
AcDbCircle
 10
515.7297943829739
 20
-118.8255651448895
 30
0.0
 40
0.4
100
AcDbArc
 50
224.9999999807003
 51
270.0000000000912
  0
ARC
  5
2696
330
26
100
AcDbEntity
  8
0
  6
Continuous
100
AcDbCircle
 10
531.6067496451738
 20
-118.2255651448895
 30
0.0
 40
3.0
100
AcDbArc
 50
90.0
 51
134.9999999999957
  0
ARC
  5
2697
330
26
100
AcDbEntity
  8
0
  6
Continuous
100
AcDbCircle
 10
536.3641089580736
 20
-124.0733062646895
 30
0.0
 40
3.0
100
AcDbArc
 50
314.9999999998996
 51
0.0
  0
ARC
  5
2698
330
26
100
AcDbEntity
  8
0
  6
Continuous
100
AcDbCircle
 10
538.516431180874
 20
-148.4122019426895
 30
0.0
 40
0.4
100
AcDbArc
 50
181.7889999999985
 51
225.0000000038969
  0
ARC
  5
2699
330
26
100
AcDbEntity
  8
0
  6
Continuous
100
AcDbCircle
 10
535.3641206811739
 20
-119.2255536678895
 30
0.0
 40
3.9999979612
100
AcDbArc
 50
359.999834576899
 51
90.00016858089981
  0
ARC
  5
269A
330
26
100
AcDbEntity
  8
0
  6
Continuous
100
AcDbCircle
 10
520.7641089580739
 20
-112.2255651448895
 30
0.0
 40
1.0
100
AcDbArc
 50
90.0
 51
180.0
  0
ARC
  5
269B
330
26
100
AcDbEntity
  8
0
  6
Continuous
100
AcDbCircle
 10
514.3641089580738
 20
-116.2255651448895
 30
0.0
 40
1.0
100
AcDbArc
 50
90.0
 51
179.9999999992004
  0
ARC
  5
269C
330
26
100
AcDbEntity
  8
0
  6
Continuous
100
AcDbCircle
 10
513.7641089580739
 20
-116.8598797198895
 30
0.0
 40
0.4
100
AcDbArc
 50
180.0
 51
225.0000000012025
  0
ARC
  5
269D
330
26
100
AcDbEntity
  8
0
  6
Continuous
100
AcDbCircle
 10
518.7641089580739
 20
-114.2255651448895
 30
0.0
 40
1.0
100
AcDbArc
 50
270.0
 51
359.9999999995994
  0
ARC
  5
269E
330
26
100
AcDbEntity
  8
0
  6
Continuous
100
AcDbCircle
 10
540.9297943829738
 20
-150.8255651448895
 30
0.0
 40
0.4
100
AcDbArc
 50
225.0000000195007
 51
270.0
  0
ARC
  5
269F
330
26
100
AcDbEntity
  8
0
  6
Continuous
100
AcDbCircle
 10
523.7022287426738
 20
-120.3255651448895
 30
0.0
 40
0.6
100
AcDbArc
 50
0.0000000002002986
 51
90.0
  0
ARC
  5
26A0
330
26
100
AcDbEntity
  8
0
  6
Continuous
100
AcDbCircle
 10
523.4679141676738
 20
-119.3255651448895
 30
0.0
 40
0.4
100
AcDbArc
 50
224.9999999895028
 51
270.0000000000912
  0
ARC
  5
26A1
330
26
100
AcDbEntity
  8
0
  6
Continuous
100
AcDbCircle
 10
507.6323557616738
 20
-116.7255651448895
 30
0.0
 40
1.0
100
AcDbArc
 50
209.9999999951976
 51
270.0
  0
ARC
  5
26A2
330
26
100
AcDbEntity
  8
0
  6
Continuous
100
AcDbCircle
 10
502.7248784734738
 20
-112.2255651448895
 30
0.0
 40
1.0
100
AcDbArc
 50
29.99999999999765
 51
90.0
  0
ARC
  5
26A3
330
26
100
AcDbEntity
  8
0
  6
Continuous
100
AcDbCircle
 10
500.3022287426738
 20
-118.2255651448895
 30
0.0
 40
1.0
100
AcDbArc
 50
180.0
 51
270.0
  0
ARC
  5
26A4
330
26
100
AcDbEntity
  8
0
  6
Continuous
100
AcDbCircle
 10
500.3701779351738
 20
-122.2255651448895
 30
0.0
 40
3.0
100
AcDbArc
 50
29.99999999999765
 51
90.0
  0
ARC
  5
26A5
330
26
100
AcDbEntity
  8
0
  6
Continuous
100
AcDbCircle
 10
506.721030896274
 20
-123.2255651448895
 30
0.0
 40
2.0
100
AcDbArc
 50
209.9999999999976
 51
270.0
  0
ARC
  5
26A6
330
26
100
AcDbEntity
  8
0
  6
Continuous
100
AcDbCircle
 10
523.9022287426737
 20
-121.4183854678895
 30
0.0
 40
0.4
100
AcDbArc
 50
330.0000000038967
 51
0.0
  0
ARC
  5
26A7
330
26
100
AcDbEntity
  8
0
  6
Continuous
100
AcDbCircle
 10
511.7641089580738
 20
-115.8255651448895
 30
0.0
 40
0.4
100
AcDbArc
 50
180.0
 51
270.0
  0
ARC
  5
26A8
330
26
100
AcDbEntity
  8
0
  6
Continuous
100
AcDbCircle
 10
510.9641089580739
 20
-114.3689098024895
 30
0.0
 40
0.4
100
AcDbArc
 50
0.0000000008989011
 51
75.00000000469909
  0
CIRCLE
  5
26A9
330
26
100
AcDbEntity
  8
0
  6
Continuous
100
AcDbCircle
 10
516.564108958074
 20
-113.2255651448895
 30
0.0
 40
2.0
  0
LINE
  5
26AA
330
26
100
AcDbEntity
  8
0
  6
Continuous
100
AcDbLine
 10
499.3022287426738
 20
-118.2255651448895
 30
0.0
 11
499.3022287426738
 21
-95.22556514488952
 31
0.0
  0
LINE
  5
26AB
330
26
100
AcDbEntity
  8
0
  6
Continuous
100
AcDbLine
 10
504.988980088674
 20
-124.2255651448895
 30
0.0
 11
502.9682541464739
 21
-120.7255651448895
 31
0.0
  0
LINE
  5
26AC
330
26
100
AcDbEntity
  8
0
  6
Continuous
100
AcDbLine
 10
500.3022287426738
 20
-111.2255651448895
 30
0.0
 11
500.3022287426738
 21
-95.22556514488952
 31
0.0
  0
LINE
  5
26AD
330
26
100
AcDbEntity
  8
0
  6
Continuous
100
AcDbLine
 10
502.7248784734738
 20
-111.2255651448895
 30
0.0
 11
502.7248784734738
 21
-95.22556514488952
 31
0.0
  0
LINE
  5
26AE
330
26
100
AcDbEntity
  8
0
  6
Continuous
100
AcDbLine
 10
506.7663303578738
 20
-117.2255651448895
 30
0.0
 11
503.5909038772738
 21
-111.7255651448895
 31
0.0
  0
LINE
  5
26AF
330
26
100
AcDbEntity
  8
0
  6
Continuous
100
AcDbLine
 10
503.5909038772738
 20
-111.7255651448895
 30
0.0
 11
503.5909038772738
 21
-95.22556514488952
 31
0.0
  0
LINE
  5
26B0
330
26
100
AcDbEntity
  8
0
  6
Continuous
100
AcDbLine
 10
503.7641089580738
 20
-112.0255651448895
 30
0.0
 11
503.7641089580738
 21
-95.22556514488952
 31
0.0
  0
LINE
  5
26B1
330
26
100
AcDbEntity
  8
0
  6
Continuous
100
AcDbLine
 10
504.3641089580737
 20
-111.2255651448895
 30
0.0
 11
504.3641089580737
 21
-95.22556514488952
 31
0.0
  0
LINE
  5
26B2
330
26
100
AcDbEntity
  8
0
  6
Continuous
100
AcDbLine
 10
506.7663303578738
 20
-112.8300079443895
 30
0.0
 11
506.7663303578738
 21
-117.2255651448895
 31
0.0
  0
LINE
  5
26B3
330
26
100
AcDbEntity
  8
0
  6
Continuous
100
AcDbLine
 10
538.2335884683739
 20
-148.6950446551895
 30
0.0
 11
540.6469516705738
 21
-151.1084078572895
 31
0.0
  0
LINE
  5
26B4
330
26
100
AcDbEntity
  8
0
  6
Continuous
100
AcDbLine
 10
507.6323557616738
 20
-113.0620587519895
 30
0.0
 11
507.6323557616738
 21
-117.7255651448895
 31
0.0
  0
LINE
  5
26B5
330
26
100
AcDbEntity
  8
0
  6
Continuous
100
AcDbLine
 10
508.3022287426738
 20
-117.7255651448895
 30
0.0
 11
508.3022287426738
 21
-119.2255651448895
 31
0.0
  0
LINE
  5
26B6
330
26
100
AcDbEntity
  8
0
  6
Continuous
100
AcDbLine
 10
500.3022287426738
 20
-111.2255651448895
 30
0.0
 11
499.3022287426738
 21
-112.2255651448895
 31
0.0
  0
LINE
  5
26B7
330
26
100
AcDbEntity
  8
0
  6
Continuous
100
AcDbLine
 10
504.1703314054739
 20
-111.3374426669895
 30
0.0
 11
505.2590119265737
 21
-112.4261231879895
 31
0.0
  0
LINE
  5
26B8
330
26
100
AcDbEntity
  8
0
  6
Continuous
100
AcDbLine
 10
505.200198808674
 20
-111.2255651448895
 30
0.0
 11
506.8186644991738
 21
-112.8440308352895
 31
0.0
  0
LINE
  5
26B9
330
26
100
AcDbEntity
  8
0
  6
Continuous
100
AcDbLine
 10
506.3419437339739
 20
-111.2255651448895
 30
0.0
 11
508.3783170717738
 21
-113.2619384825895
 31
0.0
  0
LINE
  5
26BA
330
26
100
AcDbEntity
  8
0
  6
Continuous
100
AcDbLine
 10
511.3641089580737
 20
-115.1059854435895
 30
0.0
 11
512.4836886592738
 21
-116.2255651448895
 31
0.0
  0
LINE
  5
26BB
330
26
100
AcDbEntity
  8
0
  6
Continuous
100
AcDbLine
 10
507.4836886592739
 20
-111.2255651448895
 30
0.0
 11
509.9379696443739
 21
-113.6798461298895
 31
0.0
  0
LINE
  5
26BC
330
26
100
AcDbEntity
  8
0
  6
Continuous
100
AcDbLine
 10
513.4812662455738
 20
-117.1427224323895
 30
0.0
 11
515.446951670574
 21
-119.1084078572895
 31
0.0
  0
LINE
  5
26BD
330
26
100
AcDbEntity
  8
0
  6
Continuous
100
AcDbLine
 10
511.3641089580737
 20
-115.8255651448895
 30
0.0
 11
511.3641089580737
 21
-114.3689098024895
 31
0.0
  0
LINE
  5
26BE
330
26
100
AcDbEntity
  8
0
  6
Continuous
100
AcDbLine
 10
512.7641089580739
 20
-111.2255651448895
 30
0.0
 11
512.7641089580739
 21
-95.22556514488952
 31
0.0
  0
LINE
  5
26BF
330
26
100
AcDbEntity
  8
0
  6
Continuous
100
AcDbLine
 10
513.3641089580736
 20
-116.8598797198895
 30
0.0
 11
513.3641089580736
 21
-95.22556514488952
 31
0.0
  0
LINE
  5
26C0
330
26
100
AcDbEntity
  8
0
  6
Continuous
100
AcDbLine
 10
514.3641089580738
 20
-115.2255651448895
 30
0.0
 11
514.3641089580738
 21
-95.22556514488952
 31
0.0
  0
LINE
  5
26C1
330
26
100
AcDbEntity
  8
0
  6
Continuous
100
AcDbLine
 10
514.564108958074
 20
-113.2255651448895
 30
0.0
 11
514.564108958074
 21
-95.22556514488952
 31
0.0
  0
LINE
  5
26C2
330
26
100
AcDbEntity
  8
0
  6
Continuous
100
AcDbLine
 10
503.5502941711738
 20
-111.6726415453895
 30
0.0
 11
499.3022287426738
 21
-115.9207069738895
 31
0.0
  0
LINE
  5
26C3
330
26
100
AcDbEntity
  8
0
  6
Continuous
100
AcDbLine
 10
508.6254335845738
 20
-111.2255651448895
 30
0.0
 11
513.3641089580736
 21
-115.9642405182895
 31
0.0
  0
LINE
  5
26C4
330
26
100
AcDbEntity
  8
0
  6
Continuous
100
AcDbLine
 10
509.7671785099737
 20
-111.2255651448895
 30
0.0
 11
513.3641089580736
 21
-114.8224955929895
 31
0.0
  0
LINE
  5
26C5
330
26
100
AcDbEntity
  8
0
  6
Continuous
100
AcDbLine
 10
510.9089234352738
 20
-111.2255651448895
 30
0.0
 11
513.3641089580736
 21
-113.6807506676895
 31
0.0
  0
LINE
  5
26C6
330
26
100
AcDbEntity
  8
0
  6
Continuous
100
AcDbLine
 10
512.050668360574
 20
-111.2255651448895
 30
0.0
 11
513.3641089580736
 21
-112.5390057423895
 31
0.0
  0
LINE
  5
26C7
330
26
100
AcDbEntity
  8
0
  6
Continuous
100
AcDbLine
 10
514.671142343474
 20
-113.8417274990895
 30
0.0
 11
515.9427245051737
 21
-115.1133096607895
 31
0.0
  0
LINE
  5
26C8
330
26
100
AcDbEntity
  8
0
  6
Continuous
100
AcDbLine
 10
514.5786912098738
 20
-113.3869338236895
 30
0.0
 11
516.3970362288737
 21
-115.2052788426895
 31
0.0
  0
LINE
  5
26C9
330
26
100
AcDbEntity
  8
0
  6
Continuous
100
AcDbLine
 10
514.5786912098738
 20
-113.0245912819895
 30
0.0
 11
516.7563257309739
 21
-115.2022258030895
 31
0.0
  0
LINE
  5
26CA
330
26
100
AcDbEntity
  8
0
  6
Continuous
100
AcDbLine
 10
514.6424113762736
 20
-112.7259689066895
 30
0.0
 11
517.0725760404739
 21
-115.1561335707895
 31
0.0
  0
LINE
  5
26CB
330
26
100
AcDbEntity
  8
0
  6
Continuous
100
AcDbLine
 10
514.7288620334738
 20
-112.4500770220895
 30
0.0
 11
517.3352858814737
 21
-115.0565008700895
 31
0.0
  0
LINE
  5
26CC
330
26
100
AcDbEntity
  8
0
  6
Continuous
100
AcDbLine
 10
518.564108958074
 20
-113.2255651448895
 30
0.0
 11
518.564108958074
 21
-95.22556514488952
 31
0.0
  0
LINE
  5
26CD
330
26
100
AcDbEntity
  8
0
  6
Continuous
100
AcDbLine
 10
518.7641089580739
 20
-115.2255651448895
 30
0.0
 11
518.7641089580739
 21
-95.22556514488952
 31
0.0
  0
LINE
  5
26CE
330
26
100
AcDbEntity
  8
0
  6
Continuous
100
AcDbLine
 10
505.0271070013739
 20
-114.2131419256895
 30
0.0
 11
500.0539994449739
 21
-119.1862494820895
 31
0.0
  0
LINE
  5
26CF
330
26
100
AcDbEntity
  8
0
  6
Continuous
100
AcDbLine
 10
506.4975456913739
 20
-116.7600164461895
 30
0.0
 11
502.7788427415739
 21
-120.4787193959895
 31
0.0
  0
LINE
  5
26D0
330
26
100
AcDbEntity
  8
0
  6
Continuous
100
AcDbLine
 10
514.8535780531737
 20
-112.2124504999895
 30
0.0
 11
517.5787790461739
 21
-114.9376514929895
 31
0.0
  0
LINE
  5
26D1
330
26
100
AcDbEntity
  8
0
  6
Continuous
100
AcDbLine
 10
515.0002378333738
 20
-111.9967677383895
 30
0.0
 11
517.7931511846739
 21
-114.7896810896895
 31
0.0
  0
LINE
  5
26D2
330
26
100
AcDbEntity
  8
0
  6
Continuous
100
AcDbLine
 10
515.1704502612737
 20
-111.8046376245895
 30
0.0
 11
517.9833870183738
 21
-114.6175743816895
 31
0.0
  0
LINE
  5
26D3
330
26
100
AcDbEntity
  8
0
  6
Continuous
100
AcDbLine
 10
523.1850714551738
 20
-119.6084078572895
 30
0.0
 11
522.8022287426738
 21
-119.2255651448895
 31
0.0
  0
LINE
  5
26D4
330
26
100
AcDbEntity
  8
0
  6
Continuous
100
AcDbLine
 10
515.3673327523738
 20
-111.6391775738895
 30
0.0
 11
518.1535994463739
 21
-114.4254442678895
 31
0.0
  0
LINE
  5
26D5
330
26
100
AcDbEntity
  8
0
  6
Continuous
100
AcDbLine
 10
515.5817048907738
 20
-111.4912071705895
 30
0.0
 11
518.293411377374
 21
-114.2029136570895
 31
0.0
  0
LINE
  5
26D6
330
26
100
AcDbEntity
  8
0
  6
Continuous
100
AcDbLine
 10
515.8324735593737
 20
-111.3796332973895
 30
0.0
 11
518.4181273970739
 21
-113.9652871350895
 31
0.0
  0
LINE
  5
26D7
330
26
100
AcDbEntity
  8
0
  6
Continuous
100
AcDbLine
 10
516.097414870274
 20
-111.2822320664895
 30
0.0
 11
518.4965907848739
 21
-113.6814079810895
 31
0.0
  0
LINE
  5
26D8
330
26
100
AcDbEntity
  8
0
  6
Continuous
100
AcDbLine
 10
516.4205247675739
 20
-111.2429994219895
 30
0.0
 11
518.5495267062738
 21
-113.3720013606895
 31
0.0
  0
LINE
  5
26D9
330
26
100
AcDbEntity
  8
0
  6
Continuous
100
AcDbLine
 10
516.7932565923738
 20
-111.2533887050895
 30
0.0
 11
518.5495267062738
 21
-113.0096588189895
 31
0.0
  0
LINE
  5
26DA
330
26
100
AcDbEntity
  8
0
  6
Continuous
100
AcDbLine
 10
517.2733510747739
 20
-111.3711406456895
 30
0.0
 11
518.439236252374
 21
-112.5370258232895
 31
0.0
  0
LINE
  5
26DB
330
26
100
AcDbEntity
  8
0
  6
Continuous
100
AcDbLine
 10
519.7641089580739
 20
-114.2255651448895
 30
0.0
 11
519.7641089580739
 21
-95.22556514488952
 31
0.0
  0
LINE
  5
26DC
330
26
100
AcDbEntity
  8
0
  6
Continuous
100
AcDbLine
 10
520.7641089580739
 20
-95.22556514488952
 30
0.0
 11
520.7641089580739
 21
-111.2255651448895
 31
0.0
  0
LINE
  5
26DD
330
26
100
AcDbEntity
  8
0
  6
Continuous
100
AcDbLine
 10
509.5493102031737
 20
-117.7255651448895
 30
0.0
 11
504.2790116355738
 21
-122.9958637123895
 31
0.0
  0
LINE
  5
26DE
330
26
100
AcDbEntity
  8
0
  6
Continuous
100
AcDbLine
 10
514.0120315308739
 20
-115.2964490072895
 30
0.0
 11
513.4349929202739
 21
-115.8734876179895
 31
0.0
  0
LINE
  5
26DF
330
26
100
AcDbEntity
  8
0
  6
Continuous
100
AcDbLine
 10
503.7641089580738
 20
-111.5719753063895
 30
0.0
 11
504.3641089580737
 21
-111.2255651448895
 31
0.0
  0
LINE
  5
26E0
330
26
100
AcDbEntity
  8
0
  6
Continuous
100
AcDbLine
 10
512.7641089580739
 20
-111.2255651448895
 30
0.0
 11
513.3641089580736
 21
-111.5719753063895
 31
0.0
  0
LINE
  5
26E1
330
26
100
AcDbEntity
  8
0
  6
Continuous
100
AcDbLine
 10
523.1850714551738
 20
-119.6084078572895
 30
0.0
 11
523.1850714551738
 21
-119.2255651448895
 31
0.0
  0
LINE
  5
26E2
330
26
100
AcDbEntity
  8
0
  6
Continuous
100
AcDbLine
 10
523.4679141676738
 20
-119.7255651448895
 30
0.0
 11
523.4679141676738
 21
-119.2255651448895
 31
0.0
  0
LINE
  5
26E3
330
26
100
AcDbEntity
  8
0
  6
Continuous
100
AcDbLine
 10
523.7022287426738
 20
-119.2255651448895
 30
0.0
 11
523.7022287426738
 21
-119.7255651448895
 31
0.0
  0
LINE
  5
26E4
330
26
100
AcDbEntity
  8
0
  6
Continuous
100
AcDbLine
 10
524.3022287426738
 20
-119.2255651448895
 30
0.0
 11
524.3022287426738
 21
-121.4183854678895
 31
0.0
  0
LINE
  5
26E5
330
26
100
AcDbEntity
  8
0
  6
Continuous
100
AcDbLine
 10
513.5666234136738
 20
-117.7255651448895
 30
0.0
 11
506.1548703997736
 21
-125.1373181586895
 31
0.0
  0
LINE
  5
26E6
330
26
100
AcDbEntity
  8
0
  6
Continuous
100
AcDbLine
 10
516.0839366240739
 20
-119.2255651448895
 30
0.0
 11
510.0839366240738
 21
-125.2255651448895
 31
0.0
  0
LINE
  5
26E7
330
26
100
AcDbEntity
  8
0
  6
Continuous
100
AcDbLine
 10
524.2486389041737
 20
-121.6183854678895
 30
0.0
 11
522.1660327466739
 21
-125.2255651448895
 31
0.0
  0
LINE
  5
26E8
330
26
100
AcDbEntity
  8
0
  6
Continuous
100
AcDbLine
 10
526.6147566804739
 20
-111.2255651448895
 30
0.0
 11
518.6147566804739
 21
-119.2255651448895
 31
0.0
  0
LINE
  5
26E9
330
26
100
AcDbEntity
  8
0
  6
Continuous
100
AcDbLine
 10
520.101249834574
 20
-119.2255651448895
 30
0.0
 11
514.1012498345739
 21
-125.2255651448895
 31
0.0
  0
LINE
  5
26EA
330
26
100
AcDbEntity
  8
0
  6
Continuous
100
AcDbLine
 10
523.6185630450738
 20
-119.7255651448895
 30
0.0
 11
518.1185630450738
 21
-125.2255651448895
 31
0.0
  0
LINE
  5
26EB
330
26
100
AcDbEntity
  8
0
  6
Continuous
100
AcDbLine
 10
529.4854293015737
 20
-116.1042448012895
 30
0.0
 11
526.3641089580736
 21
-119.2255651448895
 31
0.0
  0
LINE
  5
26EC
330
26
100
AcDbEntity
  8
0
  6
Continuous
100
AcDbLine
 10
535.1465979675738
 20
-111.2255651448895
 30
0.0
 11
531.0768331354738
 21
-115.2953299768895
 31
0.0
  0
LINE
  5
26ED
330
26
100
AcDbEntity
  8
0
  6
Continuous
100
AcDbLine
 10
537.4544907650738
 20
-127.2255651448895
 30
0.0
 11
538.1166261518737
 21
-148.4246894894895
 31
0.0
  0
LINE
  5
26EE
330
26
100
AcDbEntity
  8
0
  6
Continuous
100
AcDbLine
 10
522.2072272797738
 20
-125.1542141206895
 30
0.0
 11
522.1358762555738
 21
-125.2255651448895
 31
0.0
  0
LINE
  5
26EF
330
26
100
AcDbEntity
  8
0
  6
Continuous
100
AcDbLine
 10
543.3641089580738
 20
-110.7255651448895
 30
0.0
 11
539.3641089580738
 21
-110.7255651448895
 31
0.0
  0
LINE
  5
26F0
330
26
100
AcDbEntity
  8
0
  6
Continuous
100
AcDbLine
 10
502.7248784734738
 20
-111.2255651448895
 30
0.0
 11
500.3022287426738
 21
-111.2255651448895
 31
0.0
  0
LINE
  5
26F1
330
26
100
AcDbEntity
  8
0
  6
Continuous
100
AcDbLine
 10
539.3641089580738
 20
-111.2255651448895
 30
0.0
 11
520.7641089580739
 21
-111.2255651448895
 31
0.0
  0
LINE
  5
26F2
330
26
100
AcDbEntity
  8
0
  6
Continuous
100
AcDbLine
 10
504.3641089580737
 20
-111.2255651448895
 30
0.0
 11
512.7641089580739
 21
-111.2255651448895
 31
0.0
  0
LINE
  5
26F3
330
26
100
AcDbEntity
  8
0
  6
Continuous
100
AcDbLine
 10
539.8068562399739
 20
-128.2255651448895
 30
0.0
 11
540.5175389514739
 21
-150.9789951382895
 31
0.0
  0
LINE
  5
26F4
330
26
100
AcDbEntity
  8
0
  6
Continuous
100
AcDbLine
 10
539.3641089580738
 20
-111.2255651448895
 30
0.0
 11
539.3641089580738
 21
-95.22556514488952
 31
0.0
  0
LINE
  5
26F5
330
26
100
AcDbEntity
  8
0
  6
Continuous
100
AcDbLine
 10
539.3641089580738
 20
-119.2255651448895
 30
0.0
 11
539.3641089580738
 21
-124.0733062646895
 31
0.0
  0
LINE
  5
26F6
330
26
100
AcDbEntity
  8
0
  6
Continuous
100
AcDbLine
 10
543.3641089580738
 20
-111.5398954413895
 30
0.0
 11
538.3342113111739
 21
-116.5697930882895
 31
0.0
  0
LINE
  5
26F7
330
26
100
AcDbEntity
  8
0
  6
Continuous
100
AcDbLine
 10
518.7641089580739
 20
-115.2255651448895
 30
0.0
 11
514.3641089580738
 21
-115.2255651448895
 31
0.0
  0
LINE
  5
26F8
330
26
100
AcDbEntity
  8
0
  6
Continuous
100
AcDbLine
 10
531.6067496451738
 20
-115.2255651448895
 30
0.0
 11
535.3641089580738
 21
-115.2255651448895
 31
0.0
  0
LINE
  5
26F9
330
26
100
AcDbEntity
  8
0
  6
Continuous
100
AcDbLine
 10
543.3641089580738
 20
-149.2255651448895
 30
0.0
 11
543.3641089580738
 21
-110.7255651448895
 31
0.0
  0
LINE
  5
26FA
330
26
100
AcDbEntity
  8
0
  6
Continuous
100
AcDbLine
 10
511.7641089580738
 20
-116.2255651448895
 30
0.0
 11
513.3641089580736
 21
-116.2255651448895
 31
0.0
  0
LINE
  5
26FB
330
26
100
AcDbEntity
  8
0
  6
Continuous
100
AcDbLine
 10
513.8641089580736
 20
-117.5255651448895
 30
0.0
 11
528.064108958074
 21
-117.5255651448895
 31
0.0
  0
LINE
  5
26FC
330
26
100
AcDbEntity
  8
0
  6
Continuous
100
AcDbLine
 10
514.064108958074
 20
-117.7255651448895
 30
0.0
 11
507.6323557616738
 21
-117.7255651448895
 31
0.0
  0
LINE
  5
26FD
330
26
100
AcDbEntity
  8
0
  6
Continuous
100
AcDbLine
 10
500.3701779351738
 20
-119.2255651448895
 30
0.0
 11
500.3022287426738
 21
-119.2255651448895
 31
0.0
  0
LINE
  5
26FE
330
26
100
AcDbEntity
  8
0
  6
Continuous
100
AcDbLine
 10
515.7297943829739
 20
-119.2255651448895
 30
0.0
 11
508.3022287426738
 21
-119.2255651448895
 31
0.0
  0
LINE
  5
26FF
330
26
100
AcDbEntity
  8
0
  6
Continuous
100
AcDbLine
 10
515.7297943829739
 20
-119.2255651448895
 30
0.0
 11
526.3641089580736
 21
-119.2255651448895
 31
0.0
  0
LINE
  5
2700
330
26
100
AcDbEntity
  8
0
  6
Continuous
100
AcDbLine
 10
543.3641089580738
 20
-120.0717367284895
 30
0.0
 11
539.3641089580738
 21
-124.0717367284895
 31
0.0
  0
LINE
  5
2701
330
26
100
AcDbEntity
  8
0
  6
Continuous
100
AcDbLine
 10
538.4854293015737
 20
-126.1946266082895
 30
0.0
 11
537.4544907650738
 21
-127.2255651448895
 31
0.0
  0
LINE
  5
2702
330
26
100
AcDbEntity
  8
0
  6
Continuous
100
AcDbLine
 10
523.7022287426738
 20
-119.7255651448895
 30
0.0
 11
523.4679141676738
 21
-119.7255651448895
 31
0.0
  0
LINE
  5
2703
330
26
100
AcDbEntity
  8
0
  6
Continuous
100
AcDbLine
 10
503.7641089580738
 20
-112.0255651448895
 30
0.0
 11
511.0676365760737
 21
-113.9825394719895
 31
0.0
  0
LINE
  5
2704
330
26
100
AcDbEntity
  8
0
  6
Continuous
100
AcDbLine
 10
543.3641089580738
 20
-128.6035780154895
 30
0.0
 11
537.6752190520737
 21
-134.2924679214895
 31
0.0
  0
LINE
  5
2705
330
26
100
AcDbEntity
  8
0
  6
Continuous
100
AcDbLine
 10
522.1660327466739
 20
-125.2255651448895
 30
0.0
 11
506.721030896274
 21
-125.2255651448895
 31
0.0
  0
LINE
  5
2706
330
26
100
AcDbEntity
  8
0
  6
Continuous
100
AcDbLine
 10
537.4857248564739
 20
-128.2255651448895
 30
0.0
 11
539.8068562399739
 21
-128.2255651448895
 31
0.0
  0
LINE
  5
2707
330
26
100
AcDbEntity
  8
0
  6
CENTER
100
AcDbLine
 10
558.3641089580736
 20
-68.32775342947662
 30
0.0
 11
558.3641089580736
 21
-158.1085655795441
 31
0.0
  0
LINE
  5
2708
330
26
100
AcDbEntity
  8
0
  6
Continuous
100
AcDbLine
 10
543.3641089580738
 20
-137.1354193025895
 30
0.0
 11
537.933632066774
 21
-142.5658961938895
 31
0.0
  0
LINE
  5
2709
330
26
100
AcDbEntity
  8
0
  6
Continuous
100
AcDbLine
 10
543.3641089580738
 20
-145.6672605896895
 30
0.0
 11
539.2849566804739
 21
-149.7464128672895
 31
0.0
  0
LINE
  5
270A
330
26
100
AcDbEntity
  8
0
  6
Continuous
100
AcDbLine
 10
558.364108958074
 20
-149.2255651448895
 30
0.0
 11
543.3641089580738
 21
-149.2255651448895
 31
0.0
  0
LINE
  5
270B
330
26
100
AcDbEntity
  8
0
  6
Continuous
100
AcDbLine
 10
558.3641089580736
 20
-151.2255651448895
 30
0.0
 11
540.9297943829738
 21
-151.2255651448895
 31
0.0
  0
LINE
  5
270C
330
26
100
AcDbEntity
  8
0
  6
Continuous
100
AcDbLine
 10
502.9682541464738
 20
-69.72556514488952
 30
0.0
 11
504.9889800886737
 21
-66.22556514488952
 31
0.0
  0
LINE
  5
270D
330
26
100
AcDbEntity
  8
0
  6
Continuous
100
AcDbLine
 10
575.7984235330739
 20
-151.2255651448895
 30
0.0
 11
558.3641089580736
 21
-151.2255651448895
 31
0.0
  0
LINE
  5
270E
330
26
100
AcDbEntity
  8
0
  6
Continuous
100
AcDbLine
 10
576.0812662455736
 20
-151.1084078572895
 30
0.0
 11
558.3641089580736
 21
-151.1084078572895
 31
0.0
  0
LINE
  5
270F
330
26
100
AcDbEntity
  8
0
  6
Continuous
100
AcDbLine
 10
576.2106780193737
 20
-150.9789951387895
 30
0.0
 11
558.3641089580736
 21
-150.9789951387895
 31
0.0
  0
LINE
  5
2710
330
26
100
AcDbEntity
  8
0
  6
Continuous
100
AcDbLine
 10
499.3022287426738
 20
-72.22556514488952
 30
0.0
 11
499.3022287426738
 21
-95.22556514488952
 31
0.0
  0
LINE
  5
2711
330
26
100
AcDbEntity
  8
0
  6
Continuous
100
AcDbLine
 10
500.3022287426738
 20
-95.22556514488952
 30
0.0
 11
500.3022287426738
 21
-71.22556514488952
 31
0.0
  0
LINE
  5
2712
330
26
100
AcDbEntity
  8
0
  6
Continuous
100
AcDbLine
 10
500.3701779351738
 20
-71.22556514488952
 30
0.0
 11
500.370177935174
 21
-95.22556514488952
 31
0.0
  0
LINE
  5
2713
330
26
100
AcDbEntity
  8
0
  6
Continuous
100
AcDbLine
 10
578.4946294477738
 20
-148.6950446551895
 30
0.0
 11
558.3641089580736
 21
-148.6950446551895
 31
0.0
  0
LINE
  5
2714
330
26
100
AcDbEntity
  8
0
  6
Continuous
100
AcDbLine
 10
578.6115917641739
 20
-148.4246894894895
 30
0.0
 11
558.3641089580736
 21
-148.4246894894895
 31
0.0
  0
LINE
  5
2715
330
26
100
AcDbEntity
  8
0
  6
Continuous
100
AcDbLine
 10
502.9682541464738
 20
-69.72556514488952
 30
0.0
 11
502.9682541464735
 21
-95.22556514488954
 31
0.0
  0
LINE
  5
2716
330
26
100
AcDbEntity
  8
0
  6
Continuous
100
AcDbLine
 10
504.9889800886737
 20
-66.22556514488952
 30
0.0
 11
504.9889800886737
 21
-66.24973724318954
 31
0.0
  0
LINE
  5
2717
330
26
100
AcDbEntity
  8
0
  6
Continuous
100
AcDbLine
 10
504.9889800886737
 20
-79.71244495488952
 30
0.0
 11
504.9889800886737
 21
-81.76285739978951
 31
0.0
  0
LINE
  5
2718
330
26
100
AcDbEntity
  8
0
  6
Continuous
100
AcDbLine
 10
506.7210308962737
 20
-65.22556514488952
 30
0.0
 11
506.7210308962737
 21
-65.51685359968951
 31
0.0
  0
LINE
  5
2719
330
26
100
AcDbEntity
  8
0
  6
Continuous
100
AcDbLine
 10
506.7210308962737
 20
-78.5153150470895
 30
0.0
 11
506.7210308962737
 21
-82.22710369738951
 31
0.0
  0
LINE
  5
271A
330
26
100
AcDbEntity
  8
0
  6
Continuous
100
AcDbLine
 10
579.2424925945738
 20
-128.2255651448895
 30
0.0
 11
558.3641089580736
 21
-128.2255651448895
 31
0.0
  0
LINE
  5
271B
330
26
100
AcDbEntity
  8
0
  6
Continuous
100
AcDbLine
 10
522.1660327466739
 20
-65.22556514488952
 30
0.0
 11
522.1660327466739
 21
-65.25057149748955
 31
0.0
  0
LINE
  5
271C
330
26
100
AcDbEntity
  8
0
  6
Continuous
100
AcDbLine
 10
522.1660327466739
 20
-79.17749447678952
 30
0.0
 11
522.1660327466739
 21
-81.2986421654895
 31
0.0
  0
LINE
  5
271D
330
26
100
AcDbEntity
  8
0
  6
Continuous
100
AcDbLine
 10
579.2737271510739
 20
-127.2255651448895
 30
0.0
 11
558.3641089580736
 21
-127.2255651448895
 31
0.0
  0
LINE
  5
271E
330
26
100
AcDbEntity
  8
0
  6
Continuous
100
AcDbLine
 10
558.3641089580736
 20
-126.1946266082895
 30
0.0
 11
578.2427886144737
 21
-126.1946266082895
 31
0.0
  0
LINE
  5
271F
330
26
100
AcDbEntity
  8
0
  6
Continuous
100
AcDbLine
 10
558.3641089580736
 20
-124.0733062646895
 30
0.0
 11
577.3641089580736
 21
-124.0733062646895
 31
0.0
  0
LINE
  5
2720
330
26
100
AcDbEntity
  8
0
  6
Continuous
100
AcDbLine
 10
524.2486389042738
 20
-68.83274482178956
 30
0.0
 11
524.2486389042738
 21
-95.22556514488957
 31
0.0
  0
LINE
  5
2721
330
26
100
AcDbEntity
  8
0
  6
Continuous
100
AcDbLine
 10
524.3022287426738
 20
-69.03274482178949
 30
0.0
 11
524.3022287426738
 21
-95.22556514488952
 31
0.0
  0
LINE
  5
2722
330
26
100
AcDbEntity
  8
0
  6
Continuous
100
AcDbLine
 10
526.3641089580736
 20
-71.22556514488952
 30
0.0
 11
526.3641089580736
 21
-95.22556514488952
 31
0.0
  0
LINE
  5
2723
330
26
100
AcDbEntity
  8
0
  6
Continuous
100
AcDbLine
 10
528.0641097209739
 20
-72.92556590778952
 30
0.0
 11
528.0641097209739
 21
-95.22556514488952
 31
0.0
  0
LINE
  5
2724
330
26
100
AcDbEntity
  8
0
  6
Continuous
100
AcDbLine
 10
529.4854293016737
 20
-95.22556514488952
 30
0.0
 11
529.4854293016737
 21
-74.34688548838952
 31
0.0
  0
LINE
  5
2725
330
26
100
AcDbEntity
  8
0
  6
Continuous
100
AcDbLine
 10
531.6067496451738
 20
-95.22556514488952
 30
0.0
 11
531.6067496451738
 21
-75.22556514488952
 31
0.0
  0
LINE
  5
2726
330
26
100
AcDbEntity
  8
0
  6
Continuous
100
AcDbLine
 10
570.7099143240738
 20
-108.5827864165895
 30
0.0
 11
571.8545915236738
 21
-108.5827864165895
 31
0.0
  0
LINE
  5
2727
330
26
100
AcDbEntity
  8
0
  6
Continuous
100
AcDbLine
 10
558.3641089580736
 20
-108.4765716227895
 30
0.0
 11
570.6036995302738
 21
-108.4765716227895
 31
0.0
  0
LINE
  5
2728
330
26
100
AcDbEntity
  8
0
  6
Continuous
100
AcDbLine
 10
539.9944716974736
 20
-75.22556514488952
 30
0.0
 11
539.9944716974736
 21
-95.22556514488952
 31
0.0
  0
LINE
  5
2729
330
26
100
AcDbEntity
  8
0
  6
Continuous
100
AcDbLine
 10
541.5397079583738
 20
-75.65413657338949
 30
0.0
 11
541.5396928531739
 21
-81.46489091738951
 31
0.0
  0
LINE
  5
272A
330
26
100
AcDbEntity
  8
0
  6
Continuous
100
AcDbLine
 10
543.6000229729739
 20
-76.22556514488952
 30
0.0
 11
543.6000229729739
 21
-81.86667393498951
 31
0.0
  0
LINE
  5
272B
330
26
100
AcDbEntity
  8
0
  6
Continuous
100
AcDbLine
 10
567.6151154359739
 20
-82.98597457258948
 30
0.0
 11
568.0375041832737
 21
-82.56358582528951
 31
0.0
  0
LINE
  5
272C
330
26
100
AcDbEntity
  8
0
  6
Continuous
100
AcDbLine
 10
545.0068876862737
 20
-82.87975977878952
 30
0.0
 11
545.0068876862737
 21
-81.73508257918951
 31
0.0
  0
LINE
  5
272D
330
26
100
AcDbEntity
  8
0
  6
Continuous
100
AcDbLine
 10
545.1131024800739
 20
-95.22556514488957
 30
0.0
 11
545.1131024800739
 21
-82.98597457258948
 31
0.0
  0
LINE
  5
272E
330
26
100
AcDbEntity
  8
0
  6
Continuous
100
AcDbLine
 10
570.6036995302738
 20
-85.97455866688951
 30
0.0
 11
571.0260882775737
 21
-85.55216991958952
 31
0.0
  0
LINE
  5
272F
330
26
100
AcDbEntity
  8
0
  6
Continuous
100
AcDbLine
 10
522.1660327466739
 20
-65.22556514488952
 30
0.0
 11
524.2486389042738
 21
-68.83274482178956
 31
0.0
  0
LINE
  5
2730
330
26
100
AcDbEntity
  8
0
  6
CENTER
100
AcDbLine
 10
489.8337941025888
 20
-95.22556514488952
 30
0.0
 11
585.280560379796
 21
-95.22556514488952
 31
0.0
  0
LINE
  5
2731
330
26
100
AcDbEntity
  8
0
  6
Continuous
100
AcDbLine
 10
579.2737271510739
 20
-127.2255651448895
 30
0.0
 11
578.2427886144737
 21
-126.1946266082895
 31
0.0
  0
LINE
  5
2732
330
26
100
AcDbEntity
  8
0
  6
Continuous
100
AcDbLine
 10
559.4886643788738
 20
-102.0612501208895
 30
0.0
 11
559.8896070360738
 21
-100.2125486080895
 31
0.0
  0
LINE
  5
2733
330
26
100
AcDbEntity
  8
0
  6
Continuous
100
AcDbLine
 10
506.7210308958737
 20
-82.22710369098951
 30
0.0
 11
504.9889800820738
 21
-81.76287293608949
 31
0.0
  0
LINE
  5
2734
330
26
100
AcDbEntity
  8
0
  6
Continuous
100
AcDbLine
 10
529.4854293016737
 20
-74.34688548838952
 30
0.0
 11
526.3641089580736
 21
-71.22556514488952
 31
0.0
  0
LINE
  5
2735
330
26
100
AcDbEntity
  8
0
  6
Continuous
100
AcDbLine
 10
543.1634613533738
 20
-85.97455866688951
 30
0.0
 11
570.6036995302738
 21
-85.97455866688951
 31
0.0
  0
LINE
  5
2736
330
26
100
AcDbEntity
  8
0
  6
Continuous
100
AcDbLine
 10
545.1131024800739
 20
-82.98597457258948
 30
0.0
 11
545.0068876862737
 21
-82.87975977878952
 31
0.0
  0
LINE
  5
2737
330
26
100
AcDbEntity
  8
0
  6
Continuous
100
AcDbLine
 10
570.6036995302738
 20
-108.4765716227895
 30
0.0
 11
570.7099143240738
 21
-108.5827864165895
 31
0.0
  0
LINE
  5
2738
330
26
100
AcDbEntity
  8
0
  6
Continuous
100
AcDbLine
 10
567.6151154359739
 20
-82.98597457258948
 30
0.0
 11
545.1131024800739
 21
-82.98597457258948
 31
0.0
  0
LINE
  5
2739
330
26
100
AcDbEntity
  8
0
  6
Continuous
100
AcDbLine
 10
545.0068876862737
 20
-82.87975977878952
 30
0.0
 11
558.3641089580736
 21
-82.87975977878952
 31
0.0
  0
LINE
  5
273A
330
26
100
AcDbEntity
  8
0
  6
Continuous
100
AcDbLine
 10
522.2896418771738
 20
-82.22710369738951
 30
0.0
 11
506.7210307939737
 21
-82.22710369738951
 31
0.0
  0
LINE
  5
273B
330
26
100
AcDbEntity
  8
0
  6
Continuous
100
AcDbLine
 10
545.0068876862737
 20
-81.73508257918951
 30
0.0
 11
558.3641089580736
 21
-81.73508257918951
 31
0.0
  0
LINE
  5
273C
330
26
100
AcDbEntity
  8
0
  6
Continuous
100
AcDbLine
 10
522.1660327466739
 20
-81.2986421654895
 30
0.0
 11
506.7210308962737
 21
-81.2986421654895
 31
0.0
  0
LINE
  5
273D
330
26
100
AcDbEntity
  8
0
  6
Continuous
100
AcDbLine
 10
567.6151154359739
 20
-110.8578857912895
 30
0.0
 11
567.6151154359739
 21
-82.98597457258948
 31
0.0
  0
LINE
  5
273E
330
26
100
AcDbEntity
  8
0
  6
Continuous
100
AcDbLine
 10
570.6036995302738
 20
-108.4765716227895
 30
0.0
 11
570.6036995302738
 21
-85.97455866688951
 31
0.0
  0
LINE
  5
273F
330
26
100
AcDbEntity
  8
0
  6
Continuous
100
AcDbLine
 10
570.7099143240738
 20
-95.22556514488952
 30
0.0
 11
570.7099143240738
 21
-108.5827864165895
 31
0.0
  0
LINE
  5
2740
330
26
100
AcDbEntity
  8
0
  6
Continuous
100
AcDbLine
 10
506.7210308962737
 20
-79.17749447678952
 30
0.0
 11
522.1660327466739
 21
-79.17749447678952
 31
0.0
  0
LINE
  5
2741
330
26
100
AcDbEntity
  8
0
  6
Continuous
100
AcDbLine
 10
506.7210307945738
 20
-78.5153150470895
 30
0.0
 11
522.2896418771738
 21
-78.5153150470895
 31
0.0
  0
LINE
  5
2742
330
26
100
AcDbEntity
  8
0
  6
Continuous
100
AcDbLine
 10
571.8545915236738
 20
-95.22556514488952
 30
0.0
 11
571.8545915236738
 21
-108.5827864165895
 31
0.0
  0
LINE
  5
2743
330
26
100
AcDbEntity
  8
0
  6
Continuous
100
AcDbLine
 10
558.3641089580736
 20
-76.22556514488952
 30
0.0
 11
543.6000229729739
 21
-76.22556514488952
 31
0.0
  0
LINE
  5
2744
330
26
100
AcDbEntity
  8
0
  6
Continuous
100
AcDbLine
 10
539.9944716974736
 20
-75.22556514488952
 30
0.0
 11
531.6067496451738
 21
-75.22556514488952
 31
0.0
  0
LINE
  5
2745
330
26
100
AcDbEntity
  8
0
  6
Continuous
100
AcDbLine
 10
524.3022287426738
 20
-72.92556514488956
 30
0.0
 11
528.0641089580738
 21
-72.92556514488956
 31
0.0
  0
LINE
  5
2746
330
26
100
AcDbEntity
  8
0
  6
Continuous
100
AcDbLine
 10
577.3641089580736
 20
-124.0733062646895
 30
0.0
 11
577.3641089580736
 21
-95.22556514488952
 31
0.0
  0
LINE
  5
2747
330
26
100
AcDbEntity
  8
0
  6
Continuous
100
AcDbLine
 10
576.9213616761738
 20
-128.2255651448895
 30
0.0
 11
576.2106789646739
 21
-150.9789951382895
 31
0.0
  0
LINE
  5
2748
330
26
100
AcDbEntity
  8
0
  6
Continuous
100
AcDbLine
 10
526.3641089580736
 20
-71.22556514488952
 30
0.0
 11
524.3022287426738
 21
-71.22556514488952
 31
0.0
  0
LINE
  5
2749
330
26
100
AcDbEntity
  8
0
  6
Continuous
100
AcDbLine
 10
500.3022287426738
 20
-71.22556514488952
 30
0.0
 11
500.3701779351738
 21
-71.22556514488952
 31
0.0
  0
LINE
  5
274A
330
26
100
AcDbEntity
  8
0
  6
Continuous
100
AcDbLine
 10
578.6115917641739
 20
-148.4246894894895
 30
0.0
 11
579.2737271510739
 21
-127.2255651448895
 31
0.0
  0
LINE
  5
274B
330
26
100
AcDbEntity
  8
0
  6
Continuous
100
AcDbLine
 10
522.2896418771738
 20
-65.51685359968951
 30
0.0
 11
506.7210307957739
 21
-65.51685359968951
 31
0.0
  0
LINE
  5
274C
330
26
100
AcDbEntity
  8
0
  6
Continuous
100
AcDbLine
 10
522.1660327466739
 20
-65.25057149748955
 30
0.0
 11
506.7210308962737
 21
-65.25057149748955
 31
0.0
  0
LINE
  5
274D
330
26
100
AcDbEntity
  8
0
  6
Continuous
100
AcDbLine
 10
522.1660327466739
 20
-65.22556514488952
 30
0.0
 11
506.7210308962737
 21
-65.22556514488952
 31
0.0
  0
LINE
  5
274E
330
26
100
AcDbEntity
  8
0
  6
Continuous
100
AcDbLine
 10
576.0812662455736
 20
-151.1084078572895
 30
0.0
 11
578.4946294477738
 21
-148.6950446551895
 31
0.0
  0
ARC
  5
274F
330
26
100
AcDbEntity
  8
0
  6
Continuous
100
AcDbCircle
 10
506.7210308962737
 20
-67.22556514488952
 30
0.0
 40
2.0
100
AcDbArc
 50
90.0
 51
150.0000000000023
  0
ARC
  5
2750
330
26
100
AcDbEntity
  8
0
  6
Continuous
100
AcDbCircle
 10
523.9022287426737
 20
-69.03274482178949
 30
0.0
 40
0.4
100
AcDbArc
 50
0.0
 51
29.99999999740166
  0
ARC
  5
2751
330
26
100
AcDbEntity
  8
0
  6
Continuous
100
AcDbCircle
 10
500.3701779351738
 20
-68.22556514488952
 30
0.0
 40
3.0
100
AcDbArc
 50
270.0
 51
330.0000000000024
  0
ARC
  5
2752
330
26
100
AcDbEntity
  8
0
  6
Continuous
100
AcDbCircle
 10
500.3022287426738
 20
-72.22556514488952
 30
0.0
 40
1.0
100
AcDbArc
 50
90.0
 51
180.0
  0
ARC
  5
2753
330
26
100
AcDbEntity
  8
0
  6
Continuous
100
AcDbCircle
 10
578.2117867352737
 20
-148.4122019426895
 30
0.0
 40
0.4
100
AcDbArc
 50
314.9999999998996
 51
358.2110000000016
  0
ARC
  5
2754
330
26
100
AcDbEntity
  8
0
  6
Continuous
100
AcDbCircle
 10
575.7984235330739
 20
-150.8255651448895
 30
0.0
 40
0.4
100
AcDbArc
 50
270.0
 51
314.999999973097
  0
ARC
  5
2755
330
26
100
AcDbEntity
  8
0
  6
Continuous
100
AcDbCircle
 10
556.3641089580736
 20
-97.22556514488952
 30
0.0
 40
9.9999
100
AcDbArc
 50
281.5370759885324
 51
168.4629240114718
  0
ARC
  5
2756
330
26
100
AcDbEntity
  8
0
  6
Continuous
100
AcDbCircle
 10
543.6000229729739
 20
-72.22556514488952
 30
0.0
 40
4.0
100
AcDbArc
 50
238.9972808660981
 51
270.0
  0
ARC
  5
2757
330
26
100
AcDbEntity
  8
0
  6
Continuous
100
AcDbCircle
 10
580.3641089580736
 20
-124.0733062646895
 30
0.0
 40
3.0
100
AcDbArc
 50
180.0
 51
225.0000000000043
  0
ARC
  5
2758
330
26
100
AcDbEntity
  8
0
  6
Continuous
100
AcDbCircle
 10
531.6067496451738
 20
-72.22556514488952
 30
0.0
 40
3.0
100
AcDbArc
 50
225.0000000000043
 51
270.0
  0
ARC
  5
2759
330
26
100
AcDbEntity
  8
0
  6
Continuous
100
AcDbCircle
 10
539.9944716974736
 20
-78.22556514488952
 30
0.0
 40
3.0
100
AcDbArc
 50
58.997280866098
 51
90.0
  0
ARC
  5
275A
330
26
100
AcDbEntity
  8
0
  6
Continuous
100
AcDbCircle
 10
558.3641089580736
 20
-95.22556514488952
 30
0.0
 40
19.0
100
AcDbArc
 50
0.0
 51
90.0
  0
CIRCLE
  5
275B
330
26
100
AcDbEntity
  8
0
  6
Continuous
100
AcDbCircle
 10
558.9394370711739
 20
-91.7283990503895
 30
0.0
 40
0.298559681
  0
SPLINE
  5
275C
330
26
100
AcDbEntity
  8
0
  6
Continuous
100
AcDbSpline
210
0.0
220
0.0
230
1.0
 70
     8
 71
     3
 72
    11
 73
     7
 74
     0
 42
0.0000000001
 43
0.0000000001
 40
13.14423240267444
 40
13.14423240267444
 40
13.14423240267444
 40
13.14423240267444
 40
16.36124607085172
 40
19.59696376691974
 40
22.88470104662024
 40
26.28846427195068
 40
26.28846427195068
 40
26.28846427195068
 40
26.28846427195068
 10
524.013553608119
 20
-95.22556514488952
 30
0.0
 10
524.0135536435062
 20
-94.15298235898052
 30
0.0
 10
523.9391060998989
 20
-92.0015806615929
 30
0.0
 10
523.603756923803
 20
-88.77009816497254
 30
0.0
 10
523.0661643609406
 20
-85.50221524137535
 30
0.0
 10
522.5514575904115
 20
-83.33135461445551
 30
0.0
 10
522.2896418771738
 20
-82.22710369738951
 30
0.0
  0
SPLINE
  5
275D
330
26
100
AcDbEntity
  8
0
  6
Continuous
100
AcDbSpline
210
0.0
220
0.0
230
1.0
 70
     8
 71
     3
 72
    15
 73
    11
 74
     9
 42
0.0000000001
 43
0.0000000001
 44
0.0000000001
 40
0.0
 40
0.0
 40
0.0
 40
0.0
 40
1.820050273729422
 40
3.528213202156209
 40
5.170831148103622
 40
6.782657774143086
 40
8.394525050465145
 40
10.03723893258314
 40
11.7459118654106
 40
13.56630241280703
 40
13.56630241280703
 40
13.56630241280703
 40
13.56630241280703
 10
522.2896418771738
 20
-78.5153150470895
 30
0.0
 10
522.5501685069877
 20
-77.96691351476
 30
0.0
 10
523.0552059271568
 20
-76.90382336039689
 30
0.0
 10
523.5988992997307
 20
-75.26330159685843
 30
0.0
 10
523.9376325513115
 20
-73.64005162296992
 30
0.0
 10
524.0511216828903
 20
-72.01656680031672
 30
0.0
 10
523.9377656828342
 20
-70.39303978329959
 30
0.0
 10
523.5991010711634
 20
-68.76955377217195
 30
0.0
 10
523.0553693780246
 20
-67.12870782885267
 30
0.0
 10
522.5502148435425
 20
-66.06535895881581
 30
0.0
 10
522.2896418771738
 20
-65.51685359968951
 30
0.0
 11
522.2896418771738
 21
-78.5153150470895
 31
0.0
 11
523.0355476275738
 21
-76.85513204198952
 31
0.0
 11
523.5736685009737
 21
-75.23394528048949
 31
0.0
 11
523.9024789823739
 21
-73.62457354478954
 31
0.0
 11
524.0135535975737
 21
-72.01657867468953
 31
0.0
 11
523.9026081738739
 21
-70.40853413878949
 31
0.0
 11
523.5738901663736
 21
-68.79904559578949
 31
0.0
 11
523.0356720119739
 21
-67.17735376018948
 31
0.0
 11
522.2896418771738
 21
-65.51685359968951
 31
0.0
  0
SPLINE
  5
275E
330
26
100
AcDbEntity
  8
0
  6
Continuous
100
AcDbSpline
210
0.0
220
0.0
230
1.0
 70
     8
 71
     3
 72
    12
 73
     8
 74
     0
 42
0.0000000001
 43
0.0000000001
 40
0.0
 40
0.0
 40
0.0
 40
0.0
 40
3.159206423533109
 40
6.214163034864233
 40
9.198647566536698
 40
12.15012254408111
 40
13.62476192017321
 40
13.62476192017321
 40
13.62476192017321
 40
13.62476192017321
 10
504.9889800886737
 20
-81.76285739978951
 30
0.0
 10
504.7364183487784
 20
-82.78541114202587
 30
0.0
 10
504.2396290866431
 20
-84.79677564762885
 30
0.0
 10
503.6945600595343
 20
-87.81628754001102
 30
0.0
 10
503.3209520499354
 20
-90.79136420611518
 30
0.0
 10
503.1648444918746
 20
-93.25832527023484
 30
0.0
 10
503.1415435632816
 20
-94.73393822151704
 30
0.0
 10
503.1415435482679
 20
-95.22556514488952
 30
0.0
  0
SPLINE
  5
275F
330
26
100
AcDbEntity
  8
0
  6
Continuous
100
AcDbSpline
210
0.0
220
0.0
230
1.0
 70
     8
 71
     3
 72
    12
 73
     8
 74
     0
 42
0.0000000001
 43
0.0000000001
 40
0.0
 40
0.0
 40
0.0
 40
0.0
 40
3.447212312892001
 40
6.755067647147795
 40
9.974718923139664
 40
13.16519238304175
 40
13.16519666943345
 40
13.16519666943345
 40
13.16519666943345
 40
13.16519666943345
 10
506.7210307939737
 20
-82.22710369738951
 30
0.0
 10
506.4395378772912
 20
-83.34147815750302
 30
0.0
 10
505.8879316744264
 20
-85.5251773843155
 30
0.0
 10
505.3109169426449
 20
-88.80273794430285
 30
0.0
 10
504.9529095974009
 20
-92.02453399046888
 30
0.0
 10
504.8735644668286
 20
-94.16179614557836
 30
0.0
 10
504.8735644146736
 20
-95.22556371572283
 30
0.0
 10
504.8735644146736
 20
-95.22556514488952
 30
0.0
  0
SPLINE
  5
2760
330
26
100
AcDbEntity
  8
0
  6
Continuous
100
AcDbSpline
210
0.0
220
0.0
230
1.0
 70
     8
 71
     3
 72
    11
 73
     7
 74
     5
 42
0.0000000001
 43
0.0000000001
 44
0.0000000001
 40
0.0
 40
0.0
 40
0.0
 40
0.0
 40
0.5302564337385277
 40
1.036409323315865
 40
1.518737043237068
 40
1.98522917784737
 40
1.98522917784737
 40
1.98522917784737
 40
1.98522917784737
 10
506.7210308958737
 20
-65.51685359628947
 30
0.0
 10
506.5435119840143
 20
-65.50538993675443
 30
0.0
 10
506.1965435294894
 20
-65.48298371428261
 30
0.0
 10
505.7010814228981
 20
-65.61802393868078
 30
0.0
 10
505.2713748495386
 20
-65.86620201462628
 30
0.0
 10
505.0820584552582
 20
-66.12332307828844
 30
0.0
 10
504.9889800816738
 20
-66.24973796438951
 30
0.0
 11
506.7210308958737
 21
-65.51685359628947
 31
0.0
 11
506.1907927460738
 21
-65.51245018648955
 31
0.0
 11
505.7013164986738
 21
-65.64130572908948
 31
0.0
 11
505.2901891307738
 21
-65.89352451658954
 31
0.0
 11
504.9889800816738
 21
-66.24973796438951
 31
0.0
  0
SPLINE
  5
2761
330
26
100
AcDbEntity
  8
0
  6
Continuous
100
AcDbSpline
210
0.0
220
0.0
230
1.0
 70
     8
 71
     3
 72
    16
 73
    12
 74
    10
 42
0.0000000001
 43
0.0000000001
 44
0.0000000001
 40
0.0
 40
0.0
 40
0.0
 40
0.0
 40
1.665086023059169
 40
3.233698854489512
 40
4.738542085409585
 40
6.211854389048495
 40
7.683850364079022
 40
9.182192381935822
 40
10.73305952618948
 40
12.36079910285172
 40
14.09301282042798
 40
14.09301282042798
 40
14.09301282042798
 40
14.09301282042798
 10
504.9889800886737
 20
-66.24973724318954
 30
0.0
 10
504.7378374932891
 20
-66.74509793050915
 30
0.0
 10
504.2501032190465
 20
-67.70711866995514
 30
0.0
 10
503.7000086963923
 20
-69.19163441958796
 30
0.0
 10
503.3233343827282
 20
-70.66275102218911
 30
0.0
 10
503.1339088894433
 20
-72.13810178794643
 30
0.0
 10
503.1337381977654
 20
-73.62326130907606
 30
0.0
 10
503.3230442093548
 20
-75.12233114701571
 30
0.0
 10
503.6998877211756
 20
-76.63794912375005
 30
0.0
 10
504.2502203643724
 20
-78.18317021844241
 30
0.0
 10
504.7376745589339
 20
-79.19222818464804
 30
0.0
 10
504.9889800886737
 20
-79.71244495488952
 30
0.0
 11
504.9889800886737
 21
-66.24973724318954
 31
0.0
 11
504.2653370253738
 21
-67.74935458808955
 31
0.0
 11
503.7192209898737
 21
-69.21983188838954
 31
0.0
 11
503.3513493699738
 21
-70.67901783298953
 31
0.0
 11
503.1651951257738
 21
-72.14052244858954
 31
0.0
 11
503.1643106437739
 21
-73.61251815788955
 31
0.0
 11
503.3493413478738
 21
-75.0993915354895
 31
0.0
 11
503.7175221156737
 21
-76.60592126348951
 31
0.0
 11
504.2645447702739
 21
-78.1389908459895
 31
0.0
 11
504.9889800886737
 21
-79.71244495488952
 31
0.0
  0
SPLINE
  5
2762
330
26
100
AcDbEntity
  8
0
  6
Continuous
100
AcDbSpline
210
0.0
220
0.0
230
1.0
 70
     8
 71
     3
 72
    11
 73
     7
 74
     5
 42
0.0000000001
 43
0.0000000001
 44
0.0000000001
 40
0.0
 40
0.0
 40
0.0
 40
0.0
 40
0.5477020494681396
 40
1.102068672053252
 40
1.650312893977213
 40
2.181019091036412
 40
2.181019091036412
 40
2.181019091036412
 40
2.181019091036412
 10
506.7210308960738
 20
-78.5153150495895
 30
0.0
 10
506.5413090424217
 20
-78.55248681432818
 30
0.0
 10
506.1796784354418
 20
-78.62728265897255
 30
0.0
 10
505.6926323099902
 20
-78.896419887796
 30
0.0
 10
505.2717173329836
 20
-79.25280444053053
 30
0.0
 10
505.0821989781541
 20
-79.56089087894992
 30
0.0
 10
504.9889800835737
 20
-79.71243017048951
 30
0.0
 11
506.7210308960738
 21
-78.5153150495895
 31
0.0
 11
506.1908517134738
 21
-78.65274710308952
 31
0.0
 11
505.7012546493738
 21
-78.9127799222895
 31
0.0
 11
505.2900563816738
 21
-79.27539226558952
 31
0.0
 11
504.9889800835737
 21
-79.71243017048951
 31
0.0
  0
SPLINE
  5
2763
330
26
100
AcDbEntity
  8
0
  6
Continuous
100
AcDbSpline
210
0.0
220
0.0
230
1.0
 70
     8
 71
     3
 72
    15
 73
    11
 74
     9
 42
0.0000000001
 43
0.0000000001
 44
0.0000000001
 40
0.0
 40
0.0
 40
0.0
 40
0.0
 40
1.85605826512975
 40
3.581360121127915
 40
5.220082542042795
 40
6.816741461079432
 40
8.415110048641648
 40
10.05834807895396
 40
11.78764770468584
 40
13.64579436854103
 40
13.64579436854103
 40
13.64579436854103
 40
13.64579436854103
 10
506.7210307957739
 20
-65.51685359968951
 30
0.0
 10
506.4413733668299
 20
-66.06927707812014
 30
0.0
 10
505.901759938516
 20
-67.13520666276489
 30
0.0
 10
505.3177366103649
 20
-68.77969692690785
 30
0.0
 10
504.9553773312768
 20
-70.39774091129193
 30
0.0
 10
504.8336031392601
 20
-72.01046019061775
 30
0.0
 10
504.953769154468
 20
-73.62483502650203
 30
0.0
 10
505.3157900715811
 20
-75.24649359020921
 30
0.0
 10
505.9005721021466
 20
-76.89450327236465
 30
0.0
 10
506.4410736631467
 20
-77.96226122582682
 30
0.0
 10
506.7210307945738
 20
-78.5153150470895
 30
0.0
 11
506.7210307957739
 21
-65.51685359968951
 31
0.0
 11
505.9193736324736
 21
-67.19086019348947
 31
0.0
 11
505.3424123378738
 21
-68.81683133678951
 31
0.0
 11
504.9920240282737
 21
-70.41765587598945
 31
0.0
 11
504.8735645254737
 21
-72.00991435058948
 31
0.0
 11
504.9904778080738
 21
-73.60400137018951
 31
0.0
 11
505.3407241587738
 21
-75.20947909288952
 31
0.0
 11
505.9185659912738
 21
-76.83937970708951
 31
0.0
 11
506.7210307945738
 21
-78.5153150470895
 31
0.0
  0
SPLINE
  5
2764
330
26
100
AcDbEntity
  8
0
  6
Continuous
100
AcDbSpline
210
0.0
220
0.0
230
1.0
 70
     8
 71
     3
 72
    10
 73
     6
 74
     4
 42
0.0000000001
 43
0.0000000001
 44
0.0000000001
 40
0.0
 40
0.0
 40
0.0
 40
0.0
 40
0.2930095649124623
 40
0.6069800283695888
 40
0.9387090155719533
 40
0.9387090155719533
 40
0.9387090155719533
 40
0.9387090155719533
 10
522.1660327466739
 20
-81.2986421654895
 30
0.0
 10
522.1689308396699
 20
-81.39631431394952
 30
0.0
 10
522.1749343452877
 20
-81.59864574111946
 30
0.0
 10
522.2170772430561
 20
-81.90940064567636
 30
0.0
 10
522.2650141994327
 20
-82.11927860504162
 30
0.0
 10
522.2896418771738
 20
-82.22710369738951
 30
0.0
 11
522.1660327466739
 21
-81.2986421654895
 31
0.0
 11
522.1796781489738
 21
-81.59133382598952
 31
0.0
 11
522.2207601425739
 21
-81.9026049645895
 31
0.0
 11
522.2896418771738
 21
-82.22710369738951
 31
0.0
  0
SPLINE
  5
2765
330
26
100
AcDbEntity
  8
0
  6
Continuous
100
AcDbSpline
210
0.0
220
0.0
230
1.0
 70
     8
 71
     3
 72
    10
 73
     6
 74
     4
 42
0.0000000001
 43
0.0000000001
 44
0.0000000001
 40
0.0
 40
0.0
 40
0.0
 40
0.0
 40
0.1975943167476493
 40
0.4238829328596335
 40
0.6787003533126984
 40
0.6787003533126984
 40
0.6787003533126984
 40
0.6787003533126984
 10
522.2896418771738
 20
-78.5153150470895
 30
0.0
 10
522.2644380407143
 20
-78.57635137654604
 30
0.0
 10
522.2103703109655
 20
-78.70728762393856
 30
0.0
 10
522.1733876315406
 20
-78.93233937120081
 30
0.0
 10
522.1685794147704
 20
-79.09260821447342
 30
0.0
 10
522.1660327466739
 20
-79.17749447678952
 30
0.0
 11
522.2896418771738
 21
-78.5153150470895
 31
0.0
 11
522.2207601425739
 21
-78.70051445488952
 31
0.0
 11
522.1796781489738
 21
-78.9230426723895
 31
0.0
 11
522.1660327466739
 21
-79.17749447678952
 31
0.0
  0
SPLINE
  5
2766
330
26
100
AcDbEntity
  8
0
  6
Continuous
100
AcDbSpline
210
0.0
220
0.0
230
1.0
 70
     8
 71
     3
 72
    10
 73
     6
 74
     4
 42
0.0000000001
 43
0.0000000001
 44
0.0000000001
 40
0.0
 40
0.0
 40
0.0
 40
0.0
 40
0.0406015220260301
 40
0.1383922999323132
 40
0.293791770120592
 40
0.293791770120592
 40
0.293791770120592
 40
0.293791770120592
 10
522.1660327466739
 20
-65.25057149748955
 30
0.0
 10
522.1704117244258
 20
-65.26338675619014
 30
0.0
 10
522.1853376871036
 20
-65.30706820056224
 30
0.0
 10
522.2295648582249
 20
-65.39472029305931
 30
0.0
 10
522.2667927047708
 20
-65.47040247697785
 30
0.0
 10
522.2896418771738
 20
-65.51685359968951
 30
0.0
 11
522.1660327466739
 21
-65.25057149748955
 31
0.0
 11
522.1796781489738
 21
-65.28881135348956
 31
0.0
 11
522.2207601425739
 21
-65.37755427458956
 31
0.0
 11
522.2896418771738
 21
-65.51685359968951
 31
0.0
  0
SPLINE
  5
2767
330
26
100
AcDbEntity
  8
0
  6
Continuous
100
AcDbSpline
210
0.0
220
0.0
230
1.0
 70
     8
 71
     3
 72
    11
 73
     7
 74
     5
 42
0.0000000001
 43
0.0000000001
 44
0.0000000001
 40
0.0
 40
0.0
 40
0.0
 40
0.0
 40
0.1030334316490269
 40
0.2060655175037532
 40
0.3090977478304484
 40
0.4121312720857613
 40
0.4121312720857613
 40
0.4121312720857613
 40
0.4121312720857613
 10
557.3176980887738
 20
-94.44728626128952
 30
0.0
 10
557.2845804078471
 20
-94.43337763966336
 30
0.0
 10
557.2183454785675
 20
-94.40556057808161
 30
0.0
 10
557.185641064895
 20
-94.29507677097232
 30
0.0
 10
557.2305320385449
 20
-94.1889604112524
 30
0.0
 10
557.2994673750113
 20
-94.16874405572467
 30
0.0
 10
557.3339352596738
 20
-94.15863581448951
 30
0.0
 11
557.3176980887738
 21
-94.44728626128952
 31
0.0
 11
557.2294531784737
 21
-94.39410051278954
 31
0.0
 11
557.1985735710739
 21
-94.29580473178949
 31
0.0
 11
557.2402837141738
 21
-94.20159271318951
 31
0.0
 11
557.3339352596738
 21
-94.15863581448951
 31
0.0
  0
SPLINE
  5
2768
330
26
100
AcDbEntity
  8
0
  6
Continuous
100
AcDbSpline
210
0.0
220
0.0
230
1.0
 70
     8
 71
     3
 72
     9
 73
     5
 74
     3
 42
0.0000000001
 43
0.0000000001
 44
0.0000000001
 40
0.0
 40
0.0
 40
0.0
 40
0.0
 40
0.8586076864481871
 40
1.717215352492664
 40
1.717215352492664
 40
1.717215352492664
 40
1.717215352492664
 10
557.3339352596738
 20
-94.15863581448951
 30
0.0
 10
557.6236736530719
 20
-94.10372213356513
 30
0.0
 10
558.2031504329831
 20
-93.99389477302134
 30
0.0
 10
558.5942266133924
 20
-93.55240320105153
 30
0.0
 10
558.7897647012737
 20
-93.33165741768951
 30
0.0
 11
557.3339352596738
 21
-94.15863581448951
 31
0.0
 11
558.1560502888736
 21
-93.9109787168895
 31
0.0
 11
558.7897647012737
 21
-93.33165741768951
 31
0.0
  0
SPLINE
  5
2769
330
26
100
AcDbEntity
  8
0
  6
Continuous
100
AcDbSpline
210
0.0
220
0.0
230
1.0
 70
     8
 71
     3
 72
    11
 73
     7
 74
     5
 42
0.0000000001
 43
0.0000000001
 44
0.0000000001
 40
0.0
 40
0.0
 40
0.0
 40
0.0
 40
0.0850277419204121
 40
0.1700547430924834
 40
0.255081499856195
 40
0.3401090176514434
 40
0.3401090176514434
 40
0.3401090176514434
 40
0.3401090176514434
 10
558.7897647012737
 20
-93.33165741768951
 30
0.0
 10
558.8111124003864
 20
-93.31130028906783
 30
0.0
 10
558.853807612634
 20
-93.27058620917255
 30
0.0
 10
558.9474329564043
 20
-93.27760583000188
 30
0.0
 10
559.0182461949228
 20
-93.33925602601673
 30
0.0
 10
559.0193014415826
 20
-93.39824289193871
 30
0.0
 10
559.0198290672738
 20
-93.42773645688951
 30
0.0
 11
558.7897647012737
 21
-93.33165741768951
 31
0.0
 11
558.8587383000738
 21
-93.28193459028952
 31
0.0
 11
558.9436310408737
 21
-93.28671093698952
 31
0.0
 11
559.0067076858738
 21
-93.3437274803895
 31
0.0
 11
559.0198290672738
 21
-93.42773645688951
 31
0.0
  0
SPLINE
  5
276A
330
26
100
AcDbEntity
  8
0
  6
Continuous
100
AcDbSpline
210
0.0
220
0.0
230
1.0
 70
     8
 71
     3
 72
    11
 73
     7
 74
     5
 42
0.0000000001
 43
0.0000000001
 44
0.0000000001
 40
0.0
 40
0.0
 40
0.0
 40
0.0
 40
0.3847658689402808
 40
0.7647316386474741
 40
1.439524898672417
 40
2.214540900917243
 40
2.214540900917243
 40
2.214540900917243
 40
2.214540900917243
 10
559.0198290672738
 20
-93.42773645688951
 30
0.0
 10
558.9897802805348
 20
-93.55312410787364
 30
0.0
 10
558.9300575769967
 20
-93.80233515163737
 30
0.0
 10
558.6536217761683
 20
-94.21106395744515
 30
0.0
 10
558.063968078385
 20
-94.48420005954476
 30
0.0
 10
557.5776606095024
 20
-94.4601451517416
 30
0.0
 10
557.3176980887738
 20
-94.44728626128952
 30
0.0
 11
559.0198290672738
 21
-93.42773645688951
 31
0.0
 11
558.9076257083738
 21
-93.79577881878949
 31
0.0
 11
558.6924136616738
 21
-94.10892057758952
 31
0.0
 11
558.0921277878737
 21
-94.41714584178951
 31
0.0
 11
557.3176980887738
 21
-94.44728626128952
 31
0.0
  0
SPLINE
  5
276B
330
26
100
AcDbEntity
  8
0
  6
Continuous
100
AcDbSpline
210
0.0
220
0.0
230
1.0
 70
     8
 71
     3
 72
    14
 73
    10
 74
     8
 42
0.0000000001
 43
0.0000000001
 44
0.0000000001
 40
0.0
 40
0.0
 40
0.0
 40
0.0
 40
0.3754529393166651
 40
1.298458876352863
 40
1.538476425276047
 40
1.812946993246104
 40
3.481914139483229
 40
3.780899727348795
 40
3.900389913140028
 40
3.900389913140028
 40
3.900389913140028
 40
3.900389913140028
 10
555.8041145580737
 20
-93.9042885442895
 30
0.0
 10
555.7599010900924
 20
-93.78911983900242
 30
0.0
 10
555.6069941237515
 20
-93.3908227103922
 30
0.0
 10
555.466130035676
 20
-92.82257117720144
 30
0.0
 10
555.7444862882728
 20
-92.41082989278888
 30
0.0
 10
556.3754105943036
 20
-92.03049627927405
 30
0.0
 10
556.938565146568
 20
-91.59153864644219
 30
0.0
 10
557.6705356448657
 20
-91.37045674805783
 30
0.0
 10
557.7911732077889
 20
-91.44758245825557
 30
0.0
 10
557.8256196577738
 20
-91.46960467798951
 30
0.0
 11
555.8041145580737
 21
-93.9042885442895
 31
0.0
 11
555.6743184649738
 21
-93.55198486298951
 31
0.0
 11
555.6125108015737
 21
-92.6310506782895
 31
0.0
 11
555.7484876609738
 21
-92.4332661553895
 31
0.0
 11
555.9709952492738
 21
-92.27256623058952
 31
0.0
 11
557.4234753391738
 21
-91.4505243072895
 31
0.0
 11
557.7201521234737
 21
-91.41343970928952
 31
0.0
 11
557.8256196577738
 21
-91.46960467798951
 31
0.0
  0
SPLINE
  5
276C
330
26
100
AcDbEntity
  8
0
  6
Continuous
100
AcDbSpline
210
0.0
220
0.0
230
1.0
 70
     8
 71
     3
 72
    18
 73
    14
 74
    12
 42
0.0000000001
 43
0.0000000001
 44
0.0000000001
 40
0.0
 40
0.0
 40
0.0
 40
0.0
 40
0.0818491312458071
 40
0.1487043410553516
 40
0.2117360374125396
 40
0.3236744768092421
 40
1.158993099887715
 40
2.026438938910729
 40
2.899328592842729
 40
3.059790619815499
 40
3.286465538162769
 40
3.638823432586826
 40
3.902359017079507
 40
3.902359017079507
 40
3.902359017079507
 40
3.902359017079507
 10
557.8256196577738
 20
-91.46960467798951
 30
0.0
 10
557.8369632408004
 20
-91.49602232232046
 30
0.0
 10
557.8575723787781
 20
-91.54401816946844
 30
0.0
 10
557.8122685724164
 20
-91.61498519720894
 30
0.0
 10
557.7270225697548
 20
-91.61716656017741
 30
0.0
 10
557.3981357889821
 20
-91.65651707003265
 30
0.0
 10
556.8071486119133
 20
-91.92268472427844
 30
0.0
 10
556.3189224465738
 20
-92.66449830812613
 30
0.0
 10
556.2450449202032
 20
-93.3435176645979
 30
0.0
 10
556.3982402160539
 20
-93.73609617828736
 30
0.0
 10
556.362905589639
 20
-94.00428744190789
 30
0.0
 10
556.0069274810553
 20
-94.14528016792445
 30
0.0
 10
555.8648908326187
 20
-93.97650570316557
 30
0.0
 10
555.8041145580737
 20
-93.9042885442895
 30
0.0
 11
557.8256196577738
 21
-91.46960467798951
 31
0.0
 11
557.8437674502738
 21
-91.5494165687895
 31
0.0
 11
557.8066828522738
 21
-91.60504346578951
 31
0.0
 11
557.7448751888737
 21
-91.61740499848951
 31
0.0
 11
557.6336213946738
 21
-91.6297665311895
 31
0.0
 11
556.8733871348738
 21
-91.97588944618951
 31
0.0
 11
556.3851065940739
 21
-92.69285834168952
 31
0.0
 11
556.3356604632738
 21
-93.56434639558952
 31
0.0
 11
556.3789258276738
 21
-93.71886555408952
 31
0.0
 11
556.3356604632738
 21
-93.94137314238951
 31
0.0
 11
556.0080798472739
 21
-94.07116923548954
 31
0.0
 11
555.8041145580737
 21
-93.9042885442895
 31
0.0
  0
SPLINE
  5
276D
330
26
100
AcDbEntity
  8
0
  6
Continuous
100
AcDbSpline
210
0.0
220
0.0
230
1.0
 70
     8
 71
     3
 72
    10
 73
     6
 74
     4
 42
0.0000000001
 43
0.0000000001
 44
0.0000000001
 40
0.0
 40
0.0
 40
0.0
 40
0.0
 40
0.4102539829146062
 40
0.8202485778131327
 40
1.640133156947254
 40
1.640133156947254
 40
1.640133156947254
 40
1.640133156947254
 10
560.8245576864738
 20
-90.80126938848952
 30
0.0
 10
560.7841595549937
 20
-90.67045692087504
 30
0.0
 10
560.7033888342386
 20
-90.40891469340252
 30
0.0
 10
560.6116522141774
 20
-89.86916056810294
 30
0.0
 10
560.5403322749336
 20
-89.465620623581
 30
0.0
 10
560.4927876708739
 20
-89.19660543528951
 30
0.0
 11
560.8245576864738
 21
-90.80126938848952
 31
0.0
 11
560.7120918676737
 21
-90.4067319756895
 31
0.0
 11
560.6342972150737
 21
-90.00418563068951
 31
0.0
 11
560.4927876708739
 21
-89.19660543528951
 31
0.0
  0
SPLINE
  5
276E
330
26
100
AcDbEntity
  8
0
  6
Continuous
100
AcDbSpline
210
0.0
220
0.0
230
1.0
 70
     8
 71
     3
 72
    14
 73
    10
 74
     8
 42
0.0000000001
 43
0.0000000001
 44
0.0000000001
 40
0.0
 40
0.0
 40
0.0
 40
0.0
 40
0.354190034025694
 40
0.5326407784165714
 40
0.7109138634415098
 40
0.8897714209891793
 40
1.067847043312866
 40
1.247177335976796
 40
1.426444804894322
 40
1.426444804894322
 40
1.426444804894322
 40
1.426444804894322
 10
560.4927876708739
 20
-89.19660543528951
 30
0.0
 10
560.4523454412251
 20
-89.08395940262543
 30
0.0
 10
560.3915272966933
 20
-88.91455918025952
 30
0.0
 10
560.227997352132
 20
-88.73806407828299
 30
0.0
 10
560.0760569306758
 20
-88.64066188864666
 30
0.0
 10
559.9018128318983
 20
-88.59078123320913
 30
0.0
 10
559.7206897552744
 20
-88.59468641164243
 30
0.0
 10
559.5473003999448
 20
-88.64692318089473
 30
0.0
 10
559.4438576552229
 20
-88.70734905068373
 30
0.0
 10
559.3921453440739
 20
-88.73755669248951
 30
0.0
 11
560.4927876708739
 21
-89.19660543528951
 31
0.0
 11
560.3441763924739
 21
-88.87510074148952
 31
0.0
 11
560.2231658472738
 21
-88.7439477158895
 31
0.0
 11
560.0724965340737
 21
-88.64865841478949
 31
0.0
 11
559.9004661148738
 21
-88.59971394868948
 31
0.0
 11
559.7224149825738
 21
-88.6026671761895
 31
0.0
 11
559.5503845986739
 21
-88.65331202668953
 31
0.0
 11
559.3921453440739
 21
-88.73755669248951
 31
0.0
  0
SPLINE
  5
276F
330
26
100
AcDbEntity
  8
0
  6
Continuous
100
AcDbSpline
210
0.0
220
0.0
230
1.0
 70
     8
 71
     3
 72
    15
 73
    11
 74
     9
 42
0.0000000001
 43
0.0000000001
 44
0.0000000001
 40
0.0
 40
0.0
 40
0.0
 40
0.0
 40
0.827363651004177
 40
2.125115960904981
 40
2.840606634354766
 40
3.629376504423683
 40
5.342374195727853
 40
5.865269943734392
 40
6.294884052225396
 40
6.969455128487995
 40
6.969455128487995
 40
6.969455128487995
 40
6.969455128487995
 10
559.3921453440739
 20
-88.73755669248951
 30
0.0
 10
559.1837325668505
 20
-88.91887590904689
 30
0.0
 10
558.6484161811275
 20
-89.38460142243774
 30
0.0
 10
558.0293243863667
 20
-90.09767395038138
 30
0.0
 10
557.4632264341291
 20
-90.86120726369001
 30
0.0
 10
556.4545284703713
 20
-91.31298247781294
 30
0.0
 10
555.5349660090838
 20
-91.60414679008325
 30
0.0
 10
554.6212315051257
 20
-91.85517743241039
 30
0.0
 10
554.389588625259
 20
-92.40297597719757
 30
0.0
 10
554.4566675988434
 20
-92.76931161672788
 30
0.0
 10
554.497647622874
 20
-92.9931141364895
 30
0.0
 11
559.3921453440739
 21
-88.73755669248951
 31
0.0
 11
558.7778448384738
 21
-89.29178182708952
 31
0.0
 11
557.9157343743738
 21
-90.26179554118951
 31
0.0
 11
557.4400876058739
 21
-90.7962925527895
 31
0.0
 11
556.7466629953738
 21
-91.17221836658951
 31
0.0
 11
555.1222576909737
 21
-91.7159724446895
 31
0.0
 11
554.646789122774
 21
-91.93357208608948
 31
0.0
 11
554.4584141274738
 21
-92.31968494958952
 31
0.0
 11
554.497647622874
 21
-92.9931141364895
 31
0.0
  0
SPLINE
  5
2770
330
26
100
AcDbEntity
  8
0
  6
Continuous
100
AcDbSpline
210
0.0
220
0.0
230
1.0
 70
     8
 71
     3
 72
    11
 73
     7
 74
     0
 42
0.0000000001
 43
0.0000000001
 40
0.0
 40
0.0
 40
0.0
 40
0.0
 40
0.6555788985604796
 40
1.311158177173604
 40
1.966725914689973
 40
2.268210878253386
 40
2.268210878253386
 40
2.268210878253386
 40
2.268210878253386
 10
554.497647622874
 20
-92.9931141364895
 30
0.0
 10
554.5246083193233
 20
-93.2105116105256
 30
0.0
 10
554.5785297278521
 20
-93.64530668462757
 30
0.0
 10
554.7880200344259
 20
-94.26961300314753
 30
0.0
 10
554.8493839908401
 20
-94.80787854073532
 30
0.0
 10
554.845674019824
 20
-95.12682805897005
 30
0.0
 10
554.8423545298922
 20
-95.22727501132044
 30
0.0
  0
SPLINE
  5
2771
330
26
100
AcDbEntity
  8
0
  6
Continuous
100
AcDbSpline
210
0.0
220
0.0
230
1.0
 70
     8
 71
     3
 72
    13
 73
     9
 74
     7
 42
0.0000000001
 43
0.0000000001
 44
0.0000000001
 40
0.0
 40
0.0
 40
0.0
 40
0.0
 40
0.0388277892801732
 40
0.080599042570254
 40
0.124850330065714
 40
0.1674598795397473
 40
0.2474665772665897
 40
0.326539075082006
 40
0.326539075082006
 40
0.326539075082006
 40
0.326539075082006
 10
558.8268176640737
 20
-99.62835445008952
 30
0.0
 10
558.8346099121065
 20
-99.63903104115767
 30
0.0
 10
558.8507851243081
 20
-99.6611935962235
 30
0.0
 10
558.8521961539852
 20
-99.70453378763878
 30
0.0
 10
558.8459662697154
 20
-99.74671376076267
 30
0.0
 10
558.8304795546762
 20
-99.80042330790406
 30
0.0
 10
558.8010449206711
 20
-99.86118377960595
 30
0.0
 10
558.7735867790719
 20
-99.90653989588978
 30
0.0
 10
558.7599383328738
 20
-99.9290847760895
 30
0.0
 11
558.8268176640737
 21
-99.62835445008952
 31
0.0
 11
558.8466519684739
 21
-99.66173404848952
 31
0.0
 11
558.8509565196739
 21
-99.70328291658952
 31
0.0
 11
558.8448863378739
 21
-99.74711588748951
 31
0.0
 11
558.8331635955738
 21
-99.78808112908951
 31
0.0
 11
558.7998355947738
 21
-99.8608156878895
 31
0.0
 11
558.7599383328738
 21
-99.9290847760895
 31
0.0
  0
SPLINE
  5
2772
330
26
100
AcDbEntity
  8
0
  6
Continuous
100
AcDbSpline
210
0.0
220
0.0
230
1.0
 70
     8
 71
     3
 72
    10
 73
     6
 74
     4
 42
0.0000000001
 43
0.0000000001
 44
0.0000000001
 40
0.0
 40
0.0
 40
0.0
 40
0.0
 40
0.3440037959044656
 40
1.117251527183766
 40
2.245576544827339
 40
2.245576544827339
 40
2.245576544827339
 40
2.245576544827339
 10
558.7599383328738
 20
-99.9290847760895
 30
0.0
 10
558.7015541228755
 20
-100.0282215097739
 30
0.0
 10
558.5119345647177
 20
-100.3501966403614
 30
0.0
 10
558.4082633720363
 20
-101.125083634518
 30
0.0
 10
558.5940645012209
 20
-101.7361970052691
 30
0.0
 10
558.7043122224739
 20
-102.0988097452895
 30
0.0
 11
558.7599383328738
 21
-99.9290847760895
 31
0.0
 11
558.5978723433738
 21
-100.2325204803895
 31
0.0
 11
558.4698951540738
 21
-100.9951041760895
 31
0.0
 11
558.7043122224739
 21
-102.0988097452895
 31
0.0
  0
SPLINE
  5
2773
330
26
100
AcDbEntity
  8
0
  6
Continuous
100
AcDbSpline
210
0.0
220
0.0
230
1.0
 70
     8
 71
     3
 72
    23
 73
    19
 74
    17
 42
0.0000000001
 43
0.0000000001
 44
0.0000000001
 40
0.0
 40
0.0
 40
0.0
 40
0.0
 40
0.2379066548515756
 40
0.3565277006624509
 40
0.475075955458778
 40
0.5939571299657586
 40
0.7128772614597443
 40
0.8316852443196604
 40
0.9500528070737674
 40
1.187565744302468
 40
1.306197667218828
 40
1.425469887152997
 40
1.485909687062924
 40
1.54600987906057
 40
1.60511454416581
 40
1.664100400091235
 40
1.785594732873761
 40
1.908002389562462
 40
1.908002389562462
 40
1.908002389562462
 40
1.908002389562462
 10
558.7043122224739
 20
-102.0988097452895
 30
0.0
 10
558.7186080433023
 20
-102.1771990699827
 30
0.0
 10
558.740031807729
 20
-102.2946735715126
 30
0.0
 10
558.7314372154667
 20
-102.453539281189
 30
0.0
 10
558.7126000788119
 20
-102.5707420971168
 30
0.0
 10
558.6898874054958
 20
-102.6873590937029
 30
0.0
 10
558.6737976341208
 20
-102.8051875968997
 30
0.0
 10
558.6611047319068
 20
-102.923203126404
 30
0.0
 10
558.6360111481538
 20
-103.0795681324306
 30
0.0
 10
558.5855466747904
 20
-103.2310299603043
 30
0.0
 10
558.5831128613772
 20
-103.3913560913538
 30
0.0
 10
558.6126451244213
 20
-103.488561077867
 30
0.0
 10
558.6559102472982
 20
-103.5562686071481
 30
0.0
 10
558.6973850293413
 20
-103.6000301307168
 30
0.0
 10
558.747213348998
 20
-103.6334509480839
 30
0.0
 10
558.822997404124
 20
-103.6605261931311
 30
0.0
 10
558.9255301981192
 20
-103.6676042329176
 30
0.0
 10
559.0057713337693
 20
-103.6539435262186
 30
0.0
 10
559.0460421384737
 20
-103.6470875956895
 30
0.0
 11
558.7043122224739
 21
-102.0988097452895
 31
0.0
 11
558.7347882705737
 21
-102.3347563216895
 31
0.0
 11
558.7293703797739
 21
-102.4532535746895
 31
0.0
 11
558.7119765791737
 21
-102.5705188483895
 31
0.0
 11
558.6909963894738
 21
-102.6875340836895
 31
0.0
 11
558.6743561720738
 21
-102.8052842464895
 31
0.0
 11
558.6600642787739
 21
-102.9232294819895
 31
0.0
 11
558.6402038030738
 21
-103.0399189905895
 31
0.0
 11
558.5889383544738
 21
-103.2718333047895
 31
0.0
 11
558.5892747040738
 21
-103.3904647508895
 31
0.0
 11
558.6249143423738
 21
-103.5042877653895
 31
0.0
 11
558.6575006702738
 21
-103.5551906203895
 31
0.0
 11
558.6990924548738
 21
-103.5985744483895
 31
0.0
 11
558.7483316208738
 21
-103.6312679640895
 31
0.0
 11
558.8036531343736
 21
-103.6517340663895
 31
0.0
 11
558.9246443845738
 21
-103.6627789870895
 31
0.0
 11
559.0460421384737
 21
-103.6470875956895
 31
0.0
  0
SPLINE
  5
2774
330
26
100
AcDbEntity
  8
0
  6
Continuous
100
AcDbSpline
210
0.0
220
0.0
230
1.0
 70
     8
 71
     3
 72
     9
 73
     5
 74
     3
 42
0.0000000001
 43
0.0000000001
 44
0.0000000001
 40
0.0
 40
0.0
 40
0.0
 40
0.0
 40
0.3140864840818802
 40
0.6281569662218034
 40
0.6281569662218034
 40
0.6281569662218034
 40
0.6281569662218034
 10
559.0460421384737
 20
-103.6470875956895
 30
0.0
 10
559.1483514458514
 20
-103.6218338975402
 30
0.0
 10
559.3529648481969
 20
-103.571327787856
 30
0.0
 10
559.5632806782735
 20
-103.5849192554233
 30
0.0
 10
559.6684359144737
 20
-103.5917148160895
 30
0.0
 11
559.0460421384737
 21
-103.6470875956895
 31
0.0
 11
559.3543957401739
 21
-103.5873517119895
 31
0.0
 11
559.6684359144737
 21
-103.5917148160895
 31
0.0
  0
SPLINE
  5
2775
330
26
100
AcDbEntity
  8
0
  6
Continuous
100
AcDbSpline
210
0.0
220
0.0
230
1.0
 70
     8
 71
     3
 72
     9
 73
     5
 74
     3
 42
0.0000000001
 43
0.0000000001
 44
0.0000000001
 40
0.0
 40
0.0
 40
0.0
 40
0.0
 40
0.3154607660189731
 40
0.6309250244158864
 40
0.6309250244158864
 40
0.6309250244158864
 40
0.6309250244158864
 10
559.6684359144737
 20
-103.5917148160895
 30
0.0
 10
559.7726157665904
 20
-103.6062290909181
 30
0.0
 10
559.9809766241701
 20
-103.6352578012588
 30
0.0
 10
560.1869405166133
 20
-103.6781039022235
 30
0.0
 10
560.2899230328738
 20
-103.6995270712895
 30
0.0
 11
559.6684359144737
 21
-103.5917148160895
 31
0.0
 11
559.9803762361739
 21
-103.6387119499895
 31
0.0
 11
560.2899230328738
 21
-103.6995270712895
 31
0.0
  0
SPLINE
  5
2776
330
26
100
AcDbEntity
  8
0
  6
Continuous
100
AcDbSpline
210
0.0
220
0.0
230
1.0
 70
     8
 71
     3
 72
     9
 73
     5
 74
     3
 42
0.0000000001
 43
0.0000000001
 44
0.0000000001
 40
0.0
 40
0.0
 40
0.0
 40
0.0
 40
0.1577385723207574
 40
0.3154395507447038
 40
0.3154395507447038
 40
0.3154395507447038
 40
0.3154395507447038
 10
560.2899230328738
 20
-103.6995270712895
 30
0.0
 10
560.3414184343149
 20
-103.7102195794423
 30
0.0
 10
560.4443969642771
 20
-103.7316020473981
 30
0.0
 10
560.5485097417743
 20
-103.7465122927237
 30
0.0
 10
560.6005599264737
 20
-103.7539665268895
 30
0.0
 11
560.2899230328738
 21
-103.6995270712895
 31
0.0
 11
560.4446928666739
 21
-103.7299861543895
 31
0.0
 11
560.6005599264737
 21
-103.7539665268895
 31
0.0
  0
SPLINE
  5
2777
330
26
100
AcDbEntity
  8
0
  6
Continuous
100
AcDbSpline
210
0.0
220
0.0
230
1.0
 70
     8
 71
     3
 72
    13
 73
     9
 74
     7
 42
0.0000000001
 43
0.0000000001
 44
0.0000000001
 40
0.0
 40
0.0
 40
0.0
 40
0.0
 40
0.0737948749588713
 40
0.1493388660785204
 40
0.1911997689821552
 40
0.2357549659472264
 40
0.2763486692024905
 40
0.3117628533959954
 40
0.3117628533959954
 40
0.3117628533959954
 40
0.3117628533959954
 10
560.6005599264737
 20
-103.7539665268895
 30
0.0
 10
560.6249673213231
 20
-103.7571304561603
 30
0.0
 10
560.6743606250287
 20
-103.7635333074412
 30
0.0
 10
560.7381500557444
 20
-103.7654539048552
 30
0.0
 10
560.7922578989036
 20
-103.7613091464946
 30
0.0
 10
560.8333616430117
 20
-103.7546223797058
 30
0.0
 10
560.874454941142
 20
-103.7420638796816
 30
0.0
 10
560.8867125256629
 20
-103.7188224707328
 30
0.0
 10
560.8924236744737
 20
-103.7079936532895
 30
0.0
 11
560.6005599264737
 21
-103.7539665268895
 31
0.0
 11
560.6738871549737
 21
-103.7622611715895
 31
0.0
 11
560.7494097259737
 21
-103.7640600222895
 31
0.0
 11
560.7911457846737
 21
-103.7608294501895
 31
0.0
 11
560.8350451142737
 21
-103.7532127292895
 31
0.0
 11
560.8723271180738
 21
-103.7371534348895
 31
0.0
 11
560.8924236744737
 21
-103.7079936532895
 31
0.0
  0
SPLINE
  5
2778
330
26
100
AcDbEntity
  8
0
  6
Continuous
100
AcDbSpline
210
0.0
220
0.0
230
1.0
 70
     8
 71
     3
 72
    13
 73
     9
 74
     7
 42
0.0000000001
 43
0.0000000001
 44
0.0000000001
 40
0.0
 40
0.0
 40
0.0
 40
0.0
 40
0.0316920700860084
 40
0.0656693459356297
 40
0.1019051299644275
 40
0.1371240060434536
 40
0.2029396882984968
 40
0.2675195776502576
 40
0.2675195776502576
 40
0.2675195776502576
 40
0.2675195776502576
 10
560.8924236744737
 20
-103.7079936532895
 30
0.0
 10
560.8938564461565
 20
-103.6973077181969
 30
0.0
 10
560.896825301742
 20
-103.6751653221232
 30
0.0
 10
560.8813774309732
 20
-103.6434163139357
 30
0.0
 10
560.8614022361202
 20
-103.6147949942946
 30
0.0
 10
560.832118894484
 20
-103.579488726442
 30
0.0
 10
560.7932065136229
 20
-103.54009825557
 30
0.0
 10
560.7584870577384
 20
-103.5138670348053
 30
0.0
 10
560.7412918524738
 20
-103.5008757244895
 30
0.0
 11
560.8924236744737
 21
-103.7079936532895
 31
0.0
 11
560.8937120115738
 21
-103.6763277805895
 31
0.0
 11
560.881097136974
 21
-103.6447790846895
 31
0.0
 11
560.8607710261737
 21
-103.6147810636895
 31
0.0
 11
560.8383804265739
 21
-103.5875959522895
 31
0.0
 11
560.7918762149739
 21
-103.5410227589895
 31
0.0
 11
560.7412918524738
 21
-103.5008757244895
 31
0.0
  0
SPLINE
  5
2779
330
26
100
AcDbEntity
  8
0
  6
Continuous
100
AcDbSpline
210
0.0
220
0.0
230
1.0
 70
     8
 71
     3
 72
    10
 73
     6
 74
     4
 42
0.0000000001
 43
0.0000000001
 44
0.0000000001
 40
0.0
 40
0.0
 40
0.0
 40
0.0
 40
0.1588086770169677
 40
0.2383465662060577
 40
0.3174704111961045
 40
0.3174704111961045
 40
0.3174704111961045
 40
0.3174704111961045
 10
560.7412918524738
 20
-103.5008757244895
 30
0.0
 10
560.6963993755121
 20
-103.4723695478711
 30
0.0
 10
560.6290229075933
 20
-103.4295863105803
 30
0.0
 10
560.5283807182448
 20
-103.39503238595
 30
0.0
 10
560.4764916089322
 20
-103.3846975416948
 30
0.0
 10
560.4506147592737
 20
-103.3795436044895
 30
0.0
 11
560.7412918524738
 21
-103.5008757244895
 31
0.0
 11
560.6029818520738
 21
-103.4228338146895
 31
0.0
 11
560.5278495553739
 21
-103.3967299105895
 31
0.0
 11
560.4506147592737
 21
-103.3795436044895
 31
0.0
  0
SPLINE
  5
277A
330
26
100
AcDbEntity
  8
0
  6
Continuous
100
AcDbSpline
210
0.0
220
0.0
230
1.0
 70
     8
 71
     3
 72
    21
 73
    17
 74
    15
 42
0.0000000001
 43
0.0000000001
 44
0.0000000001
 40
0.0
 40
0.0
 40
0.0
 40
0.0
 40
0.2353975155477469
 40
0.3528715553362468
 40
0.4705051955833013
 40
0.5885179970989046
 40
0.7065997939770653
 40
0.8243669453672228
 40
0.9421145075096189
 40
1.060792056734681
 40
1.179296636797094
 40
1.296694430508602
 40
1.41448649381526
 40
1.533281212437957
 40
1.651472397955586
 40
1.886478540159808
 40
1.886478540159808
 40
1.886478540159808
 40
1.886478540159808
 10
560.4506147592737
 20
-103.3795436044895
 30
0.0
 10
560.3736256956639
 20
-103.3633722445738
 30
0.0
 10
560.2582155964678
 20
-103.3391306423969
 30
0.0
 10
560.112215844055
 20
-103.2807092519273
 30
0.0
 10
560.0073100771626
 20
-103.2270987696763
 30
0.0
 10
559.9063960669598
 20
-103.1659805821092
 30
0.0
 10
559.8082976780027
 20
-103.1004221941032
 30
0.0
 10
559.7142119058102
 20
-103.029244016088
 30
0.0
 10
559.6271069076564
 20
-102.94917547514
 30
0.0
 10
559.5505830253799
 20
-102.8584669146114
 30
0.0
 10
559.4884882524125
 20
-102.7572164559558
 30
0.0
 10
559.4472816300207
 20
-102.6457770789487
 30
0.0
 10
559.4305777151793
 20
-102.5282796270874
 30
0.0
 10
559.4310778523108
 20
-102.4097884517842
 30
0.0
 10
559.4469364878486
 20
-102.2530296912835
 30
0.0
 10
559.4719927487431
 20
-102.1378722071168
 30
0.0
 10
559.4886643788738
 20
-102.0612501208895
 30
0.0
 11
560.4506147592737
 21
-103.3795436044895
 31
0.0
 11
560.2222787221737
 21
-103.3223190949895
 31
0.0
 11
560.1130414712739
 21
-103.2791059830895
 31
0.0
 11
560.0081153615738
 21
-103.2259253021895
 31
0.0
 11
559.9068914671739
 21
-103.1652561623895
 31
0.0
 11
559.8088690478739
 21
-103.0994160828895
 31
0.0
 11
559.7153936817737
 21
-103.0277818879895
 31
0.0
 11
559.6291138121737
 21
-102.9476552850895
 31
0.0
 11
559.5529495687737
 21
-102.8566422710895
 31
0.0
 11
559.4917840132739
 21
-102.7551429591895
 31
0.0
 11
559.4513894684737
 21
-102.6449135496895
 31
0.0
 11
559.4334751264737
 21
-102.5284917023895
 31
0.0
 11
559.4329955526738
 21
-102.4096979517895
 31
0.0
 11
559.4444884716738
 21
-102.2920668795895
 31
0.0
 11
559.4886643788738
 21
-102.0612501208895
 31
0.0
  0
SPLINE
  5
277B
330
26
100
AcDbEntity
  8
0
  6
Continuous
100
AcDbSpline
210
0.0
220
0.0
230
1.0
 70
     8
 71
     3
 72
    14
 73
    10
 74
     8
 42
0.0000000001
 43
0.0000000001
 44
0.0000000001
 40
0.0
 40
0.0
 40
0.0
 40
0.0
 40
0.628118837370953
 40
0.94376796221971
 40
1.25697624621792
 40
1.57101693282098
 40
1.885088911496121
 40
2.199146648850823
 40
2.513159521399739
 40
2.513159521399739
 40
2.513159521399739
 40
2.513159521399739
 10
559.8896070360738
 20
-100.2125486080895
 30
0.0
 10
559.9264213039065
 20
-100.0062584668939
 30
0.0
 10
559.9817358788978
 20
-99.69630115531733
 30
0.0
 10
560.0903243958683
 20
-99.291670445953
 30
0.0
 10
560.1425573334102
 20
-98.98014908817696
 30
0.0
 10
560.1224649835699
 20
-98.66398277035314
 30
0.0
 10
560.0434572944754
 20
-98.35977254702738
 30
0.0
 10
559.8881799691161
 20
-98.0739407349642
 30
0.0
 10
559.7066755165009
 20
-97.96296048623992
 30
0.0
 10
559.6159297728738
 20
-97.90747432568952
 30
0.0
 11
559.8896070360738
 21
-100.2125486080895
 31
0.0
 11
560.0116623052738
 21
-99.59640269588952
 31
0.0
 11
560.0856248914737
 21
-99.28954131698951
 31
0.0
 11
560.1305092102738
 21
-98.9795657903895
 31
0.0
 11
560.1126504428739
 21
-98.6660333083895
 31
0.0
 11
560.0307428275737
 21
-98.36282982828951
 31
0.0
 11
559.8686722228737
 21
-98.09382168438951
 31
0.0
 11
559.6159297728738
 21
-97.90747432568952
 31
0.0
  0
SPLINE
  5
277C
330
26
100
AcDbEntity
  8
0
  6
Continuous
100
AcDbSpline
210
0.0
220
0.0
230
1.0
 70
     8
 71
     3
 72
    14
 73
    10
 74
     0
 42
0.0000000001
 43
0.0000000001
 40
0.0
 40
0.0
 40
0.0
 40
0.0
 40
0.1738400556039612
 40
0.3507172255052844
 40
0.5277941939300643
 40
0.7021988287200565
 40
0.8764417357406323
 40
1.05128197884248
 40
1.263025251516217
 40
1.263025251516217
 40
1.263025251516217
 40
1.263025251516217
 10
559.6159297728738
 20
-97.90747432568952
 30
0.0
 10
559.5604573625191
 20
-97.88974180995616
 30
0.0
 10
559.4485433977879
 20
-97.8539669783293
 30
0.0
 10
559.2710980894779
 20
-97.84979468239264
 30
0.0
 10
559.0954264223205
 20
-97.85612454789211
 30
0.0
 10
558.9203800515677
 20
-97.8663943205197
 30
0.0
 10
558.746231508242
 20
-97.87644104670349
 30
0.0
 10
558.5594996628443
 20
-97.88781980533172
 30
0.0
 10
558.4319387965993
 20
-97.90595288405169
 30
0.0
 10
558.3622064745172
 20
-97.91710105623392
 30
0.0
  0
SPLINE
  5
277D
330
26
100
AcDbEntity
  8
0
  6
Continuous
100
AcDbSpline
210
0.0
220
0.0
230
1.0
 70
     8
 71
     3
 72
    11
 73
     7
 74
     5
 42
0.0000000001
 43
0.0000000001
 44
0.0000000001
 40
0.0
 40
0.0
 40
0.0
 40
0.0
 40
0.1599451355846235
 40
0.3200369666529859
 40
0.4772999914831725
 40
0.63460661754563
 40
0.63460661754563
 40
0.63460661754563
 40
0.63460661754563
 10
559.4284916472738
 20
-94.75200321408951
 30
0.0
 10
559.4694514764425
 20
-94.71775898788954
 30
0.0
 10
559.5514087015488
 20
-94.64923912801154
 30
0.0
 10
559.6587569893625
 20
-94.53168303655953
 30
0.0
 10
559.743960735917
 20
-94.39416221461312
 30
0.0
 10
559.7579651199243
 20
-94.28913116957406
 30
0.0
 10
559.7649682824737
 20
-94.23660836808952
 30
0.0
 11
559.4284916472738
 21
-94.75200321408951
 31
0.0
 11
559.5488787833737
 21
-94.6466970705895
 31
0.0
 11
559.6557264775738
 21
-94.52747893178952
 31
0.0
 11
559.7333403016737
 21
-94.39070264258949
 31
0.0
 11
559.7649682824737
 21
-94.23660836808952
 31
0.0
  0
SPLINE
  5
277E
330
26
100
AcDbEntity
  8
0
  6
Continuous
100
AcDbSpline
210
0.0
220
0.0
230
1.0
 70
     8
 71
     3
 72
     9
 73
     5
 74
     3
 42
0.0000000001
 43
0.0000000001
 44
0.0000000001
 40
0.0
 40
0.0
 40
0.0
 40
0.0
 40
0.3141627305616534
 40
0.6283157761108134
 40
0.6283157761108134
 40
0.6283157761108134
 40
0.6283157761108134
 10
559.7649682824737
 20
-94.23660836808952
 30
0.0
 10
559.7518492370795
 20
-94.13261049642877
 30
0.0
 10
559.7256115507252
 20
-93.92461795915494
 30
0.0
 10
559.6750854354837
 20
-93.72115685651166
 30
0.0
 10
559.6498227672737
 20
-93.61942787328951
 30
0.0
 11
559.7649682824737
 21
-94.23660836808952
 31
0.0
 11
559.719538851874
 21
-93.9257476466895
 31
0.0
 11
559.6498227672737
 21
-93.61942787328951
 31
0.0
  0
SPLINE
  5
277F
330
26
100
AcDbEntity
  8
0
  6
Continuous
100
AcDbSpline
210
0.0
220
0.0
230
1.0
 70
    24
 71
     3
 72
     8
 73
     4
 74
     2
 42
0.0000000001
 43
0.0000000001
 44
0.0000000001
 40
0.0
 40
0.0
 40
0.0
 40
0.0
 40
0.9464170984309912
 40
0.9464170984309912
 40
0.9464170984309912
 40
0.9464170984309912
 10
559.6498227672737
 20
-93.61942787328951
 30
0.0
 10
559.6044498876738
 20
-93.30723543968952
 30
0.0
 10
559.5590770080738
 20
-92.99504300608953
 30
0.0
 10
559.5137041284738
 20
-92.68285057248951
 30
0.0
 11
559.6498227672737
 21
-93.61942787328951
 31
0.0
 11
559.5137041284738
 21
-92.68285057248951
 31
0.0
  0
SPLINE
  5
2780
330
26
100
AcDbEntity
  8
0
  6
Continuous
100
AcDbSpline
210
0.0
220
0.0
230
1.0
 70
     8
 71
     3
 72
     9
 73
     5
 74
     3
 42
0.0000000001
 43
0.0000000001
 44
0.0000000001
 40
0.0
 40
0.0
 40
0.0
 40
0.0
 40
0.3168761717892923
 40
0.6324434176049467
 40
0.6324434176049467
 40
0.6324434176049467
 40
0.6324434176049467
 10
559.5137041284738
 20
-92.68285057248951
 30
0.0
 10
559.494630952227
 20
-92.57837672864145
 30
0.0
 10
559.456563385638
 20
-92.36986059288881
 30
0.0
 10
559.4774896003255
 20
-92.15893926375198
 30
0.0
 10
559.4879310528738
 20
-92.05369686408952
 30
0.0
 11
559.5137041284738
 21
-92.68285057248951
 31
0.0
 11
559.4712941559737
 21
-92.3688252510895
 31
0.0
 11
559.4879310528738
 21
-92.05369686408952
 31
0.0
  0
SPLINE
  5
2781
330
26
100
AcDbEntity
  8
0
  6
Continuous
100
AcDbSpline
210
0.0
220
0.0
230
1.0
 70
     8
 71
     3
 72
    14
 73
    10
 74
     8
 42
0.0000000001
 43
0.0000000001
 44
0.0000000001
 40
0.0
 40
0.0
 40
0.0
 40
0.0
 40
0.2006132435366456
 40
0.4044691727967751
 40
0.600021698225353
 40
0.7932985269808772
 40
0.9897340322885706
 40
1.183793828775946
 40
1.570023423068862
 40
1.570023423068862
 40
1.570023423068862
 40
1.570023423068862
 10
559.4879310528738
 20
-92.05369686408952
 30
0.0
 10
559.5042816146032
 20
-91.98854128510645
 30
0.0
 10
559.5372470263618
 20
-91.85717696104796
 30
0.0
 10
559.6422468039887
 20
-91.6835756034132
 30
0.0
 10
559.7927348643628
 20
-91.54757122227659
 30
0.0
 10
559.9875259614091
 20
-91.49596258414918
 30
0.0
 10
560.1833695680731
 20
-91.51124789623692
 30
0.0
 10
560.4332064156524
 20
-91.59328081997694
 30
0.0
 10
560.578576767559
 20
-91.7253219007887
 30
0.0
 10
560.6753325120739
 20
-91.81320593568952
 30
0.0
 11
559.4879310528738
 21
-92.05369686408952
 31
0.0
 11
559.5462852616738
 21
-91.86175817648949
 31
0.0
 11
559.6519107716737
 21
-91.68740080918951
 31
0.0
 11
559.8010740204738
 21
-91.56094482708951
 31
0.0
 11
559.9867290721738
 21
-91.50720346208951
 31
0.0
 11
560.1828004174738
 21
-91.51915901718949
 31
0.0
 11
560.3667773503739
 21
-91.58089792528953
 31
0.0
 11
560.6753325120739
 21
-91.81320593568952
 31
0.0
  0
SPLINE
  5
2782
330
26
100
AcDbEntity
  8
0
  6
Continuous
100
AcDbSpline
210
0.0
220
0.0
230
1.0
 70
     8
 71
     3
 72
     9
 73
     5
 74
     3
 42
0.0000000001
 43
0.0000000001
 44
0.0000000001
 40
0.0
 40
0.0
 40
0.0
 40
0.0
 40
0.4752458443534022
 40
0.6336855409214511
 40
0.6336855409214511
 40
0.6336855409214511
 40
0.6336855409214511
 10
560.6753325120739
 20
-91.81320593568952
 30
0.0
 10
560.7699391104628
 20
-91.94327109148685
 30
0.0
 10
560.8960861019348
 20
-92.11669798113928
 30
0.0
 10
561.0738329107878
 20
-92.23244741681023
 30
0.0
 10
561.118274749274
 20
-92.26138812048949
 30
0.0
 11
560.6753325120739
 21
-91.81320593568952
 31
0.0
 11
560.9881749679739
 21
-92.17096033518951
 31
0.0
 11
561.118274749274
 21
-92.26138812048949
 31
0.0
  0
SPLINE
  5
2783
330
26
100
AcDbEntity
  8
0
  6
Continuous
100
AcDbSpline
210
0.0
220
0.0
230
1.0
 70
     8
 71
     3
 72
    17
 73
    13
 74
    11
 42
0.0000000001
 43
0.0000000001
 44
0.0000000001
 40
0.0
 40
0.0
 40
0.0
 40
0.0
 40
0.1143554685405371
 40
0.2291624963021905
 40
0.3421751824998573
 40
0.4555138139671948
 40
0.5128610871553447
 40
0.5698074932740863
 40
0.6260937719264578
 40
0.6826126445534325
 40
0.7986219451071229
 40
0.9146322778494385
 40
0.9146322778494385
 40
0.9146322778494385
 40
0.9146322778494385
 10
561.118274749274
 20
-92.26138812048949
 30
0.0
 10
561.1527734749897
 20
-92.27794305258614
 30
0.0
 10
561.2219071526803
 20
-92.31111828778737
 30
0.0
 10
561.3364205093864
 20
-92.32916702747303
 30
0.0
 10
561.4509609984472
 20
-92.31335620527747
 30
0.0
 10
561.5362599480081
 20
-92.26789673697326
 30
0.0
 10
561.592700502739
 20
-92.21676710069205
 30
0.0
 10
561.6274921713994
 20
-92.17132643649308
 30
0.0
 10
561.6517530548484
 20
-92.11958808083166
 30
0.0
 10
561.6665568829982
 20
-92.04424770933468
 30
0.0
 10
561.6587076506268
 20
-91.94606067711052
 30
0.0
 10
561.6285313488734
 20
-91.8745307851685
 30
0.0
 10
561.6134431308738
 20
-91.83876568008952
 30
0.0
 11
561.118274749274
 21
-92.26138812048949
 31
0.0
 11
561.2236531167739
 21
-92.3058017765895
 31
0.0
 11
561.3370833199737
 21
-92.32352866648952
 31
0.0
 11
561.4488726036738
 21
-92.30694484028949
 31
0.0
 11
561.5491269748738
 21
-92.2540798571895
 31
0.0
 11
561.5915342601738
 21
-92.21547504018952
 31
0.0
 11
561.6258786432738
 21
-92.17005085588951
 31
0.0
 11
561.6495229393738
 21
-92.11897157998951
 31
0.0
 11
561.6610064070737
 21
-92.06363160408954
 31
0.0
 11
561.6527415878738
 21
-91.94791708218952
 31
0.0
 11
561.6134431308738
 21
-91.83876568008952
 31
0.0
  0
SPLINE
  5
2784
330
26
100
AcDbEntity
  8
0
  6
Continuous
100
AcDbSpline
210
0.0
220
0.0
230
1.0
 70
     8
 71
     3
 72
    11
 73
     7
 74
     5
 42
0.0000000001
 43
0.0000000001
 44
0.0000000001
 40
0.0
 40
0.0
 40
0.0
 40
0.0
 40
0.3272561003100303
 40
0.6545057176877249
 40
0.9817551011187562
 40
1.309092366015561
 40
1.309092366015561
 40
1.309092366015561
 40
1.309092366015561
 10
561.6134431308738
 20
-91.83876568008952
 30
0.0
 10
561.5528711920372
 20
-91.74745157392303
 30
0.0
 10
561.4317285142919
 20
-91.5648251705194
 30
0.0
 10
561.1864656221009
 20
-91.34579260727861
 30
0.0
 10
560.9761046890809
 20
-91.09229317711659
 30
0.0
 10
560.8750778751245
 20
-90.89828600017
 30
0.0
 10
560.8245576864738
 20
-90.80126938848952
 30
0.0
 11
561.6134431308738
 21
-91.83876568008952
 31
0.0
 11
561.4211354805738
 21
-91.57397458728951
 31
0.0
 11
561.1922854201739
 21
-91.34005160438952
 31
0.0
 11
560.9859258980739
 21
-91.0860675367895
 31
0.0
 11
560.8245576864738
 21
-90.80126938848952
 31
0.0
  0
SPLINE
  5
2785
330
26
100
AcDbEntity
  8
0
  6
Continuous
100
AcDbSpline
210
0.0
220
0.0
230
1.0
 70
     8
 71
     3
 72
     9
 73
     5
 74
     3
 42
0.0000000001
 43
0.0000000001
 44
0.0000000001
 40
0.0
 40
0.0
 40
0.0
 40
0.0
 40
1.908920642038327
 40
3.817841264655262
 40
3.817841264655262
 40
3.817841264655262
 40
3.817841264655262
 10
562.5674469240739
 20
-93.09991306848951
 30
0.0
 10
562.9315341748293
 20
-93.63627854889069
 30
0.0
 10
563.6597086726354
 20
-94.70900950423601
 30
0.0
 10
563.7601569985648
 20
-96.00164245093021
 30
0.0
 10
563.8103811612738
 20
-96.6479589209895
 30
0.0
 11
562.5674469240739
 21
-93.09991306848951
 31
0.0
 11
563.5027771317738
 21
-94.76398500808953
 31
0.0
 11
563.8103811612738
 21
-96.6479589209895
 31
0.0
  0
SPLINE
  5
2786
330
26
100
AcDbEntity
  8
0
  6
Continuous
100
AcDbSpline
210
0.0
220
0.0
230
1.0
 70
     8
 71
     3
 72
    18
 73
    14
 74
    12
 42
0.0000000001
 43
0.0000000001
 44
0.0000000001
 40
0.0
 40
0.0
 40
0.0
 40
0.0
 40
0.1451589421349741
 40
0.2903448891768875
 40
0.4378320554324482
 40
0.5860911765327836
 40
0.7345019169649597
 40
0.881173104211866
 40
0.9540365500036405
 40
1.027168657058835
 40
1.100226329955281
 40
1.136581100991326
 40
1.172880955035996
 40
1.172880955035996
 40
1.172880955035996
 40
1.172880955035996
 10
563.8103811612738
 20
-96.6479589209895
 30
0.0
 10
563.8155221252152
 20
-96.69669606846318
 30
0.0
 10
563.8258050095066
 20
-96.79417943031417
 30
0.0
 10
563.9120688552434
 20
-96.91937612791759
 30
0.0
 10
564.0386548149322
 20
-97.00025743285258
 30
0.0
 10
564.1888214747394
 20
-97.02703681484087
 30
0.0
 10
564.3358525080346
 20
-96.98913005009031
 30
0.0
 10
564.4371989037641
 20
-96.91379215941848
 30
0.0
 10
564.493368630248
 20
-96.8332494356151
 30
0.0
 10
564.5230899548774
 20
-96.76610444662364
 30
0.0
 10
564.5367413447361
 20
-96.70630235336711
 30
0.0
 10
564.5392699667782
 20
-96.65768878406996
 30
0.0
 10
564.5379611426778
 20
-96.63349406751395
 30
0.0
 10
564.5373072252737
 20
-96.62140585318952
 30
0.0
 11
563.8103811612738
 21
-96.6479589209895
 31
0.0
 11
563.8375324479738
 21
-96.79055599708953
 31
0.0
 11
563.9181019304738
 21
-96.91133479368952
 31
0.0
 11
564.042184782074
 21
-96.9910587558895
 31
0.0
 11
564.1882922885739
 21
-97.01622547068951
 31
0.0
 11
564.3322341583739
 21
-96.9800801252895
 31
0.0
 11
564.4493447008738
 21
-96.89177634278951
 31
0.0
 11
564.4912718085739
 21
-96.8321844022895
 31
0.0
 11
564.5208721590738
 21
-96.7653104586895
 31
0.0
 11
564.5366845280737
 21
-96.69398449878952
 31
0.0
 11
564.5386275387738
 21
-96.65768168778951
 31
0.0
 11
564.5373072252737
 21
-96.62140585318952
 31
0.0
  0
SPLINE
  5
2787
330
26
100
AcDbEntity
  8
0
  6
Continuous
100
AcDbSpline
210
0.0
220
0.0
230
1.0
 70
     8
 71
     3
 72
     9
 73
     5
 74
     3
 42
0.0000000001
 43
0.0000000001
 44
0.0000000001
 40
0.0
 40
0.0
 40
0.0
 40
0.0
 40
2.085442807449717
 40
4.170885674781381
 40
4.170885674781381
 40
4.170885674781381
 40
4.170885674781381
 10
564.5373072252737
 20
-96.62140585318952
 30
0.0
 10
564.4095246226059
 20
-95.92372118636988
 30
0.0
 10
564.1539594136013
 20
-94.52835183269708
 30
0.0
 10
563.2176876554637
 20
-93.46262935152561
 30
0.0
 10
562.7495517696738
 20
-92.9297681032895
 30
0.0
 11
564.5373072252737
 21
-96.62140585318952
 31
0.0
 11
563.9837827848737
 21
-94.61076356848952
 31
0.0
 11
562.7495517696738
 21
-92.9297681032895
 31
0.0
  0
SPLINE
  5
2788
330
26
100
AcDbEntity
  8
0
  6
Continuous
100
AcDbSpline
210
0.0
220
0.0
230
1.0
 70
     8
 71
     3
 72
    11
 73
     7
 74
     5
 42
0.0000000001
 43
0.0000000001
 44
0.0000000001
 40
0.0
 40
0.0
 40
0.0
 40
0.0
 40
0.0918319893275823
 40
0.1836625894420769
 40
0.2754933244634513
 40
0.3673255048428064
 40
0.3673255048428064
 40
0.3673255048428064
 40
0.3673255048428064
 10
562.7495517696738
 20
-92.9297681032895
 30
0.0
 10
562.7218095308913
 20
-92.91355912219801
 30
0.0
 10
562.6663254730046
 20
-92.88114140522076
 30
0.0
 10
562.5704808558753
 20
-92.92063471189243
 30
0.0
 10
562.5245777338736
 20
-93.01357985681545
 30
0.0
 10
562.5531571190375
 20
-93.07113518028524
 30
0.0
 10
562.5674469240739
 20
-93.09991306848951
 30
0.0
 11
562.7495517696738
 21
-92.9297681032895
 31
0.0
 11
562.6642219006739
 21
-92.8958280425895
 31
0.0
 11
562.5788044384738
 21
-92.9295432656895
 31
0.0
 11
562.5393731322738
 21
-93.01247731168951
 31
0.0
 11
562.5674469240739
 21
-93.09991306848951
 31
0.0
  0
SPLINE
  5
2789
330
26
100
AcDbEntity
  8
0
  6
Continuous
100
AcDbSpline
210
0.0
220
0.0
230
1.0
 70
     8
 71
     3
 72
    15
 73
    11
 74
     9
 42
0.0000000001
 43
0.0000000001
 44
0.0000000001
 40
0.0
 40
0.0
 40
0.0
 40
0.0
 40
0.7961246981109835
 40
2.989732401286246
 40
5.276388048741744
 40
5.519584429005097
 40
5.759194306733005
 40
6.167241855958674
 40
6.55264761502968
 40
6.9063524044198
 40
6.9063524044198
 40
6.9063524044198
 40
6.9063524044198
 10
561.6756691752739
 20
-92.8359823744895
 30
0.0
 10
561.7960192825739
 20
-93.07229912413463
 30
0.0
 10
562.2479768919114
 20
-93.95975286731971
 30
0.0
 10
562.8462714799665
 20
-95.64084373962385
 30
0.0
 10
562.8730901514809
 20
-97.23448766174118
 30
0.0
 10
562.8946682277538
 20
-98.15258361493123
 30
0.0
 10
562.9674930340003
 20
-98.45336642902568
 30
0.0
 10
563.3266985279709
 20
-98.63984148624181
 30
0.0
 10
563.7428718421761
 20
-98.46382255707653
 30
0.0
 10
563.7773488573599
 20
-98.20492334510547
 30
0.0
 10
563.7938479932737
 20
-98.08102592348951
 30
0.0
 11
561.6756691752739
 21
-92.8359823744895
 31
0.0
 11
562.0287104631739
 21
-93.5495483377895
 31
0.0
 11
562.7200340430738
 21
-95.6313712080895
 31
0.0
 11
562.8890610417737
 21
-97.91177115628952
 31
0.0
 11
562.9037558626737
 21
-98.15452317298951
 31
0.0
 11
562.9773004542738
 21
-98.38256721818949
 31
0.0
 11
563.3377351797737
 21
-98.57385132908952
 31
0.0
 11
563.6908385384738
 21
-98.41939869168951
 31
0.0
 11
563.7938479932737
 21
-98.08102592348951
 31
0.0
  0
SPLINE
  5
278A
330
26
100
AcDbEntity
  8
0
  6
Continuous
100
AcDbSpline
210
0.0
220
0.0
230
1.0
 70
     8
 71
     3
 72
     9
 73
     5
 74
     3
 42
0.0000000001
 43
0.0000000001
 44
0.0000000001
 40
0.0
 40
0.0
 40
0.0
 40
0.0
 40
2.871172105564359
 40
5.742344202064345
 40
5.742344202064345
 40
5.742344202064345
 40
5.742344202064345
 10
563.7938479932737
 20
-98.08102592348951
 30
0.0
 10
563.6422710901603
 20
-97.12625375069482
 30
0.0
 10
563.3391172844121
 20
-95.21670940811973
 30
0.0
 10
562.3477862569981
 20
-93.55673211309279
 30
0.0
 10
561.8521207440737
 20
-92.72674346688949
 30
0.0
 11
563.7938479932737
 21
-98.08102592348951
 31
0.0
 11
563.1670729779739
 21
-95.27910116718951
 31
0.0
 11
561.8521207440737
 21
-92.72674346688949
 31
0.0
  0
SPLINE
  5
278B
330
26
100
AcDbEntity
  8
0
  6
Continuous
100
AcDbSpline
210
0.0
220
0.0
230
1.0
 70
     8
 71
     3
 72
    11
 73
     7
 74
     5
 42
0.0000000001
 43
0.0000000001
 44
0.0000000001
 40
0.0
 40
0.0
 40
0.0
 40
0.0
 40
0.0771274690099548
 40
0.154253326984855
 40
0.231379251966737
 40
0.3085065589942805
 40
0.3085065589942805
 40
0.3085065589942805
 40
0.3085065589942805
 10
561.8521207440737
 20
-92.72674346688949
 30
0.0
 10
561.83214759724
 20
-92.70856043846455
 30
0.0
 10
561.7922017207709
 20
-92.67219476142094
 30
0.0
 10
561.7064928815519
 20
-92.68863975048245
 30
0.0
 10
561.6535654177716
 20
-92.75802723114016
 30
0.0
 10
561.6683012120977
 20
-92.80999717149663
 30
0.0
 10
561.6756691752739
 20
-92.8359823744895
 30
0.0
 11
561.8521207440737
 21
-92.72674346688949
 31
0.0
 11
561.7879028307738
 21
-92.68402688828951
 31
0.0
 11
561.7119564207737
 21
-92.69746343458951
 31
0.0
 11
561.6660707312738
 21
-92.75945465818948
 31
0.0
 11
561.6756691752739
 21
-92.8359823744895
 31
0.0
  0
SPLINE
  5
278C
330
26
100
AcDbEntity
  8
0
  6
Continuous
100
AcDbSpline
210
0.0
220
0.0
230
1.0
 70
     8
 71
     3
 72
    11
 73
     7
 74
     0
 42
0.0000000001
 43
0.0000000001
 40
0.0
 40
0.0
 40
0.0
 40
0.0
 40
2.181247936466973
 40
4.556856864811688
 40
7.155488660776931
 40
7.7891199670144
 40
7.7891199670144
 40
7.7891199670144
 40
7.7891199670144
 10
540.2385294775738
 20
-87.51276957678951
 30
0.0
 10
540.3958990382544
 20
-88.22276992193213
 30
0.0
 10
540.7246606388547
 20
-89.70603548413229
 30
0.0
 10
541.0703039342297
 20
-92.06880355016381
 30
0.0
 10
541.1890364211926
 20
-93.93653419802948
 30
0.0
 10
541.2003879255187
 20
-95.01428842396325
 30
0.0
 10
541.2004145458424
 20
-95.22556514488952
 30
0.0
  0
SPLINE
  5
278D
330
26
100
AcDbEntity
  8
0
  6
Continuous
100
AcDbSpline
210
0.0
220
0.0
230
1.0
 70
     8
 71
     3
 72
    11
 73
     7
 74
     5
 42
0.0000000001
 43
0.0000000001
 44
0.0000000001
 40
0.0
 40
0.0
 40
0.0
 40
0.0
 40
0.8608544296735686
 40
1.724249535552366
 40
2.554106630523743
 40
3.316501756894742
 40
3.316501756894742
 40
3.316501756894742
 40
3.316501756894742
 10
540.2385290804739
 20
-87.51277145288952
 30
0.0
 10
540.5070980302039
 20
-87.41130172768632
 30
0.0
 10
541.045028568601
 20
-87.20806280537447
 30
0.0
 10
541.811208265563
 20
-86.83497934811948
 30
0.0
 10
542.5258039285372
 20
-86.43314307299264
 30
0.0
 10
542.9569910189429
 20
-86.12304056699303
 30
0.0
 10
543.1634501036738
 20
-85.97455866438952
 30
0.0
 11
540.2385290804739
 21
-87.51277145288952
 31
0.0
 11
541.0390784175738
 21
-87.19624166288951
 31
0.0
 11
541.8173161732738
 21
-86.8223471530895
 31
0.0
 11
542.5366997563737
 21
-86.40864429058951
 31
0.0
 11
543.1634501036738
 21
-85.97455866438952
 31
0.0
  0
SPLINE
  5
278E
330
26
100
AcDbEntity
  8
0
  6
Continuous
100
AcDbSpline
210
0.0
220
0.0
230
1.0
 70
     8
 71
     3
 72
    11
 73
     7
 74
     0
 42
0.0000000001
 43
0.0000000001
 40
0.0
 40
0.0
 40
0.0
 40
0.0
 40
2.620974963786192
 40
5.472173750056794
 40
8.56420705962401
 40
9.314437991661411
 40
9.314437991661411
 40
9.314437991661411
 40
9.314437991661411
 10
543.1634613533738
 20
-85.97455866688951
 30
0.0
 10
543.3207615486471
 20
-86.83406330499876
 30
0.0
 10
543.6491790312045
 20
-88.62857060999008
 30
0.0
 10
543.9941068713933
 20
-91.4646319345581
 30
0.0
 10
544.1139850826974
 20
-93.69439975158034
 30
0.0
 10
544.1253501029543
 20
-94.97543234807895
 30
0.0
 10
544.1253787483305
 20
-95.22556514488952
 30
0.0
  0
SPLINE
  5
278F
330
26
100
AcDbEntity
  8
0
  6
Continuous
100
AcDbSpline
210
0.0
220
0.0
230
1.0
 70
     8
 71
     3
 72
    13
 73
     9
 74
     7
 42
0.0000000001
 43
0.0000000001
 44
0.0000000001
 40
0.0
 40
0.0
 40
0.0
 40
0.0
 40
0.7736111653572249
 40
1.653768421704695
 40
2.603577807889015
 40
3.599482747967993
 40
4.62727407820114
 40
5.684208496922984
 40
5.684208496922984
 40
5.684208496922984
 40
5.684208496922984
 10
541.0399731439738
 20
-82.05005536838951
 30
0.0
 10
540.8956229894029
 20
-82.26460602369808
 30
0.0
 10
540.5870419631875
 20
-82.72325646011144
 30
0.0
 10
540.2798308947001
 20
-83.54232260369111
 30
0.0
 10
540.0714969685039
 20
-84.46304603146315
 30
0.0
 10
539.9936850260249
 20
-85.45415127128634
 30
0.0
 10
540.0373758053638
 20
-86.48377640317267
 30
0.0
 10
540.1708562639657
 20
-87.16659009085556
 30
0.0
 10
540.2385294775738
 20
-87.51276957678951
 30
0.0
 11
541.0399731439738
 21
-82.05005536838951
 31
0.0
 11
540.6317468850739
 21
-82.70718972048952
 31
0.0
 11
540.3067911231738
 21
-83.52516316058951
 31
0.0
 11
540.0969445298738
 21
-84.45150126158949
 31
0.0
 11
540.0142956470737
 21
-85.4439708136895
 31
0.0
 11
540.0622197419738
 21
-86.47064422798951
 31
0.0
 11
540.2385294775738
 21
-87.51276957678951
 31
0.0
  0
SPLINE
  5
2790
330
26
100
AcDbEntity
  8
0
  6
Continuous
100
AcDbSpline
210
0.0
220
0.0
230
1.0
 70
     8
 71
     3
 72
    11
 73
     7
 74
     5
 42
0.0000000001
 43
0.0000000001
 44
0.0000000001
 40
0.0
 40
0.0
 40
0.0
 40
0.0
 40
0.9479005263280345
 40
1.814625546065175
 40
2.591059678254531
 40
3.292250860135571
 40
3.292250860135571
 40
3.292250860135571
 40
3.292250860135571
 10
541.0399520349738
 20
-82.05009312508952
 30
0.0
 10
541.2693668719452
 20
-82.26938121358744
 30
0.0
 10
541.7085501113796
 20
-82.68917818202837
 30
0.0
 10
542.4705615442715
 20
-83.10847739299169
 30
0.0
 10
543.2391840167131
 20
-83.33249705770319
 30
0.0
 10
543.7313532307012
 20
-83.25895353478271
 30
0.0
 10
543.9649068315739
 20
-83.22405424788953
 30
0.0
 11
541.0399520349738
 21
-82.05009312508952
 31
0.0
 11
541.7539783234738
 21
-82.67353668078953
 31
0.0
 11
542.5125537991739
 21
-83.09279257818952
 31
0.0
 11
543.2659828101736
 21
-83.28039504888952
 31
0.0
 11
543.9649068315739
 21
-83.22405424788953
 31
0.0
  0
SPLINE
  5
2791
330
26
100
AcDbEntity
  8
0
  6
Continuous
100
AcDbSpline
210
0.0
220
0.0
230
1.0
 70
     8
 71
     3
 72
    13
 73
     9
 74
     7
 42
0.0000000001
 43
0.0000000001
 44
0.0000000001
 40
0.0
 40
0.0
 40
0.0
 40
0.0
 40
0.5052744943170011
 40
1.024002674400046
 40
1.540542782538875
 40
2.056536367572282
 40
2.586006396388165
 40
3.153856685399213
 40
3.153856685399213
 40
3.153856685399213
 40
3.153856685399213
 10
543.9649048547738
 20
-83.22404999748952
 30
0.0
 10
543.8228277472763
 20
-83.31631574673666
 30
0.0
 10
543.5348905177407
 20
-83.50330395818855
 30
0.0
 10
543.2140668083022
 20
-83.91558141703561
 30
0.0
 10
542.9998257281384
 20
-84.39135656332364
 30
0.0
 10
542.9177885779226
 20
-84.91115056982167
 30
0.0
 10
542.9646391847257
 20
-85.45394177735653
 30
0.0
 10
543.0956597566695
 20
-85.79701983094603
 30
0.0
 10
543.1634613533738
 20
-85.97455866688951
 30
0.0
 11
543.9649048547738
 21
-83.22404999748952
 31
0.0
 11
543.5568573628739
 21
-83.52204254598951
 31
0.0
 11
543.2318429573738
 21
-83.92632531958952
 31
0.0
 11
543.021866549374
 21
-84.39826132308951
 31
0.0
 11
542.9392674546739
 21
-84.9076008653895
 31
0.0
 11
542.9866095203737
 21
-85.4349501236895
 31
0.0
 11
543.1634613533738
 21
-85.97455866688951
 31
0.0
  0
SPLINE
  5
2792
330
26
100
AcDbEntity
  8
0
  6
Continuous
100
AcDbSpline
210
0.0
220
0.0
230
1.0
 70
     8
 71
     3
 72
     9
 73
     5
 74
     3
 42
0.0000000001
 43
0.0000000001
 44
0.0000000001
 40
0.0
 40
0.0
 40
0.0
 40
0.0
 40
0.2489939033535876
 40
0.5195398130552724
 40
0.5195398130552724
 40
0.5195398130552724
 40
0.5195398130552724
 10
544.4062240811738
 20
-82.95052216858952
 30
0.0
 10
544.3333599522221
 20
-82.99039522171199
 30
0.0
 10
544.1813248404217
 20
-83.07359259436323
 30
0.0
 10
544.0390127976619
 20
-83.17252940893241
 30
0.0
 10
543.9649050197738
 20
-83.22404990808951
 30
0.0
 11
544.4062240811738
 21
-82.95052216858952
 31
0.0
 11
544.1898649740737
 21
-83.0737565009895
 31
0.0
 11
543.9649050197738
 21
-83.22404990808951
 31
0.0
  0
SPLINE
  5
2793
330
26
100
AcDbEntity
  8
0
  6
Continuous
100
AcDbSpline
210
0.0
220
0.0
230
1.0
 70
     8
 71
     3
 72
     9
 73
     5
 74
     3
 42
0.0000000001
 43
0.0000000001
 44
0.0000000001
 40
0.0
 40
0.0
 40
0.0
 40
0.0
 40
0.3694318581226621
 40
0.7696030221690707
 40
0.7696030221690707
 40
0.7696030221690707
 40
0.7696030221690707
 10
541.5396928519737
 20
-81.46504284068951
 30
0.0
 10
541.4563767263838
 20
-81.55577823355533
 30
0.0
 10
541.2828119927542
 20
-81.74479883649434
 30
0.0
 10
541.1230465319295
 20
-81.94562934912807
 30
0.0
 10
541.0399731439738
 20
-82.05005536838951
 30
0.0
 11
541.5396928519737
 21
-81.46504284068951
 31
0.0
 11
541.2929242133738
 21
-81.73997035258952
 31
0.0
 11
541.0399731439738
 21
-82.05005536838951
 31
0.0
  0
SPLINE
  5
2794
330
26
100
AcDbEntity
  8
0
  6
Continuous
100
AcDbSpline
210
0.0
220
0.0
230
1.0
 70
     8
 71
     3
 72
    12
 73
     8
 74
     0
 42
0.0000000001
 43
0.0000000001
 40
0.0
 40
0.0
 40
0.0
 40
0.0
 40
2.333459971852235
 40
4.460973199249869
 40
6.399515126944841
 40
8.209322613615145
 40
9.312074803030823
 40
9.312074803030823
 40
9.312074803030823
 40
9.312074803030823
 10
567.6151154359739
 20
-110.8578857912895
 30
0.0
 10
566.8456392245826
 20
-110.7442892780641
 30
0.0
 10
565.3745993105136
 20
-110.5271220640815
 30
0.0
 10
563.2628300664723
 20
-110.2252133095597
 30
0.0
 10
561.3167114448841
 20
-110.0006292071387
 30
0.0
 10
559.7027881725877
 20
-109.8883858798569
 30
0.0
 10
558.7317549534716
 20
-109.8694232230172
 30
0.0
 10
558.3641089580736
 20
-109.8693745025152
 30
0.0
  0
SPLINE
  5
2795
330
26
100
AcDbEntity
  8
0
  6
Continuous
100
AcDbSpline
210
0.0
220
0.0
230
1.0
 70
     8
 71
     3
 72
    11
 73
     7
 74
     5
 42
0.0000000001
 43
0.0000000001
 44
0.0000000001
 40
0.0
 40
0.0
 40
0.0
 40
0.0
 40
0.7710245983384904
 40
1.653989256712018
 40
2.608132790398327
 40
3.585876609881631
 40
3.585876609881631
 40
3.585876609881631
 40
3.585876609881631
 10
567.6151154364738
 20
-110.8578791458895
 30
0.0
 10
567.4526564809916
 20
-111.0575956860726
 30
0.0
 10
567.1041522081014
 20
-111.4860243154086
 30
0.0
 10
566.6812731242513
 20
-112.2495665991276
 30
0.0
 10
566.2947691182098
 20
-113.1060191544213
 30
0.0
 10
566.1031999616898
 20
-113.7214810861247
 30
0.0
 10
566.0062452616739
 20
-114.0329713491895
 30
0.0
 11
567.6151154364738
 21
-110.8578791458895
 31
0.0
 11
567.1451944572738
 21
-111.4691509385895
 31
0.0
 11
566.7033511730737
 21
-112.2336122522895
 31
0.0
 11
566.3159862568739
 21
-113.1055860503895
 31
0.0
 11
566.0062452616739
 21
-114.0329713491895
 31
0.0
  0
SPLINE
  5
2796
330
26
100
AcDbEntity
  8
0
  6
Continuous
100
AcDbSpline
210
0.0
220
0.0
230
1.0
 70
     8
 71
     3
 72
    12
 73
     8
 74
     0
 42
0.0000000001
 43
0.0000000001
 40
0.0
 40
0.0
 40
0.0
 40
0.0
 40
2.064790718926031
 40
3.934670730982695
 40
5.60366697121246
 40
7.121512519800242
 40
8.032994977626901
 40
8.032994977626901
 40
8.032994977626901
 40
8.032994977626901
 10
566.0062447441737
 20
-114.0329713491895
 30
0.0
 10
565.3709951904139
 20
-113.7681380521544
 30
0.0
 10
564.1604619372668
 20
-113.2634710111403
 30
0.0
 10
562.4282554010724
 20
-112.563617674213
 30
0.0
 10
560.8242433641342
 20
-112.0382797519674
 30
0.0
 10
559.4793524735615
 20
-111.7712962636485
 30
0.0
 10
558.6683453395926
 20
-111.7267037121291
 30
0.0
 10
558.3641089580735
 20
-111.726554122038
 30
0.0
  0
SPLINE
  5
2797
330
26
100
AcDbEntity
  8
0
  6
Continuous
100
AcDbSpline
210
0.0
220
0.0
230
1.0
 70
     8
 71
     3
 72
    14
 73
    10
 74
     8
 42
0.0000000001
 43
0.0000000001
 44
0.0000000001
 40
0.0
 40
0.0
 40
0.0
 40
0.0
 40
0.2802163993775677
 40
0.5894220587660959
 40
0.9312922822041687
 40
1.304073571197875
 40
1.703541016742183
 40
2.125288408567891
 40
2.564172266714112
 40
2.564172266714112
 40
2.564172266714112
 40
2.564172266714112
 10
569.9691599386738
 20
-110.3000017355895
 30
0.0
 10
569.9043654099044
 20
-110.3674705161161
 30
0.0
 10
569.7680731563859
 20
-110.5093879328295
 30
0.0
 10
569.5152988256534
 20
-110.6925729309915
 30
0.0
 10
569.2103271781928
 20
-110.8487905071728
 30
0.0
 10
568.8527340630037
 20
-110.9572241446737
 30
0.0
 10
568.4554121599847
 20
-111.0011889481828
 30
0.0
 10
568.0328554041265
 20
-110.9764794333618
 30
0.0
 10
567.7561987342224
 20
-110.8979384325779
 30
0.0
 10
567.6151160734739
 20
-110.8578859972895
 30
0.0
 11
569.9691599386738
 21
-110.3000017355895
 31
0.0
 11
569.7694219649738
 21
-110.4965366493895
 31
0.0
 11
569.5202818014739
 21
-110.6796686201895
 31
0.0
 11
569.2157567848738
 21
-110.8350383853895
 31
0.0
 11
568.8591756966738
 21
-110.9437389693895
 31
0.0
 11
568.4623268398738
 21
-110.9894032322895
 31
0.0
 11
568.0414701967738
 21
-110.9620070925895
 31
0.0
 11
567.6151160734739
 21
-110.8578859972895
 31
0.0
  0
SPLINE
  5
2798
330
26
100
AcDbEntity
  8
0
  6
Continuous
100
AcDbSpline
210
0.0
220
0.0
230
1.0
 70
     8
 71
     3
 72
    11
 73
     7
 74
     5
 42
0.0000000001
 43
0.0000000001
 44
0.0000000001
 40
0.0
 40
0.0
 40
0.0
 40
0.0
 40
0.4960393146267671
 40
1.087181905178424
 40
1.788706739138514
 40
2.591022962771775
 40
2.591022962771775
 40
2.591022962771775
 40
2.591022962771775
 10
569.9691603354738
 20
-110.3000013389895
 30
0.0
 10
569.919487468625
 20
-110.4596926261466
 30
0.0
 10
569.8106181906785
 20
-110.8096920570231
 30
0.0
 10
569.9065997519915
 20
-111.4142897159066
 30
0.0
 10
570.1409368016728
 20
-112.0733789073153
 30
0.0
 10
570.4036116588187
 20
-112.5023695548289
 30
0.0
 10
570.543751667874
 20
-112.7312409202895
 30
0.0
 11
569.9691603354738
 21
-110.3000013389895
 31
0.0
 11
569.8549500270738
 21
-110.7827134758895
 31
0.0
 11
569.9164090567737
 21
-111.3706525458895
 31
0.0
 11
570.1502184298738
 21
-112.0320678992895
 31
0.0
 11
570.543751667874
 21
-112.7312409202895
 31
0.0
  0
SPLINE
  5
2799
330
26
100
AcDbEntity
  8
0
  6
Continuous
100
AcDbSpline
210
0.0
220
0.0
230
1.0
 70
     8
 71
     3
 72
    14
 73
    10
 74
     8
 42
0.0000000001
 43
0.0000000001
 44
0.0000000001
 40
0.0
 40
0.0
 40
0.0
 40
0.0
 40
0.5990623328043145
 40
1.242006402178573
 40
1.931687298952036
 40
2.663940032213782
 40
3.435967865388404
 40
4.249679959506333
 40
5.107134615403556
 40
5.107134615403556
 40
5.107134615403556
 40
5.107134615403556
 10
570.5437515364738
 20
-112.7312409202895
 30
0.0
 10
570.41959682663
 20
-112.8880067272056
 30
0.0
 10
570.1621929872587
 20
-113.2130215464832
 30
0.0
 10
569.6766534421518
 20
-113.6415980929192
 30
0.0
 10
569.0895956988684
 20
-114.0075587713191
 30
0.0
 10
568.3979983352615
 20
-114.2633803056638
 30
0.0
 10
567.6272601844293
 20
-114.3677099482492
 30
0.0
 10
566.8059478250908
 20
-114.3085130063376
 30
0.0
 10
566.2774237860281
 20
-114.1264074311046
 30
0.0
 10
566.0062447441737
 20
-114.0329713491895
 30
0.0
 11
570.5437515364738
 21
-112.7312409202895
 31
0.0
 11
570.1585428358739
 21
-113.1900327418895
 31
0.0
 11
569.6781796147739
 21
-113.6173830105895
 31
0.0
 11
569.0913554433737
 21
-113.9797324706895
 31
0.0
 11
568.404379043574
 21
-114.2332230848895
 31
0.0
 11
567.6397442946739
 21
-114.3398095566895
 31
0.0
 11
566.8285380899738
 21
-114.2759983854895
 31
0.0
 11
566.0062447441737
 21
-114.0329713491895
 31
0.0
  0
SPLINE
  5
279A
330
26
100
AcDbEntity
  8
0
  6
Continuous
100
AcDbSpline
210
0.0
220
0.0
230
1.0
 70
     8
 71
     3
 72
    13
 73
     9
 74
     7
 42
0.0000000001
 43
0.0000000001
 44
0.0000000001
 40
0.0
 40
0.0
 40
0.0
 40
0.0
 40
0.2799864716436316
 40
0.5708346105325134
 40
0.8777819343623675
 40
1.203764766145345
 40
1.551103042943223
 40
1.924989140052403
 40
1.924989140052403
 40
1.924989140052403
 40
1.924989140052403
 10
570.7099143240738
 20
-108.5827864165895
 30
0.0
 10
570.7077967585768
 20
-108.6761988010608
 30
0.0
 10
570.7034794797147
 20
-108.8666473673631
 30
0.0
 10
570.6523854627527
 20
-109.1558784067013
 30
0.0
 10
570.5611913908881
 20
-109.4509351983872
 30
0.0
 10
570.4193567951083
 20
-109.7464147709628
 30
0.0
 10
570.225154842203
 20
-110.038776226177
 30
0.0
 10
570.056560441173
 20
-110.2108154048226
 30
0.0
 10
569.9691603131737
 20
-110.3000013216895
 30
0.0
 11
570.7099143240738
 21
-108.5827864165895
 31
0.0
 11
570.6966065758738
 21
-108.8624564509895
 31
0.0
 11
570.6475900234738
 21
-109.1491444651895
 31
0.0
 11
570.5562274053739
 21
-109.4421794999895
 31
0.0
 11
570.4160142086739
 21
-109.7364668868895
 31
0.0
 11
570.2219962929738
 21
-110.0245657013895
 31
0.0
 11
569.9691603131737
 21
-110.3000013216895
 31
0.0
  0
SPLINE
  5
279B
330
26
100
AcDbEntity
  8
0
  6
Continuous
100
AcDbSpline
210
0.0
220
0.0
230
1.0
 70
     8
 71
     3
 72
    13
 73
     9
 74
     7
 42
0.0000000001
 43
0.0000000001
 44
0.0000000001
 40
0.0
 40
0.0
 40
0.0
 40
0.0
 40
0.6507590671390608
 40
1.331890182585127
 40
2.05115514498622
 40
2.808250959894473
 40
3.598175749560799
 40
4.422221011093793
 40
4.422221011093793
 40
4.422221011093793
 40
4.422221011093793
 10
571.8545915236738
 20
-108.5827864165895
 30
0.0
 10
571.8492717075619
 20
-108.7997736333801
 30
0.0
 10
571.8383837903433
 20
-109.2438752347001
 30
0.0
 10
571.7460851945634
 20
-109.9227036193563
 30
0.0
 10
571.5854806574522
 20
-110.6248817862299
 30
0.0
 10
571.3374894017591
 20
-111.3396836467661
 30
0.0
 10
571.0009851519809
 20
-112.058032452045
 30
0.0
 10
570.6982957644384
 20
-112.5036975388416
 30
0.0
 10
570.5437515364738
 20
-112.7312409202895
 30
0.0
 11
571.8545915236738
 21
-108.5827864165895
 31
0.0
 11
571.8269236672738
 21
-109.2329570504895
 31
0.0
 11
571.7380472511738
 21
-109.9082648166895
 31
0.0
 11
571.5760371372739
 21
-110.6090463868895
 31
0.0
 11
571.3290419558738
 21
-111.3247191146895
 31
0.0
 11
570.9881894161737
 21
-112.0373204895895
 31
0.0
 11
570.5437515364738
 21
-112.7312409202895
 31
0.0
  0
SPLINE
  5
279C
330
26
100
AcDbEntity
  8
0
  6
Continuous
100
AcDbSpline
210
0.0
220
0.0
230
1.0
 70
     8
 71
     3
 72
    12
 73
     8
 74
     6
 42
0.0000000001
 43
0.0000000001
 44
0.0000000001
 40
0.0
 40
0.0
 40
0.0
 40
0.0
 40
1.687115126178651
 40
3.546948752589711
 40
5.52723109410927
 40
7.593819457772003
 40
9.680612866896698
 40
9.680612866896698
 40
9.680612866896698
 40
9.680612866896698
 10
571.0260882775737
 20
-85.55216991958952
 30
0.0
 10
570.9871420110765
 20
-86.11320729992778
 30
0.0
 10
570.9052623519901
 20
-87.29271829207582
 30
0.0
 10
570.8207322762407
 20
-89.1333382638598
 30
0.0
 10
570.7569162625634
 20
-91.10122856072681
 30
0.0
 10
570.7173361826324
 20
-93.14549622245581
 30
0.0
 10
570.7123962873314
 20
-94.52996382099691
 30
0.0
 10
570.7099143240738
 20
-95.22556514488952
 30
0.0
 11
571.0260882775737
 21
-85.55216991958952
 31
0.0
 11
570.9155017233738
 21
-87.23565679598951
 31
0.0
 11
570.8266181579737
 21
-89.0933652848895
 31
0.0
 11
570.7620650080739
 21
-91.07259519648952
 31
0.0
 11
570.7228789107739
 21
-93.1388120085895
 31
0.0
 11
570.7099143240738
 21
-95.22556514488952
 31
0.0
  0
SPLINE
  5
279D
330
26
100
AcDbEntity
  8
0
  6
Continuous
100
AcDbSpline
210
0.0
220
0.0
230
1.0
 70
     8
 71
     3
 72
    10
 73
     6
 74
     4
 42
0.0000000001
 43
0.0000000001
 44
0.0000000001
 40
0.0
 40
0.0
 40
0.0
 40
0.0
 40
0.6255705304976472
 40
1.305785936462193
 40
2.057338644702285
 40
2.057338644702285
 40
2.057338644702285
 40
2.057338644702285
 10
571.0260927230738
 20
-85.55216991958952
 30
0.0
 10
571.069199566576
 20
-85.75776260819963
 30
0.0
 10
571.1591787252265
 20
-86.18690693060401
 30
0.0
 10
571.5552180989052
 20
-86.76876970085161
 30
0.0
 10
571.9228137197716
 20
-87.07418749410937
 30
0.0
 10
572.1157691862738
 20
-87.23450505348949
 30
0.0
 11
571.0260927230738
 21
-85.55216991958952
 31
0.0
 11
571.1924534813738
 21
-86.15521435138949
 31
0.0
 11
571.5622460542738
 21
-86.72613155338949
 31
0.0
 11
572.1157691862738
 21
-87.23450505348949
 31
0.0
  0
SPLINE
  5
279E
330
26
100
AcDbEntity
  8
0
  6
Continuous
100
AcDbSpline
210
0.0
220
0.0
230
1.0
 70
     8
 71
     3
 72
    12
 73
     8
 74
     6
 42
0.0000000001
 43
0.0000000001
 44
0.0000000001
 40
0.0
 40
0.0
 40
0.0
 40
0.0
 40
1.394600502319059
 40
2.930742620922107
 40
4.566259986490399
 40
6.272984673842451
 40
7.997028015011407
 40
7.997028015011407
 40
7.997028015011407
 40
7.997028015011407
 10
572.1157787026738
 20
-87.23449952398951
 30
0.0
 10
572.0835854997972
 20
-87.69826344155818
 30
0.0
 10
572.0159317225201
 20
-88.67285987760145
 30
0.0
 10
571.946119924512
 20
-90.19346840281074
 30
0.0
 10
571.8934122569059
 20
-91.81876122777383
 30
0.0
 10
571.8607227554138
 20
-93.50728599958327
 30
0.0
 10
571.8566421339672
 20
-94.65088112518836
 30
0.0
 10
571.8545915236738
 20
-95.22556514488952
 30
0.0
 11
572.1157787026738
 21
-87.23449952398951
 31
0.0
 11
572.0243724125739
 21
-88.62610128138951
 31
0.0
 11
571.9509755698738
 21
-90.1604889481895
 31
0.0
 11
571.8976646415738
 21
-91.7951372277895
 31
0.0
 11
571.8653030260738
 21
-93.5015550793895
 31
0.0
 11
571.8545915236738
 21
-95.22556514488952
 31
0.0
  0
SPLINE
  5
279F
330
26
100
AcDbEntity
  8
0
  6
Continuous
100
AcDbSpline
210
0.0
220
0.0
230
1.0
 70
     8
 71
     3
 72
    26
 73
    22
 74
    20
 42
0.0000000001
 43
0.0000000001
 44
0.0000000001
 40
0.0
 40
0.0
 40
0.0
 40
0.0
 40
0.3641939612337737
 40
0.6908664897612451
 40
0.9886606210763553
 40
1.267044249594047
 40
1.533482448846902
 40
1.789952832313045
 40
2.033569660158593
 40
2.262302234239586
 40
2.479193052105897
 40
2.692251961037179
 40
2.911195835909977
 40
3.141985456313066
 40
3.385131843084189
 40
3.638328656465868
 40
3.901724437600588
 40
4.17937717742517
 40
4.47752592658187
 40
4.802945746323989
 40
5.161527971243279
 40
5.161527971243279
 40
5.161527971243279
 40
5.161527971243279
 10
568.0375041832737
 20
-82.56358582528951
 30
0.0
 10
568.1577466697231
 20
-82.54631473230333
 30
0.0
 10
568.3858435449486
 20
-82.51355191727672
 30
0.0
 10
568.7157918178206
 20
-82.50217015943386
 30
0.0
 10
569.0167284236118
 20
-82.51575965309132
 30
0.0
 10
569.2954795400112
 20
-82.55331822705001
 30
0.0
 10
569.5561532705806
 20
-82.61338359717396
 30
0.0
 10
569.7985267361072
 20
-82.69574924363107
 30
0.0
 10
570.0191057555716
 20
-82.79878644245238
 30
0.0
 10
570.2151385522407
 20
-82.9195986281141
 30
0.0
 10
570.3876302302688
 20
-83.05625815704622
 30
0.0
 10
570.5405061397107
 20
-83.20997800508283
 30
0.0
 10
570.676989453412
 20
-83.38436645032304
 30
0.0
 10
570.7971314050926
 20
-83.58224062404678
 30
0.0
 10
570.8985224253805
 20
-83.80295134577786
 30
0.0
 10
570.9789873710864
 20
-84.04355464094991
 30
0.0
 10
571.0377116390536
 20
-84.30210912633481
 30
0.0
 10
571.0745068256124
 20
-84.57980698657217
 30
0.0
 10
571.0874970225747
 20
-84.88022646602413
 30
0.0
 10
571.0756494212938
 20
-85.20797456687092
 30
0.0
 10
571.0431341372737
 20
-85.4337887594418
 30
0.0
 10
571.0260882775737
 20
-85.55216991958952
 30
0.0
 11
568.0375041832737
 21
-82.56358582528951
 31
0.0
 11
568.398917423574
 21
-82.5186668856895
 31
0.0
 11
568.7253586973739
 21
-82.50637722928951
 31
0.0
 11
569.0228132004738
 21
-82.52059564098951
 31
0.0
 11
569.2986489947738
 21
-82.55817301728951
 31
0.0
 11
569.5581579675738
 21
-82.6185419418895
 31
0.0
 11
569.8008093812738
 21
-82.7015922219895
 31
0.0
 11
570.0213195096738
 21
-82.80515110418951
 31
0.0
 11
570.2158596851738
 21
-82.92545368338952
 31
0.0
 11
570.3857584560738
 21
-83.06027220778952
 31
0.0
 11
570.5360016791738
 21
-83.21133865868949
 31
0.0
 11
570.6710831963737
 21
-83.38364479338952
 31
0.0
 11
570.7911726646739
 21
-83.58072946678951
 31
0.0
 11
570.8931274092738
 21
-83.80146776308951
 31
0.0
 11
570.9739392294738
 21
-84.04142208378951
 31
0.0
 11
571.0327989601738
 21
-84.29815710208951
 31
0.0
 11
571.0696677075739
 21
-84.5733511052895
 31
0.0
 11
571.0833295280738
 21
-84.87118668288952
 31
0.0
 11
571.0705573413738
 21
-85.19635576248949
 31
0.0
 11
571.0260882775737
 21
-85.55216991958952
 31
0.0
  0
SPLINE
  5
27A0
330
26
100
AcDbEntity
  8
0
  6
Continuous
100
AcDbSpline
210
0.0
220
0.0
230
1.0
 70
     8
 71
     3
 72
    10
 73
     6
 74
     4
 42
0.0000000001
 43
0.0000000001
 44
0.0000000001
 40
0.0
 40
0.0
 40
0.0
 40
0.0
 40
0.6255711853129283
 40
1.305787021179981
 40
2.057339205188352
 40
2.057339205188352
 40
2.057339205188352
 40
2.057339205188352
 10
568.0375041832737
 20
-82.56358356608951
 30
0.0
 10
567.8319116147984
 20
-82.52047525203729
 30
0.0
 10
567.4027676358735
 20
-82.43049304327205
 30
0.0
 10
566.8209061281481
 20
-82.03445202355425
 30
0.0
 10
566.515488821672
 20
-81.66685603278049
 30
0.0
 10
566.3551716190738
 20
-81.4739004939895
 30
0.0
 11
568.0375041832737
 21
-82.56358356608951
 31
0.0
 11
567.4344601755738
 21
-82.39721880818951
 31
0.0
 11
566.8635438684737
 21
-82.02742406288951
 31
0.0
 11
566.3551716190738
 21
-81.4739004939895
 31
0.0
  0
SPLINE
  5
27A1
330
26
100
AcDbEntity
  8
0
  6
Continuous
100
AcDbSpline
210
0.0
220
0.0
230
1.0
 70
     8
 71
     3
 72
    26
 73
    22
 74
    20
 42
0.0000000001
 43
0.0000000001
 44
0.0000000001
 40
0.0
 40
0.0
 40
0.0
 40
0.0
 40
0.6279009277315359
 40
1.198384715853284
 40
1.725440758931906
 40
2.225450605308025
 40
2.711690244555666
 40
3.187511613049742
 40
3.646412481971817
 40
4.082582999806657
 40
4.499517027362446
 40
4.91031993170952
 40
5.331034624984757
 40
5.770837131286325
 40
6.228527390299891
 40
6.697922530602607
 40
7.178321656190525
 40
7.676809371330032
 40
8.204293355907812
 40
8.772401998195459
 40
9.391054923595469
 40
9.391054923595469
 40
9.391054923595469
 40
9.391054923595469
 10
566.3551745788737
 20
-81.47389540028951
 30
0.0
 10
566.5643807525687
 20
-81.46357915827048
 30
0.0
 10
566.9636626614582
 20
-81.44389002227044
 30
0.0
 10
567.5386652765467
 20
-81.4829887385429
 30
0.0
 10
568.0657120284443
 20
-81.56263600052756
 30
0.0
 10
568.556541495311
 20
-81.6819395150452
 30
0.0
 10
569.0188198088395
 20
-81.83823901801745
 30
0.0
 10
569.4525159642262
 20
-82.03033677971942
 30
0.0
 10
569.8518623779562
 20
-82.25384316307304
 30
0.0
 10
570.2123344134544
 20
-82.50259331913819
 30
0.0
 10
570.5359848496283
 20
-82.77321931143425
 30
0.0
 10
570.8300332997035
 20
-83.06849838194506
 30
0.0
 10
571.1007768475331
 20
-83.39528310322919
 30
0.0
 10
571.3488208162565
 20
-83.7587616569763
 30
0.0
 10
571.569579220882
 20
-84.1580983611945
 30
0.0
 10
571.7580379128797
 20
-84.58845649288594
 30
0.0
 10
571.9115534196963
 20
-85.04679748785075
 30
0.0
 10
572.0292951517437
 20
-85.5356176989029
 30
0.0
 10
572.1077829868374
 20
-86.06167030401731
 30
0.0
 10
572.1456645499023
 20
-86.63299101630511
 30
0.0
 10
572.1260195459188
 20
-87.02838342192172
 30
0.0
 10
572.1157787026738
 20
-87.23449952398951
 30
0.0
 11
566.3551745788737
 21
-81.47389540028951
 31
0.0
 11
566.9828149080737
 21
-81.45580694518954
 31
0.0
 11
567.5521470835738
 21
-81.49203713218952
 31
0.0
 11
568.0731291721738
 21
-81.57182269418951
 31
0.0
 11
568.5589387048738
 21
-81.6901398290895
 31
0.0
 11
569.0194185885738
 21
-81.84630404868952
 31
0.0
 11
569.4543112774738
 21
-82.03936964338951
 31
0.0
 11
569.8545887988739
 21
-82.26379761258951
 31
0.0
 11
570.213454464074
 21
-82.5117091995895
 31
0.0
 11
570.5332410577739
 21
-82.77923586708951
 31
0.0
 11
570.8231185307739
 21
-83.07032017938951
 31
0.0
 11
571.0916117636738
 21
-83.39422176478951
 31
0.0
 11
571.3397085021738
 21
-83.7573667122895
 31
0.0
 11
571.5614508967738
 21
-84.1577548784895
 31
0.0
 11
571.7500925006739
 21
-84.58757593778952
 31
0.0
 11
571.9030734541738
 21
-85.04296604278952
 31
0.0
 11
572.0200229957738
 21
-85.52754091508949
 31
0.0
 11
572.098890470174
 21
-86.0490955866895
 31
0.0
 11
572.1340360799738
 21
-86.61611605858951
 31
0.0
 11
572.1157787026738
 21
-87.23449952398951
 31
0.0
  0
SPLINE
  5
27A2
330
26
100
AcDbEntity
  8
0
  6
Continuous
100
AcDbSpline
210
0.0
220
0.0
230
1.0
 70
     8
 71
     3
 72
    13
 73
     9
 74
     7
 42
0.0000000001
 43
0.0000000001
 44
0.0000000001
 40
0.0
 40
0.0
 40
0.0
 40
0.0
 40
1.325557972707223
 40
2.830824090009894
 40
4.477150834608445
 40
6.213451101862779
 40
7.974496968634179
 40
9.680631913638997
 40
9.680631913638997
 40
9.680631913638997
 40
9.680631913638997
 10
558.3641089580736
 20
-82.87975977878952
 30
0.0
 10
558.8059628309177
 20
-82.87875221272365
 30
0.0
 10
559.749573456228
 20
-82.87660048314996
 30
0.0
 10
561.2418608664929
 20
-82.85738065643616
 30
0.0
 10
562.8707978300377
 20
-82.82153338052288
 30
0.0
 10
564.5843798942003
 20
-82.76301960507979
 30
0.0
 10
566.3171517932694
 20
-82.6829660898502
 30
0.0
 10
567.4701401428201
 20
-82.60295686906234
 30
0.0
 10
568.0375041832737
 20
-82.56358582528951
 30
0.0
 11
558.3641089580736
 21
-82.87975977878952
 31
0.0
 11
559.6896566703738
 21
-82.8745442803895
 31
0.0
 11
561.1948060753738
 21
-82.85579988048951
 31
0.0
 11
562.8407204624738
 21
-82.81895452368951
 31
0.0
 11
564.5760143128739
 21
-82.75984554948951
 31
0.0
 11
566.3350267325739
 21
-82.67524145848952
 31
0.0
 11
568.0375041832737
 21
-82.56358582528951
 31
0.0
  0
SPLINE
  5
27A3
330
26
100
AcDbEntity
  8
0
  6
Continuous
100
AcDbSpline
210
0.0
220
0.0
230
1.0
 70
     8
 71
     3
 72
    13
 73
     9
 74
     7
 42
0.0000000001
 43
0.0000000001
 44
0.0000000001
 40
0.0
 40
0.0
 40
0.0
 40
0.0
 40
1.095581262579495
 40
2.338651414421557
 40
3.697973939588486
 40
5.131515874099638
 40
6.585573263533743
 40
7.997043744015777
 40
7.997043744015777
 40
7.997043744015777
 40
7.997043744015777
 10
558.3641089580736
 20
-81.73508257918951
 30
0.0
 10
558.7293037190304
 20
-81.73424948867785
 30
0.0
 10
559.5088563395636
 20
-81.73247115568695
 30
0.0
 10
560.7414347928619
 20
-81.71659235708317
 30
0.0
 10
562.0864485352624
 20
-81.68699684961879
 30
0.0
 10
563.5012838163975
 20
-81.63869079748704
 30
0.0
 10
564.9328860331764
 20
-81.57258475589457
 30
0.0
 10
565.8857990653685
 20
-81.50646429575363
 30
0.0
 10
566.3551745788737
 20
-81.47389540028951
 30
0.0
 11
558.3641089580736
 21
-81.73508257918951
 31
0.0
 11
559.4596817317738
 21
-81.73076975618952
 31
0.0
 11
560.702655459274
 21
-81.71528701918949
 31
0.0
 11
562.061637567374
 21
-81.6848673332895
 31
0.0
 11
563.4943489315737
 21
-81.63607568548952
 31
0.0
 11
564.9467288106738
 21
-81.56625034228952
 31
0.0
 11
566.3551745788737
 21
-81.47389540028951
 31
0.0
  0
SPLINE
  5
27A4
330
26
100
AcDbEntity
  8
0
  6
Continuous
100
AcDbSpline
210
0.0
220
0.0
230
1.0
 70
     8
 71
     3
 72
     9
 73
     5
 74
     3
 42
0.0000000001
 43
0.0000000001
 44
0.0000000001
 40
0.0
 40
0.0
 40
0.0
 40
0.0
 40
0.3042724276948344
 40
0.6060921860980846
 40
0.6060921860980846
 40
0.6060921860980846
 40
0.6060921860980846
 10
544.4062240811738
 20
-82.95052216858952
 30
0.0
 10
544.5055900725249
 20
-82.92889917739127
 30
0.0
 10
544.7035210890751
 20
-82.88582749289921
 30
0.0
 10
544.9060386627217
 20
-82.88177688630501
 30
0.0
 10
545.0068876862737
 20
-82.87975977878952
 30
0.0
 11
544.4062240811738
 21
-82.95052216858952
 31
0.0
 11
544.7054779934737
 21
-82.8954875773895
 31
0.0
 11
545.0068876862737
 21
-82.87975977878952
 31
0.0
  0
SPLINE
  5
27A5
330
26
100
AcDbEntity
  8
0
  6
Continuous
100
AcDbSpline
210
0.0
220
0.0
230
1.0
 70
     8
 71
     3
 72
    10
 73
     6
 74
     4
 42
0.0000000001
 43
0.0000000001
 44
0.0000000001
 40
0.0
 40
0.0
 40
0.0
 40
0.0
 40
0.2901374450681621
 40
0.7489734919267261
 40
1.376301289551581
 40
1.376301289551581
 40
1.376301289551581
 40
1.376301289551581
 10
544.4064026574737
 20
-82.9504832117895
 30
0.0
 10
544.3214028973591
 20
-82.90202750092493
 30
0.0
 10
544.1019807985297
 20
-82.77694180934351
 30
0.0
 10
543.8533279163986
 20
-82.37431439970359
 30
0.0
 10
543.6927606481415
 20
-82.05252322525115
 30
0.0
 10
543.6000229720739
 20
-81.86666862348952
 30
0.0
 11
544.4064026574737
 21
-82.9504832117895
 31
0.0
 11
544.1640247483737
 21
-82.79100692448952
 31
0.0
 11
543.8901338248738
 21
-82.4228842819895
 31
0.0
 11
543.6000229720739
 21
-81.86666862348952
 31
0.0
  0
SPLINE
  5
27A6
330
26
100
AcDbEntity
  8
0
  6
Continuous
100
AcDbSpline
210
0.0
220
0.0
230
1.0
 70
     8
 71
     3
 72
    10
 73
     6
 74
     4
 42
0.0000000001
 43
0.0000000001
 44
0.0000000001
 40
0.0
 40
0.0
 40
0.0
 40
0.0
 40
0.4764545126821195
 40
0.9480645410751094
 40
1.414862337123594
 40
1.414862337123594
 40
1.414862337123594
 40
1.414862337123594
 10
543.6000229729739
 20
-81.86667393498951
 30
0.0
 10
543.7566228933997
 20
-81.84000565670236
 30
0.0
 10
544.0682304608358
 20
-81.78694025729364
 30
0.0
 10
544.5384716117593
 20
-81.74353956248669
 30
0.0
 10
544.8512837034624
 20
-81.73789191976343
 30
0.0
 10
545.0068876862737
 20
-81.73508257918951
 30
0.0
 11
543.6000229729739
 21
-81.86667393498951
 31
0.0
 11
544.0707040452739
 21
-81.79272644798951
 31
0.0
 11
544.5403045039737
 21
-81.74923589648952
 31
0.0
 11
545.0068876862737
 21
-81.73508257918951
 31
0.0
  0
SPLINE
  5
27A7
330
26
100
AcDbEntity
  8
0
  6
Continuous
100
AcDbSpline
210
0.0
220
0.0
230
1.0
 70
     8
 71
     3
 72
    11
 73
     7
 74
     5
 42
0.0000000001
 43
0.0000000001
 44
0.0000000001
 40
0.0
 40
0.0
 40
0.0
 40
0.0
 40
0.7591205070714785
 40
1.567856829709103
 40
2.438500888924831
 40
3.367499304815975
 40
3.367499304815975
 40
3.367499304815975
 40
3.367499304815975
 10
544.4064026574737
 20
-82.9504832117895
 30
0.0
 10
544.151250987541
 20
-82.95423796841317
 30
0.0
 10
543.6242710356239
 20
-82.96199289106568
 30
0.0
 10
542.8524394207432
 20
-82.65855006860559
 30
0.0
 10
542.1265787007399
 20
-82.16533055088777
 30
0.0
 10
541.7395151218111
 20
-81.7033681756655
 30
0.0
 10
541.5397079619737
 20
-81.46489730118952
 30
0.0
 11
544.4064026574737
 21
-82.9504832117895
 31
0.0
 11
543.6481501141738
 21
-82.91419237498951
 31
0.0
 11
542.8869268184737
 21
-82.64107420708952
 31
0.0
 11
542.1694388221737
 21
-82.1478885898895
 31
0.0
 11
541.5397079619737
 21
-81.46489730118952
 31
0.0
  0
LINE
  5
27B8
330
26
100
AcDbEntity
  8
0
  6
Continuous
100
AcDbLine
 10
506.7210308962737
 20
-65.25057149748955
 30
0.0
 11
506.2032904153738
 21
-65.31869045718952
 31
0.0
  0
LINE
  5
27B9
330
26
100
AcDbEntity
  8
0
  6
Continuous
100
AcDbLine
 10
506.2032904153738
 20
-65.31869045718952
 30
0.0
 11
505.7208214579739
 21
-65.51841817378954
 31
0.0
  0
LINE
  5
27BA
330
26
100
AcDbEntity
  8
0
  6
Continuous
100
AcDbLine
 10
505.7208214579739
 20
-65.51841817378954
 30
0.0
 11
505.3065842433738
 21
-65.83610260008948
 31
0.0
  0
LINE
  5
27BB
330
26
100
AcDbEntity
  8
0
  6
Continuous
100
AcDbLine
 10
505.3065842433738
 20
-65.83610260008948
 30
0.0
 11
504.9889800886737
 21
-66.24973795238952
 31
0.0
  0
LINE
  5
27BC
330
26
100
AcDbEntity
  8
0
  6
Continuous
100
AcDbLine
 10
506.7210308962737
 20
-81.2986421654895
 30
0.0
 11
506.2032904153738
 21
-81.33029149558951
 31
0.0
  0
LINE
  5
27BD
330
26
100
AcDbEntity
  8
0
  6
Continuous
100
AcDbLine
 10
506.2032904153738
 20
-81.33029149558951
 30
0.0
 11
505.7208214579739
 21
-81.42308848788952
 31
0.0
  0
LINE
  5
27BE
330
26
100
AcDbEntity
  8
0
  6
Continuous
100
AcDbLine
 10
505.7208214579739
 20
-81.42308848788952
 30
0.0
 11
505.3065842433738
 21
-81.57069069108951
 31
0.0
  0
LINE
  5
27BF
330
26
100
AcDbEntity
  8
0
  6
Continuous
100
AcDbLine
 10
505.3065842433738
 20
-81.57069069108951
 30
0.0
 11
504.9889800886737
 21
-81.7628729314895
 31
0.0
  0
LINE
  5
27C0
330
26
100
AcDbEntity
  8
0
  6
Continuous
100
AcDbLine
 10
506.7210308962737
 20
-79.17749447678952
 30
0.0
 11
506.2033928060738
 21
-79.21394945998952
 31
0.0
  0
LINE
  5
27C1
330
26
100
AcDbEntity
  8
0
  6
Continuous
100
AcDbLine
 10
506.2033928060738
 20
-79.21394945998952
 30
0.0
 11
505.7210308962737
 21
-79.32083006268951
 31
0.0
  0
LINE
  5
27C2
330
26
100
AcDbEntity
  8
0
  6
Continuous
100
AcDbLine
 10
505.7210308962737
 20
-79.32083006268951
 30
0.0
 11
505.3068173338738
 21
-79.49085254838951
 31
0.0
  0
LINE
  5
27C3
330
26
100
AcDbEntity
  8
0
  6
Continuous
100
AcDbLine
 10
505.3068173338738
 20
-79.49085254838951
 30
0.0
 11
504.9889800886737
 21
-79.7124301657895
 31
0.0
  0
LINE
  5
27CB
330
26
100
AcDbEntity
  8
0
  6
Continuous
100
AcDbLine
 10
570.6036995302738
 20
-108.4765716227895
 30
0.0
 11
570.5275631635738
 21
-109.1250991611895
 31
0.0
  0
LINE
  5
27CC
330
26
100
AcDbEntity
  8
0
  6
Continuous
100
AcDbLine
 10
570.5275631635738
 20
-109.1250991611895
 30
0.0
 11
570.3126349112737
 21
-109.7427213001895
 31
0.0
  0
LINE
  5
27CD
330
26
100
AcDbEntity
  8
0
  6
Continuous
100
AcDbLine
 10
570.3126349112737
 20
-109.7427213001895
 30
0.0
 11
569.9691603131737
 21
-110.3000013216895
 31
0.0
  0
LINE
  5
27CE
330
26
100
AcDbEntity
  8
0
  6
Continuous
100
AcDbLine
 10
543.9649050197738
 20
-83.22404990808951
 30
0.0
 11
544.5276572114738
 21
-83.04832181648951
 31
0.0
  0
LINE
  5
27CF
330
26
100
AcDbEntity
  8
0
  6
Continuous
100
AcDbLine
 10
544.5276572114738
 20
-83.04832181648951
 30
0.0
 11
545.1131024800739
 21
-82.98597457258948
 31
0.0
  0
LINE
  5
27D0
330
26
100
AcDbEntity
  8
0
  6
Continuous
100
AcDbLine
 10
541.5396928531739
 20
-81.46489091738951
 30
0.0
 11
542.1879550911738
 21
-81.68559769278951
 31
0.0
  0
LINE
  5
27D1
330
26
100
AcDbEntity
  8
0
  6
Continuous
100
AcDbLine
 10
542.1879550911738
 20
-81.68559769278951
 30
0.0
 11
542.8823429256738
 21
-81.8210305966895
 31
0.0
  0
LINE
  5
27D2
330
26
100
AcDbEntity
  8
0
  6
Continuous
100
AcDbLine
 10
542.8823429256738
 20
-81.8210305966895
 30
0.0
 11
543.6000229729739
 21
-81.86666862348952
 31
0.0
  0
LINE
  5
27D3
330
26
100
AcDbEntity
  8
0
  6
Continuous
100
AcDbLine
 10
567.6151154359739
 20
-82.98597457258948
 30
0.0
 11
568.2769948520737
 21
-83.06521238588951
 31
0.0
  0
LINE
  5
27D4
330
26
100
AcDbEntity
  8
0
  6
Continuous
100
AcDbLine
 10
568.2769948520737
 20
-83.06521238588951
 30
0.0
 11
568.9060037628738
 21
-83.2889352517895
 31
0.0
  0
LINE
  5
27D5
330
26
100
AcDbEntity
  8
0
  6
Continuous
100
AcDbLine
 10
568.9060037628738
 20
-83.2889352517895
 30
0.0
 11
569.4709040905738
 21
-83.64603256108948
 31
0.0
  0
LINE
  5
27D6
330
26
100
AcDbEntity
  8
0
  6
Continuous
100
AcDbLine
 10
569.4709040905738
 20
-83.64603256108948
 30
0.0
 11
569.9436415418738
 21
-84.11877001238952
 31
0.0
  0
LINE
  5
27D7
330
26
100
AcDbEntity
  8
0
  6
Continuous
100
AcDbLine
 10
569.9436415418738
 20
-84.11877001238952
 30
0.0
 11
570.3007388511736
 21
-84.6836703399895
 31
0.0
  0
LINE
  5
27D8
330
26
100
AcDbEntity
  8
0
  6
Continuous
100
AcDbLine
 10
570.3007388511736
 20
-84.6836703399895
 30
0.0
 11
570.5244617170738
 21
-85.3126792507895
 31
0.0
  0
LINE
  5
27D9
330
26
100
AcDbEntity
  8
0
  6
Continuous
100
AcDbLine
 10
570.5244617170738
 20
-85.3126792507895
 30
0.0
 11
570.6036995302738
 21
-85.97455866688951
 31
0.0
  0
LEADER
  5
3C1A
330
26
100
AcDbEntity
  8
0
  6
Continuous
100
AcDbLeader
  3
dimensionali
 76
     3
 10
4742.343203675238
 20
155.8380403142116
 30
0.0
 10
4757.902017335047
 20
136.8901693944412
 30
0.0
 10
4783.479369618905
 20
136.7947445882755
 30
0.0
  0
TEXT
  5
3C1B
330
26
100
AcDbEntity
  8
0
100
AcDbText
 10
4784.238716156438
 20
235.8641573906574
 30
0.0
 40
8.0
  1
Ex'
100
AcDbText
  0
ENDSEC
  0
SECTION
  2
OBJECTS
  0
DICTIONARY
  5
593
330
0
100
AcDbDictionary
281
     1
  3
ACAD_COLOR
350
618
  3
ACAD_GROUP
350
594
  3
ACAD_LAYOUT
350
619
  3
ACAD_MATERIAL
350
617
  3
ACAD_MLINESTYLE
350
595
  3
ACAD_PLOTSETTINGS
350
61A
  3
ACAD_PLOTSTYLENAME
350
615
  3
AcadDim
350
3268
  3
ACDBHEADERROUNDTRIPXREC
350
5F06
  3
AcDbVariableDictionary
350
5EFE
  0
DICTIONARY
  5
618
102
{ACAD_REACTORS
330
593
102
}
330
593
100
AcDbDictionary
281
     1
  0
DICTIONARY
  5
594
102
{ACAD_REACTORS
330
593
102
}
330
593
100
AcDbDictionary
281
     1
  0
DICTIONARY
  5
619
102
{ACAD_REACTORS
330
593
102
}
330
593
100
AcDbDictionary
281
     1
  3
Layout1
350
61C
  3
Model
350
61B
  0
DICTIONARY
  5
617
102
{ACAD_REACTORS
330
593
102
}
330
593
100
AcDbDictionary
281
     1
  0
DICTIONARY
  5
595
102
{ACAD_REACTORS
330
593
102
}
330
593
100
AcDbDictionary
281
     1
  3
STANDARD
350
596
  0
DICTIONARY
  5
61A
102
{ACAD_REACTORS
330
593
102
}
330
593
100
AcDbDictionary
281
     1
  0
ACDBDICTIONARYWDFLT
  5
615
102
{ACAD_REACTORS
330
593
102
}
330
593
100
AcDbDictionary
281
     1
  3
Normal
350
616
100
AcDbDictionaryWithDefault
340
616
  0
XRECORD
  5
3268
102
{ACAD_REACTORS
330
593
102
}
330
593
100
AcDbXrecord
280
     1
 90
   990106
  3

 60
     0
 61
     0
 62
     1
 63
     3
 64
     0
 65
     0
 66
     0
 67
     3
 68
     1
 69
     0
 70
     0
 71
     0
 72
     0
 40
25.0445657995416
170
     0
  0
DICTIONARY
  5
5F06
102
{ACAD_REACTORS
330
593
102
}
330
593
100
AcDbDictionary
281
     1
  3
COLORDICT
350
5F07
  3
MATERIALDICT
350
5F08
  0
DICTIONARY
  5
5EFE
102
{ACAD_REACTORS
330
593
102
}
330
593
100
AcDbDictionary
281
     1
  0
LAYOUT
  5
61C
102
{ACAD_REACTORS
330
619
102
}
330
619
100
AcDbPlotSettings
  1

  2
\\alderaan\HP LaserJet 4050 Ricerca
  4

  6

 40
0.0
 41
0.0
 42
0.0
 43
0.0
 44
0.0
 45
0.0
 46
0.0
 47
0.0
 48
0.0
 49
0.0
140
0.0
141
0.0
142
1.0
143
1.0
 70
   688
 72
     0
 73
     0
 74
     5
  7

 75
    16
147
1.0
148
0.0
149
0.0
100
AcDbLayout
  1
Layout1
 70
     0
 71
     1
 10
0.0
 20
0.0
 11
12.0
 21
9.0
 12
0.0
 22
0.0
 32
0.0
 14
1.000000000000000E+20
 24
1.000000000000000E+20
 34
1.000000000000000E+20
 15
-1.000000000000000E+20
 25
-1.000000000000000E+20
 35
-1.000000000000000E+20
146
0.0
 13
0.0
 23
0.0
 33
0.0
 16
1.0
 26
0.0
 36
0.0
 17
0.0
 27
1.0
 37
0.0
 76
     0
330
27
  0
LAYOUT
  5
61B
102
{ACAD_REACTORS
330
619
102
}
330
619
100
AcDbPlotSettings
  1

  2
\\alderaan\HP LaserJet 4050 Ricerca
  4
A4
  6

 40
5.027083396911621
 41
5.069430828094482
 42
5.365737915039062
 43
5.365753173828125
 44
209.8886566162109
 45
297.0530090332031
 46
0.254
 47
0.0
 48
259.215225634116
 49
-488.3976836719121
140
1317.037973125747
141
245.6809236204426
142
1.0
143
93.74398742770123
 70
 11956
 72
     0
 73
     1
 74
     4
  7

 75
     0
147
0.0106673508076583
148
-6584.066731106545
149
12405.30116526656
100
AcDbLayout
  1
Model
 70
     1
 71
     0
 10
0.0
 20
0.0
 11
12.0
 21
9.0
 12
0.0
 22
0.0
 32
0.0
 14
0.0
 24
0.0
 34
0.0
 15
0.0
 25
0.0
 35
0.0
146
0.0
 13
0.0
 23
0.0
 33
0.0
 16
1.0
 26
0.0
 36
0.0
 17
0.0
 27
1.0
 37
0.0
 76
     0
330
26
  0
MLINESTYLE
  5
596
102
{ACAD_REACTORS
330
595
102
}
330
595
100
AcDbMlineStyle
  2
STANDARD
 70
     0
  3

 62
     0
 51
90.00000000000019
 52
90.00000000000019
 71
     2
 49
0.5
 62
   256
  6
BYLAYER
 49
-0.5
 62
   256
  6
BYLAYER
  0
ACDBPLACEHOLDER
  5
616
102
{ACAD_REACTORS
330
615
102
}
330
615
  0
XRECORD
  5
5F07
102
{ACAD_REACTORS
330
5F06
102
}
330
5F06
100
AcDbXrecord
280
     1
340
618
  0
XRECORD
  5
5F08
102
{ACAD_REACTORS
330
5F06
102
}
330
5F06
100
AcDbXrecord
280
     1
340
617
  0
ENDSEC
  0
EOF
