  0
SECTION
  2
HEADER
  9
$ACADVER
  1
AC1015
  9
$ACADMAINTVER
 70
     6
  9
$DWGCODEPAGE
  3
ANSI_1252
  9
$INSBASE
 10
0.0
 20
0.0
 30
0.0
  9
$EXTMIN
 10
80.46286980856489
 20
-370.773169833776
 30
-18.8
  9
$EXTMAX
 10
1760.060663696097
 20
334.946701594559
 30
1.038894055499999
  9
$LIMMIN
 10
0.0
 20
0.0
  9
$LIMMAX
 10
420.0
 20
297.0
  9
$ORTHOMODE
 70
     0
  9
$REGENMODE
 70
     1
  9
$FILLMODE
 70
     1
  9
$QTEXTMODE
 70
     0
  9
$MIRRTEXT
 70
     1
  9
$LTSCALE
 40
23.1
  9
$ATTMODE
 70
     1
  9
$TEXTSIZE
 40
35.06651165617814
  9
$TRACEWID
 40
0.05
  9
$TEXTSTYLE
  7
STANDARD
  9
$CLAYER
  8
0
  9
$CELTYPE
  6
BYLAYER
  9
$CECOLOR
 62
   256
  9
$CELTSCALE
 40
1.0
  9
$DISPSILH
 70
     0
  9
$DIMSCALE
 40
1.0
  9
$DIMASZ
 40
0.18
  9
$DIMEXO
 40
0.0625
  9
$DIMDLI
 40
0.38
  9
$DIMRND
 40
0.0
  9
$DIMDLE
 40
0.0
  9
$DIMEXE
 40
0.18
  9
$DIMTP
 40
0.003
  9
$DIMTM
 40
0.003
  9
$DIMTXT
 40
1.5
  9
$DIMCEN
 40
0.09
  9
$DIMTSZ
 40
0.0
  9
$DIMTOL
 70
     1
  9
$DIMLIM
 70
     0
  9
$DIMTIH
 70
     1
  9
$DIMTOH
 70
     1
  9
$DIMSE1
 70
     0
  9
$DIMSE2
 70
     0
  9
$DIMTAD
 70
     0
  9
$DIMZIN
 70
     0
  9
$DIMBLK
  1

  9
$DIMASO
 70
     1
  9
$DIMSHO
 70
     1
  9
$DIMPOST
  1

  9
$DIMAPOST
  1

  9
$DIMALT
 70
     0
  9
$DIMALTD
 70
     2
  9
$DIMALTF
 40
25.4
  9
$DIMLFAC
 40
1.0
  9
$DIMTOFL
 70
     0
  9
$DIMTVP
 40
0.0
  9
$DIMTIX
 70
     0
  9
$DIMSOXD
 70
     0
  9
$DIMSAH
 70
     0
  9
$DIMBLK1
  1

  9
$DIMBLK2
  1

  9
$DIMSTYLE
  2
STANDARD
  9
$DIMCLRD
 70
     0
  9
$DIMCLRE
 70
     0
  9
$DIMCLRT
 70
     0
  9
$DIMTFAC
 40
1.0
  9
$DIMGAP
 40
0.09
  9
$DIMJUST
 70
     0
  9
$DIMSD1
 70
     0
  9
$DIMSD2
 70
     0
  9
$DIMTOLJ
 70
     1
  9
$DIMTZIN
 70
     0
  9
$DIMALTZ
 70
     0
  9
$DIMALTTZ
 70
     0
  9
$DIMUPT
 70
     0
  9
$DIMDEC
 70
     4
  9
$DIMTDEC
 70
     4
  9
$DIMALTU
 70
     2
  9
$DIMALTTD
 70
     2
  9
$DIMTXSTY
  7
STANDARD
  9
$DIMAUNIT
 70
     0
  9
$DIMADEC
 70
     0
  9
$DIMALTRND
 40
0.0
  9
$DIMAZIN
 70
     0
  9
$DIMDSEP
 70
    46
  9
$DIMATFIT
 70
     0
  9
$DIMFRAC
 70
     0
  9
$DIMLDRBLK
  1

  9
$DIMLUNIT
 70
     2
  9
$DIMLWD
 70
    -2
  9
$DIMLWE
 70
    -2
  9
$DIMTMOVE
 70
     0
  9
$LUNITS
 70
     2
  9
$LUPREC
 70
     4
  9
$SKETCHINC
 40
0.1
  9
$FILLETRAD
 40
0.0
  9
$AUNITS
 70
     0
  9
$AUPREC
 70
     0
  9
$MENU
  1
acad
  9
$ELEVATION
 40
0.0
  9
$PELEVATION
 40
0.0
  9
$THICKNESS
 40
0.0
  9
$LIMCHECK
 70
     0
  9
$CHAMFERA
 40
0.0
  9
$CHAMFERB
 40
0.0
  9
$CHAMFERC
 40
0.0
  9
$CHAMFERD
 40
0.0
  9
$SKPOLY
 70
     0
  9
$TDCREATE
 40
2444972.041666667
  9
$TDUCREATE
 40
2444972.0
  9
$TDUPDATE
 40
2453410.425209167
  9
$TDUUPDATE
 40
2453410.3835425
  9
$TDINDWG
 40
2.3154644792
  9
$TDUSRTIMER
 40
2.3154644792
  9
$USRTIMER
 70
     1
  9
$ANGBASE
 50
0.0
  9
$ANGDIR
 70
     0
  9
$PDMODE
 70
     0
  9
$PDSIZE
 40
0.0
  9
$PLINEWID
 40
0.0
  9
$SPLFRAME
 70
     0
  9
$SPLINETYPE
 70
     6
  9
$SPLINESEGS
 70
     8
  9
$HANDSEED
  5
5E69
  9
$SURFTAB1
 70
     6
  9
$SURFTAB2
 70
     6
  9
$SURFTYPE
 70
     6
  9
$SURFU
 70
     6
  9
$SURFV
 70
     6
  9
$UCSBASE
  2

  9
$UCSNAME
  2

  9
$UCSORG
 10
0.0
 20
0.0
 30
0.0
  9
$UCSXDIR
 10
1.0
 20
0.0
 30
0.0
  9
$UCSYDIR
 10
0.0
 20
1.0
 30
0.0
  9
$UCSORTHOREF
  2

  9
$UCSORTHOVIEW
 70
     0
  9
$UCSORGTOP
 10
0.0
 20
0.0
 30
0.0
  9
$UCSORGBOTTOM
 10
0.0
 20
0.0
 30
0.0
  9
$UCSORGLEFT
 10
0.0
 20
0.0
 30
0.0
  9
$UCSORGRIGHT
 10
0.0
 20
0.0
 30
0.0
  9
$UCSORGFRONT
 10
0.0
 20
0.0
 30
0.0
  9
$UCSORGBACK
 10
0.0
 20
0.0
 30
0.0
  9
$PUCSBASE
  2

  9
$PUCSNAME
  2

  9
$PUCSORG
 10
0.0
 20
0.0
 30
0.0
  9
$PUCSXDIR
 10
1.0
 20
0.0
 30
0.0
  9
$PUCSYDIR
 10
0.0
 20
1.0
 30
0.0
  9
$PUCSORTHOREF
  2

  9
$PUCSORTHOVIEW
 70
     0
  9
$PUCSORGTOP
 10
0.0
 20
0.0
 30
0.0
  9
$PUCSORGBOTTOM
 10
0.0
 20
0.0
 30
0.0
  9
$PUCSORGLEFT
 10
0.0
 20
0.0
 30
0.0
  9
$PUCSORGRIGHT
 10
0.0
 20
0.0
 30
0.0
  9
$PUCSORGFRONT
 10
0.0
 20
0.0
 30
0.0
  9
$PUCSORGBACK
 10
0.0
 20
0.0
 30
0.0
  9
$USERI1
 70
     0
  9
$USERI2
 70
     0
  9
$USERI3
 70
     0
  9
$USERI4
 70
     0
  9
$USERI5
 70
     0
  9
$USERR1
 40
0.0
  9
$USERR2
 40
0.0
  9
$USERR3
 40
0.0
  9
$USERR4
 40
0.0
  9
$USERR5
 40
0.0
  9
$WORLDVIEW
 70
     1
  9
$SHADEDGE
 70
     3
  9
$SHADEDIF
 70
    70
  9
$TILEMODE
 70
     1
  9
$MAXACTVP
 70
    16
  9
$PINSBASE
 10
0.0
 20
0.0
 30
0.0
  9
$PLIMCHECK
 70
     0
  9
$PEXTMIN
 10
1.000000000000000E+20
 20
1.000000000000000E+20
 30
1.000000000000000E+20
  9
$PEXTMAX
 10
-1.000000000000000E+20
 20
-1.000000000000000E+20
 30
-1.000000000000000E+20
  9
$PLIMMIN
 10
0.0
 20
0.0
  9
$PLIMMAX
 10
12.0
 20
9.0
  9
$UNITMODE
 70
     0
  9
$VISRETAIN
 70
     0
  9
$PLINEGEN
 70
     1
  9
$PSLTSCALE
 70
     0
  9
$TREEDEPTH
 70
  3020
  9
$CMLSTYLE
  2
STANDARD
  9
$CMLJUST
 70
     0
  9
$CMLSCALE
 40
1.0
  9
$PROXYGRAPHICS
 70
     1
  9
$MEASUREMENT
 70
     0
  9
$CELWEIGHT
370
    -1
  9
$ENDCAPS
280
     0
  9
$JOINSTYLE
280
     0
  9
$LWDISPLAY
290
     0
  9
$INSUNITS
 70
     0
  9
$HYPERLINKBASE
  1

  9
$STYLESHEET
  1

  9
$XEDIT
290
     1
  9
$CEPSNTYPE
380
     0
  9
$PSTYLEMODE
290
     1
  9
$FINGERPRINTGUID
  2
{9C19D7CE-BE25-492F-B456-B99F77E59DF7}
  9
$VERSIONGUID
  2
{87DB5050-873C-47C0-B354-653022068E20}
  9
$EXTNAMES
290
     1
  9
$PSVPSCALE
 40
0.0
  9
$OLESTARTUP
290
     0
  0
ENDSEC
  0
SECTION
  2
CLASSES
  0
CLASS
  1
IMAGE
  2
AcDbRasterImage
  3
ISM
 90
      127
280
     0
281
     1
  0
CLASS
  1
DICTIONARYVAR
  2
AcDbDictionaryVar
  3
ObjectDBX Classes
 90
        0
280
     0
281
     0
  0
CLASS
  1
RASTERVARIABLES
  2
AcDbRasterVariables
  3
ISM
 90
        0
280
     0
281
     0
  0
CLASS
  1
IMAGEDEF
  2
AcDbRasterImageDef
  3
ISM
 90
        0
280
     0
281
     0
  0
CLASS
  1
IMAGEDEF_REACTOR
  2
AcDbRasterImageDefReactor
  3
ISM
 90
        1
280
     0
281
     0
  0
CLASS
  1
IDBUFFER
  2
AcDbIdBuffer
  3
ObjectDBX Classes
 90
        0
280
     0
281
     0
  0
CLASS
  1
SPATIAL_FILTER
  2
AcDbSpatialFilter
  3
ObjectDBX Classes
 90
        0
280
     0
281
     0
  0
CLASS
  1
SORTENTSTABLE
  2
AcDbSortentsTable
  3
ObjectDBX Classes
 90
        0
280
     0
281
     0
  0
CLASS
  1
LAYER_INDEX
  2
AcDbLayerIndex
  3
ObjectDBX Classes
 90
        0
280
     0
281
     0
  0
CLASS
  1
SPATIAL_INDEX
  2
AcDbSpatialIndex
  3
AutoCAD 2000
 90
        0
280
     0
281
     0
  0
CLASS
  1
OBJECT_PTR
  2
CAseDLPNTableRecord
  3
ASE-LPNTableRecord
 90
        1
280
     0
281
     0
  0
CLASS
  1
PLOTSETTINGS
  2
AcDbPlotSettings
  3
ObjectDBX Classes
 90
        0
280
     0
281
     0
  0
CLASS
  1
ACDBDICTIONARYWDFLT
  2
AcDbDictionaryWithDefault
  3
ObjectDBX Classes
 90
        0
280
     0
281
     0
  0
CLASS
  1
WIPEOUT
  2
AcDbWipeout
  3
WipeOut|AutoCAD Express Tool|expresstools@autodesk.com
 90
      127
280
     0
281
     1
  0
CLASS
  1
WIPEOUTVARIABLES
  2
AcDbWipeoutVariables
  3
WipeOut|AutoCAD Express Tool|expresstools@autodesk.com
 90
        0
280
     0
281
     0
  0
CLASS
  1
RTEXT
  2
RText
  3
RText|AutoCAD Express Tool|expresstools@autodesk.com
 90
        0
280
     0
281
     1
  0
CLASS
  1
ARCALIGNEDTEXT
  2
AcDbArcAlignedText
  3
ATEXT|AutoCAD Express Tool|expresstools@autodesk.com
 90
        0
280
     0
281
     1
  0
CLASS
  1
ACDBPLACEHOLDER
  2
AcDbPlaceHolder
  3
ObjectDBX Classes
 90
        0
280
     0
281
     0
  0
CLASS
  1
LAYOUT
  2
AcDbLayout
  3
ObjectDBX Classes
 90
        0
280
     0
281
     0
  0
ENDSEC
  0
SECTION
  2
TABLES
  0
TABLE
  2
VPORT
  5
6
330
0
100
AcDbSymbolTable
 70
     1
  0
VPORT
  5
5E5F
330
6
100
AcDbSymbolTableRecord
100
AcDbViewportTableRecord
  2
*Active
 70
     0
 10
0.0
 20
0.0
 11
1.0
 21
1.0
 12
927.6860350795233
 22
209.9176059608517
 13
0.0
 23
0.0
 14
1.0
 24
1.0
 15
0.0
 25
0.0
 16
0.0
 26
0.0
 36
1.0
 17
0.0
 27
0.0
 37
0.0
 40
238.0916658623482
 41
1.888667992047713
 42
50.0
 43
0.0
 44
0.0
 50
0.0
 51
0.0
 71
     0
 72
   100
 73
     1
 74
     1
 75
     0
 76
     0
 77
     0
 78
     0
281
     0
 65
     1
110
0.0
120
0.0
130
0.0
111
1.0
121
0.0
131
0.0
112
0.0
122
1.0
132
0.0
 79
     0
146
0.0
  0
ENDTAB
  0
TABLE
  2
LTYPE
  5
3
330
0
100
AcDbSymbolTable
 70
     2
  0
LTYPE
  5
C
330
3
100
AcDbSymbolTableRecord
100
AcDbLinetypeTableRecord
  2
BYBLOCK
 70
     0
  3

 72
    65
 73
     0
 40
0.0
  0
LTYPE
  5
D
330
3
100
AcDbSymbolTableRecord
100
AcDbLinetypeTableRecord
  2
BYLAYER
 70
     0
  3

 72
    65
 73
     0
 40
0.0
  0
LTYPE
  5
E
330
3
100
AcDbSymbolTableRecord
100
AcDbLinetypeTableRecord
  2
CONTINUOUS
 70
     0
  3
Solid line
 72
    65
 73
     0
 40
0.0
  0
LTYPE
  5
F
330
3
100
AcDbSymbolTableRecord
100
AcDbLinetypeTableRecord
  2
CENTER
 70
     0
  3
____ _ ____ _ ____ _ ____ _ ____ _ ____ _ ____
 72
    65
 73
     4
 40
0.6
 49
0.375
 74
     0
 49
-0.075
 74
     0
 49
0.075
 74
     0
 49
-0.075
 74
     0
  0
ENDTAB
  0
TABLE
  2
LAYER
  5
1
330
0
100
AcDbSymbolTable
 70
     2
  0
LAYER
  5
14
330
1
100
AcDbSymbolTableRecord
100
AcDbLayerTableRecord
  2
0
 70
     0
 62
     7
  6
CONTINUOUS
370
    -3
390
273
  0
LAYER
  5
27A
330
1
100
AcDbSymbolTableRecord
100
AcDbLayerTableRecord
  2
Defpoints
 70
     0
 62
     7
  6
CONTINUOUS
290
     0
370
    -3
390
273
  0
ENDTAB
  0
TABLE
  2
STYLE
  5
2
330
0
100
AcDbSymbolTable
 70
     1
  0
STYLE
  5
1B
330
2
100
AcDbSymbolTableRecord
100
AcDbTextStyleTableRecord
  2
STANDARD
 70
     0
 40
0.0
 41
1.0
 50
0.0
 71
     0
 42
35.06651165617814
  3
VERDANA.TTF
  4

1001
ACAD
1000
Verdana
1071
       34
  0
ENDTAB
  0
TABLE
  2
VIEW
  5
4
330
0
100
AcDbSymbolTable
 70
     0
  0
ENDTAB
  0
TABLE
  2
UCS
  5
5
330
0
100
AcDbSymbolTable
 70
     0
  0
ENDTAB
  0
TABLE
  2
APPID
  5
7
330
0
100
AcDbSymbolTable
 70
     1
  0
APPID
  5
19
330
7
100
AcDbSymbolTableRecord
100
AcDbRegAppTableRecord
  2
ACAD
 70
     0
  0
ENDTAB
  0
TABLE
  2
DIMSTYLE
  5
8
330
0
100
AcDbSymbolTable
 70
     1
100
AcDbDimStyleTable
  0
DIMSTYLE
105
28
330
8
100
AcDbSymbolTableRecord
100
AcDbDimStyleTableRecord
  2
STANDARD
 70
     0
 47
0.003
 48
0.003
 71
     1
140
1.5
289
     0
340
1B
  0
ENDTAB
  0
TABLE
  2
BLOCK_RECORD
  5
23
330
0
100
AcDbSymbolTable
 70
     0
  0
BLOCK_RECORD
  5
21
330
23
100
AcDbSymbolTableRecord
100
AcDbBlockTableRecord
  2
*MODEL_SPACE
340
276
  0
BLOCK_RECORD
  5
22
330
23
100
AcDbSymbolTableRecord
100
AcDbBlockTableRecord
  2
*PAPER_SPACE
340
277
  0
ENDTAB
  0
ENDSEC
  0
SECTION
  2
BLOCKS
  0
BLOCK
  5
24
330
21
100
AcDbEntity
  8
0
100
AcDbBlockBegin
  2
*MODEL_SPACE
 70
     0
 71
     0
 10
0.0
 20
0.0
 30
0.0
  3
*MODEL_SPACE
  1

  0
ENDBLK
  5
25
330
21
100
AcDbEntity
  8
0
100
AcDbBlockEnd
  0
BLOCK
  5
26
330
22
100
AcDbEntity
 67
     1
  8
0
100
AcDbBlockBegin
  2
*PAPER_SPACE
 70
     0
 71
     0
 10
0.0
 20
0.0
 30
0.0
  3
*PAPER_SPACE
  1

  0
ENDBLK
  5
27
330
22
100
AcDbEntity
 67
     1
  8
0
100
AcDbBlockEnd
  0
ENDSEC
  0
SECTION
  2
ENTITIES
  0
LINE
  5
B0B
330
21
100
AcDbEntity
  8
0
  6
Continuous
100
AcDbLine
 10
883.4925271229721
 20
172.8145857584641
 30
0.0
 11
866.0582125479722
 21
172.814585758464
 31
0.0
  0
LINE
  5
B0C
330
21
100
AcDbEntity
  8
0
  6
Continuous
100
AcDbLine
 10
883.4925271229721
 20
174.814585758464
 30
0.0
 11
868.4925271229722
 21
174.814585758464
 31
0.0
  0
LINE
  5
B0D
330
21
100
AcDbEntity
  8
0
  6
Continuous
100
AcDbLine
 10
868.4925271229722
 20
178.3728903136641
 30
0.0
 11
864.4133748453722
 21
174.293738036064
 31
0.0
  0
LINE
  5
B0E
330
21
100
AcDbEntity
  8
0
  6
Continuous
100
AcDbLine
 10
862.6141430213722
 20
195.814585758464
 30
0.0
 11
864.9352744048721
 21
195.814585758464
 31
0.0
  0
LINE
  5
B0F
330
21
100
AcDbEntity
  8
0
  6
Continuous
100
AcDbLine
 10
868.4925271229722
 20
186.9047316007641
 30
0.0
 11
863.0620502316721
 21
181.474254709464
 31
0.0
  0
LINE
  5
B10
330
21
100
AcDbEntity
  8
0
  6
CENTER
100
AcDbLine
 10
883.4925271229721
 20
264.4006276376349
 30
0.0
 11
883.4925271229721
 21
162.909333739597
 31
0.0
  0
LINE
  5
B11
330
21
100
AcDbEntity
  8
0
  6
Continuous
100
AcDbLine
 10
868.4925271229722
 20
195.436572887864
 30
0.0
 11
862.8036372170722
 21
189.7476829818641
 31
0.0
  0
LINE
  5
B12
330
21
100
AcDbEntity
  8
0
  6
Continuous
100
AcDbLine
 10
840.8582125479721
 20
204.814585758464
 30
0.0
 11
851.4925271229722
 21
204.814585758464
 31
0.0
  0
LINE
  5
B13
330
21
100
AcDbEntity
  8
0
  6
Continuous
100
AcDbLine
 10
838.9925271229722
 20
206.5145857584641
 30
0.0
 11
853.192527122972
 21
206.5145857584641
 31
0.0
  0
LINE
  5
B14
330
21
100
AcDbEntity
  8
0
  6
Continuous
100
AcDbLine
 10
856.7351678100722
 20
208.814585758464
 30
0.0
 11
860.4925271229722
 21
208.814585758464
 31
0.0
  0
LINE
  5
B15
330
21
100
AcDbEntity
  8
0
  6
Continuous
100
AcDbLine
 10
843.8925271229722
 20
208.814585758464
 30
0.0
 11
839.4925271229721
 21
208.814585758464
 31
0.0
  0
LINE
  5
B16
330
21
100
AcDbEntity
  8
0
  6
Continuous
100
AcDbLine
 10
863.6138474665722
 20
197.8455242950641
 30
0.0
 11
862.5829089299722
 21
196.814585758464
 31
0.0
  0
LINE
  5
B17
330
21
100
AcDbEntity
  8
0
  6
Continuous
100
AcDbLine
 10
868.4925271229722
 20
203.9684141748641
 30
0.0
 11
864.4925271229721
 21
199.9684141748641
 31
0.0
  0
LINE
  5
B18
330
21
100
AcDbEntity
  8
0
  6
Continuous
100
AcDbLine
 10
864.4925271229721
 20
212.8145857584641
 30
0.0
 11
845.8925271229722
 21
212.8145857584641
 31
0.0
  0
LINE
  5
B19
330
21
100
AcDbEntity
  8
0
  6
Continuous
100
AcDbLine
 10
868.4925271229722
 20
174.814585758464
 30
0.0
 11
868.4925271229722
 21
213.314585758464
 31
0.0
  0
LINE
  5
B1A
330
21
100
AcDbEntity
  8
0
  6
Continuous
100
AcDbLine
 10
868.4925271229722
 20
213.314585758464
 30
0.0
 11
864.4925271229721
 21
213.314585758464
 31
0.0
  0
LINE
  5
B1B
330
21
100
AcDbEntity
  8
0
  6
Continuous
100
AcDbLine
 10
868.4925271229722
 20
212.5002554619641
 30
0.0
 11
863.4626294760722
 21
207.4703578150641
 31
0.0
  0
LINE
  5
B1C
330
21
100
AcDbEntity
  8
0
  6
Continuous
100
AcDbLine
 10
864.4925271229721
 20
204.814585758464
 30
0.0
 11
864.4925271229721
 21
199.9668446386641
 31
0.0
  0
LINE
  5
B1D
330
21
100
AcDbEntity
  8
0
  6
Continuous
100
AcDbLine
 10
864.4925271229721
 20
212.8145857584641
 30
0.0
 11
864.4925271229721
 21
228.8145857584641
 31
0.0
  0
LINE
  5
B1E
330
21
100
AcDbEntity
  8
0
  6
Continuous
100
AcDbLine
 10
864.9352744048721
 20
195.814585758464
 30
0.0
 11
865.6459571163722
 21
173.061155765064
 31
0.0
  0
LINE
  5
B1F
330
21
100
AcDbEntity
  8
0
  6
Continuous
100
AcDbLine
 10
862.5829089299722
 20
196.814585758464
 30
0.0
 11
863.2450443168721
 21
175.6154614138641
 31
0.0
  0
LINE
  5
B20
330
21
100
AcDbEntity
  8
0
  6
Continuous
100
AcDbLine
 10
860.2750161324721
 20
212.8145857584641
 30
0.0
 11
856.2052513003722
 21
208.744820926464
 31
0.0
  0
LINE
  5
B21
330
21
100
AcDbEntity
  8
0
  6
Continuous
100
AcDbLine
 10
854.6138474665722
 20
207.9359061020641
 30
0.0
 11
851.4925271229722
 21
204.814585758464
 31
0.0
  0
LINE
  5
B22
330
21
100
AcDbEntity
  8
0
  6
Continuous
100
AcDbLine
 10
851.743174845372
 20
212.8145857584641
 30
0.0
 11
843.743174845372
 21
204.814585758464
 31
0.0
  0
LINE
  5
B23
330
21
100
AcDbEntity
  8
0
  6
Continuous
100
AcDbLine
 10
839.140449695872
 20
208.7437018960641
 30
0.0
 11
838.5634110851722
 21
208.1666632853641
 31
0.0
  0
LINE
  5
B24
330
21
100
AcDbEntity
  8
0
  6
Continuous
100
AcDbLine
 10
845.8925271229722
 20
228.8145857584641
 30
0.0
 11
845.8925271229722
 21
212.8145857584641
 31
0.0
  0
LINE
  5
B25
330
21
100
AcDbEntity
  8
0
  6
Continuous
100
AcDbLine
 10
844.8925271229722
 20
209.8145857584641
 30
0.0
 11
844.8925271229722
 21
228.8145857584641
 31
0.0
  0
LINE
  5
B26
330
21
100
AcDbEntity
  8
0
  6
Continuous
100
AcDbLine
 10
843.8925271229722
 20
208.814585758464
 30
0.0
 11
843.8925271229722
 21
228.8145857584641
 31
0.0
  0
LINE
  5
B27
330
21
100
AcDbEntity
  8
0
  6
Continuous
100
AcDbLine
 10
838.6096844104723
 20
206.8974284709641
 30
0.0
 11
840.5753698354722
 21
204.9317430460641
 31
0.0
  0
LINE
  5
B28
330
21
100
AcDbEntity
  8
0
  6
Continuous
100
AcDbLine
 10
839.4925271229721
 20
208.814585758464
 30
0.0
 11
839.4925271229721
 21
228.8145857584641
 31
0.0
  0
LINE
  5
B29
330
21
100
AcDbEntity
  8
0
  6
Continuous
100
AcDbLine
 10
838.4925271229722
 20
228.8145857584641
 30
0.0
 11
838.4925271229722
 21
207.1802711834641
 31
0.0
  0
LINE
  5
B2A
330
21
100
AcDbEntity
  8
0
  6
Continuous
100
AcDbLine
 10
863.3620066332721
 20
175.345106248164
 30
0.0
 11
865.7753698354721
 21
172.931743046064
 31
0.0
  0
ARC
  5
B2B
330
21
100
AcDbEntity
  8
0
  6
Continuous
100
AcDbCircle
 10
866.0582125479722
 20
173.214585758464
 30
0.0
 40
0.4
100
AcDbArc
 50
225.0000000195004
 51
270.0
  0
ARC
  5
B2C
330
21
100
AcDbEntity
  8
0
  6
Continuous
100
AcDbCircle
 10
843.8925271229722
 20
209.8145857584641
 30
0.0
 40
1.0
100
AcDbArc
 50
270.0
 51
359.9999999995994
  0
ARC
  5
B2D
330
21
100
AcDbEntity
  8
0
  6
Continuous
100
AcDbCircle
 10
838.8925271229721
 20
207.1802711834641
 30
0.0
 40
0.4
100
AcDbArc
 50
180.0
 51
225.0000000011976
  0
ARC
  5
B2E
330
21
100
AcDbEntity
  8
0
  6
Continuous
100
AcDbCircle
 10
839.4925271229721
 20
207.8145857584641
 30
0.0
 40
1.0
100
AcDbArc
 50
90.0
 51
179.9999999992004
  0
ARC
  5
B2F
330
21
100
AcDbEntity
  8
0
  6
Continuous
100
AcDbCircle
 10
845.8925271229722
 20
211.8145857584641
 30
0.0
 40
1.0
100
AcDbArc
 50
90.0
 51
180.0
  0
ARC
  5
B30
330
21
100
AcDbEntity
  8
0
  6
Continuous
100
AcDbCircle
 10
860.4925388460722
 20
204.8145972354641
 30
0.0
 40
3.9999979612
100
AcDbArc
 50
359.999834576899
 51
90.00016858089981
  0
ARC
  5
B31
330
21
100
AcDbEntity
  8
0
  6
Continuous
100
AcDbCircle
 10
863.6448493457722
 20
175.627948960664
 30
0.0
 40
0.4
100
AcDbArc
 50
181.7889999999985
 51
225.0000000038978
  0
ARC
  5
B32
330
21
100
AcDbEntity
  8
0
  6
Continuous
100
AcDbCircle
 10
861.4925271229722
 20
199.9668446386641
 30
0.0
 40
3.0
100
AcDbArc
 50
314.9999999998998
 51
0.0
  0
ARC
  5
B33
330
21
100
AcDbEntity
  8
0
  6
Continuous
100
AcDbCircle
 10
856.7351678100722
 20
205.8145857584641
 30
0.0
 40
3.0
100
AcDbArc
 50
90.0
 51
135.0
  0
ARC
  5
B34
330
21
100
AcDbEntity
  8
0
  6
Continuous
100
AcDbCircle
 10
840.8582125479721
 20
205.214585758464
 30
0.0
 40
0.4
100
AcDbArc
 50
224.9999999807
 51
270.0000000000977
  0
ARC
  5
B35
330
21
100
AcDbEntity
  8
0
  6
Continuous
100
AcDbCircle
 10
866.4925271229721
 20
174.814585758464
 30
0.0
 40
2.0
100
AcDbArc
 50
270.0
 51
0.0
  0
SPLINE
  5
B36
330
21
100
AcDbEntity
  8
0
  6
Continuous
100
AcDbSpline
210
0.0
220
0.0
230
1.0
 70
     8
 71
     3
 72
    22
 73
    18
 74
    16
 42
0.0000000001
 43
0.0000000001
 44
0.0000000001
 40
0.0
 40
0.0
 40
0.0
 40
0.0
 40
0.0969026939767321
 40
0.6284882943833012
 40
1.819898058898777
 40
3.538503301664745
 40
5.409594602094583
 40
7.250785971264327
 40
8.990286501787388
 40
10.60320658683652
 40
12.09454241626373
 40
13.48659864369084
 40
14.81259681613573
 40
16.07123934946579
 40
17.25772877828462
 40
18.32508299180489
 40
19.22146375983827
 40
19.22146375983827
 40
19.22146375983827
 40
19.22146375983827
 10
868.4925271229722
 20
213.314585758464
 30
0.0
 10
868.5157396743143
 20
213.337047402951
 30
0.0
 10
868.6662908736943
 20
213.482728395433
 30
0.0
 10
869.1024591395072
 20
213.9043449797403
 30
0.0
 10
869.9284187803709
 20
214.7004987181007
 30
0.0
 10
871.0790211796673
 20
215.8032284158356
 30
0.0
 10
872.3917703825995
 20
217.0497813324135
 30
0.0
 10
873.7178228965045
 20
218.292395709345
 30
0.0
 10
874.9918558911811
 20
219.4645783375551
 30
0.0
 10
876.1937383008212
 20
220.5428047568748
 30
0.0
 10
877.3267729376476
 20
221.5240231561157
 30
0.0
 10
878.4101901205665
 20
222.4160794287971
 30
0.0
 10
879.4646239690931
 20
223.2197136075985
 30
0.0
 10
880.5082486135979
 20
223.9238432153234
 30
0.0
 10
881.5403886212474
 20
224.47773461743
 30
0.0
 10
882.5376043140606
 20
224.8431820968272
 30
0.0
 10
883.193247472843
 20
224.8886886623315
 30
0.0
 10
883.4925271229721
 20
224.9094609205641
 30
0.0
 11
868.4925271229722
 21
213.314585758464
 31
0.0
 11
868.5621665902722
 21
213.3819688178641
 31
0.0
 11
868.9443750704722
 21
213.7514277847641
 31
0.0
 11
869.8022191273722
 21
214.5782051435641
 31
0.0
 11
871.0431990957721
 21
215.7671427779641
 31
0.0
 11
872.4004253349722
 21
217.055133302064
 31
0.0
 11
873.7445218293721
 21
218.3134616660641
 31
0.0
 11
875.0254546411721
 21
219.4903530065641
 31
0.0
 11
876.2271433623721
 21
220.5662040269641
 31
0.0
 11
877.3559473964722
 21
221.540823957364
 31
0.0
 11
878.4327333218721
 21
222.4230669007641
 31
0.0
 11
879.4903661515721
 21
223.2228693456641
 31
0.0
 11
880.5393006257721
 21
223.9185111324641
 31
0.0
 11
881.5895779826722
 21
224.4704845360641
 31
0.0
 11
882.6017756757721
 21
224.8091596712641
 31
0.0
 11
883.4925271229721
 21
224.9094609205641
 31
0.0
  0
SPLINE
  5
B37
330
21
100
AcDbEntity
  8
0
  6
Continuous
100
AcDbSpline
210
0.0
220
0.0
230
1.0
 70
     8
 71
     3
 72
    13
 73
     9
 74
     0
 42
0.0000000001
 43
0.0000000001
 40
0.3266010773323275
 40
0.3266010773323275
 40
0.3266010773323275
 40
0.3266010773323275
 40
0.3935231628796224
 40
0.591711058443951
 40
0.7891570325390085
 40
0.9862201296833921
 40
1.183195326100618
 40
1.577192060907419
 40
1.577192060907419
 40
1.577192060907419
 40
1.577192060907419
 10
883.4925271230133
 20
228.6445934476855
 30
0.0
 10
883.5131348430977
 20
228.6531997525253
 30
0.0
 10
883.5951572613044
 20
228.6864666478007
 30
0.0
 10
883.7382173634325
 20
228.7437839352489
 30
0.0
 10
883.9158304882632
 20
228.8309732793358
 30
0.0
 10
884.0850634846386
 20
228.932452004758
 30
0.0
 10
884.3014908749466
 20
229.0816100242699
 30
0.0
 10
884.4547398338314
 20
229.2055306797807
 30
0.0
 10
884.5569098121721
 20
229.2881476892641
 30
0.0
  0
SPLINE
  5
B38
330
21
100
AcDbEntity
  8
0
  6
Continuous
100
AcDbSpline
210
0.0
220
0.0
230
1.0
 70
     8
 71
     3
 72
    11
 73
     7
 74
     0
 42
0.0000000001
 43
0.0000000001
 40
2.635322114221823
 40
2.635322114221823
 40
2.635322114221823
 40
2.635322114221823
 40
2.730543009866045
 40
2.924870991289087
 40
3.022318877650383
 40
3.119588602267915
 40
3.119588602267915
 40
3.119588602267915
 40
3.119588602267915
 10
883.4859684146193
 20
224.4044859056
 30
0.0
 10
883.5159220176663
 20
224.4152605604196
 30
0.0
 10
883.6086976478036
 20
224.4432616649561
 30
0.0
 10
883.736137896437
 20
224.4611657151799
 30
0.0
 10
883.8690092231134
 20
224.460338588699
 30
0.0
 10
883.9265111646319
 20
224.4279672921001
 30
0.0
 10
883.955235828972
 20
224.4117964532641
 30
0.0
  0
SPLINE
  5
B39
330
21
100
AcDbEntity
  8
0
  6
Continuous
100
AcDbSpline
210
0.0
220
0.0
230
1.0
 70
     8
 71
     3
 72
    11
 73
     7
 74
     5
 42
0.0000000001
 43
0.0000000001
 44
0.0000000001
 40
0.0
 40
0.0
 40
0.0
 40
0.0
 40
0.7591205070717056
 40
1.567856829615062
 40
2.438500888913133
 40
3.367499304736475
 40
3.367499304736475
 40
3.367499304736475
 40
3.367499304736475
 10
869.5348208223721
 20
241.0896676915641
 30
0.0
 10
869.2796691524368
 20
241.0859129349347
 30
0.0
 10
868.7526892005465
 20
241.0781580122708
 30
0.0
 10
867.9808575857074
 20
241.3816008348061
 30
0.0
 10
867.2549968656492
 20
241.8748203524001
 30
0.0
 10
866.8679332867685
 20
242.3367827276784
 30
0.0
 10
866.6681261269721
 20
242.575253602164
 30
0.0
 11
869.5348208223721
 21
241.0896676915641
 31
0.0
 11
868.776568279072
 21
241.1259585283641
 31
0.0
 11
868.0153449834721
 21
241.3990766962641
 31
0.0
 11
867.2978569870721
 21
241.8922623134641
 31
0.0
 11
866.6681261269721
 21
242.575253602164
 31
0.0
  0
SPLINE
  5
B3A
330
21
100
AcDbEntity
  8
0
  6
Continuous
100
AcDbSpline
210
0.0
220
0.0
230
1.0
 70
     8
 71
     3
 72
    10
 73
     6
 74
     4
 42
0.0000000001
 43
0.0000000001
 44
0.0000000001
 40
0.0
 40
0.0
 40
0.0
 40
0.0
 40
0.4764545126820072
 40
0.9480645410752158
 40
1.414862337223699
 40
1.414862337223699
 40
1.414862337223699
 40
1.414862337223699
 10
868.7284411378721
 20
242.1734769683641
 30
0.0
 10
868.8850410582979
 20
242.2001452466513
 30
0.0
 10
869.196648625734
 20
242.25321064606
 30
0.0
 10
869.6668897766908
 20
242.29661134087
 30
0.0
 10
869.9797018684275
 20
242.302258983591
 30
0.0
 10
870.1353058512721
 20
242.305068324164
 30
0.0
 11
868.7284411378721
 21
242.1734769683641
 31
0.0
 11
869.1991222101721
 21
242.2474244553641
 31
0.0
 11
869.6687226688721
 21
242.290915006864
 31
0.0
 11
870.1353058512721
 21
242.305068324164
 31
0.0
  0
SPLINE
  5
B3B
330
21
100
AcDbEntity
  8
0
  6
Continuous
100
AcDbSpline
210
0.0
220
0.0
230
1.0
 70
     8
 71
     3
 72
    10
 73
     6
 74
     4
 42
0.0000000001
 43
0.0000000001
 44
0.0000000001
 40
0.0
 40
0.0
 40
0.0
 40
0.0
 40
0.2901374450681777
 40
0.7489734919268546
 40
1.376301289551709
 40
1.376301289551709
 40
1.376301289551709
 40
1.376301289551709
 10
869.5348208223721
 20
241.0896676915641
 30
0.0
 10
869.4498210622577
 20
241.1381234024287
 30
0.0
 10
869.230398963428
 20
241.2632090940101
 30
0.0
 10
868.9817460812967
 20
241.66583650365
 30
0.0
 10
868.8211788130399
 20
241.9876276781024
 30
0.0
 10
868.7284411369722
 20
242.1734822798641
 30
0.0
 11
869.5348208223721
 21
241.0896676915641
 31
0.0
 11
869.2924429132721
 21
241.2491439788641
 31
0.0
 11
869.0185519897721
 21
241.6172666213641
 31
0.0
 11
868.7284411369722
 21
242.1734822798641
 31
0.0
  0
SPLINE
  5
B3C
330
21
100
AcDbEntity
  8
0
  6
Continuous
100
AcDbSpline
210
0.0
220
0.0
230
1.0
 70
     8
 71
     3
 72
     9
 73
     5
 74
     3
 42
0.0000000001
 43
0.0000000001
 44
0.0000000001
 40
0.0
 40
0.0
 40
0.0
 40
0.0
 40
0.3042724275965673
 40
0.6060921860997259
 40
0.6060921860997259
 40
0.6060921860997259
 40
0.6060921860997259
 10
869.5346422461721
 20
241.089628734764
 30
0.0
 10
869.6340082374899
 20
241.1112517259621
 30
0.0
 10
869.8319392540379
 20
241.1543234104679
 30
0.0
 10
870.0344568276861
 20
241.1583740170526
 30
0.0
 10
870.1353058512721
 20
241.1603911245641
 30
0.0
 11
869.5346422461721
 21
241.089628734764
 31
0.0
 11
869.833896158372
 21
241.1446633259641
 31
0.0
 11
870.1353058512721
 21
241.1603911245641
 31
0.0
  0
SPLINE
  5
B3D
330
21
100
AcDbEntity
  8
0
  6
Continuous
100
AcDbSpline
210
0.0
220
0.0
230
1.0
 70
     8
 71
     3
 72
    13
 73
     9
 74
     7
 42
0.0000000001
 43
0.0000000001
 44
0.0000000001
 40
0.0
 40
0.0
 40
0.0
 40
0.0
 40
1.095581262579382
 40
2.338651414421216
 40
3.697973939588145
 40
5.131515874199621
 40
6.585573263533688
 40
7.997043744115545
 40
7.997043744115545
 40
7.997043744115545
 40
7.997043744115545
 10
883.4925271229721
 20
242.305068324164
 30
0.0
 10
883.8577218839287
 20
242.3059014146757
 30
0.0
 10
884.6372745044619
 20
242.3076797476667
 30
0.0
 10
885.86985295776
 20
242.32355854627
 30
0.0
 10
887.2148667001941
 20
242.3531540537375
 30
0.0
 10
888.6297019813294
 20
242.4014601058601
 30
0.0
 10
890.0613041981412
 20
242.4675661474668
 30
0.0
 10
891.0142172303334
 20
242.5336866076009
 30
0.0
 10
891.4835927438721
 20
242.566255503064
 30
0.0
 11
883.4925271229721
 21
242.305068324164
 31
0.0
 11
884.5880998966721
 21
242.3093811471641
 31
0.0
 11
885.8310736241721
 21
242.3248638841641
 31
0.0
 11
887.1900557322721
 21
242.3552835700641
 31
0.0
 11
888.6227670965722
 21
242.404075217864
 31
0.0
 11
890.0751469755721
 21
242.4739005610641
 31
0.0
 11
891.4835927438721
 21
242.566255503064
 31
0.0
  0
SPLINE
  5
B3E
330
21
100
AcDbEntity
  8
0
  6
Continuous
100
AcDbSpline
210
0.0
220
0.0
230
1.0
 70
     8
 71
     3
 72
    13
 73
     9
 74
     7
 42
0.0000000001
 43
0.0000000001
 44
0.0000000001
 40
0.0
 40
0.0
 40
0.0
 40
0.0
 40
1.32555797280704
 40
2.830824090109823
 40
4.477150834608355
 40
6.213451101862688
 40
7.974496968633971
 40
9.680631913738845
 40
9.680631913738845
 40
9.680631913738845
 40
9.680631913738845
 10
883.4925271229721
 20
241.1603911245641
 30
0.0
 10
883.9343809958496
 20
241.1613986906299
 30
0.0
 10
884.8779916211927
 20
241.1635504202033
 30
0.0
 10
886.3702790314579
 20
241.1827702469162
 30
0.0
 10
887.9992159949692
 20
241.2186175228327
 30
0.0
 10
889.7127980590987
 20
241.2771312982731
 30
0.0
 10
891.4455699582009
 20
241.3571848135069
 30
0.0
 10
892.5985583077852
 20
241.4371940342915
 30
0.0
 10
893.1659223482722
 20
241.476565078064
 30
0.0
 11
883.4925271229721
 21
241.1603911245641
 31
0.0
 11
884.818074835372
 21
241.1656066229641
 31
0.0
 11
886.3232242403722
 21
241.1843510228641
 31
0.0
 11
887.9691386273721
 21
241.2211963796641
 31
0.0
 11
889.7044324777722
 21
241.2803053538641
 31
0.0
 11
891.4634448974721
 21
241.364909444864
 31
0.0
 11
893.1659223482722
 21
241.476565078064
 31
0.0
  0
SPLINE
  5
B3F
330
21
100
AcDbEntity
  8
0
  6
Continuous
100
AcDbSpline
210
0.0
220
0.0
230
1.0
 70
     8
 71
     3
 72
    26
 73
    22
 74
    20
 42
0.0000000001
 43
0.0000000001
 44
0.0000000001
 40
0.0
 40
0.0
 40
0.0
 40
0.0
 40
0.6279009277314227
 40
1.198384715753549
 40
1.725440758831951
 40
2.22545060520829
 40
2.711690244550488
 40
3.18751161295309
 40
3.646412481875165
 40
4.082582999710013
 40
4.499517027265792
 40
4.910319931612847
 40
5.331034624951938
 40
5.770837131253506
 40
6.228527390218657
 40
6.697922530521406
 40
7.178321656109359
 40
7.676809371248744
 40
8.204293355826509
 40
8.772401998114157
 40
9.391054923514165
 40
9.391054923514165
 40
9.391054923514165
 40
9.391054923514165
 10
891.4835927438721
 20
242.566255503064
 30
0.0
 10
891.6927989175672
 20
242.5765717450844
 30
0.0
 10
892.0920808264236
 20
242.5962608810854
 30
0.0
 10
892.6670834414775
 20
242.5571621648034
 30
0.0
 10
893.1941301933443
 20
242.477514902831
 30
0.0
 10
893.684959660234
 20
242.3582113882845
 30
0.0
 10
894.1472379737901
 20
242.2019118853835
 30
0.0
 10
894.5809341291445
 20
242.0098141236043
 30
0.0
 10
894.9802805428565
 20
241.7863077402846
 30
0.0
 10
895.3407525783509
 20
241.5375575842132
 30
0.0
 10
895.6644030145317
 20
241.2669315919242
 30
0.0
 10
895.9584514645969
 20
240.9716525213764
 30
0.0
 10
896.229195012535
 20
240.6448678001568
 30
0.0
 10
896.4772389812664
 20
240.2813892464004
 30
0.0
 10
896.6979973857601
 20
239.8820525421301
 30
0.0
 10
896.8864560777851
 20
239.4516944104715
 30
0.0
 10
897.0399715845929
 20
238.9933534155018
 30
0.0
 10
897.1577133166422
 20
238.5045332044509
 30
0.0
 10
897.2362011517353
 20
237.9784805993362
 30
0.0
 10
897.2740827148002
 20
237.4071598870485
 30
0.0
 10
897.2544377108171
 20
237.011767481432
 30
0.0
 10
897.244196867572
 20
236.8056513793641
 30
0.0
 11
891.4835927438721
 21
242.566255503064
 31
0.0
 11
892.111233073072
 21
242.584343958164
 31
0.0
 11
892.6805652484723
 21
242.5481137711641
 31
0.0
 11
893.201547337072
 21
242.4683282091641
 31
0.0
 11
893.6873568697722
 21
242.3500110742641
 31
0.0
 11
894.1478367535721
 21
242.193846854664
 31
0.0
 11
894.5827294423721
 21
242.0007812599641
 31
0.0
 11
894.9830069637721
 21
241.7763532907641
 31
0.0
 11
895.3418726289722
 21
241.5284417037641
 31
0.0
 11
895.6616592226721
 21
241.2609150362641
 31
0.0
 11
895.951536695672
 21
240.969830723964
 31
0.0
 11
896.220029928672
 21
240.6459291385641
 31
0.0
 11
896.4681266671721
 21
240.2827841910641
 31
0.0
 11
896.6898690616721
 21
239.8823960248641
 31
0.0
 11
896.8785106655721
 21
239.452574965564
 31
0.0
 11
897.0314916190721
 21
238.997184860564
 31
0.0
 11
897.148441160672
 21
238.5126099882641
 31
0.0
 11
897.2273086350721
 21
237.9910553166641
 31
0.0
 11
897.262454244872
 21
237.4240348447641
 31
0.0
 11
897.244196867572
 21
236.8056513793641
 31
0.0
  0
SPLINE
  5
B40
330
21
100
AcDbEntity
  8
0
  6
Continuous
100
AcDbSpline
210
0.0
220
0.0
230
1.0
 70
     8
 71
     3
 72
    10
 73
     6
 74
     4
 42
0.0000000001
 43
0.0000000001
 44
0.0000000001
 40
0.0
 40
0.0
 40
0.0
 40
0.0
 40
0.6255711853132572
 40
1.305787021263992
 40
2.057339205272518
 40
2.057339205272518
 40
2.057339205272518
 40
2.057339205272518
 10
893.1659223482722
 20
241.4765673372641
 30
0.0
 10
892.9603297797999
 20
241.5196756513215
 30
0.0
 10
892.531185800854
 20
241.6096578601035
 30
0.0
 10
891.949324293055
 20
242.0056988797628
 30
0.0
 10
891.6439069865672
 20
242.373294870568
 30
0.0
 10
891.483589783972
 20
242.5662504093641
 30
0.0
 11
893.1659223482722
 21
241.4765673372641
 31
0.0
 11
892.562878340572
 21
241.6429320951641
 31
0.0
 11
891.9919620333722
 21
242.0127268404641
 31
0.0
 11
891.483589783972
 21
242.5662504093641
 31
0.0
  0
SPLINE
  5
B41
330
21
100
AcDbEntity
  8
0
  6
Continuous
100
AcDbSpline
210
0.0
220
0.0
230
1.0
 70
     8
 71
     3
 72
    26
 73
    22
 74
    20
 42
0.0000000001
 43
0.0000000001
 44
0.0000000001
 40
0.0
 40
0.0
 40
0.0
 40
0.0
 40
0.3641939611341669
 40
0.6908664896617519
 40
0.9886606209769757
 40
1.267044249593683
 40
1.533482448749096
 40
1.789952832215238
 40
2.033569660060896
 40
2.26230223414177
 40
2.479193052008329
 40
2.692251960939561
 40
2.911195835812344
 40
3.141985456215301
 40
3.385131842986472
 40
3.638328656400126
 40
3.901724437534763
 40
4.179377177346076
 40
4.47752592650285
 40
4.802945746244898
 40
5.161527971164147
 40
5.161527971164147
 40
5.161527971164147
 40
5.161527971164147
 10
893.1659223482722
 20
241.476565078064
 30
0.0
 10
893.2861648346878
 20
241.4938361710501
 30
0.0
 10
893.5142617098791
 20
241.526598986081
 30
0.0
 10
893.8442099827195
 20
241.5379807439216
 30
0.0
 10
894.1451465885414
 20
241.524391250252
 30
0.0
 10
894.4238977049477
 20
241.4868326763285
 30
0.0
 10
894.6845714355079
 20
241.4267673061615
 30
0.0
 10
894.9269449010059
 20
241.3444016597244
 30
0.0
 10
895.1475239204697
 20
241.2413644609009
 30
0.0
 10
895.3435567171391
 20
241.1205522752396
 30
0.0
 10
895.5160483951671
 20
240.9838927463072
 30
0.0
 10
895.6689243046097
 20
240.830172898271
 30
0.0
 10
895.8054076183088
 20
240.6557844530298
 30
0.0
 10
895.9255495699979
 20
240.4579102793094
 30
0.0
 10
896.0269405902538
 20
240.2371995575557
 30
0.0
 10
896.1074055361082
 20
239.9965962624244
 30
0.0
 10
896.1661298040747
 20
239.7380417770243
 30
0.0
 10
896.2029249904749
 20
239.4603439167728
 30
0.0
 10
896.2159151874832
 20
239.1599244373307
 30
0.0
 10
896.2040675861888
 20
238.8321763364824
 30
0.0
 10
896.1715523021708
 20
238.6063621439117
 30
0.0
 10
896.154506442472
 20
238.4879809837641
 30
0.0
 11
893.1659223482722
 21
241.476565078064
 31
0.0
 11
893.5273355884721
 21
241.5214840176641
 31
0.0
 11
893.8537768622721
 21
241.5337736740641
 31
0.0
 11
894.1512313653722
 21
241.5195552623641
 31
0.0
 11
894.427067159772
 21
241.4819778860641
 31
0.0
 11
894.6865761324721
 21
241.4216089614641
 31
0.0
 11
894.929227546172
 21
241.3385586813641
 31
0.0
 11
895.1497376745722
 21
241.2349997991641
 31
0.0
 11
895.344277850072
 21
241.1146972199641
 31
0.0
 11
895.5141766209722
 21
240.979878695564
 31
0.0
 11
895.6644198440722
 21
240.8288122446641
 31
0.0
 11
895.7995013612721
 21
240.656506109964
 31
0.0
 11
895.9195908295721
 21
240.4594214365641
 31
0.0
 11
896.0215455741721
 21
240.2386831402641
 31
0.0
 11
896.1023573944721
 21
239.998728819564
 31
0.0
 11
896.161217125172
 21
239.7419938012641
 31
0.0
 11
896.1980858724722
 21
239.4667997980641
 31
0.0
 11
896.2117476929719
 21
239.168964220464
 31
0.0
 11
896.198975506272
 21
238.8437951408641
 31
0.0
 11
896.154506442472
 21
238.4879809837641
 31
0.0
  0
SPLINE
  5
B42
330
21
100
AcDbEntity
  8
0
  6
Continuous
100
AcDbSpline
210
0.0
220
0.0
230
1.0
 70
     8
 71
     3
 72
    12
 73
     8
 74
     6
 42
0.0000000001
 43
0.0000000001
 44
0.0000000001
 40
0.0
 40
0.0
 40
0.0
 40
0.0
 40
1.394600502319067
 40
2.930742620922203
 40
4.566259986490392
 40
6.272984673840549
 40
7.997028015009504
 40
7.997028015009504
 40
7.997028015009504
 40
7.997028015009504
 10
897.244196867572
 20
236.8056513793641
 30
0.0
 10
897.2120036646945
 20
236.3418874617955
 30
0.0
 10
897.1443498874158
 20
235.3672910257522
 30
0.0
 10
897.0745380894193
 20
233.8466825005427
 30
0.0
 10
897.0218304217698
 20
232.221389675581
 30
0.0
 10
896.9891409204467
 20
230.5328649037691
 30
0.0
 10
896.9850602989772
 20
229.3892697781651
 30
0.0
 10
896.9830096886722
 20
228.8145857584641
 30
0.0
 11
897.244196867572
 21
236.8056513793641
 31
0.0
 11
897.1527905774721
 21
235.4140496219641
 31
0.0
 11
897.0793937347721
 21
233.879661955164
 31
0.0
 11
897.0260828064722
 21
232.2450136755641
 31
0.0
 11
896.9937211910722
 21
230.5385958239641
 31
0.0
 11
896.9830096886722
 21
228.8145857584641
 31
0.0
  0
SPLINE
  5
B43
330
21
100
AcDbEntity
  8
0
  6
Continuous
100
AcDbSpline
210
0.0
220
0.0
230
1.0
 70
     8
 71
     3
 72
    10
 73
     6
 74
     4
 42
0.0000000001
 43
0.0000000001
 44
0.0000000001
 40
0.0
 40
0.0
 40
0.0
 40
0.0
 40
0.6255705304976609
 40
1.305785936516595
 40
2.057338644683004
 40
2.057338644683004
 40
2.057338644683004
 40
2.057338644683004
 10
896.154510887972
 20
238.4879809837641
 30
0.0
 10
896.1976177314674
 20
238.2823882951491
 30
0.0
 10
896.2875968901071
 20
237.8532439727166
 30
0.0
 10
896.6836362639129
 20
237.2713812025633
 30
0.0
 10
897.0512318847184
 20
236.9659634092565
 30
0.0
 10
897.2441873511721
 20
236.8056458498641
 30
0.0
 11
896.154510887972
 21
238.4879809837641
 31
0.0
 11
896.3208716462721
 21
237.8849365519641
 31
0.0
 11
896.6906642192721
 21
237.3140193499641
 31
0.0
 11
897.2441873511721
 21
236.8056458498641
 31
0.0
  0
SPLINE
  5
B44
330
21
100
AcDbEntity
  8
0
  6
Continuous
100
AcDbSpline
210
0.0
220
0.0
230
1.0
 70
     8
 71
     3
 72
    12
 73
     8
 74
     6
 42
0.0000000001
 43
0.0000000001
 44
0.0000000001
 40
0.0
 40
0.0
 40
0.0
 40
0.0
 40
1.687115126178658
 40
3.546948752589713
 40
5.527231094109361
 40
7.59381945777201
 40
9.680612866896084
 40
9.680612866896084
 40
9.680612866896084
 40
9.680612866896084
 10
896.154506442472
 20
238.4879809837641
 30
0.0
 10
896.1155601759747
 20
237.9269436034259
 30
0.0
 10
896.0336805168885
 20
236.7474326112778
 30
0.0
 10
895.9491504411378
 20
234.9068126394939
 30
0.0
 10
895.8853344274683
 20
232.9389223426267
 30
0.0
 10
895.845754347504
 20
230.8946546808982
 30
0.0
 10
895.8408144522874
 20
229.5101870823568
 30
0.0
 10
895.8383324890721
 20
228.8145857584641
 30
0.0
 11
896.154506442472
 21
238.4879809837641
 31
0.0
 11
896.0439198882721
 21
236.8044941073641
 31
0.0
 11
895.9550363228721
 21
234.9467856184641
 31
0.0
 11
895.8904831729722
 21
232.967555706864
 31
0.0
 11
895.8512970756721
 21
230.9013388947641
 31
0.0
 11
895.8383324890721
 21
228.8145857584641
 31
0.0
  0
SPLINE
  5
B45
330
21
100
AcDbEntity
  8
0
  6
Continuous
100
AcDbSpline
210
0.0
220
0.0
230
1.0
 70
     8
 71
     3
 72
    13
 73
     9
 74
     7
 42
0.0000000001
 43
0.0000000001
 44
0.0000000001
 40
0.0
 40
0.0
 40
0.0
 40
0.0
 40
0.6507590671390798
 40
1.331890182598201
 40
2.051155144999268
 40
2.808250959907614
 40
3.598175749530772
 40
4.422221011117591
 40
4.422221011117591
 40
4.422221011117591
 40
4.422221011117591
 10
896.9830096886722
 20
215.4573644867641
 30
0.0
 10
896.9776898725709
 20
215.240377269972
 30
0.0
 10
896.9668019553731
 20
214.7962756686448
 30
0.0
 10
896.8745033594229
 20
214.1174472840074
 30
0.0
 10
896.7138988223693
 20
213.4152691171183
 30
0.0
 10
896.4659075666273
 20
212.7004672566174
 30
0.0
 10
896.1294033170113
 20
211.9821184512547
 30
0.0
 10
895.8267139293874
 20
211.5364533645026
 30
0.0
 10
895.6721697013721
 20
211.3089099830641
 30
0.0
 11
896.9830096886722
 21
215.4573644867641
 31
0.0
 11
896.9553418322721
 21
214.8071938528641
 31
0.0
 11
896.866465416072
 21
214.1318860866641
 31
0.0
 11
896.7044553021722
 21
213.4311045164641
 31
0.0
 11
896.457460120772
 21
212.715431788664
 31
0.0
 11
896.1166075811719
 21
212.002830413764
 31
0.0
 11
895.6721697013721
 21
211.3089099830641
 31
0.0
  0
SPLINE
  5
B46
330
21
100
AcDbEntity
  8
0
  6
Continuous
100
AcDbSpline
210
0.0
220
0.0
230
1.0
 70
     8
 71
     3
 72
    13
 73
     9
 74
     7
 42
0.0000000001
 43
0.0000000001
 44
0.0000000001
 40
0.0
 40
0.0
 40
0.0
 40
0.0
 40
0.2799864716483867
 40
0.5708346105372494
 40
0.8777819343373118
 40
1.203764766120352
 40
1.551103042918177
 40
1.924989140094925
 40
1.924989140094925
 40
1.924989140094925
 40
1.924989140094925
 10
895.8383324890721
 20
215.4573644867641
 30
0.0
 10
895.8362149235355
 20
215.3639521022925
 30
0.0
 10
895.8318976445924
 20
215.1735035359911
 30
0.0
 10
895.7808036276301
 20
214.8842724966715
 30
0.0
 10
895.689609555917
 20
214.5892157049456
 30
0.0
 10
895.5477749600937
 20
214.293736132397
 30
0.0
 10
895.3535730072044
 20
214.0013746771452
 30
0.0
 10
895.1849786061115
 20
213.8293354985254
 30
0.0
 10
895.0975784780721
 20
213.7401495816641
 30
0.0
 11
895.8383324890721
 21
215.4573644867641
 31
0.0
 11
895.8250247407721
 21
215.1776944523641
 31
0.0
 11
895.7760081883721
 21
214.8910064381641
 31
0.0
 11
895.6846455703723
 21
214.5979714033641
 31
0.0
 11
895.5444323736722
 21
214.3036840164641
 31
0.0
 11
895.3504144579722
 21
214.0155852019641
 31
0.0
 11
895.0975784780721
 21
213.7401495816641
 31
0.0
  0
SPLINE
  5
B47
330
21
100
AcDbEntity
  8
0
  6
Continuous
100
AcDbSpline
210
0.0
220
0.0
230
1.0
 70
     8
 71
     3
 72
    14
 73
    10
 74
     8
 42
0.0000000001
 43
0.0000000001
 44
0.0000000001
 40
0.0
 40
0.0
 40
0.0
 40
0.0
 40
0.5990623328043035
 40
1.242006402178637
 40
1.931687298951818
 40
2.663940032120136
 40
3.43596786529477
 40
4.249679959512209
 40
5.107134615409319
 40
5.107134615409319
 40
5.107134615409319
 40
5.107134615409319
 10
895.6721697013721
 20
211.3089099830641
 30
0.0
 10
895.5480149915284
 20
211.1521441761482
 30
0.0
 10
895.2906111521568
 20
210.8271293568709
 30
0.0
 10
894.8050716070508
 20
210.3985528104322
 30
0.0
 10
894.2180138637904
 20
210.0325921320605
 30
0.0
 10
893.5264165002338
 20
209.7767705976697
 30
0.0
 10
892.7556783493932
 20
209.672440955109
 30
0.0
 10
891.9343659900212
 20
209.7316378970036
 30
0.0
 10
891.4058419509267
 20
209.9137434722483
 30
0.0
 10
891.1346629090722
 20
210.007179554164
 30
0.0
 11
895.6721697013721
 21
211.3089099830641
 31
0.0
 11
895.2869610007722
 21
210.8501181614641
 31
0.0
 11
894.8065977796721
 21
210.4227678927641
 31
0.0
 11
894.2197736082723
 21
210.0604184326641
 31
0.0
 11
893.5327972085721
 21
209.8069278184641
 31
0.0
 11
892.768162459672
 21
209.700341346664
 31
0.0
 11
891.9569562548721
 21
209.764152517864
 31
0.0
 11
891.1346629090722
 21
210.007179554164
 31
0.0
  0
SPLINE
  5
B48
330
21
100
AcDbEntity
  8
0
  6
Continuous
100
AcDbSpline
210
0.0
220
0.0
230
1.0
 70
     8
 71
     3
 72
    11
 73
     7
 74
     5
 42
0.0000000001
 43
0.0000000001
 44
0.0000000001
 40
0.0
 40
0.0
 40
0.0
 40
0.0
 40
0.4960393146036356
 40
1.087181905144915
 40
1.788706739138273
 40
2.59102296277149
 40
2.59102296277149
 40
2.59102296277149
 40
2.59102296277149
 10
895.097578500372
 20
213.740149564364
 30
0.0
 10
895.0479056335748
 20
213.5804582772065
 30
0.0
 10
894.9390363557402
 20
213.2304588463234
 30
0.0
 10
895.0350179168133
 20
212.6258611874214
 30
0.0
 10
895.2693549667185
 20
211.9667719960615
 30
0.0
 10
895.5320298238355
 20
211.5377813485295
 30
0.0
 10
895.6721698328721
 20
211.3089099830641
 30
0.0
 11
895.097578500372
 21
213.740149564364
 31
0.0
 11
894.983368192072
 21
213.2574374274641
 31
0.0
 11
895.0448272216721
 21
212.6694983574641
 31
0.0
 11
895.2786365948721
 21
212.0080830040641
 31
0.0
 11
895.6721698328721
 21
211.3089099830641
 31
0.0
  0
SPLINE
  5
B49
330
21
100
AcDbEntity
  8
0
  6
Continuous
100
AcDbSpline
210
0.0
220
0.0
230
1.0
 70
     8
 71
     3
 72
    14
 73
    10
 74
     8
 42
0.0000000001
 43
0.0000000001
 44
0.0000000001
 40
0.0
 40
0.0
 40
0.0
 40
0.0
 40
0.28021639937766
 40
0.5894220587661965
 40
0.9312922822039655
 40
1.304073571197886
 40
1.703541016742193
 40
2.125288408568014
 40
2.564172266714103
 40
2.564172266714103
 40
2.564172266714103
 40
2.564172266714103
 10
895.0975781035721
 20
213.740149167764
 30
0.0
 10
895.0327835748026
 20
213.6726803872375
 30
0.0
 10
894.8964913212838
 20
213.5307629705242
 30
0.0
 10
894.6437169905512
 20
213.3475779723621
 30
0.0
 10
894.3387453430912
 20
213.1913603961808
 30
0.0
 10
893.981152227902
 20
213.08292675868
 30
0.0
 10
893.5838303248831
 20
213.0389619551708
 30
0.0
 10
893.1612735690244
 20
213.0636714699918
 30
0.0
 10
892.8846168991206
 20
213.1422124707756
 30
0.0
 10
892.7435342383722
 20
213.182264906064
 30
0.0
 11
895.0975781035721
 21
213.740149167764
 31
0.0
 11
894.897840129872
 21
213.5436142539641
 31
0.0
 11
894.648699966372
 21
213.3604822831641
 31
0.0
 11
894.3441749497722
 21
213.2051125179641
 31
0.0
 11
893.987593861572
 21
213.0964119339641
 31
0.0
 11
893.590745004772
 21
213.0507476710641
 31
0.0
 11
893.169888361672
 21
213.0781438107641
 31
0.0
 11
892.7435342383722
 21
213.182264906064
 31
0.0
  0
SPLINE
  5
B4A
330
21
100
AcDbEntity
  8
0
  6
Continuous
100
AcDbSpline
210
0.0
220
0.0
230
1.0
 70
     8
 71
     3
 72
    12
 73
     8
 74
     0
 42
0.0000000001
 43
0.0000000001
 40
0.0
 40
0.0
 40
0.0
 40
0.0
 40
2.064790718925979
 40
3.934670730982642
 40
5.603666971117119
 40
7.121512519803114
 40
8.032994977628912
 40
8.032994977628912
 40
8.032994977628912
 40
8.032994977628912
 10
891.1346629090722
 20
210.007179554164
 30
0.0
 10
890.4994133553126
 20
210.2720128512004
 30
0.0
 10
889.2888801021662
 20
210.776679892217
 30
0.0
 10
887.5566735659965
 20
211.4765332291157
 30
0.0
 10
885.9526615290743
 20
212.0018711514189
 30
0.0
 10
884.607770638492
 20
212.2688546396989
 30
0.0
 10
883.7967635044909
 20
212.3134471912213
 30
0.0
 10
883.4925271229721
 20
212.3135967813135
 30
0.0
  0
SPLINE
  5
B4B
330
21
100
AcDbEntity
  8
0
  6
Continuous
100
AcDbSpline
210
0.0
220
0.0
230
1.0
 70
     8
 71
     3
 72
    11
 73
     7
 74
     5
 42
0.0000000001
 43
0.0000000001
 44
0.0000000001
 40
0.0
 40
0.0
 40
0.0
 40
0.0
 40
0.7710245983993265
 40
1.653989256722778
 40
2.608132790409225
 40
3.585876609924235
 40
3.585876609924235
 40
3.585876609924235
 40
3.585876609924235
 10
892.743533601472
 20
213.1822717574641
 30
0.0
 10
892.5810746459438
 20
212.9825552172895
 30
0.0
 10
892.2325703729804
 20
212.5541265880026
 30
0.0
 10
891.809691289272
 20
211.7905843041914
 30
0.0
 10
891.4231872832183
 20
210.9341317489204
 30
0.0
 10
891.2316181266262
 20
210.3186698172281
 30
0.0
 10
891.1346634265722
 20
210.007179554164
 30
0.0
 11
892.743533601472
 21
213.1822717574641
 31
0.0
 11
892.2736126221721
 21
212.5709999647641
 31
0.0
 11
891.831769338072
 21
211.8065386510641
 31
0.0
 11
891.4444044218722
 21
210.934564852964
 31
0.0
 11
891.1346634265722
 21
210.007179554164
 31
0.0
  0
SPLINE
  5
B4C
330
21
100
AcDbEntity
  8
0
  6
Continuous
100
AcDbSpline
210
0.0
220
0.0
230
1.0
 70
     8
 71
     3
 72
    12
 73
     8
 74
     0
 42
0.0000000001
 43
0.0000000001
 40
0.0
 40
0.0
 40
0.0
 40
0.0
 40
2.333459971951162
 40
4.460973199348796
 40
6.399515126944343
 40
8.209322613714472
 40
9.312074803130042
 40
9.312074803130042
 40
9.312074803130042
 40
9.312074803130042
 10
892.743533600972
 20
213.1822651120641
 30
0.0
 10
891.9740573895474
 20
213.2958616252887
 30
0.0
 10
890.5030174754442
 20
213.5130288392653
 30
0.0
 10
888.391248231403
 20
213.8149375937851
 30
0.0
 10
886.4451296098168
 20
214.0395216962272
 30
0.0
 10
884.8312063375194
 20
214.1517650234938
 30
0.0
 10
883.8601731183697
 20
214.1707276803359
 30
0.0
 10
883.4925271229721
 20
214.1707764008383
 30
0.0
  0
SPLINE
  5
B4D
330
21
100
AcDbEntity
  8
0
  6
Continuous
100
AcDbSpline
210
0.0
220
0.0
230
1.0
 70
     8
 71
     3
 72
     9
 73
     5
 74
     3
 42
0.0000000001
 43
0.0000000001
 44
0.0000000001
 40
0.0
 40
0.0
 40
0.0
 40
0.0
 40
0.3694318580558904
 40
0.7696030221655599
 40
0.7696030221655599
 40
0.7696030221655599
 40
0.7696030221655599
 10
866.668111016872
 20
242.5751080626641
 30
0.0
 10
866.5847948913247
 20
242.4843726697904
 30
0.0
 10
866.4112301577532
 20
242.2953520668016
 30
0.0
 10
866.2514646968712
 20
242.094521554217
 30
0.0
 10
866.1683913088721
 20
241.9900955349641
 30
0.0
 11
866.668111016872
 21
242.5751080626641
 31
0.0
 11
866.4213423783721
 21
242.3001805507641
 31
0.0
 11
866.1683913088721
 21
241.9900955349641
 31
0.0
  0
SPLINE
  5
B4E
330
21
100
AcDbEntity
  8
0
  6
Continuous
100
AcDbSpline
210
0.0
220
0.0
230
1.0
 70
     8
 71
     3
 72
     9
 73
     5
 74
     3
 42
0.0000000001
 43
0.0000000001
 44
0.0000000001
 40
0.0
 40
0.0
 40
0.0
 40
0.0
 40
0.2489939034402798
 40
0.5195398131421537
 40
0.5195398131421537
 40
0.5195398131421537
 40
0.5195398131421537
 10
869.5346422461721
 20
241.089628734764
 30
0.0
 10
869.4617781171849
 20
241.0497556816457
 30
0.0
 10
869.3097430053374
 20
240.966558309018
 30
0.0
 10
869.167430962558
 20
240.867621494425
 30
0.0
 10
869.093323184672
 20
240.8161009952641
 30
0.0
 11
869.5346422461721
 21
241.089628734764
 31
0.0
 11
869.3182831389721
 21
240.9663944023641
 31
0.0
 11
869.093323184672
 21
240.8161009952641
 31
0.0
  0
SPLINE
  5
B4F
330
21
100
AcDbEntity
  8
0
  6
Continuous
100
AcDbSpline
210
0.0
220
0.0
230
1.0
 70
     8
 71
     3
 72
    13
 73
     9
 74
     7
 42
0.0000000001
 43
0.0000000001
 44
0.0000000001
 40
0.0
 40
0.0
 40
0.0
 40
0.0
 40
0.5052744943978864
 40
1.024002674418314
 40
1.540542782557157
 40
2.056536367606561
 40
2.586006396422464
 40
3.153856685433534
 40
3.153856685433534
 40
3.153856685433534
 40
3.153856685433534
 10
869.0933230197721
 20
240.8161009058641
 30
0.0
 10
868.9512459122304
 20
240.7238351566285
 30
0.0
 10
868.6633086826463
 20
240.5368469452265
 30
0.0
 10
868.3424849733049
 20
240.1245694862807
 30
0.0
 10
868.1282438931637
 20
239.6487943400244
 30
0.0
 10
868.0462067427859
 20
239.1290003335418
 30
0.0
 10
868.0930573496335
 20
238.5862091259959
 30
0.0
 10
868.2240779215708
 20
238.2431310724071
 30
0.0
 10
868.2918795182723
 20
238.0655922364641
 30
0.0
 11
869.0933230197721
 21
240.8161009058641
 31
0.0
 11
868.6852755277721
 21
240.5181083573641
 31
0.0
 11
868.3602611223721
 21
240.113825583764
 31
0.0
 11
868.150284714372
 21
239.6418895802641
 31
0.0
 11
868.067685619572
 21
239.1325500379641
 31
0.0
 11
868.115027685272
 21
238.6052007796641
 31
0.0
 11
868.2918795182723
 21
238.0655922364641
 31
0.0
  0
SPLINE
  5
B50
330
21
100
AcDbEntity
  8
0
  6
Continuous
100
AcDbSpline
210
0.0
220
0.0
230
1.0
 70
     8
 71
     3
 72
    11
 73
     7
 74
     5
 42
0.0000000001
 43
0.0000000001
 44
0.0000000001
 40
0.0
 40
0.0
 40
0.0
 40
0.0
 40
0.9479005263279394
 40
1.814625546065029
 40
2.591059678254695
 40
3.29225086013551
 40
3.29225086013551
 40
3.29225086013551
 40
3.29225086013551
 10
866.1683701998722
 20
241.9900577782641
 30
0.0
 10
866.3977850368435
 20
241.7707696897662
 30
0.0
 10
866.8369682762778
 20
241.3509727213252
 30
0.0
 10
867.59897970917
 20
240.9316735103618
 30
0.0
 10
868.3676021816116
 20
240.7076538456504
 30
0.0
 10
868.8597713955996
 20
240.781197368571
 30
0.0
 10
869.0933249964722
 20
240.8160966554641
 30
0.0
 11
866.1683701998722
 21
241.9900577782641
 31
0.0
 11
866.8823964883721
 21
241.3666142225641
 31
0.0
 11
867.6409719640722
 21
240.947358325164
 31
0.0
 11
868.3944009750721
 21
240.7597558544641
 31
0.0
 11
869.0933249964722
 21
240.8160966554641
 31
0.0
  0
SPLINE
  5
B51
330
21
100
AcDbEntity
  8
0
  6
Continuous
100
AcDbSpline
210
0.0
220
0.0
230
1.0
 70
     8
 71
     3
 72
    13
 73
     9
 74
     7
 42
0.0000000001
 43
0.0000000001
 44
0.0000000001
 40
0.0
 40
0.0
 40
0.0
 40
0.0
 40
0.7736111653572128
 40
1.653768421667704
 40
2.60357780787413
 40
3.599482747953103
 40
4.62727407818625
 40
5.684208496908076
 40
5.684208496908076
 40
5.684208496908076
 40
5.684208496908076
 10
866.1683913088721
 20
241.9900955349641
 30
0.0
 10
866.0240411542907
 20
241.7755448796593
 30
0.0
 10
865.7154601280603
 20
241.3168944432643
 30
0.0
 10
865.4082490597589
 20
240.4978282996229
 30
0.0
 10
865.1999151333566
 20
239.57710487191
 30
0.0
 10
865.1221031909364
 20
238.5859996320638
 30
0.0
 10
865.1657939702584
 20
237.5563745001819
 30
0.0
 10
865.2992744288627
 20
236.8735608124983
 30
0.0
 10
865.366947642472
 20
236.5273813265641
 30
0.0
 11
866.1683913088721
 21
241.9900955349641
 31
0.0
 11
865.7601650499721
 21
241.3329611828641
 31
0.0
 11
865.4352092881721
 21
240.5149877427641
 31
0.0
 11
865.2253626947722
 21
239.5886496417641
 31
0.0
 11
865.142713811972
 21
238.5961800896641
 31
0.0
 11
865.1906379068721
 21
237.5695066753641
 31
0.0
 11
865.366947642472
 21
236.5273813265641
 31
0.0
  0
SPLINE
  5
B52
330
21
100
AcDbEntity
  8
0
  6
Continuous
100
AcDbSpline
210
0.0
220
0.0
230
1.0
 70
     8
 71
     3
 72
    11
 73
     7
 74
     0
 42
0.0000000001
 43
0.0000000001
 40
0.0
 40
0.0
 40
0.0
 40
0.0
 40
2.620974963803239
 40
5.472173750061811
 40
8.564207059629029
 40
9.314437991666921
 40
9.314437991666921
 40
9.314437991666921
 40
9.314437991666921
 10
868.2918795182723
 20
238.0655922364641
 30
0.0
 10
868.4491797135967
 20
237.2060875983574
 30
0.0
 10
868.7775971962599
 20
235.4115802933816
 30
0.0
 10
869.1225250362444
 20
232.5755189687852
 30
0.0
 10
869.2424032475932
 20
230.3457511517728
 30
0.0
 10
869.2537682678556
 20
229.0647185552747
 30
0.0
 10
869.2537969132324
 20
228.814585758464
 30
0.0
  0
SPLINE
  5
B53
330
21
100
AcDbEntity
  8
0
  6
Continuous
100
AcDbSpline
210
0.0
220
0.0
230
1.0
 70
     8
 71
     3
 72
    11
 73
     7
 74
     5
 42
0.0000000001
 43
0.0000000001
 44
0.0000000001
 40
0.0
 40
0.0
 40
0.0
 40
0.0
 40
0.8608544296737004
 40
1.724249535552395
 40
2.554106630610603
 40
3.316501756899452
 40
3.316501756899452
 40
3.316501756899452
 40
3.316501756899452
 10
865.3669472453721
 20
236.527379450464
 30
0.0
 10
865.6355161951032
 20
236.6288491756654
 30
0.0
 10
866.1734467335025
 20
236.8320880979737
 30
0.0
 10
866.9396264304744
 20
237.205171555268
 30
0.0
 10
867.6542220935054
 20
237.6070078303035
 30
0.0
 10
868.0854091838793
 20
237.9171103363531
 30
0.0
 10
868.2918682685722
 20
238.0655922389641
 30
0.0
 11
865.3669472453721
 21
236.527379450464
 31
0.0
 11
866.1674965824722
 21
236.8439092404641
 31
0.0
 11
866.945734338172
 21
237.2178037502641
 31
0.0
 11
867.665117921372
 21
237.6315066127641
 31
0.0
 11
868.2918682685722
 21
238.0655922389641
 31
0.0
  0
SPLINE
  5
B54
330
21
100
AcDbEntity
  8
0
  6
Continuous
100
AcDbSpline
210
0.0
220
0.0
230
1.0
 70
     8
 71
     3
 72
    11
 73
     7
 74
     0
 42
0.0000000001
 43
0.0000000001
 40
0.0
 40
0.0
 40
0.0
 40
0.0
 40
2.181247936487485
 40
4.556856864832191
 40
7.155488660791085
 40
7.789119967028105
 40
7.789119967028105
 40
7.789119967028105
 40
7.789119967028105
 10
865.366947642472
 20
236.5273813265641
 30
0.0
 10
865.5243172031919
 20
235.8173809814231
 30
0.0
 10
865.853078803873
 20
234.3341154192335
 30
0.0
 10
866.1987220992523
 20
231.9713473531922
 30
0.0
 10
866.3174545860977
 20
230.1036167053225
 30
0.0
 10
866.3288060904093
 20
229.0258624793902
 30
0.0
 10
866.3288327107316
 20
228.8145857584641
 30
0.0
  0
SPLINE
  5
B55
330
21
100
AcDbEntity
  8
0
  6
Continuous
100
AcDbSpline
210
0.0
220
0.0
230
1.0
 70
     8
 71
     3
 72
    11
 73
     7
 74
     5
 42
0.0000000001
 43
0.0000000001
 44
0.0000000001
 40
0.0
 40
0.0
 40
0.0
 40
0.0
 40
0.077127469010152
 40
0.1542533269848283
 40
0.2313792519667894
 40
0.3085065589943046
 40
0.3085065589943046
 40
0.3085065589943046
 40
0.3085065589943046
 10
886.9805389089721
 20
231.3134074364641
 30
0.0
 10
886.9605657621383
 20
231.3315904648891
 30
0.0
 10
886.9206198856691
 20
231.3679561419327
 30
0.0
 10
886.8349110464503
 20
231.351511152871
 30
0.0
 10
886.7819835826701
 20
231.2821236722135
 30
0.0
 10
886.7967193769958
 20
231.230153731857
 30
0.0
 10
886.8040873401722
 20
231.2041685288641
 30
0.0
 11
886.9805389089721
 21
231.3134074364641
 31
0.0
 11
886.916320995672
 21
231.3561240150641
 31
0.0
 11
886.8403745856722
 21
231.3426874687641
 31
0.0
 11
886.7944888961721
 21
231.2806962451641
 31
0.0
 11
886.8040873401722
 21
231.2041685288641
 31
0.0
  0
SPLINE
  5
B56
330
21
100
AcDbEntity
  8
0
  6
Continuous
100
AcDbSpline
210
0.0
220
0.0
230
1.0
 70
     8
 71
     3
 72
     9
 73
     5
 74
     3
 42
0.0000000001
 43
0.0000000001
 44
0.0000000001
 40
0.0
 40
0.0
 40
0.0
 40
0.0
 40
2.871172105564384
 40
5.742344202064254
 40
5.742344202064254
 40
5.742344202064254
 40
5.742344202064254
 10
888.9222661581721
 20
225.9591249798641
 30
0.0
 10
888.7706892550584
 20
226.9138971526588
 30
0.0
 10
888.4675354493101
 20
228.8234414952338
 30
0.0
 10
887.4762044218966
 20
230.4834187902608
 30
0.0
 10
886.9805389089721
 20
231.3134074364641
 30
0.0
 11
888.9222661581721
 21
225.9591249798641
 31
0.0
 11
888.2954911428722
 21
228.7610497361641
 31
0.0
 11
886.9805389089721
 21
231.3134074364641
 31
0.0
  0
SPLINE
  5
B57
330
21
100
AcDbEntity
  8
0
  6
Continuous
100
AcDbSpline
210
0.0
220
0.0
230
1.0
 70
     8
 71
     3
 72
    15
 73
    11
 74
     9
 42
0.0000000001
 43
0.0000000001
 44
0.0000000001
 40
0.0
 40
0.0
 40
0.0
 40
0.0
 40
0.7961246981109835
 40
2.989732401286224
 40
5.276388048749119
 40
5.519584429006428
 40
5.759194306765056
 40
6.16724185590244
 40
6.552647614973233
 40
6.906352404363386
 40
6.906352404363386
 40
6.906352404363386
 40
6.906352404363386
 10
886.8040873401722
 20
231.2041685288641
 30
0.0
 10
886.924437447476
 20
230.9678517792194
 30
0.0
 10
887.3763950568279
 20
230.0803980360359
 30
0.0
 10
887.9746896446211
 20
228.3993071637008
 30
0.0
 10
888.0015083169546
 20
226.8056632416721
 30
0.0
 10
888.023086392596
 20
225.8875672883981
 30
0.0
 10
888.0959111990557
 20
225.5867844743895
 30
0.0
 10
888.4551166928691
 20
225.4003094170959
 30
0.0
 10
888.8712900070814
 20
225.5763283462837
 30
0.0
 10
888.9057670222608
 20
225.8352275582503
 30
0.0
 10
888.9222661581721
 20
225.9591249798641
 30
0.0
 11
886.8040873401722
 21
231.2041685288641
 31
0.0
 11
887.1571286280721
 21
230.4906025655641
 31
0.0
 11
887.848452207972
 21
228.4087796952641
 31
0.0
 11
888.0174792067721
 21
226.1283797470641
 31
0.0
 11
888.0321740275721
 21
225.8856277303641
 31
0.0
 11
888.1057186192721
 21
225.6575836851641
 31
0.0
 11
888.4661533446722
 21
225.4662995742641
 31
0.0
 11
888.8192567033721
 21
225.6207522116641
 31
0.0
 11
888.9222661581721
 21
225.9591249798641
 31
0.0
  0
SPLINE
  5
B58
330
21
100
AcDbEntity
  8
0
  6
Continuous
100
AcDbSpline
210
0.0
220
0.0
230
1.0
 70
     8
 71
     3
 72
    11
 73
     7
 74
     5
 42
0.0000000001
 43
0.0000000001
 44
0.0000000001
 40
0.0
 40
0.0
 40
0.0
 40
0.0
 40
0.0918319893274819
 40
0.1836625894419817
 40
0.2754933244632944
 40
0.3673255048425452
 40
0.3673255048425452
 40
0.3673255048425452
 40
0.3673255048425452
 10
887.877969934572
 20
231.1103828000641
 30
0.0
 10
887.8502276957895
 20
231.1265917811556
 30
0.0
 10
887.7947436379027
 20
231.1590094981329
 30
0.0
 10
887.6988990207739
 20
231.1195161914611
 30
0.0
 10
887.6529958987724
 20
231.0265710465382
 30
0.0
 10
887.6815752839358
 20
230.9690157230684
 30
0.0
 10
887.695865088972
 20
230.9402378348641
 30
0.0
 11
887.877969934572
 21
231.1103828000641
 31
0.0
 11
887.7926400655722
 21
231.1443228607641
 31
0.0
 11
887.7072226033721
 21
231.1106076376641
 31
0.0
 11
887.6677912971722
 21
231.0276735916641
 31
0.0
 11
887.695865088972
 21
230.9402378348641
 31
0.0
  0
SPLINE
  5
B59
330
21
100
AcDbEntity
  8
0
  6
Continuous
100
AcDbSpline
210
0.0
220
0.0
230
1.0
 70
     8
 71
     3
 72
     9
 73
     5
 74
     3
 42
0.0000000001
 43
0.0000000001
 44
0.0000000001
 40
0.0
 40
0.0
 40
0.0
 40
0.0
 40
2.085442807423163
 40
4.170885674814159
 40
4.170885674814159
 40
4.170885674814159
 40
4.170885674814159
 10
889.6657253901722
 20
227.4187450501641
 30
0.0
 10
889.537942787549
 20
228.1164297169889
 30
0.0
 10
889.2823775786285
 20
229.5117990707009
 30
0.0
 10
888.3461058204111
 20
230.5775215518355
 30
0.0
 10
887.877969934572
 20
231.1103828000641
 30
0.0
 11
889.6657253901722
 21
227.4187450501641
 31
0.0
 11
889.1122009498722
 21
229.4293873348641
 31
0.0
 11
887.877969934572
 21
231.1103828000641
 31
0.0
  0
SPLINE
  5
B5A
330
21
100
AcDbEntity
  8
0
  6
Continuous
100
AcDbSpline
210
0.0
220
0.0
230
1.0
 70
     8
 71
     3
 72
    18
 73
    14
 74
    12
 42
0.0000000001
 43
0.0000000001
 44
0.0000000001
 40
0.0
 40
0.0
 40
0.0
 40
0.0
 40
0.1451589421536377
 40
0.2903448891956261
 40
0.4378320553668268
 40
0.5860911764671621
 40
0.7345019168995588
 40
0.8811731041465558
 40
0.954036549938134
 40
1.027168656993421
 40
1.100226329889783
 40
1.136581100925913
 40
1.172880954970579
 40
1.172880954970579
 40
1.172880954970579
 40
1.172880954970579
 10
888.9387993261721
 20
227.3921919823641
 30
0.0
 10
888.9439402901539
 20
227.3434548348907
 30
0.0
 10
888.9542231745256
 20
227.2459714730465
 30
0.0
 10
889.0404870202265
 20
227.1207747754723
 30
0.0
 10
889.1670729798482
 20
227.0398934704764
 30
0.0
 10
889.3172396396407
 20
227.013114088518
 30
0.0
 10
889.4642706729321
 20
227.0510208532619
 30
0.0
 10
889.5656170686632
 20
227.1263587439351
 30
0.0
 10
889.6217867951457
 20
227.2069014677387
 30
0.0
 10
889.6515081197761
 20
227.2740464567298
 30
0.0
 10
889.6651595096339
 20
227.3338485499864
 30
0.0
 10
889.6676881316769
 20
227.3824621192837
 30
0.0
 10
889.6663793075763
 20
227.4066568358397
 30
0.0
 10
889.6657253901722
 20
227.4187450501641
 30
0.0
 11
888.9387993261721
 21
227.3921919823641
 31
0.0
 11
888.9659506129721
 21
227.2495949062641
 31
0.0
 11
889.0465200954722
 21
227.1288161096641
 31
0.0
 11
889.1706029469721
 21
227.0490921474641
 31
0.0
 11
889.316710453472
 21
227.0239254326641
 31
0.0
 11
889.4606523232723
 21
227.0600707780641
 31
0.0
 11
889.5777628657722
 21
227.1483745605641
 31
0.0
 11
889.619689973472
 21
227.2079665010641
 31
0.0
 11
889.6492903239721
 21
227.2748404446641
 31
0.0
 11
889.665102692972
 21
227.346166404564
 31
0.0
 11
889.6670457036721
 21
227.3824692155641
 31
0.0
 11
889.6657253901722
 21
227.4187450501641
 31
0.0
  0
SPLINE
  5
B5B
330
21
100
AcDbEntity
  8
0
  6
Continuous
100
AcDbSpline
210
0.0
220
0.0
230
1.0
 70
     8
 71
     3
 72
     9
 73
     5
 74
     3
 42
0.0000000001
 43
0.0000000001
 44
0.0000000001
 40
0.0
 40
0.0
 40
0.0
 40
0.0
 40
1.90892064208752
 40
3.817841264688277
 40
3.817841264688277
 40
3.817841264688277
 40
3.817841264688277
 10
887.695865088972
 20
230.9402378348641
 30
0.0
 10
888.0599523397773
 20
230.4038723544686
 30
0.0
 10
888.7881268376715
 20
229.3311413991529
 30
0.0
 10
888.8885751635096
 20
228.0385084524278
 30
0.0
 10
888.9387993261721
 20
227.3921919823641
 30
0.0
 11
887.695865088972
 21
230.9402378348641
 31
0.0
 11
888.6311952967722
 21
229.276165895264
 31
0.0
 11
888.9387993261721
 21
227.3921919823641
 31
0.0
  0
SPLINE
  5
B5C
330
21
100
AcDbEntity
  8
0
  6
Continuous
100
AcDbSpline
210
0.0
220
0.0
230
1.0
 70
     8
 71
     3
 72
    11
 73
     7
 74
     5
 42
0.0000000001
 43
0.0000000001
 44
0.0000000001
 40
0.0
 40
0.0
 40
0.0
 40
0.0
 40
0.3272561003100741
 40
0.6545057176879278
 40
0.9817551010558723
 40
1.30909236600181
 40
1.30909236600181
 40
1.30909236600181
 40
1.30909236600181
 10
886.7418612957722
 20
232.2013852232641
 30
0.0
 10
886.681289356938
 20
232.2926993294324
 30
0.0
 10
886.5601466791973
 20
232.4753257328396
 30
0.0
 10
886.3148837869867
 20
232.6943582960395
 30
0.0
 10
886.1045228540992
 20
232.9478577262963
 30
0.0
 10
886.0034960400686
 20
233.1418649031922
 30
0.0
 10
885.9529758513721
 20
233.238881514864
 30
0.0
 11
886.7418612957722
 21
232.2013852232641
 31
0.0
 11
886.5495536454721
 21
232.4661763160641
 31
0.0
 11
886.320703585072
 21
232.7000992989641
 31
0.0
 11
886.1143440630721
 21
232.9540833665641
 31
0.0
 11
885.9529758513721
 21
233.238881514864
 31
0.0
  0
SPLINE
  5
B5D
330
21
100
AcDbEntity
  8
0
  6
Continuous
100
AcDbSpline
210
0.0
220
0.0
230
1.0
 70
     8
 71
     3
 72
    17
 73
    13
 74
    11
 42
0.0000000001
 43
0.0000000001
 44
0.0000000001
 40
0.0
 40
0.0
 40
0.0
 40
0.0
 40
0.1143554685405316
 40
0.2291624963024053
 40
0.3421751825000658
 40
0.4555138139673027
 40
0.5128610871554623
 40
0.5698074932741353
 40
0.6260937719685326
 40
0.682612644575157
 40
0.798621945121799
 40
0.9146322778979543
 40
0.9146322778979543
 40
0.9146322778979543
 40
0.9146322778979543
 10
886.2466929141721
 20
231.7787627828641
 30
0.0
 10
886.2811916398878
 20
231.7622078507675
 30
0.0
 10
886.3503253175785
 20
231.7290326155662
 30
0.0
 10
886.464838674284
 20
231.7109838758807
 30
0.0
 10
886.5793791633475
 20
231.7267946980753
 30
0.0
 10
886.6646781129005
 20
231.7722541663828
 30
0.0
 10
886.7211186676482
 20
231.8233838026573
 30
0.0
 10
886.7559103362653
 20
231.868824466888
 30
0.0
 10
886.780171219905
 20
231.9205628224823
 30
0.0
 10
886.7949750477849
 20
231.9959031940447
 30
0.0
 10
886.7871258157127
 20
232.0940902262604
 30
0.0
 10
886.7569495138362
 20
232.1656201181867
 30
0.0
 10
886.7418612957722
 20
232.2013852232641
 30
0.0
 11
886.2466929141721
 21
231.7787627828641
 31
0.0
 11
886.352071281672
 21
231.7343491267641
 31
0.0
 11
886.465501484872
 21
231.7166222368641
 31
0.0
 11
886.5772907685721
 21
231.7332060630641
 31
0.0
 11
886.6775451397721
 21
231.7860710461641
 31
0.0
 11
886.7199524250721
 21
231.8246758631641
 31
0.0
 11
886.7542968081719
 21
231.8701000474641
 31
0.0
 11
886.777941104372
 21
231.9211793233641
 31
0.0
 11
886.7894245719721
 21
231.976519299264
 31
0.0
 11
886.7811597528721
 21
232.0922338211641
 31
0.0
 11
886.7418612957722
 21
232.2013852232641
 31
0.0
  0
SPLINE
  5
B5E
330
21
100
AcDbEntity
  8
0
  6
Continuous
100
AcDbSpline
210
0.0
220
0.0
230
1.0
 70
     8
 71
     3
 72
     9
 73
     5
 74
     3
 42
0.0000000001
 43
0.0000000001
 44
0.0000000001
 40
0.0
 40
0.0
 40
0.0
 40
0.0
 40
0.4752458443534235
 40
0.6336855409212939
 40
0.6336855409212939
 40
0.6336855409212939
 40
0.6336855409212939
 10
885.8037506769722
 20
232.2269449676641
 30
0.0
 10
885.8983572753612
 20
232.0968798118668
 30
0.0
 10
886.0245042668332
 20
231.9234529222144
 30
0.0
 10
886.2022510756862
 20
231.8077034865434
 30
0.0
 10
886.2466929141721
 20
231.7787627828641
 30
0.0
 11
885.8037506769722
 21
232.2269449676641
 31
0.0
 11
886.1165931328723
 21
231.8691905681641
 31
0.0
 11
886.2466929141721
 21
231.7787627828641
 31
0.0
  0
SPLINE
  5
B5F
330
21
100
AcDbEntity
  8
0
  6
Continuous
100
AcDbSpline
210
0.0
220
0.0
230
1.0
 70
     8
 71
     3
 72
    14
 73
    10
 74
     8
 42
0.0000000001
 43
0.0000000001
 44
0.0000000001
 40
0.0
 40
0.0
 40
0.0
 40
0.0
 40
0.200613243536632
 40
0.4044691728485376
 40
0.6000216982007722
 40
0.7932985269562964
 40
0.9897340322642176
 40
1.183793828751368
 40
1.570023423044367
 40
1.570023423044367
 40
1.570023423044367
 40
1.570023423044367
 10
884.6163492177722
 20
231.9864540392641
 30
0.0
 10
884.6326997794924
 20
232.0516096182533
 30
0.0
 10
884.6656651912374
 20
232.182973942341
 30
0.0
 10
884.7706649690013
 20
232.3565752998733
 30
0.0
 10
884.9211530292627
 20
232.4925796811086
 30
0.0
 10
885.1159441263139
 20
232.5441883191977
 30
0.0
 10
885.3117877329696
 20
232.5289030071185
 30
0.0
 10
885.5616245805516
 20
232.4468700833756
 30
0.0
 10
885.7069949324575
 20
232.3148290025645
 30
0.0
 10
885.8037506769722
 20
232.2269449676641
 30
0.0
 11
884.6163492177722
 21
231.9864540392641
 31
0.0
 11
884.6747034265721
 21
232.1783927268641
 31
0.0
 11
884.7803289366721
 21
232.352750094164
 31
0.0
 11
884.9294921853721
 21
232.4792060762641
 31
0.0
 11
885.1151472370721
 21
232.5329474412641
 31
0.0
 11
885.3112185823723
 21
232.5209918861641
 31
0.0
 11
885.4951955152721
 21
232.4592529780641
 31
0.0
 11
885.8037506769722
 21
232.2269449676641
 31
0.0
  0
SPLINE
  5
B60
330
21
100
AcDbEntity
  8
0
  6
Continuous
100
AcDbSpline
210
0.0
220
0.0
230
1.0
 70
     8
 71
     3
 72
     9
 73
     5
 74
     3
 42
0.0000000001
 43
0.0000000001
 44
0.0000000001
 40
0.0
 40
0.0
 40
0.0
 40
0.0
 40
0.3168761717758721
 40
0.6324434175862461
 40
0.6324434175862461
 40
0.6324434175862461
 40
0.6324434175862461
 10
884.642122293372
 20
231.3573003308641
 30
0.0
 10
884.6230491171755
 20
231.4617741747128
 30
0.0
 10
884.5849815506862
 20
231.6702903104695
 30
0.0
 10
884.6059077652737
 20
231.8812116396022
 30
0.0
 10
884.6163492177722
 20
231.9864540392641
 30
0.0
 11
884.642122293372
 21
231.3573003308641
 31
0.0
 11
884.5997123209722
 21
231.6713256522641
 31
0.0
 11
884.6163492177722
 21
231.9864540392641
 31
0.0
  0
SPLINE
  5
B61
330
21
100
AcDbEntity
  8
0
  6
Continuous
100
AcDbSpline
210
0.0
220
0.0
230
1.0
 70
    24
 71
     3
 72
     8
 73
     4
 74
     2
 42
0.0000000001
 43
0.0000000001
 44
0.0000000001
 40
0.0
 40
0.0
 40
0.0
 40
0.0
 40
0.946417098431024
 40
0.946417098431024
 40
0.946417098431024
 40
0.946417098431024
 10
884.7782409321721
 20
230.4207230300641
 30
0.0
 10
884.732868052572
 20
230.7329154636641
 30
0.0
 10
884.687495172972
 20
231.0451078972641
 30
0.0
 10
884.642122293372
 20
231.3573003308641
 30
0.0
 11
884.7782409321721
 21
230.4207230300641
 31
0.0
 11
884.642122293372
 21
231.3573003308641
 31
0.0
  0
SPLINE
  5
B62
330
21
100
AcDbEntity
  8
0
  6
Continuous
100
AcDbSpline
210
0.0
220
0.0
230
1.0
 70
     8
 71
     3
 72
     9
 73
     5
 74
     3
 42
0.0000000001
 43
0.0000000001
 44
0.0000000001
 40
0.0
 40
0.0
 40
0.0
 40
0.0
 40
0.3141627305616582
 40
0.6283157761107676
 40
0.6283157761107676
 40
0.6283157761107676
 40
0.6283157761107676
 10
884.8933864473721
 20
229.8035425352641
 30
0.0
 10
884.880267401978
 20
229.9075404069249
 30
0.0
 10
884.8540297156234
 20
230.1155329441986
 30
0.0
 10
884.8035036003819
 20
230.3189940468419
 30
0.0
 10
884.7782409321721
 20
230.4207230300641
 30
0.0
 11
884.8933864473721
 21
229.8035425352641
 31
0.0
 11
884.8479570167722
 21
230.1144032566641
 31
0.0
 11
884.7782409321721
 21
230.4207230300641
 31
0.0
  0
SPLINE
  5
B63
330
21
100
AcDbEntity
  8
0
  6
Continuous
100
AcDbSpline
210
0.0
220
0.0
230
1.0
 70
     8
 71
     3
 72
    11
 73
     7
 74
     5
 42
0.0000000001
 43
0.0000000001
 44
0.0000000001
 40
0.0
 40
0.0
 40
0.0
 40
0.0
 40
0.1599451355846997
 40
0.3200369666529968
 40
0.4772999915326019
 40
0.6346066175749863
 40
0.6346066175749863
 40
0.6346066175749863
 40
0.6346066175749863
 10
884.5569098121721
 20
229.2881476892641
 30
0.0
 10
884.5978696413438
 20
229.3223919154626
 30
0.0
 10
884.6798268664562
 20
229.3909117753375
 30
0.0
 10
884.7871751542361
 20
229.5084678668241
 30
0.0
 10
884.87237890096
 20
229.6459886886988
 30
0.0
 10
884.886383284872
 20
229.7510197337734
 30
0.0
 10
884.8933864473721
 20
229.8035425352641
 30
0.0
 11
884.5569098121721
 21
229.2881476892641
 31
0.0
 11
884.6772969482721
 21
229.3934538327641
 31
0.0
 11
884.7841446424721
 21
229.5126719715641
 31
0.0
 11
884.8617584666722
 21
229.6494482607641
 31
0.0
 11
884.8933864473721
 21
229.8035425352641
 31
0.0
  0
SPLINE
  5
B64
330
21
100
AcDbEntity
  8
0
  6
Continuous
100
AcDbSpline
210
0.0
220
0.0
230
1.0
 70
     8
 71
     3
 72
    14
 73
    10
 74
     0
 42
0.0000000001
 43
0.0000000001
 40
0.0
 40
0.0
 40
0.0
 40
0.0
 40
0.1738400555073955
 40
0.3507172254087187
 40
0.5277941939334986
 40
0.702198828623596
 40
0.8764417357440461
 40
1.051281978845894
 40
1.26397109839985
 40
1.26397109839985
 40
1.26397109839985
 40
1.26397109839985
 10
884.7443479377721
 20
226.1326765776641
 30
0.0
 10
884.6888755274507
 20
226.1504090933976
 30
0.0
 10
884.5769615627559
 20
226.1861839250349
 30
0.0
 10
884.3995162544421
 20
226.1903562209569
 30
0.0
 10
884.223844587285
 20
226.1840263554688
 30
0.0
 10
884.0487982164997
 20
226.1737565828256
 30
0.0
 10
883.8746496731733
 20
226.1637098566548
 30
0.0
 10
883.6876029001174
 20
226.1523119074786
 30
0.0
 10
883.5597327666956
 20
226.134109225955
 30
0.0
 10
883.4896901749175
 20
226.1229003794605
 30
0.0
  0
SPLINE
  5
B65
330
21
100
AcDbEntity
  8
0
  6
Continuous
100
AcDbSpline
210
0.0
220
0.0
230
1.0
 70
     8
 71
     3
 72
    14
 73
    10
 74
     8
 42
0.0000000001
 43
0.0000000001
 44
0.0000000001
 40
0.0
 40
0.0
 40
0.0
 40
0.0
 40
0.6281188373709588
 40
0.9437679622197691
 40
1.256976246217949
 40
1.571016932821016
 40
1.885088911496097
 40
2.199146648850811
 40
2.513159521399827
 40
2.513159521399827
 40
2.513159521399827
 40
2.513159521399827
 10
885.0180252009722
 20
223.8276022952641
 30
0.0
 10
885.0548394688049
 20
224.0338924364597
 30
0.0
 10
885.110154043796
 20
224.3438497480364
 30
0.0
 10
885.2187425607667
 20
224.7484804574006
 30
0.0
 10
885.2709754983085
 20
225.0600018151766
 30
0.0
 10
885.2508831484684
 20
225.3761681330004
 30
0.0
 10
885.1718754593737
 20
225.6803783563263
 30
0.0
 10
885.0165981340147
 20
225.9662101683894
 30
0.0
 10
884.8350936813993
 20
226.0771904171137
 30
0.0
 10
884.7443479377721
 20
226.1326765776641
 30
0.0
 11
885.0180252009722
 21
223.8276022952641
 31
0.0
 11
885.1400804701721
 21
224.4437482074641
 31
0.0
 11
885.2140430563721
 21
224.7506095863641
 31
0.0
 11
885.2589273751721
 21
225.0605851129641
 31
0.0
 11
885.2410686077722
 21
225.3741175949641
 31
0.0
 11
885.1591609924722
 21
225.6773210750641
 31
0.0
 11
884.9970903877721
 21
225.9463292189641
 31
0.0
 11
884.7443479377721
 21
226.1326765776641
 31
0.0
  0
SPLINE
  5
B66
330
21
100
AcDbEntity
  8
0
  6
Continuous
100
AcDbSpline
210
0.0
220
0.0
230
1.0
 70
     8
 71
     3
 72
    21
 73
    17
 74
    15
 42
0.0000000001
 43
0.0000000001
 44
0.0000000001
 40
0.0
 40
0.0
 40
0.0
 40
0.0
 40
0.2353975155476367
 40
0.3528715553364537
 40
0.4705051955831526
 40
0.5885179970130928
 40
0.7065997939744915
 40
0.8243669452850688
 40
0.9421145075006894
 40
1.060792056725824
 40
1.179296636788296
 40
1.296694430499765
 40
1.414486493791109
 40
1.53328121241431
 40
1.651472397931939
 40
1.886478540136162
 40
1.886478540136162
 40
1.886478540136162
 40
1.886478540136162
 10
885.579032924172
 20
220.6606072988641
 30
0.0
 10
885.5020438605615
 20
220.6767786587785
 30
0.0
 10
885.3866337613644
 20
220.7010202609536
 30
0.0
 10
885.240634008957
 20
220.7594416514321
 30
0.0
 10
885.1357282420718
 20
220.8130521336413
 30
0.0
 10
885.0348142319369
 20
220.8741703213141
 30
0.0
 10
884.9367158429129
 20
220.9397287091749
 30
0.0
 10
884.8426300708034
 20
221.0109068873398
 30
0.0
 10
884.7555250725503
 20
221.0909754281711
 30
0.0
 10
884.6790011902808
 20
221.1816839887482
 30
0.0
 10
884.6169064173216
 20
221.2829344473976
 30
0.0
 10
884.5756997948756
 20
221.3943738243951
 30
0.0
 10
884.5589958802497
 20
221.511871276277
 30
0.0
 10
884.5594960171638
 20
221.6303624515677
 30
0.0
 10
884.5753546527717
 20
221.787121212071
 30
0.0
 10
884.6004109136513
 20
221.9022786962372
 30
0.0
 10
884.617082543772
 20
221.9789007824641
 30
0.0
 11
885.579032924172
 21
220.6606072988641
 31
0.0
 11
885.3506968870721
 21
220.7178318083641
 31
0.0
 11
885.241459636172
 21
220.7610449202641
 31
0.0
 11
885.1365335264723
 21
220.814225601164
 31
0.0
 11
885.0353096321722
 21
220.8748947409641
 31
0.0
 11
884.9372872127721
 21
220.9407348204641
 31
0.0
 11
884.843811846772
 21
221.0123690153641
 31
0.0
 11
884.7575319770722
 21
221.0924956182641
 31
0.0
 11
884.681367733672
 21
221.1835086322641
 31
0.0
 11
884.6202021781721
 21
221.2850079441641
 31
0.0
 11
884.5798076333721
 21
221.3952373536641
 31
0.0
 11
884.5618932914721
 21
221.511659200964
 31
0.0
 11
884.561413717572
 21
221.6304529515641
 31
0.0
 11
884.572906636572
 21
221.7480840237641
 31
0.0
 11
884.617082543772
 21
221.9789007824641
 31
0.0
  0
SPLINE
  5
B67
330
21
100
AcDbEntity
  8
0
  6
Continuous
100
AcDbSpline
210
0.0
220
0.0
230
1.0
 70
     8
 71
     3
 72
    10
 73
     6
 74
     4
 42
0.0000000001
 43
0.0000000001
 44
0.0000000001
 40
0.0
 40
0.0
 40
0.0
 40
0.0
 40
0.1588086770169188
 40
0.2383465662063636
 40
0.3174704111961885
 40
0.3174704111961885
 40
0.3174704111961885
 40
0.3174704111961885
 10
885.8697100173722
 20
220.5392751788641
 30
0.0
 10
885.8248175404108
 20
220.5677813554825
 30
0.0
 10
885.7574410724917
 20
220.6105645927732
 30
0.0
 10
885.6567988831429
 20
220.6451185174035
 30
0.0
 10
885.6049097738305
 20
220.6554533616588
 30
0.0
 10
885.579032924172
 20
220.6606072988641
 30
0.0
 11
885.8697100173722
 21
220.5392751788641
 31
0.0
 11
885.7314000169722
 21
220.617317088664
 31
0.0
 11
885.656267720272
 21
220.6434209927641
 31
0.0
 11
885.579032924172
 21
220.6606072988641
 31
0.0
  0
SPLINE
  5
B68
330
21
100
AcDbEntity
  8
0
  6
Continuous
100
AcDbSpline
210
0.0
220
0.0
230
1.0
 70
     8
 71
     3
 72
    13
 73
     9
 74
     7
 42
0.0000000001
 43
0.0000000001
 44
0.0000000001
 40
0.0
 40
0.0
 40
0.0
 40
0.0
 40
0.0316920700860985
 40
0.0656693459357199
 40
0.1019051299643715
 40
0.137124006043608
 40
0.2029396882986612
 40
0.2675195776501549
 40
0.2675195776501549
 40
0.2675195776501549
 40
0.2675195776501549
 10
886.0208418393721
 20
220.332157250064
 30
0.0
 10
886.022274611055
 20
220.3428431851567
 30
0.0
 10
886.0252434666402
 20
220.3649855812304
 30
0.0
 10
886.0097955958715
 20
220.3967345894179
 30
0.0
 10
885.9898204010183
 20
220.425355909059
 30
0.0
 10
885.9605370593822
 20
220.4606621769115
 30
0.0
 10
885.921624678521
 20
220.5000526477834
 30
0.0
 10
885.8869052226366
 20
220.5262838685483
 30
0.0
 10
885.8697100173722
 20
220.5392751788641
 30
0.0
 11
886.0208418393721
 21
220.332157250064
 31
0.0
 11
886.0221301764721
 21
220.3638231227641
 31
0.0
 11
886.0095153018722
 21
220.3953718186641
 31
0.0
 11
885.989189191072
 21
220.425369839664
 31
0.0
 11
885.966798591472
 21
220.4525549510641
 31
0.0
 11
885.920294379872
 21
220.4991281443641
 31
0.0
 11
885.8697100173722
 21
220.5392751788641
 31
0.0
  0
SPLINE
  5
B69
330
21
100
AcDbEntity
  8
0
  6
Continuous
100
AcDbSpline
210
0.0
220
0.0
230
1.0
 70
     8
 71
     3
 72
    13
 73
     9
 74
     7
 42
0.0000000001
 43
0.0000000001
 44
0.0000000001
 40
0.0
 40
0.0
 40
0.0
 40
0.0
 40
0.0737948750582801
 40
0.1493388660780269
 40
0.1911997689815483
 40
0.2357549659467291
 40
0.2763486692016855
 40
0.3117628533953021
 40
0.3117628533953021
 40
0.3117628533953021
 40
0.3117628533953021
 10
885.728978091372
 20
220.2861843764641
 30
0.0
 10
885.753385486255
 20
220.2830204471935
 30
0.0
 10
885.8027787899614
 20
220.2766175959217
 30
0.0
 10
885.866568220676
 20
220.2746969984992
 30
0.0
 10
885.9206760638019
 20
220.2788417568595
 30
0.0
 10
885.9617798079103
 20
220.2855285236475
 30
0.0
 10
886.0028731060399
 20
220.2980870236723
 30
0.0
 10
886.0151306905614
 20
220.3213284326208
 30
0.0
 10
886.0208418393721
 20
220.332157250064
 30
0.0
 11
885.728978091372
 21
220.2861843764641
 31
0.0
 11
885.8023053199721
 21
220.2778897317641
 31
0.0
 11
885.8778278908721
 21
220.2760908810641
 31
0.0
 11
885.9195639495721
 21
220.2793214531641
 31
0.0
 11
885.9634632791722
 21
220.2869381740641
 31
0.0
 11
886.0007452829719
 21
220.3029974684641
 31
0.0
 11
886.0208418393721
 21
220.332157250064
 31
0.0
  0
SPLINE
  5
B6A
330
21
100
AcDbEntity
  8
0
  6
Continuous
100
AcDbSpline
210
0.0
220
0.0
230
1.0
 70
     8
 71
     3
 72
     9
 73
     5
 74
     3
 42
0.0000000001
 43
0.0000000001
 44
0.0000000001
 40
0.0
 40
0.0
 40
0.0
 40
0.0
 40
0.1577385724186959
 40
0.3154395507439859
 40
0.3154395507439859
 40
0.3154395507439859
 40
0.3154395507439859
 10
885.4183411977722
 20
220.3406238320641
 30
0.0
 10
885.469836599247
 20
220.3299313239135
 30
0.0
 10
885.5728151292124
 20
220.3085488559753
 30
0.0
 10
885.6769279067066
 20
220.2936386106334
 30
0.0
 10
885.728978091372
 20
220.2861843764641
 30
0.0
 11
885.4183411977722
 21
220.3406238320641
 31
0.0
 11
885.5731110316721
 21
220.3101647489641
 31
0.0
 11
885.728978091372
 21
220.2861843764641
 31
0.0
  0
SPLINE
  5
B6B
330
21
100
AcDbEntity
  8
0
  6
Continuous
100
AcDbSpline
210
0.0
220
0.0
230
1.0
 70
     8
 71
     3
 72
     9
 73
     5
 74
     3
 42
0.0000000001
 43
0.0000000001
 44
0.0000000001
 40
0.0
 40
0.0
 40
0.0
 40
0.0
 40
0.3154607661176634
 40
0.6309250244166348
 40
0.6309250244166348
 40
0.6309250244166348
 40
0.6309250244166348
 10
884.796854079372
 20
220.448436087264
 30
0.0
 10
884.9010339315228
 20
220.4339218124391
 30
0.0
 10
885.1093947891052
 20
220.4048931021146
 30
0.0
 10
885.3153586815452
 20
220.3620470011322
 30
0.0
 10
885.4183411977722
 20
220.3406238320641
 30
0.0
 11
884.796854079372
 21
220.448436087264
 31
0.0
 11
885.1087944011721
 21
220.4014389533641
 31
0.0
 11
885.4183411977722
 21
220.3406238320641
 31
0.0
  0
SPLINE
  5
B6C
330
21
100
AcDbEntity
  8
0
  6
Continuous
100
AcDbSpline
210
0.0
220
0.0
230
1.0
 70
     8
 71
     3
 72
     9
 73
     5
 74
     3
 42
0.0000000001
 43
0.0000000001
 44
0.0000000001
 40
0.0
 40
0.0
 40
0.0
 40
0.0
 40
0.3140864840815453
 40
0.628156966221697
 40
0.628156966221697
 40
0.628156966221697
 40
0.628156966221697
 10
884.1744603033721
 20
220.3930633076641
 30
0.0
 10
884.2767696107499
 20
220.4183170058134
 30
0.0
 10
884.4813830130953
 20
220.4688231154977
 30
0.0
 10
884.6916988431719
 20
220.4552316479303
 30
0.0
 10
884.796854079372
 20
220.448436087264
 30
0.0
 11
884.1744603033721
 21
220.3930633076641
 31
0.0
 11
884.482813905072
 21
220.4527991913641
 31
0.0
 11
884.796854079372
 21
220.448436087264
 31
0.0
  0
SPLINE
  5
B6D
330
21
100
AcDbEntity
  8
0
  6
Continuous
100
AcDbSpline
210
0.0
220
0.0
230
1.0
 70
     8
 71
     3
 72
    23
 73
    19
 74
    17
 42
0.0000000001
 43
0.0000000001
 44
0.0000000001
 40
0.0
 40
0.0
 40
0.0
 40
0.0
 40
0.2379066548515206
 40
0.3565277006578511
 40
0.4750759554688263
 40
0.5939571299759248
 40
0.712877261469782
 40
0.831685244317804
 40
0.9500528070885418
 40
1.187565744317316
 40
1.306197667234045
 40
1.425469887138225
 40
1.485909687102104
 40
1.546009879099653
 40
1.605114544121501
 40
1.664100400047353
 40
1.785594732829548
 40
1.908002389518488
 40
1.908002389518488
 40
1.908002389518488
 40
1.908002389518488
 10
883.832730387372
 20
221.941341158064
 30
0.0
 10
883.847026208163
 20
221.8629518333734
 30
0.0
 10
883.8684499725337
 20
221.7454773318488
 30
0.0
 10
883.8598553805327
 20
221.5866116221515
 30
0.0
 10
883.8410182436635
 20
221.4694088062478
 30
0.0
 10
883.8183055704176
 20
221.3527918096475
 30
0.0
 10
883.8022157989728
 20
221.2349633064641
 30
0.0
 10
883.789522896969
 20
221.1169477769298
 30
0.0
 10
883.7644293129744
 20
220.9605827709458
 30
0.0
 10
883.7139648395958
 20
220.8091209430342
 30
0.0
 10
883.7115310264582
 20
220.6487948120317
 30
0.0
 10
883.7410632892595
 20
220.5515898254241
 30
0.0
 10
883.7843284123097
 20
220.4838822962314
 30
0.0
 10
883.825803194323
 20
220.440120772668
 30
0.0
 10
883.8756315139124
 20
220.4066999552431
 30
0.0
 10
883.9514155690285
 20
220.3796247102328
 30
0.0
 10
884.0539483630157
 20
220.3725466704326
 30
0.0
 10
884.134189498667
 20
220.3862073771338
 30
0.0
 10
884.1744603033721
 20
220.3930633076641
 30
0.0
 11
883.832730387372
 21
221.941341158064
 31
0.0
 11
883.8632064354722
 21
221.7053945816641
 31
0.0
 11
883.8577885447721
 21
221.5868973286641
 31
0.0
 11
883.840394744072
 21
221.4696320549641
 31
0.0
 11
883.819414554372
 21
221.352616819664
 31
0.0
 11
883.8027743369721
 21
221.2348666568641
 31
0.0
 11
883.7884824437722
 21
221.116921421364
 31
0.0
 11
883.7686219679723
 21
221.0002319127641
 31
0.0
 11
883.7173565193721
 21
220.7683175985641
 31
0.0
 11
883.7176928690722
 21
220.649686152464
 31
0.0
 11
883.7533325072722
 21
220.5358631379641
 31
0.0
 11
883.7859188352721
 21
220.4849602829641
 31
0.0
 11
883.827510619872
 21
220.441576454964
 31
0.0
 11
883.876749785772
 21
220.4088829392641
 31
0.0
 11
883.9320712992721
 21
220.3884168369641
 31
0.0
 11
884.053062549472
 21
220.377371916264
 31
0.0
 11
884.1744603033721
 21
220.3930633076641
 31
0.0
  0
SPLINE
  5
B6E
330
21
100
AcDbEntity
  8
0
  6
Continuous
100
AcDbSpline
210
0.0
220
0.0
230
1.0
 70
     8
 71
     3
 72
    10
 73
     6
 74
     4
 42
0.0000000001
 43
0.0000000001
 44
0.0000000001
 40
0.0
 40
0.0
 40
0.0
 40
0.0
 40
0.3440037958572794
 40
1.117251527153133
 40
2.245576544796742
 40
2.245576544796742
 40
2.245576544796742
 40
2.245576544796742
 10
883.888356497772
 20
224.1110661272641
 30
0.0
 10
883.8299722878153
 20
224.0119293935764
 30
0.0
 10
883.640352729772
 20
223.6899542629431
 30
0.0
 10
883.536681536855
 20
222.915067268863
 30
0.0
 10
883.7224826660901
 20
222.3039538980926
 30
0.0
 10
883.832730387372
 20
221.941341158064
 30
0.0
 11
883.888356497772
 21
224.1110661272641
 31
0.0
 11
883.726290508372
 21
223.8076304229641
 31
0.0
 11
883.5983133189722
 21
223.0450467272641
 31
0.0
 11
883.832730387372
 21
221.941341158064
 31
0.0
  0
SPLINE
  5
B6F
330
21
100
AcDbEntity
  8
0
  6
Continuous
100
AcDbSpline
210
0.0
220
0.0
230
1.0
 70
     8
 71
     3
 72
    13
 73
     9
 74
     7
 42
0.0000000001
 43
0.0000000001
 44
0.0000000001
 40
0.0
 40
0.0
 40
0.0
 40
0.0
 40
0.0388277893312084
 40
0.0805990426109795
 40
0.124850330106438
 40
0.1674598795804713
 40
0.2474665773073137
 40
0.3265390751228447
 40
0.3265390751228447
 40
0.3265390751228447
 40
0.3265390751228447
 10
883.955235828972
 20
224.4117964532641
 30
0.0
 10
883.9630280770571
 20
224.4011198622017
 30
0.0
 10
883.9792032893533
 20
224.3789573071656
 30
0.0
 10
883.9806143188397
 20
224.3356171157041
 30
0.0
 10
883.974384434625
 20
224.2934371425928
 30
0.0
 10
883.9588977195687
 20
224.2397275954486
 30
0.0
 10
883.9294630855712
 20
224.178967123748
 30
0.0
 10
883.9020049439707
 20
224.1336110074639
 30
0.0
 10
883.888356497772
 20
224.1110661272641
 30
0.0
 11
883.955235828972
 21
224.4117964532641
 31
0.0
 11
883.9750701334722
 21
224.3784168548641
 31
0.0
 11
883.9793746845721
 21
224.3368679867641
 31
0.0
 11
883.9733045027722
 21
224.2930350158641
 31
0.0
 11
883.9615817604721
 21
224.2520697742641
 31
0.0
 11
883.9282537596721
 21
224.1793352154641
 31
0.0
 11
883.888356497772
 21
224.1110661272641
 31
0.0
  0
SPLINE
  5
B70
330
21
100
AcDbEntity
  8
0
  6
Continuous
100
AcDbSpline
210
0.0
220
0.0
230
1.0
 70
     8
 71
     3
 72
    11
 73
     7
 74
     0
 42
0.0000000001
 43
0.0000000001
 40
0.0
 40
0.0
 40
0.0
 40
0.0
 40
0.6555788985604796
 40
1.311158177173604
 40
1.966725914689973
 40
2.266500196708735
 40
2.266500196708735
 40
2.266500196708735
 40
2.266500196708735
 10
879.6260657877722
 20
231.0470367668641
 30
0.0
 10
879.6530264842216
 20
230.829639292828
 30
0.0
 10
879.7069478927504
 20
230.394844218726
 30
0.0
 10
879.9164381993243
 20
229.7705379002061
 30
0.0
 10
879.9777370607947
 20
229.2328433552147
 30
0.0
 10
879.9741053192724
 20
228.9144630570649
 30
0.0
 10
879.9708289929149
 20
228.814585758464
 30
0.0
  0
SPLINE
  5
B71
330
21
100
AcDbEntity
  8
0
  6
Continuous
100
AcDbSpline
210
0.0
220
0.0
230
1.0
 70
     8
 71
     3
 72
    15
 73
    11
 74
     9
 42
0.0000000001
 43
0.0000000001
 44
0.0000000001
 40
0.0
 40
0.0
 40
0.0
 40
0.0
 40
0.8273636510041497
 40
2.125115960904954
 40
2.840606634354837
 40
3.629376504335696
 40
5.342374195734628
 40
5.865269943741276
 40
6.294884052232267
 40
6.969455128494881
 40
6.969455128494881
 40
6.969455128494881
 40
6.969455128494881
 10
884.5205635089722
 20
235.3025942108641
 30
0.0
 10
884.3121507317486
 20
235.121274994307
 30
0.0
 10
883.7768343460256
 20
234.6555494809167
 30
0.0
 10
883.1577425512676
 20
233.942476952967
 30
0.0
 10
882.59164459904
 20
233.1789436396977
 30
0.0
 10
881.5829466353362
 20
232.7271684254744
 30
0.0
 10
880.663384174011
 20
232.4360041132865
 30
0.0
 10
879.7496496700243
 20
232.1849734709425
 30
0.0
 10
879.518006790157
 20
231.6371749261564
 30
0.0
 10
879.5850857637415
 20
231.2708392866258
 30
0.0
 10
879.6260657877722
 20
231.0470367668641
 30
0.0
 11
884.5205635089722
 21
235.3025942108641
 31
0.0
 11
883.9062630033722
 21
234.748369076264
 31
0.0
 11
883.0441525392721
 21
233.778355362164
 31
0.0
 11
882.5685057707721
 21
233.2438583505641
 31
0.0
 11
881.875081160372
 21
232.8679325367641
 31
0.0
 11
880.250675855872
 21
232.3241784586641
 31
0.0
 11
879.7752072876722
 21
232.1065788172641
 31
0.0
 11
879.586832292372
 21
231.7204659537641
 31
0.0
 11
879.6260657877722
 21
231.0470367668641
 31
0.0
  0
SPLINE
  5
B72
330
21
100
AcDbEntity
  8
0
  6
Continuous
100
AcDbSpline
210
0.0
220
0.0
230
1.0
 70
     8
 71
     3
 72
    14
 73
    10
 74
     8
 42
0.0000000001
 43
0.0000000001
 44
0.0000000001
 40
0.0
 40
0.0
 40
0.0
 40
0.0
 40
0.3541900340258191
 40
0.5326407784165423
 40
0.710913863441377
 40
0.8897714209890465
 40
1.067847043312847
 40
1.247177335976905
 40
1.426444804894398
 40
1.426444804894398
 40
1.426444804894398
 40
1.426444804894398
 10
885.6212058357721
 20
234.843545468064
 30
0.0
 10
885.5807636061231
 20
234.9561915007281
 30
0.0
 10
885.5199454615915
 20
235.1255917230939
 30
0.0
 10
885.3564155170303
 20
235.3020868250706
 30
0.0
 10
885.2044750955741
 20
235.399489014707
 30
0.0
 10
885.0302309967967
 20
235.4493696701445
 30
0.0
 10
884.8491079201729
 20
235.4454644917112
 30
0.0
 10
884.6757185648432
 20
235.3932277224588
 30
0.0
 10
884.572275820121
 20
235.3328018526698
 30
0.0
 10
884.5205635089722
 20
235.3025942108641
 30
0.0
 11
885.6212058357721
 21
234.843545468064
 31
0.0
 11
885.472594557372
 21
235.1650501618641
 31
0.0
 11
885.3515840121721
 21
235.2962031874641
 31
0.0
 11
885.2009146989722
 21
235.3914924885641
 31
0.0
 11
885.0288842797722
 21
235.4404369546641
 31
0.0
 11
884.8508331474721
 21
235.4374837271641
 31
0.0
 11
884.6788027635721
 21
235.386838876664
 31
0.0
 11
884.5205635089722
 21
235.3025942108641
 31
0.0
  0
SPLINE
  5
B73
330
21
100
AcDbEntity
  8
0
  6
Continuous
100
AcDbSpline
210
0.0
220
0.0
230
1.0
 70
     8
 71
     3
 72
    10
 73
     6
 74
     4
 42
0.0000000001
 43
0.0000000001
 44
0.0000000001
 40
0.0
 40
0.0
 40
0.0
 40
0.0
 40
0.4102539828872935
 40
0.8202485777858199
 40
1.640133156937125
 40
1.640133156937125
 40
1.640133156937125
 40
1.640133156937125
 10
885.9529758513721
 20
233.238881514864
 30
0.0
 10
885.9125777199331
 20
233.3696939824807
 30
0.0
 10
885.831806999257
 20
233.6312362099665
 30
0.0
 10
885.7400703791733
 20
234.1709903352547
 30
0.0
 10
885.6687504398711
 20
234.574530279773
 30
0.0
 10
885.6212058357721
 20
234.843545468064
 30
0.0
 11
885.9529758513721
 21
233.238881514864
 31
0.0
 11
885.840510032672
 21
233.6334189276641
 31
0.0
 11
885.762715380072
 21
234.0359652726641
 31
0.0
 11
885.6212058357721
 21
234.843545468064
 31
0.0
  0
SPLINE
  5
B74
330
21
100
AcDbEntity
  8
0
  6
Continuous
100
AcDbSpline
210
0.0
220
0.0
230
1.0
 70
     8
 71
     3
 72
    18
 73
    14
 74
    12
 42
0.0000000001
 43
0.0000000001
 44
0.0000000001
 40
0.0
 40
0.0
 40
0.0
 40
0.0
 40
0.0818491312457819
 40
0.1487043410551885
 40
0.2117360374123988
 40
0.3236744767098853
 40
1.158993099879404
 40
2.026438938902483
 40
2.899328592828894
 40
3.059790619774637
 40
3.28646553810282
 40
3.638823432619876
 40
3.902359017112354
 40
3.902359017112354
 40
3.902359017112354
 40
3.902359017112354
 10
882.9540378226722
 20
232.5705462253641
 30
0.0
 10
882.9653814056986
 20
232.5441285810333
 30
0.0
 10
882.9859905436758
 20
232.4961327338854
 30
0.0
 10
882.9406867373152
 20
232.4251657061442
 30
0.0
 10
882.8554407346873
 20
232.4229843431793
 30
0.0
 10
882.526553953922
 20
232.3836338332721
 30
0.0
 10
881.9355667768587
 20
232.1174661791324
 30
0.0
 10
881.4473406113392
 20
231.3756525952044
 30
0.0
 10
881.373463085434
 20
230.6966332388116
 30
0.0
 10
881.526658380889
 20
230.3040547250562
 30
0.0
 10
881.491323754703
 20
230.035863461399
 30
0.0
 10
881.1353456459561
 20
229.8948707354226
 30
0.0
 10
880.9933089975116
 20
230.0636452001938
 30
0.0
 10
880.9325327229722
 20
230.1358623590641
 30
0.0
 11
882.9540378226722
 21
232.5705462253641
 31
0.0
 11
882.9721856151721
 21
232.4907343345641
 31
0.0
 11
882.9351010171722
 21
232.4351074375641
 31
0.0
 11
882.8732933537722
 21
232.422745904864
 31
0.0
 11
882.7620395596721
 21
232.4103843721641
 31
0.0
 11
882.0018052997721
 21
232.0642614571641
 31
0.0
 11
881.513524758972
 21
231.3472925616641
 31
0.0
 11
881.4640786282721
 21
230.475804507764
 31
0.0
 11
881.5073439925722
 21
230.3212853492641
 31
0.0
 11
881.4640786282721
 21
230.0987777609641
 31
0.0
 11
881.1364980121721
 21
229.9689816678641
 31
0.0
 11
880.9325327229722
 21
230.1358623590641
 31
0.0
  0
SPLINE
  5
B75
330
21
100
AcDbEntity
  8
0
  6
Continuous
100
AcDbSpline
210
0.0
220
0.0
230
1.0
 70
     8
 71
     3
 72
    14
 73
    10
 74
     8
 42
0.0000000001
 43
0.0000000001
 44
0.0000000001
 40
0.0
 40
0.0
 40
0.0
 40
0.0
 40
0.3754529393166651
 40
1.298458876352856
 40
1.538476425332795
 40
1.812946993221748
 40
3.481914139458774
 40
3.780899727324453
 40
3.900389913115586
 40
3.900389913115586
 40
3.900389913115586
 40
3.900389913115586
 10
880.9325327229722
 20
230.1358623590641
 30
0.0
 10
880.8883192549938
 20
230.2510310643489
 30
0.0
 10
880.7354122886633
 20
230.6493281929512
 30
0.0
 10
880.5945482004684
 20
231.2175797262506
 30
0.0
 10
880.8729044532713
 20
231.6293210105039
 30
0.0
 10
881.5038287590829
 20
232.0096546242549
 30
0.0
 10
882.0669833114755
 20
232.4486122568998
 30
0.0
 10
882.798953809764
 20
232.6696941552962
 30
0.0
 10
882.9195913726875
 20
232.5925684450981
 30
0.0
 10
882.9540378226722
 20
232.5705462253641
 30
0.0
 11
880.9325327229722
 21
230.1358623590641
 31
0.0
 11
880.8027366298722
 21
230.4881660403641
 31
0.0
 11
880.740928966472
 21
231.4091002250641
 31
0.0
 11
880.8769058259722
 21
231.6068847479641
 31
0.0
 11
881.0994134141722
 21
231.7675846727641
 31
0.0
 11
882.5518935040722
 21
232.5896265960641
 31
0.0
 11
882.8485702883721
 21
232.6267111940641
 31
0.0
 11
882.9540378226722
 21
232.5705462253641
 31
0.0
  0
SPLINE
  5
B76
330
21
100
AcDbEntity
  8
0
  6
Continuous
100
AcDbSpline
210
0.0
220
0.0
230
1.0
 70
     8
 71
     3
 72
    11
 73
     7
 74
     5
 42
0.0000000001
 43
0.0000000001
 44
0.0000000001
 40
0.0
 40
0.0
 40
0.0
 40
0.0
 40
0.3847658689403275
 40
0.7647316386474446
 40
1.439524898672489
 40
2.214540900917318
 40
2.214540900917318
 40
2.214540900917318
 40
2.214540900917318
 10
884.1482472321723
 20
230.6124144464641
 30
0.0
 10
884.1181984454331
 20
230.48702679548
 30
0.0
 10
884.058475741895
 20
230.2378157517163
 30
0.0
 10
883.7820399410665
 20
229.8290869459084
 30
0.0
 10
883.1923862432836
 20
229.5559508438089
 30
0.0
 10
882.7060787744009
 20
229.580005751612
 30
0.0
 10
882.4461162536721
 20
229.592864642064
 30
0.0
 11
884.1482472321723
 21
230.6124144464641
 31
0.0
 11
884.0360438732721
 21
230.2443720845641
 31
0.0
 11
883.8208318265722
 21
229.9312303257641
 31
0.0
 11
883.220545952772
 21
229.6230050615641
 31
0.0
 11
882.4461162536721
 21
229.592864642064
 31
0.0
  0
SPLINE
  5
B77
330
21
100
AcDbEntity
  8
0
  6
Continuous
100
AcDbSpline
210
0.0
220
0.0
230
1.0
 70
     8
 71
     3
 72
    11
 73
     7
 74
     5
 42
0.0000000001
 43
0.0000000001
 44
0.0000000001
 40
0.0
 40
0.0
 40
0.0
 40
0.0
 40
0.0850277419203365
 40
0.1700547431922942
 40
0.2550814998817231
 40
0.3401090176770066
 40
0.3401090176770066
 40
0.3401090176770066
 40
0.3401090176770066
 10
883.9181828661722
 20
230.7084934856641
 30
0.0
 10
883.939530565284
 20
230.7288506142808
 30
0.0
 10
883.9822257775547
 20
230.7695646941899
 30
0.0
 10
884.0758511213658
 20
230.7625450733951
 30
0.0
 10
884.1466643598113
 20
230.7008948772983
 30
0.0
 10
884.1477196064777
 20
230.6419080114106
 30
0.0
 10
884.1482472321723
 20
230.6124144464641
 30
0.0
 11
883.9181828661722
 21
230.7084934856641
 31
0.0
 11
883.9871564649721
 21
230.7582163130641
 31
0.0
 11
884.0720492058721
 21
230.7534399663641
 31
0.0
 11
884.1351258507721
 21
230.6964234229641
 31
0.0
 11
884.1482472321723
 21
230.6124144464641
 31
0.0
  0
SPLINE
  5
B78
330
21
100
AcDbEntity
  8
0
  6
Continuous
100
AcDbSpline
210
0.0
220
0.0
230
1.0
 70
     8
 71
     3
 72
     9
 73
     5
 74
     3
 42
0.0000000001
 43
0.0000000001
 44
0.0000000001
 40
0.0
 40
0.0
 40
0.0
 40
0.0
 40
0.8586076863526371
 40
1.717215352397198
 40
1.717215352397198
 40
1.717215352397198
 40
1.717215352397198
 10
882.462353424672
 20
229.881515088864
 30
0.0
 10
882.7520918180335
 20
229.9364287697953
 30
0.0
 10
883.3315685979036
 20
230.0462561303592
 30
0.0
 10
883.7226447782913
 20
230.4877477023029
 30
0.0
 10
883.9181828661722
 20
230.7084934856641
 30
0.0
 11
882.462353424672
 21
229.881515088864
 31
0.0
 11
883.284468453772
 21
230.1291721864641
 31
0.0
 11
883.9181828661722
 21
230.7084934856641
 31
0.0
  0
SPLINE
  5
B79
330
21
100
AcDbEntity
  8
0
  6
Continuous
100
AcDbSpline
210
0.0
220
0.0
230
1.0
 70
     8
 71
     3
 72
    11
 73
     7
 74
     5
 42
0.0000000001
 43
0.0000000001
 44
0.0000000001
 40
0.0
 40
0.0
 40
0.0
 40
0.0
 40
0.1030334316489369
 40
0.2060655175037515
 40
0.3090977478304596
 40
0.412131272176465
 40
0.412131272176465
 40
0.412131272176465
 40
0.412131272176465
 10
882.4461162536721
 20
229.592864642064
 30
0.0
 10
882.4129985727454
 20
229.6067732636903
 30
0.0
 10
882.3467636434659
 20
229.6345903252723
 30
0.0
 10
882.3140592297933
 20
229.7450741323801
 30
0.0
 10
882.3589502034564
 20
229.8511904921365
 30
0.0
 10
882.4278855399703
 20
229.8714068476377
 30
0.0
 10
882.462353424672
 20
229.881515088864
 30
0.0
 11
882.4461162536721
 21
229.592864642064
 31
0.0
 11
882.3578713433722
 21
229.646050390564
 31
0.0
 11
882.3269917359722
 21
229.7443461715641
 31
0.0
 11
882.3687018790721
 21
229.8385581901641
 31
0.0
 11
882.462353424672
 21
229.881515088864
 31
0.0
  0
CIRCLE
  5
B7A
330
21
100
AcDbEntity
  8
0
  6
Continuous
100
AcDbCircle
 10
884.0678552360721
 20
232.3117518529641
 30
0.0
 40
0.298559681
  0
ARC
  5
B7B
330
21
100
AcDbEntity
  8
0
  6
Continuous
100
AcDbCircle
 10
883.4925271229721
 20
228.8145857584641
 30
0.0
 40
19.0
100
AcDbArc
 50
0.0
 51
90.0
  0
ARC
  5
B7C
330
21
100
AcDbEntity
  8
0
  6
Continuous
100
AcDbCircle
 10
865.1228898623722
 20
245.8145857584641
 30
0.0
 40
3.0
100
AcDbArc
 50
58.99728086609864
 51
90.0
  0
ARC
  5
B7D
330
21
100
AcDbEntity
  8
0
  6
Continuous
100
AcDbCircle
 10
856.7351678100722
 20
251.8145857584641
 30
0.0
 40
3.0
100
AcDbArc
 50
225.0
 51
270.0
  0
ARC
  5
B7E
330
21
100
AcDbEntity
  8
0
  6
Continuous
100
AcDbCircle
 10
905.4925271229722
 20
199.9668446386641
 30
0.0
 40
3.0
100
AcDbArc
 50
180.0
 51
225.0
  0
ARC
  5
B7F
330
21
100
AcDbEntity
  8
0
  6
Continuous
100
AcDbCircle
 10
868.7284411378721
 20
251.8145857584641
 30
0.0
 40
4.0
100
AcDbArc
 50
238.9972808660987
 51
270.0
  0
ARC
  5
B80
330
21
100
AcDbEntity
  8
0
  6
Continuous
100
AcDbCircle
 10
840.8582125479721
 20
252.414585758464
 30
0.0
 40
0.4
100
AcDbArc
 50
90.00000000009769
 51
135.0000000099016
  0
ARC
  5
B81
330
21
100
AcDbEntity
  8
0
  6
Continuous
100
AcDbCircle
 10
838.892527122972
 20
250.4489003335641
 30
0.0
 40
0.4
100
AcDbArc
 50
135.000000014002
 51
180.0
  0
ARC
  5
B82
330
21
100
AcDbEntity
  8
0
  6
Continuous
100
AcDbCircle
 10
900.9268416980722
 20
173.214585758464
 30
0.0
 40
0.4
100
AcDbArc
 50
270.0
 51
314.9999999731013
  0
ARC
  5
B83
330
21
100
AcDbEntity
  8
0
  6
Continuous
100
AcDbCircle
 10
903.340204900172
 20
175.627948960664
 30
0.0
 40
0.4
100
AcDbArc
 50
314.9999999998998
 51
358.2110000000016
  0
LINE
  5
B84
330
21
100
AcDbEntity
  8
0
  6
Continuous
100
AcDbLine
 10
901.2096844104721
 20
172.931743046064
 30
0.0
 11
903.6230476126721
 21
175.345106248164
 31
0.0
  0
LINE
  5
B85
330
21
100
AcDbEntity
  8
0
  6
Continuous
100
AcDbLine
 10
851.4925271229722
 20
252.8145857584641
 30
0.0
 11
840.8582125479721
 21
252.8145857584641
 31
0.0
  0
LINE
  5
B86
330
21
100
AcDbEntity
  8
0
  6
Continuous
100
AcDbLine
 10
838.9925271229722
 20
251.1145857584641
 30
0.0
 11
853.192527122972
 21
251.1145857584641
 31
0.0
  0
LINE
  5
B87
330
21
100
AcDbEntity
  8
0
  6
Continuous
100
AcDbLine
 10
865.1228898623722
 20
248.8145857584641
 30
0.0
 11
856.7351678100722
 21
248.8145857584641
 31
0.0
  0
LINE
  5
B88
330
21
100
AcDbEntity
  8
0
  6
Continuous
100
AcDbLine
 10
883.4925271229721
 20
247.8145857584641
 30
0.0
 11
868.7284411378721
 21
247.8145857584641
 31
0.0
  0
LINE
  5
B89
330
21
100
AcDbEntity
  8
0
  6
Continuous
100
AcDbLine
 10
903.7400099291721
 20
175.6154614138641
 30
0.0
 11
904.4021453159722
 21
196.814585758464
 31
0.0
  0
LWPOLYLINE
  5
B8A
330
21
100
AcDbEntity
  8
0
  6
Continuous
100
AcDbPolyline
 90
        8
 70
     0
 43
0.0
 10
892.743533600972
 20
241.0541763307641
 10
893.405413017072
 20
240.9749385174641
 10
894.0344219278721
 20
240.7512156515641
 10
894.599322255472
 20
240.3941183422641
 10
895.0720597067721
 20
239.9213808909641
 10
895.4291570160721
 20
239.3564805633641
 10
895.6528798819721
 20
238.7274716525641
 10
895.7321176951721
 20
238.0655922364641
  0
LINE
  5
B8B
330
21
100
AcDbEntity
  8
0
  6
Continuous
100
AcDbLine
 10
870.1353058512721
 20
242.305068324164
 30
0.0
 11
883.4925271229721
 21
242.305068324164
 31
0.0
  0
LINE
  5
B8C
330
21
100
AcDbEntity
  8
0
  6
Continuous
100
AcDbLine
 10
870.1353058512721
 20
241.1603911245641
 30
0.0
 11
883.4925271229721
 21
241.1603911245641
 31
0.0
  0
LINE
  5
B8D
330
21
100
AcDbEntity
  8
0
  6
Continuous
100
AcDbLine
 10
892.743533600972
 20
241.0541763307641
 30
0.0
 11
870.2415206450721
 21
241.0541763307641
 31
0.0
  0
LINE
  5
B8E
330
21
100
AcDbEntity
  8
0
  6
Continuous
100
AcDbLine
 10
902.0497798410721
 20
195.814585758464
 30
0.0
 11
901.339097129572
 21
173.061155765064
 31
0.0
  0
LINE
  5
B8F
330
21
100
AcDbEntity
  8
0
  6
Continuous
100
AcDbLine
 10
902.4925271229722
 20
199.9668446386641
 30
0.0
 11
902.4925271229722
 21
228.8145857584641
 31
0.0
  0
LWPOLYLINE
  5
B90
330
21
100
AcDbEntity
  8
0
  6
Continuous
100
AcDbPolyline
 90
        4
 70
     0
 43
0.0
 10
866.668111018072
 20
242.5752599859641
 10
867.3163732560722
 20
242.3545532105641
 10
868.010761090672
 20
242.2191203066641
 10
868.7284411378721
 20
242.1734822798641
  0
LINE
  5
B91
330
21
100
AcDbEntity
  8
0
  6
Continuous
100
AcDbLine
 10
868.2918795182723
 20
238.0655922364641
 30
0.0
 11
895.7321176951721
 21
238.0655922364641
 31
0.0
  0
LINE
  5
B92
330
21
100
AcDbEntity
  8
0
  6
Continuous
100
AcDbLine
 10
896.9830096886722
 20
228.8145857584641
 30
0.0
 11
896.9830096886722
 21
215.4573644867641
 31
0.0
  0
LWPOLYLINE
  5
B93
330
21
100
AcDbEntity
  8
0
  6
Continuous
100
AcDbPolyline
 90
        4
 70
     0
 43
0.0
 10
895.7321176951721
 20
215.563579280564
 10
895.6559813284721
 20
214.9150517421641
 10
895.4410530761721
 20
214.2974296031641
 10
895.0975784780721
 20
213.7401495816641
  0
LINE
  5
B94
330
21
100
AcDbEntity
  8
0
  6
Continuous
100
AcDbLine
 10
895.8383324890721
 20
228.8145857584641
 30
0.0
 11
895.8383324890721
 21
215.4573644867641
 31
0.0
  0
LINE
  5
B95
330
21
100
AcDbEntity
  8
0
  6
Continuous
100
AcDbLine
 10
895.7321176951721
 20
215.563579280564
 30
0.0
 11
895.7321176951721
 21
238.0655922364641
 31
0.0
  0
LINE
  5
B96
330
21
100
AcDbEntity
  8
0
  6
Continuous
100
AcDbLine
 10
892.743533600972
 20
213.1822651120641
 30
0.0
 11
892.743533600972
 21
241.0541763307641
 31
0.0
  0
LINE
  5
B97
330
21
100
AcDbEntity
  8
0
  6
Continuous
100
AcDbLine
 10
895.7321176951721
 20
215.563579280564
 30
0.0
 11
895.8383324890721
 21
215.4573644867641
 31
0.0
  0
LINE
  5
B98
330
21
100
AcDbEntity
  8
0
  6
Continuous
100
AcDbLine
 10
870.2415206450721
 20
241.0541763307641
 30
0.0
 11
870.1353058512721
 21
241.1603911245641
 31
0.0
  0
LINE
  5
B9B
330
21
100
AcDbEntity
  8
0
  6
CENTER
100
AcDbLine
 10
828.6540480701832
 20
228.8145857584641
 30
0.0
 11
910.0047893302244
 21
228.8145857584641
 31
0.0
  0
LINE
  5
B9C
330
21
100
AcDbEntity
  8
0
  6
Continuous
100
AcDbLine
 10
854.613847466572
 20
249.6932654149641
 30
0.0
 11
851.4925271229722
 21
252.8145857584641
 31
0.0
  0
LINE
  5
B9D
330
21
100
AcDbEntity
  8
0
  6
Continuous
100
AcDbLine
 10
904.4021453159722
 20
196.814585758464
 30
0.0
 11
903.3712067794722
 21
197.8455242950641
 31
0.0
  0
LINE
  5
B9E
330
21
100
AcDbEntity
  8
0
  6
Continuous
100
AcDbLine
 10
884.617082543772
 20
221.9789007824641
 30
0.0
 11
885.0180252009722
 21
223.8276022952641
 31
0.0
  0
LINE
  5
BA2
330
21
100
AcDbEntity
  8
0
  6
Continuous
100
AcDbLine
 10
883.4925271229721
 20
215.563579280564
 30
0.0
 11
895.7321176951721
 21
215.563579280564
 31
0.0
  0
LINE
  5
BA3
330
21
100
AcDbEntity
  8
0
  6
Continuous
100
AcDbLine
 10
895.8383324890721
 20
215.4573644867641
 30
0.0
 11
896.9830096886722
 21
215.4573644867641
 31
0.0
  0
LINE
  5
BA4
330
21
100
AcDbEntity
  8
0
  6
Continuous
100
AcDbLine
 10
895.7321176951721
 20
238.0655922364641
 30
0.0
 11
896.154506442472
 21
238.4879809837641
 31
0.0
  0
LINE
  5
BA5
330
21
100
AcDbEntity
  8
0
  6
Continuous
100
AcDbLine
 10
870.2415206450721
 20
228.8145857584641
 30
0.0
 11
870.2415206450721
 21
241.0541763307641
 31
0.0
  0
LINE
  5
BA6
330
21
100
AcDbEntity
  8
0
  6
Continuous
100
AcDbLine
 10
870.1353058512721
 20
241.1603911245641
 30
0.0
 11
870.1353058512721
 21
242.305068324164
 31
0.0
  0
LINE
  5
BA7
330
21
100
AcDbEntity
  8
0
  6
Continuous
100
AcDbLine
 10
868.7284411378721
 20
247.8145857584641
 30
0.0
 11
868.7284411378721
 21
242.1734769683641
 31
0.0
  0
LINE
  5
BA8
330
21
100
AcDbEntity
  8
0
  6
Continuous
100
AcDbLine
 10
892.743533600972
 20
241.0541763307641
 30
0.0
 11
893.1659223482722
 21
241.476565078064
 31
0.0
  0
LINE
  5
BA9
330
21
100
AcDbEntity
  8
0
  6
Continuous
100
AcDbLine
 10
866.6681261232722
 20
248.386014329964
 30
0.0
 11
866.668111018072
 21
242.5752599859641
 31
0.0
  0
LINE
  5
BAA
330
21
100
AcDbEntity
  8
0
  6
Continuous
100
AcDbLine
 10
865.1228898623722
 20
248.8145857584641
 30
0.0
 11
865.1228898623722
 21
228.8145857584641
 31
0.0
  0
LINE
  5
BAB
330
21
100
AcDbEntity
  8
0
  6
Continuous
100
AcDbLine
 10
883.4925271229721
 20
199.9668446386641
 30
0.0
 11
902.4925271229722
 21
199.9668446386641
 31
0.0
  0
LINE
  5
BAC
330
21
100
AcDbEntity
  8
0
  6
Continuous
100
AcDbLine
 10
883.4925271229721
 20
197.8455242950641
 30
0.0
 11
903.3712067794722
 21
197.8455242950641
 31
0.0
  0
LINE
  5
BAD
330
21
100
AcDbEntity
  8
0
  6
Continuous
100
AcDbLine
 10
904.4021453159722
 20
196.814585758464
 30
0.0
 11
883.4925271229721
 21
196.8145857584641
 31
0.0
  0
LINE
  5
BAE
330
21
100
AcDbEntity
  8
0
  6
Continuous
100
AcDbLine
 10
856.7351678100722
 20
228.814585758464
 30
0.0
 11
856.7351678100722
 21
248.8145857584641
 31
0.0
  0
LINE
  5
BAF
330
21
100
AcDbEntity
  8
0
  6
Continuous
100
AcDbLine
 10
904.3709107594721
 20
195.814585758464
 30
0.0
 11
883.4925271229721
 21
195.8145857584641
 31
0.0
  0
LINE
  5
BB0
330
21
100
AcDbEntity
  8
0
  6
Continuous
100
AcDbLine
 10
854.6138474665722
 20
228.8145857584641
 30
0.0
 11
854.613847466572
 21
249.6932654149641
 31
0.0
  0
LINE
  5
BB1
330
21
100
AcDbEntity
  8
0
  6
Continuous
100
AcDbLine
 10
853.1925278859723
 20
251.1145849955641
 30
0.0
 11
853.1925278859723
 21
228.8145857584641
 31
0.0
  0
LINE
  5
BB2
330
21
100
AcDbEntity
  8
0
  6
Continuous
100
AcDbLine
 10
851.4925271229722
 20
252.8145857584641
 30
0.0
 11
851.4925271229722
 21
228.8145857584641
 31
0.0
  0
LWPOLYLINE
  5
BB3
330
21
100
AcDbEntity
  8
0
  6
Continuous
100
AcDbPolyline
 90
        3
 70
     0
 43
0.0
 10
869.093323184672
 20
240.8161009952641
 10
869.6560753763721
 20
240.9918290868641
 10
870.2415206450721
 20
241.0541763307641
  0
LINE
  5
BB4
330
21
100
AcDbEntity
  8
0
  6
Continuous
100
AcDbLine
 10
840.8582125479721
 20
252.8145857584641
 30
0.0
 11
840.8582125479721
 21
228.8145857584641
 31
0.0
  0
LINE
  5
BB5
330
21
100
AcDbEntity
  8
0
  6
Continuous
100
AcDbLine
 10
840.5753698354722
 20
252.697428470964
 30
0.0
 11
840.575369835472
 21
228.814585758464
 31
0.0
  0
LINE
  5
BB6
330
21
100
AcDbEntity
  8
0
  6
Continuous
100
AcDbLine
 10
838.9925271229722
 20
251.1145849955641
 30
0.0
 11
838.9925271229722
 21
228.8145857584641
 31
0.0
  0
LINE
  5
BB7
330
21
100
AcDbEntity
  8
0
  6
Continuous
100
AcDbLine
 10
838.6096844104723
 20
250.7317430460641
 30
0.0
 11
838.6096844104723
 21
228.8145857584641
 31
0.0
  0
LINE
  5
BB8
330
21
100
AcDbEntity
  8
0
  6
Continuous
100
AcDbLine
 10
838.4925271229722
 20
250.4489003335641
 30
0.0
 11
838.4925271229722
 21
228.8145857584641
 31
0.0
  0
LINE
  5
BB9
330
21
100
AcDbEntity
  8
0
  6
Continuous
100
AcDbLine
 10
903.7400099291721
 20
175.6154614138641
 30
0.0
 11
883.4925271229721
 21
175.6154614138641
 31
0.0
  0
LINE
  5
BBA
330
21
100
AcDbEntity
  8
0
  6
Continuous
100
AcDbLine
 10
903.6230476126721
 20
175.345106248164
 30
0.0
 11
883.4925271229721
 21
175.345106248164
 31
0.0
  0
LINE
  5
BBB
330
21
100
AcDbEntity
  8
0
  6
Continuous
100
AcDbLine
 10
901.3390961842722
 20
173.061155764564
 30
0.0
 11
883.4925271229721
 21
173.0611557645641
 31
0.0
  0
LINE
  5
BBC
330
21
100
AcDbEntity
  8
0
  6
Continuous
100
AcDbLine
 10
901.2096844104721
 20
172.931743046064
 30
0.0
 11
883.4925271229721
 21
172.931743046064
 31
0.0
  0
LINE
  5
BBD
330
21
100
AcDbEntity
  8
0
  6
Continuous
100
AcDbLine
 10
900.9268416980722
 20
172.814585758464
 30
0.0
 11
883.4925271229721
 21
172.8145857584641
 31
0.0
  0
LINE
  5
BBE
330
21
100
AcDbEntity
  8
0
  6
Continuous
100
AcDbLine
 10
840.5753698354722
 20
252.697428470964
 30
0.0
 11
838.6096844104723
 21
250.7317430460641
 31
0.0
  0
MTEXT
  5
2E3E
330
21
100
AcDbEntity
  8
0
100
AcDbMText
 10
2320.303926075331
 20
185.571951966812
 30
0.0
 40
0.18
 41
14.68390410115808
 71
     9
 72
     1
  1
\A1;
 73
     1
 44
1.0
  0
ENDSEC
  0
SECTION
  2
OBJECTS
  0
DICTIONARY
  5
232
330
0
100
AcDbDictionary
281
     1
  3
ACAD_COLOR
350
2B7
  3
ACAD_GROUP
350
233
  3
ACAD_LAYOUT
350
274
  3
ACAD_MATERIAL
350
2B6
  3
ACAD_MLINESTYLE
350
234
  3
ACAD_PLOTSETTINGS
350
275
  3
ACAD_PLOTSTYLENAME
350
272
  3
ACDBHEADERROUNDTRIPXREC
350
5E66
  3
AcDbVariableDictionary
350
2AE
  0
DICTIONARY
  5
2B7
102
{ACAD_REACTORS
330
232
102
}
330
232
100
AcDbDictionary
281
     1
  0
DICTIONARY
  5
233
102
{ACAD_REACTORS
330
232
102
}
330
232
100
AcDbDictionary
281
     1
  0
DICTIONARY
  5
274
102
{ACAD_REACTORS
330
232
102
}
330
232
100
AcDbDictionary
281
     1
  3
Layout1
350
277
  3
Model
350
276
  0
DICTIONARY
  5
2B6
102
{ACAD_REACTORS
330
232
102
}
330
232
100
AcDbDictionary
281
     1
  0
DICTIONARY
  5
234
102
{ACAD_REACTORS
330
232
102
}
330
232
100
AcDbDictionary
281
     1
  3
STANDARD
350
235
  0
DICTIONARY
  5
275
102
{ACAD_REACTORS
330
232
102
}
330
232
100
AcDbDictionary
281
     1
  0
ACDBDICTIONARYWDFLT
  5
272
102
{ACAD_REACTORS
330
232
102
}
330
232
100
AcDbDictionary
281
     1
  3
Normal
350
273
100
AcDbDictionaryWithDefault
340
273
  0
DICTIONARY
  5
5E66
102
{ACAD_REACTORS
330
232
102
}
330
232
100
AcDbDictionary
281
     1
  3
COLORDICT
350
5E67
  3
MATERIALDICT
350
5E68
  0
DICTIONARY
  5
2AE
102
{ACAD_REACTORS
330
232
102
}
330
232
100
AcDbDictionary
281
     1
  0
LAYOUT
  5
277
102
{ACAD_REACTORS
330
274
102
}
330
274
100
AcDbPlotSettings
  1

  2
\\alderaan\HP LaserJet 5Si/5Si MX PS Tecnico
  4

  6

 40
0.0
 41
0.0
 42
0.0
 43
0.0
 44
0.0
 45
0.0
 46
0.0
 47
0.0
 48
0.0
 49
0.0
140
0.0
141
0.0
142
1.0
143
1.0
 70
   688
 72
     0
 73
     0
 74
     5
  7

 75
    16
147
1.0
148
0.0
149
0.0
100
AcDbLayout
  1
Layout1
 70
     0
 71
     1
 10
0.0
 20
0.0
 11
12.0
 21
9.0
 12
0.0
 22
0.0
 32
0.0
 14
1.000000000000000E+20
 24
1.000000000000000E+20
 34
1.000000000000000E+20
 15
-1.000000000000000E+20
 25
-1.000000000000000E+20
 35
-1.000000000000000E+20
146
0.0
 13
0.0
 23
0.0
 33
0.0
 16
1.0
 26
0.0
 36
0.0
 17
0.0
 27
1.0
 37
0.0
 76
     0
330
22
  0
LAYOUT
  5
276
102
{ACAD_REACTORS
330
274
102
}
330
274
100
AcDbPlotSettings
  1

  2
\\alderaan\HP LaserJet 4050 Ricerca
  4
A4
  6

 40
5.027083396911621
 41
5.069430828094482
 42
5.365737915039062
 43
5.365753173828125
 44
209.8886566162109
 45
297.0530090332031
 46
0.0
 47
0.0
 48
70.15568666023683
 49
-413.5017910393744
140
1567.471881557387
141
355.5977189696187
142
1.0
143
5.224086096996019
 70
 11952
 72
     1
 73
     1
 74
     4
  7

 75
     0
147
0.1914210411989621
148
-70.15568666023683
149
413.5017910393744
100
AcDbLayout
  1
Model
 70
     1
 71
     0
 10
0.0
 20
0.0
 11
12.0
 21
9.0
 12
0.0
 22
0.0
 32
0.0
 14
0.0
 24
0.0
 34
0.0
 15
0.0
 25
0.0
 35
0.0
146
0.0
 13
0.0
 23
0.0
 33
0.0
 16
1.0
 26
0.0
 36
0.0
 17
0.0
 27
1.0
 37
0.0
 76
     0
330
21
  0
MLINESTYLE
  5
235
102
{ACAD_REACTORS
330
234
102
}
330
234
100
AcDbMlineStyle
  2
STANDARD
 70
     0
  3

 62
     0
 51
90.00000000000019
 52
90.00000000000019
 71
     2
 49
0.5
 62
   256
  6
BYLAYER
 49
-0.5
 62
   256
  6
BYLAYER
  0
ACDBPLACEHOLDER
  5
273
102
{ACAD_REACTORS
330
272
102
}
330
272
  0
XRECORD
  5
5E67
102
{ACAD_REACTORS
330
5E66
102
}
330
5E66
100
AcDbXrecord
280
     1
340
2B7
  0
XRECORD
  5
5E68
102
{ACAD_REACTORS
330
5E66
102
}
330
5E66
100
AcDbXrecord
280
     1
340
2B6
  0
ENDSEC
  0
EOF
