  0
SECTION
  2
HEADER
  9
$ACADVER
  1
AC1015
  9
$ACADMAINTVER
 70
     6
  9
$DWGCODEPAGE
  3
ANSI_1252
  9
$INSBASE
 10
0.0
 20
0.0
 30
0.0
  9
$EXTMIN
 10
284.3190627940706
 20
-451.816176746759
 30
-40.73332500000001
  9
$EXTMAX
 10
4800.663162093308
 20
246.9266154161779
 30
20.8
  9
$LIMMIN
 10
0.0
 20
0.0
  9
$LIMMAX
 10
420.0
 20
297.0
  9
$ORTHOMODE
 70
     1
  9
$REGENMODE
 70
     1
  9
$FILLMODE
 70
     1
  9
$QTEXTMODE
 70
     0
  9
$MIRRTEXT
 70
     1
  9
$LTSCALE
 40
23.1
  9
$ATTMODE
 70
     1
  9
$TEXTSIZE
 40
0.2
  9
$TRACEWID
 40
0.05
  9
$TEXTSTYLE
  7
STANDARD
  9
$CLAYER
  8
0
  9
$CELTYPE
  6
BYLAYER
  9
$CECOLOR
 62
   256
  9
$CELTSCALE
 40
1.0
  9
$DISPSILH
 70
     0
  9
$DIMSCALE
 40
1.0
  9
$DIMASZ
 40
3.0
  9
$DIMEXO
 40
2.625
  9
$DIMDLI
 40
15.96
  9
$DIMRND
 40
0.0
  9
$DIMDLE
 40
0.0
  9
$DIMEXE
 40
7.559999999999999
  9
$DIMTP
 40
0.0
  9
$DIMTM
 40
0.0
  9
$DIMTXT
 40
0.18
  9
$DIMCEN
 40
3.779999999999999
  9
$DIMTSZ
 40
0.0
  9
$DIMTOL
 70
     0
  9
$DIMLIM
 70
     0
  9
$DIMTIH
 70
     1
  9
$DIMTOH
 70
     1
  9
$DIMSE1
 70
     0
  9
$DIMSE2
 70
     0
  9
$DIMTAD
 70
     0
  9
$DIMZIN
 70
     0
  9
$DIMBLK
  1

  9
$DIMASO
 70
     1
  9
$DIMSHO
 70
     1
  9
$DIMPOST
  1

  9
$DIMAPOST
  1

  9
$DIMALT
 70
     0
  9
$DIMALTD
 70
     2
  9
$DIMALTF
 40
25.4
  9
$DIMLFAC
 40
1.0
  9
$DIMTOFL
 70
     0
  9
$DIMTVP
 40
0.0
  9
$DIMTIX
 70
     0
  9
$DIMSOXD
 70
     0
  9
$DIMSAH
 70
     0
  9
$DIMBLK1
  1

  9
$DIMBLK2
  1

  9
$DIMSTYLE
  2
STANDARD
  9
$DIMCLRD
 70
     0
  9
$DIMCLRE
 70
     0
  9
$DIMCLRT
 70
     0
  9
$DIMTFAC
 40
1.0
  9
$DIMGAP
 40
0.09
  9
$DIMJUST
 70
     0
  9
$DIMSD1
 70
     0
  9
$DIMSD2
 70
     0
  9
$DIMTOLJ
 70
     1
  9
$DIMTZIN
 70
     0
  9
$DIMALTZ
 70
     0
  9
$DIMALTTZ
 70
     0
  9
$DIMUPT
 70
     0
  9
$DIMDEC
 70
     4
  9
$DIMTDEC
 70
     4
  9
$DIMALTU
 70
     2
  9
$DIMALTTD
 70
     2
  9
$DIMTXSTY
  7
STANDARD
  9
$DIMAUNIT
 70
     0
  9
$DIMADEC
 70
     0
  9
$DIMALTRND
 40
0.0
  9
$DIMAZIN
 70
     0
  9
$DIMDSEP
 70
    46
  9
$DIMATFIT
 70
     3
  9
$DIMFRAC
 70
     0
  9
$DIMLDRBLK
  1

  9
$DIMLUNIT
 70
     2
  9
$DIMLWD
 70
    -2
  9
$DIMLWE
 70
    -2
  9
$DIMTMOVE
 70
     0
  9
$LUNITS
 70
     2
  9
$LUPREC
 70
     4
  9
$SKETCHINC
 40
0.1
  9
$FILLETRAD
 40
0.0
  9
$AUNITS
 70
     0
  9
$AUPREC
 70
     0
  9
$MENU
  1
acad
  9
$ELEVATION
 40
0.0
  9
$PELEVATION
 40
0.0
  9
$THICKNESS
 40
0.0
  9
$LIMCHECK
 70
     0
  9
$CHAMFERA
 40
0.0
  9
$CHAMFERB
 40
0.0
  9
$CHAMFERC
 40
0.0
  9
$CHAMFERD
 40
0.0
  9
$SKPOLY
 70
     0
  9
$TDCREATE
 40
2444972.041666667
  9
$TDUCREATE
 40
2444972.0
  9
$TDUPDATE
 40
2453410.512121459
  9
$TDUUPDATE
 40
2453410.470454792
  9
$TDINDWG
 40
1.2631404282
  9
$TDUSRTIMER
 40
1.2631404282
  9
$USRTIMER
 70
     1
  9
$ANGBASE
 50
0.0
  9
$ANGDIR
 70
     0
  9
$PDMODE
 70
     0
  9
$PDSIZE
 40
0.0
  9
$PLINEWID
 40
0.0
  9
$SPLFRAME
 70
     0
  9
$SPLINETYPE
 70
     6
  9
$SPLINESEGS
 70
     8
  9
$HANDSEED
  5
5F09
  9
$SURFTAB1
 70
     6
  9
$SURFTAB2
 70
     6
  9
$SURFTYPE
 70
     6
  9
$SURFU
 70
     6
  9
$SURFV
 70
     6
  9
$UCSBASE
  2

  9
$UCSNAME
  2

  9
$UCSORG
 10
0.0
 20
0.0
 30
0.0
  9
$UCSXDIR
 10
1.0
 20
0.0
 30
0.0
  9
$UCSYDIR
 10
0.0
 20
1.0
 30
0.0
  9
$UCSORTHOREF
  2

  9
$UCSORTHOVIEW
 70
     0
  9
$UCSORGTOP
 10
0.0
 20
0.0
 30
0.0
  9
$UCSORGBOTTOM
 10
0.0
 20
0.0
 30
0.0
  9
$UCSORGLEFT
 10
0.0
 20
0.0
 30
0.0
  9
$UCSORGRIGHT
 10
0.0
 20
0.0
 30
0.0
  9
$UCSORGFRONT
 10
0.0
 20
0.0
 30
0.0
  9
$UCSORGBACK
 10
0.0
 20
0.0
 30
0.0
  9
$PUCSBASE
  2

  9
$PUCSNAME
  2

  9
$PUCSORG
 10
0.0
 20
0.0
 30
0.0
  9
$PUCSXDIR
 10
1.0
 20
0.0
 30
0.0
  9
$PUCSYDIR
 10
0.0
 20
1.0
 30
0.0
  9
$PUCSORTHOREF
  2

  9
$PUCSORTHOVIEW
 70
     0
  9
$PUCSORGTOP
 10
0.0
 20
0.0
 30
0.0
  9
$PUCSORGBOTTOM
 10
0.0
 20
0.0
 30
0.0
  9
$PUCSORGLEFT
 10
0.0
 20
0.0
 30
0.0
  9
$PUCSORGRIGHT
 10
0.0
 20
0.0
 30
0.0
  9
$PUCSORGFRONT
 10
0.0
 20
0.0
 30
0.0
  9
$PUCSORGBACK
 10
0.0
 20
0.0
 30
0.0
  9
$USERI1
 70
     0
  9
$USERI2
 70
     0
  9
$USERI3
 70
     0
  9
$USERI4
 70
     0
  9
$USERI5
 70
     0
  9
$USERR1
 40
0.0
  9
$USERR2
 40
0.0
  9
$USERR3
 40
0.0
  9
$USERR4
 40
0.0
  9
$USERR5
 40
0.0
  9
$WORLDVIEW
 70
     1
  9
$SHADEDGE
 70
     3
  9
$SHADEDIF
 70
    70
  9
$TILEMODE
 70
     1
  9
$MAXACTVP
 70
    16
  9
$PINSBASE
 10
0.0
 20
0.0
 30
0.0
  9
$PLIMCHECK
 70
     0
  9
$PEXTMIN
 10
1.000000000000000E+20
 20
1.000000000000000E+20
 30
1.000000000000000E+20
  9
$PEXTMAX
 10
-1.000000000000000E+20
 20
-1.000000000000000E+20
 30
-1.000000000000000E+20
  9
$PLIMMIN
 10
0.0
 20
0.0
  9
$PLIMMAX
 10
12.0
 20
9.0
  9
$UNITMODE
 70
     0
  9
$VISRETAIN
 70
     0
  9
$PLINEGEN
 70
     1
  9
$PSLTSCALE
 70
     0
  9
$TREEDEPTH
 70
  3020
  9
$CMLSTYLE
  2
STANDARD
  9
$CMLJUST
 70
     0
  9
$CMLSCALE
 40
1.0
  9
$PROXYGRAPHICS
 70
     1
  9
$MEASUREMENT
 70
     0
  9
$CELWEIGHT
370
    -1
  9
$ENDCAPS
280
     0
  9
$JOINSTYLE
280
     0
  9
$LWDISPLAY
290
     0
  9
$INSUNITS
 70
     0
  9
$HYPERLINKBASE
  1

  9
$STYLESHEET
  1

  9
$XEDIT
290
     1
  9
$CEPSNTYPE
380
     0
  9
$PSTYLEMODE
290
     1
  9
$FINGERPRINTGUID
  2
{0BC36D6C-D7C2-4D71-98D4-CB92CFD2B5E3}
  9
$VERSIONGUID
  2
{EA6B3A94-8683-46F1-9BE0-A34E59D1A552}
  9
$EXTNAMES
290
     1
  9
$PSVPSCALE
 40
0.0
  9
$OLESTARTUP
290
     0
  0
ENDSEC
  0
SECTION
  2
CLASSES
  0
CLASS
  1
IMAGE
  2
AcDbRasterImage
  3
ISM
 90
      127
280
     0
281
     1
  0
CLASS
  1
DICTIONARYVAR
  2
AcDbDictionaryVar
  3
ObjectDBX Classes
 90
        0
280
     0
281
     0
  0
CLASS
  1
RASTERVARIABLES
  2
AcDbRasterVariables
  3
ISM
 90
        0
280
     0
281
     0
  0
CLASS
  1
IMAGEDEF
  2
AcDbRasterImageDef
  3
ISM
 90
        0
280
     0
281
     0
  0
CLASS
  1
IMAGEDEF_REACTOR
  2
AcDbRasterImageDefReactor
  3
ISM
 90
        1
280
     0
281
     0
  0
CLASS
  1
IDBUFFER
  2
AcDbIdBuffer
  3
ObjectDBX Classes
 90
        0
280
     0
281
     0
  0
CLASS
  1
SPATIAL_FILTER
  2
AcDbSpatialFilter
  3
ObjectDBX Classes
 90
        0
280
     0
281
     0
  0
CLASS
  1
SORTENTSTABLE
  2
AcDbSortentsTable
  3
ObjectDBX Classes
 90
        0
280
     0
281
     0
  0
CLASS
  1
LAYER_INDEX
  2
AcDbLayerIndex
  3
ObjectDBX Classes
 90
        0
280
     0
281
     0
  0
CLASS
  1
SPATIAL_INDEX
  2
AcDbSpatialIndex
  3
AutoCAD 2000
 90
        0
280
     0
281
     0
  0
CLASS
  1
OBJECT_PTR
  2
CAseDLPNTableRecord
  3
ASE-LPNTableRecord
 90
        1
280
     0
281
     0
  0
CLASS
  1
PLOTSETTINGS
  2
AcDbPlotSettings
  3
ObjectDBX Classes
 90
        0
280
     0
281
     0
  0
CLASS
  1
ACDBDICTIONARYWDFLT
  2
AcDbDictionaryWithDefault
  3
ObjectDBX Classes
 90
        0
280
     0
281
     0
  0
CLASS
  1
WIPEOUT
  2
AcDbWipeout
  3
WipeOut|AutoCAD Express Tool|expresstools@autodesk.com
 90
      127
280
     0
281
     1
  0
CLASS
  1
WIPEOUTVARIABLES
  2
AcDbWipeoutVariables
  3
WipeOut|AutoCAD Express Tool|expresstools@autodesk.com
 90
        0
280
     0
281
     0
  0
CLASS
  1
RTEXT
  2
RText
  3
RText|AutoCAD Express Tool|expresstools@autodesk.com
 90
        0
280
     0
281
     1
  0
CLASS
  1
ARCALIGNEDTEXT
  2
AcDbArcAlignedText
  3
ATEXT|AutoCAD Express Tool|expresstools@autodesk.com
 90
        0
280
     0
281
     1
  0
CLASS
  1
ACDBPLACEHOLDER
  2
AcDbPlaceHolder
  3
ObjectDBX Classes
 90
        0
280
     0
281
     0
  0
CLASS
  1
LAYOUT
  2
AcDbLayout
  3
ObjectDBX Classes
 90
        0
280
     0
281
     0
  0
ENDSEC
  0
SECTION
  2
TABLES
  0
TABLE
  2
VPORT
  5
6
330
0
100
AcDbSymbolTable
 70
     1
  0
VPORT
  5
5EFD
330
6
100
AcDbSymbolTableRecord
100
AcDbViewportTableRecord
  2
*Active
 70
     0
 10
0.0
 20
0.0
 11
1.0
 21
1.0
 12
788.4189413111252
 22
-133.8340829558856
 13
0.0
 23
0.0
 14
1.0
 24
1.0
 15
0.0
 25
0.0
 16
0.0
 26
0.0
 36
1.0
 17
0.0
 27
0.0
 37
0.0
 40
263.2582465915748
 41
1.888667992047713
 42
50.0
 43
0.0
 44
0.0
 50
0.0
 51
0.0
 71
     0
 72
   100
 73
     1
 74
     1
 75
     0
 76
     0
 77
     0
 78
     0
281
     0
 65
     1
110
0.0
120
0.0
130
0.0
111
1.0
121
0.0
131
0.0
112
0.0
122
1.0
132
0.0
 79
     0
146
0.0
  0
ENDTAB
  0
TABLE
  2
LTYPE
  5
3
330
0
100
AcDbSymbolTable
 70
     2
  0
LTYPE
  5
C
330
3
100
AcDbSymbolTableRecord
100
AcDbLinetypeTableRecord
  2
BYBLOCK
 70
     0
  3

 72
    65
 73
     0
 40
0.0
  0
LTYPE
  5
D
330
3
100
AcDbSymbolTableRecord
100
AcDbLinetypeTableRecord
  2
BYLAYER
 70
     0
  3

 72
    65
 73
     0
 40
0.0
  0
LTYPE
  5
E
330
3
100
AcDbSymbolTableRecord
100
AcDbLinetypeTableRecord
  2
CONTINUOUS
 70
     0
  3
Solid line
 72
    65
 73
     0
 40
0.0
  0
LTYPE
  5
F
330
3
100
AcDbSymbolTableRecord
100
AcDbLinetypeTableRecord
  2
CENTER
 70
     0
  3
____ _ ____ _ ____ _ ____ _ ____ _ ____ _ ____
 72
    65
 73
     4
 40
0.6
 49
0.375
 74
     0
 49
-0.075
 74
     0
 49
0.075
 74
     0
 49
-0.075
 74
     0
  0
ENDTAB
  0
TABLE
  2
LAYER
  5
1
330
0
100
AcDbSymbolTable
 70
     2
  0
LAYER
  5
14
330
1
100
AcDbSymbolTableRecord
100
AcDbLayerTableRecord
  2
0
 70
     0
 62
     7
  6
CONTINUOUS
370
    -3
390
616
  0
LAYER
  5
61F
330
1
100
AcDbSymbolTableRecord
100
AcDbLayerTableRecord
  2
Defpoints
 70
     0
 62
     7
  6
CONTINUOUS
290
     0
370
    -3
390
616
  0
ENDTAB
  0
TABLE
  2
STYLE
  5
2
330
0
100
AcDbSymbolTable
 70
     3
  0
STYLE
  5
1D
330
2
100
AcDbSymbolTableRecord
100
AcDbTextStyleTableRecord
  2
STANDARD
 70
     0
 40
0.0
 41
1.0
 50
0.0
 71
     0
 42
0.2
  3
VERDANA.TTF
  4

1001
ACAD
1000
Verdana
1071
       34
  0
STYLE
  5
1A
330
2
100
AcDbSymbolTableRecord
100
AcDbTextStyleTableRecord
  2
TEXTSTYLE_0
 70
     0
 40
0.0
 41
0.8
 50
0.0
 71
     0
 42
0.2
  3
txt
  4

  0
STYLE
  5
1B
330
2
100
AcDbSymbolTableRecord
100
AcDbTextStyleTableRecord
  2
TEXTSTYLE_1
 70
     0
 40
0.0
 41
0.8
 50
0.0
 71
     0
 42
0.2
  3
txt
  4

  0
ENDTAB
  0
TABLE
  2
VIEW
  5
4
330
0
100
AcDbSymbolTable
 70
     0
  0
ENDTAB
  0
TABLE
  2
UCS
  5
5
330
0
100
AcDbSymbolTable
 70
     0
  0
ENDTAB
  0
TABLE
  2
APPID
  5
7
330
0
100
AcDbSymbolTable
 70
     1
  0
APPID
  5
19
330
7
100
AcDbSymbolTableRecord
100
AcDbRegAppTableRecord
  2
ACAD
 70
     0
  0
ENDTAB
  0
TABLE
  2
DIMSTYLE
  5
8
330
0
100
AcDbSymbolTable
 70
     2
100
AcDbDimStyleTable
  0
DIMSTYLE
105
2D
330
8
100
AcDbSymbolTableRecord
100
AcDbDimStyleTableRecord
  2
STANDARD
 70
     0
 47
0.003
 48
0.003
 71
     1
140
1.5
289
     0
340
1D
  0
DIMSTYLE
105
784
330
8
100
AcDbSymbolTableRecord
100
AcDbDimStyleTableRecord
  2
dimensionali
 70
     0
 41
6.0
 42
5.0
 43
31.958
 44
0.0
 47
0.003
 48
0.003
 71
     1
 73
     0
 74
     0
140
8.0
141
7.568999999999999
147
5.0
340
1D
341
785
342
785
  0
ENDTAB
  0
TABLE
  2
BLOCK_RECORD
  5
28
330
0
100
AcDbSymbolTable
 70
     1
  0
BLOCK_RECORD
  5
26
330
28
100
AcDbSymbolTableRecord
100
AcDbBlockTableRecord
  2
*MODEL_SPACE
340
61B
  0
BLOCK_RECORD
  5
27
330
28
100
AcDbSymbolTableRecord
100
AcDbBlockTableRecord
  2
*PAPER_SPACE
340
61C
  0
BLOCK_RECORD
  5
785
330
28
100
AcDbSymbolTableRecord
100
AcDbBlockTableRecord
  2
_Dot
340
0
  0
ENDTAB
  0
ENDSEC
  0
SECTION
  2
BLOCKS
  0
BLOCK
  5
29
330
26
100
AcDbEntity
  8
0
100
AcDbBlockBegin
  2
*MODEL_SPACE
 70
     0
 71
     0
 10
0.0
 20
0.0
 30
0.0
  3
*MODEL_SPACE
  1

  0
ENDBLK
  5
2A
330
26
100
AcDbEntity
  8
0
100
AcDbBlockEnd
  0
BLOCK
  5
2B
330
27
100
AcDbEntity
 67
     1
  8
0
100
AcDbBlockBegin
  2
*PAPER_SPACE
 70
     0
 71
     0
 10
0.0
 20
0.0
 30
0.0
  3
*PAPER_SPACE
  1

  0
ENDBLK
  5
2C
330
27
100
AcDbEntity
 67
     1
  8
0
100
AcDbBlockEnd
  0
BLOCK
  5
786
330
785
100
AcDbEntity
  8
0
100
AcDbBlockBegin
  2
_Dot
 70
     0
 71
     0
 10
0.0
 20
0.0
 30
0.0
  3
_Dot
  1

  0
LWPOLYLINE
  5
787
330
785
100
AcDbEntity
  8
0
  6
ByBlock
 62
     0
100
AcDbPolyline
 90
        2
 70
     1
 43
0.5
 10
-0.25
 20
0.0
 42
1.0
 10
0.25
 20
0.0
 42
1.0
  0
LINE
  5
788
330
785
100
AcDbEntity
  8
0
  6
ByBlock
 62
     0
370
    -2
100
AcDbLine
 10
-0.5
 20
0.0
 30
0.0
 11
-1.0
 21
0.0
 31
0.0
  0
ENDBLK
  5
789
330
785
100
AcDbEntity
  8
0
100
AcDbBlockEnd
  0
ENDSEC
  0
SECTION
  2
ENTITIES
  0
TEXT
  5
E5
330
26
100
AcDbEntity
  8
0
  6
Continuous
 62
     2
100
AcDbText
 10
98.4898777622
 20
41.38631207849999
 30
0.0
 40
1.8
  1
 
  7
TEXTSTYLE_1
 72
     5
 11
100.8041634764
 21
41.38631207849999
 31
0.0
100
AcDbText
  0
TEXT
  5
11D
330
26
100
AcDbEntity
  8
0
  6
Continuous
 62
     1
100
AcDbText
 10
328.1631333629
 20
32.0853596703
 30
0.0
 40
1.5
  1
 
  7
TEXTSTYLE_0
 72
     5
 11
330.0092872091
 21
32.0853596703
 31
0.0
100
AcDbText
  0
TEXT
  5
11E
330
26
100
AcDbEntity
  8
0
  6
Continuous
 62
     1
100
AcDbText
 10
330.0092872091
 20
32.0853596703
 30
0.0
 40
1.5
  1
 
  7
TEXTSTYLE_0
 72
     5
 11
331.8554410552
 21
32.0853596703
 31
0.0
100
AcDbText
  0
TEXT
  5
120
330
26
100
AcDbEntity
  8
0
  6
Continuous
 62
     1
100
AcDbText
 10
352.836210286
 20
32.0853596703
 30
0.0
 40
1.5
  1
 
  7
TEXTSTYLE_0
 72
     5
 11
354.6823641321
 21
32.0853596703
 31
0.0
100
AcDbText
  0
TEXT
  5
12A
330
26
100
AcDbEntity
  8
0
  6
Continuous
 62
     1
100
AcDbText
 10
401.5862102859999
 20
20.9420904395
 30
0.0
 40
1.5
  1
 
  7
TEXTSTYLE_0
 72
     5
 11
403.4323641321
 21
20.9420904395
 31
0.0
100
AcDbText
  0
LINE
  5
2AAF
330
26
100
AcDbEntity
  8
0
  6
Continuous
100
AcDbLine
 10
753.1481875373729
 20
-102.9662965618042
 30
0.0
 11
754.4849726758278
 21
-99.68449986802661
 31
0.0
  0
LINE
  5
2AB0
330
26
100
AcDbEntity
  8
0
  6
Continuous
100
AcDbLine
 10
753.8888524848593
 20
-102.9663008213279
 30
0.0
 11
755.0349727175277
 21
-100.1525849186266
 31
0.0
  0
LINE
  5
2AB1
330
26
100
AcDbEntity
  8
0
  6
Continuous
100
AcDbLine
 10
749.5349728666278
 20
-102.966300821328
 30
0.0
 11
749.5349728666278
 21
-99.21641481752658
 31
0.0
  0
LINE
  5
2AB2
330
26
100
AcDbEntity
  8
0
  6
Continuous
100
AcDbLine
 10
750.6349727712277
 20
-102.9663008213279
 30
0.0
 11
750.6349727712277
 21
-97.34407413832663
 31
0.0
  0
SPLINE
  5
2AB4
330
26
100
AcDbEntity
  8
0
  6
Continuous
100
AcDbSpline
210
-1.200000000000000E-15
220
-1.0
230
1.900000000000000E-15
 70
     8
 71
     3
 72
    16
 73
    12
 74
     0
 42
0.0000000001
 43
0.0000000001
 40
29.49350334578995
 40
29.49350334578995
 40
29.49350334578995
 40
29.49350334578995
 40
32.77055927306629
 40
36.04761520037936
 40
39.32467112774233
 40
42.60172705504245
 40
45.87878298231223
 40
49.15583890961237
 40
52.43289483697534
 40
55.7099507642884
 40
58.98700669156477
 40
58.98700669156477
 40
58.98700669156477
 40
58.98700669156477
 10
755.5238658659345
 20
-133.966300821328
 30
-17.76110594449999
 10
754.430132646878
 20
-133.966300821328
 30
-17.76110594450001
 10
752.2426662087529
 20
-133.9663008213279
 30
-17.56972729159169
 10
749.0611500539603
 20
-133.966300821328
 30
-16.71724576926036
 10
746.0760566039112
 20
-133.9663008213278
 30
-15.32525292313269
 10
743.3778187261228
 20
-133.966300821328
 30
-13.43604375188103
 10
741.0494213146696
 20
-133.9663008213278
 30
-11.10702091999364
 10
739.1578780271555
 20
-133.966300821328
 30
-8.408950607680026
 10
737.7745962256438
 20
-133.966300821328
 30
-5.423812316165924
 10
736.8896046411118
 20
-133.9663008213278
 30
-2.242307961758659
 10
736.7791121243267
 20
-133.9663008213278
 30
-0.0548399502488053
 10
736.7238658659346
 20
-133.9663008213279
 30
1.038894055499999
  0
LINE
  5
2AB5
330
26
100
AcDbEntity
  8
0
  6
Continuous
100
AcDbLine
 10
695.4619856506346
 20
-102.9663008213279
 30
0.0
 11
695.4619856506346
 21
-125.9663008213279
 31
0.0
  0
LINE
  5
2AB6
330
26
100
AcDbEntity
  8
0
  6
Continuous
100
AcDbLine
 10
696.4619856506346
 20
-102.9663008213279
 30
0.0
 11
696.4619856506346
 21
-118.9663008213279
 31
0.0
  0
LINE
  5
2AB7
330
26
100
AcDbEntity
  8
0
  6
Continuous
100
AcDbLine
 10
698.8846353814347
 20
-102.9663008213279
 30
0.0
 11
698.8846353814347
 21
-118.9663008213279
 31
0.0
  0
LINE
  5
2AB8
330
26
100
AcDbEntity
  8
0
  6
Continuous
100
AcDbLine
 10
699.7506607851346
 20
-102.9663008213279
 30
0.0
 11
699.7506607851346
 21
-119.4663008213279
 31
0.0
  0
LINE
  5
2AB9
330
26
100
AcDbEntity
  8
0
  6
Continuous
100
AcDbLine
 10
699.9238658659345
 20
-102.9663008213279
 30
0.0
 11
699.9238658659345
 21
-119.7663008213279
 31
0.0
  0
LINE
  5
2ABA
330
26
100
AcDbEntity
  8
0
  6
Continuous
100
AcDbLine
 10
700.5238658659346
 20
-102.9663008213279
 30
0.0
 11
700.5238658659346
 21
-118.9663008213279
 31
0.0
  0
LINE
  5
2ABB
330
26
100
AcDbEntity
  8
0
  6
Continuous
100
AcDbLine
 10
730.6310455429345
 20
-152.9663008213279
 30
0.0
 11
755.5238658659345
 21
-152.9663008213279
 31
0.0
  0
LINE
  5
2ABC
330
26
100
AcDbEntity
  8
0
  6
Continuous
100
AcDbLine
 10
734.1238658659344
 20
-152.3663008213279
 30
0.0
 11
755.5238658659345
 21
-152.3663008213279
 31
0.0
  0
LINE
  5
2ABD
330
26
100
AcDbEntity
  8
0
  6
Continuous
100
AcDbLine
 10
726.6238658659345
 20
-150.7146347715279
 30
0.0
 11
730.4310455429344
 21
-152.9127109828278
 31
0.0
  0
LINE
  5
2ABE
330
26
100
AcDbEntity
  8
0
  6
Continuous
100
AcDbLine
 10
695.4619856506346
 20
-125.9475493412279
 30
0.0
 11
696.4807371307347
 21
-126.9663008213279
 31
0.0
  0
LINE
  5
2ABF
330
26
100
AcDbEntity
  8
0
  6
Continuous
100
AcDbLine
 10
700.6952163791345
 20
-131.1807800697279
 30
0.0
 11
702.4200843734345
 21
-132.9056480640279
 31
0.0
  0
LINE
  5
2AC0
330
26
100
AcDbEntity
  8
0
  6
Continuous
100
AcDbLine
 10
701.1487369965346
 20
-131.9663008213279
 30
0.0
 11
699.1280110543345
 21
-128.4663008213279
 31
0.0
  0
LINE
  5
2AC1
330
26
100
AcDbEntity
  8
0
  6
Continuous
100
AcDbLine
 10
702.9260872657346
 20
-124.9663008213279
 30
0.0
 11
702.9260872657346
 21
-120.5707436209279
 31
0.0
  0
LINE
  5
2AC2
330
26
100
AcDbEntity
  8
0
  6
Continuous
100
AcDbLine
 10
703.7921126695346
 20
-125.4663008213279
 30
0.0
 11
703.7921126695346
 21
-120.8027944285279
 31
0.0
  0
LINE
  5
2AC3
330
26
100
AcDbEntity
  8
0
  6
Continuous
100
AcDbLine
 10
704.4619856506346
 20
-125.4663008213279
 30
0.0
 11
704.4619856506346
 21
-126.9663008213279
 31
0.0
  0
LINE
  5
2AC4
330
26
100
AcDbEntity
  8
0
  6
Continuous
100
AcDbLine
 10
755.5238658659345
 20
-152.1319862463279
 30
0.0
 11
734.1238658659344
 21
-152.1319862463279
 31
0.0
  0
LINE
  5
2AC5
330
26
100
AcDbEntity
  8
0
  6
Continuous
100
AcDbLine
 10
755.5238658659345
 20
-151.8491435338279
 30
0.0
 11
734.2410231534345
 21
-151.8491435338279
 31
0.0
  0
LINE
  5
2AC6
330
26
100
AcDbEntity
  8
0
  6
Continuous
100
AcDbLine
 10
734.5638667814346
 20
-151.5263007641278
 30
0.0
 11
755.5238658659345
 21
-151.5263007641278
 31
0.0
  0
LINE
  5
2AC7
330
26
100
AcDbEntity
  8
0
  6
Continuous
100
AcDbLine
 10
736.6067085784345
 20
-149.4834581089279
 30
0.0
 11
755.5238658659345
 21
-149.4834581089279
 31
0.0
  0
LINE
  5
2AC8
330
26
100
AcDbEntity
  8
0
  6
Continuous
100
AcDbLine
 10
736.7238658659346
 20
-149.2006153964279
 30
0.0
 11
755.5238658659345
 21
-149.2006153964279
 31
0.0
  0
LINE
  5
2AC9
330
26
100
AcDbEntity
  8
0
  6
Continuous
100
AcDbLine
 10
695.4619856506346
 20
-123.4168381629279
 30
0.0
 11
705.0114483090347
 21
-132.9663008213279
 31
0.0
  0
LINE
  5
2ACA
330
26
100
AcDbEntity
  8
0
  6
Continuous
100
AcDbLine
 10
695.4619856506346
 20
-120.8861269846279
 30
0.0
 11
707.5421594873346
 21
-132.9663008213279
 31
0.0
  0
LINE
  5
2ACB
330
26
100
AcDbEntity
  8
0
  6
Continuous
100
AcDbLine
 10
702.9260872657346
 20
-124.9663008213279
 30
0.0
 11
699.7506607851346
 21
-119.4663008213279
 31
0.0
  0
LINE
  5
2ACC
330
26
100
AcDbEntity
  8
0
  6
Continuous
100
AcDbLine
 10
707.5238658659345
 20
-122.1096454790279
 30
0.0
 11
707.5238658659345
 21
-123.5663008213279
 31
0.0
  0
LINE
  5
2ACD
330
26
100
AcDbEntity
  8
0
  6
Continuous
100
AcDbLine
 10
696.2674281581346
 20
-119.1608583138279
 30
0.0
 11
710.0728706656346
 21
-132.9663008213279
 31
0.0
  0
LINE
  5
2ACE
330
26
100
AcDbEntity
  8
0
  6
Continuous
100
AcDbLine
 10
698.6035818439345
 20
-118.9663008213279
 30
0.0
 11
700.6345870572345
 21
-120.9973060347279
 31
0.0
  0
LINE
  5
2ACF
330
26
100
AcDbEntity
  8
0
  6
Continuous
100
AcDbLine
 10
705.1035818439345
 20
-125.4663008213279
 30
0.0
 11
712.6035818439345
 21
-132.9663008213279
 31
0.0
  0
LINE
  5
2AD0
330
26
100
AcDbEntity
  8
0
  6
Continuous
100
AcDbLine
 10
707.6342930221346
 20
-125.4663008213279
 30
0.0
 11
715.1342930221346
 21
-132.9663008213279
 31
0.0
  0
LINE
  5
2AD1
330
26
100
AcDbEntity
  8
0
  6
Continuous
100
AcDbLine
 10
708.9238658659345
 20
-102.9663008213279
 30
0.0
 11
708.9238658659345
 21
-118.9663008213279
 31
0.0
  0
LINE
  5
2AD2
330
26
100
AcDbEntity
  8
0
  6
Continuous
100
AcDbLine
 10
709.5238658659345
 20
-102.9663008213279
 30
0.0
 11
709.5238658659345
 21
-124.6006153964279
 31
0.0
  0
LINE
  5
2AD3
330
26
100
AcDbEntity
  8
0
  6
Continuous
100
AcDbLine
 10
710.5238658659345
 20
-102.9663008213279
 30
0.0
 11
710.5238658659345
 21
-122.9663008213279
 31
0.0
  0
LINE
  5
2AD4
330
26
100
AcDbEntity
  8
0
  6
Continuous
100
AcDbLine
 10
710.7238658659346
 20
-120.9663008213279
 30
0.0
 11
710.7238658659346
 21
-102.9663008213279
 31
0.0
  0
LINE
  5
2AD5
330
26
100
AcDbEntity
  8
0
  6
Continuous
100
AcDbLine
 10
710.1650042004346
 20
-125.4663008213279
 30
0.0
 11
717.6650042004346
 21
-132.9663008213279
 31
0.0
  0
LINE
  5
2AD6
330
26
100
AcDbEntity
  8
0
  6
Continuous
100
AcDbLine
 10
709.6410231534346
 20
-124.8834581089279
 30
0.0
 11
711.6067085784345
 21
-126.8491435338279
 31
0.0
  0
LINE
  5
2AD7
330
26
100
AcDbEntity
  8
0
  6
Continuous
100
AcDbLine
 10
714.1957153787346
 20
-126.9663008213279
 30
0.0
 11
719.0102299728346
 21
-131.7808154154279
 31
0.0
  0
LINE
  5
2AD8
330
26
100
AcDbEntity
  8
0
  6
Continuous
100
AcDbLine
 10
714.7238658659346
 20
-120.9663008213279
 30
0.0
 11
714.7238658659346
 21
-102.9663008213279
 31
0.0
  0
LINE
  5
2AD9
330
26
100
AcDbEntity
  8
0
  6
Continuous
100
AcDbLine
 10
714.9238658659347
 20
-102.9663008213279
 30
0.0
 11
714.9238658659347
 21
-122.9663008213279
 31
0.0
  0
LINE
  5
2ADA
330
26
100
AcDbEntity
  8
0
  6
Continuous
100
AcDbLine
 10
715.9238658659345
 20
-121.9663008213279
 30
0.0
 11
715.9238658659345
 21
-102.9663008213279
 31
0.0
  0
LINE
  5
2ADB
330
26
100
AcDbEntity
  8
0
  6
Continuous
100
AcDbLine
 10
696.4619856506346
 20
-118.9663008213279
 30
0.0
 11
695.4619856506346
 21
-119.9663008213279
 31
0.0
  0
LINE
  5
2ADC
330
26
100
AcDbEntity
  8
0
  6
Continuous
100
AcDbLine
 10
700.6523543853346
 20
-118.9663008213279
 30
0.0
 11
699.9238658659345
 21
-119.6947893408279
 31
0.0
  0
LINE
  5
2ADD
330
26
100
AcDbEntity
  8
0
  6
Continuous
100
AcDbLine
 10
716.7264265570345
 20
-126.9663008213279
 30
0.0
 11
719.9365345537347
 21
-130.1764088180278
 31
0.0
  0
LINE
  5
2ADE
330
26
100
AcDbEntity
  8
0
  6
Continuous
100
AcDbLine
 10
719.3448283630345
 20
-127.3491435338279
 30
0.0
 11
718.9619856506347
 21
-126.9663008213279
 31
0.0
  0
LINE
  5
2ADF
330
26
100
AcDbEntity
  8
0
  6
Continuous
100
AcDbLine
 10
719.7571377353347
 20
-127.4663008213279
 30
0.0
 11
720.4619856506346
 21
-128.1711487366279
 31
0.0
  0
LINE
  5
2AE0
330
26
100
AcDbEntity
  8
0
  6
Continuous
100
AcDbLine
 10
716.9238658659345
 20
-118.9663008213279
 30
0.0
 11
716.9238658659345
 21
-102.9663008213279
 31
0.0
  0
LINE
  5
2AE1
330
26
100
AcDbEntity
  8
0
  6
Continuous
100
AcDbLine
 10
719.3448283630345
 20
-126.9663008213279
 30
0.0
 11
719.3448283630345
 21
-127.3491435338279
 31
0.0
  0
LINE
  5
2AE2
330
26
100
AcDbEntity
  8
0
  6
Continuous
100
AcDbLine
 10
719.6276710755346
 20
-126.9663008213279
 30
0.0
 11
719.6276710755346
 21
-127.4663008213279
 31
0.0
  0
LINE
  5
2AE3
330
26
100
AcDbEntity
  8
0
  6
Continuous
100
AcDbLine
 10
719.8619856506346
 20
-127.4663008213279
 30
0.0
 11
719.8619856506346
 21
-126.9663008213279
 31
0.0
  0
LINE
  5
2AE4
330
26
100
AcDbEntity
  8
0
  6
Continuous
100
AcDbLine
 10
720.4619856506346
 20
-129.1591211444279
 30
0.0
 11
720.4619856506346
 21
-126.9663008213279
 31
0.0
  0
LINE
  5
2AE5
330
26
100
AcDbEntity
  8
0
  6
Continuous
100
AcDbLine
 10
701.2850321799346
 20
-118.9663008213279
 30
0.0
 11
700.3664437841345
 21
-119.8848892171279
 31
0.0
  0
LINE
  5
2AE6
330
26
100
AcDbEntity
  8
0
  6
Continuous
100
AcDbLine
 10
701.9177099745346
 20
-118.9663008213279
 30
0.0
 11
700.8654210289346
 21
-120.0185897669279
 31
0.0
  0
LINE
  5
2AE7
330
26
100
AcDbEntity
  8
0
  6
Continuous
100
AcDbLine
 10
702.5503877691346
 20
-118.9663008213279
 30
0.0
 11
701.3643982737347
 21
-120.1522903167279
 31
0.0
  0
LINE
  5
2AE8
330
26
100
AcDbEntity
  8
0
  6
Continuous
100
AcDbLine
 10
703.1830655636345
 20
-118.9663008213279
 30
0.0
 11
701.8633755185346
 21
-120.2859908665279
 31
0.0
  0
LINE
  5
2AE9
330
26
100
AcDbEntity
  8
0
  6
Continuous
100
AcDbLine
 10
703.8157433582346
 20
-118.9663008213279
 30
0.0
 11
702.3623527633345
 21
-120.4196914162279
 31
0.0
  0
LINE
  5
2AEA
330
26
100
AcDbEntity
  8
0
  6
Continuous
100
AcDbLine
 10
704.4484211528347
 20
-118.9663008213279
 30
0.0
 11
702.8613300081347
 21
-120.5533919660279
 31
0.0
  0
LINE
  5
2AEB
330
26
100
AcDbEntity
  8
0
  6
Continuous
100
AcDbLine
 10
705.0810989473346
 20
-118.9663008213279
 30
0.0
 11
703.3603072529345
 21
-120.6870925158279
 31
0.0
  0
LINE
  5
2AEC
330
26
100
AcDbEntity
  8
0
  6
Continuous
100
AcDbLine
 10
705.7137767419345
 20
-118.9663008213279
 30
0.0
 11
703.8592844977345
 21
-120.8207930656279
 31
0.0
  0
LINE
  5
2AED
330
26
100
AcDbEntity
  8
0
  6
Continuous
100
AcDbLine
 10
706.3464545365345
 20
-118.9663008213279
 30
0.0
 11
704.3582617424345
 21
-120.9544936154279
 31
0.0
  0
LINE
  5
2AEE
330
26
100
AcDbEntity
  8
0
  6
Continuous
100
AcDbLine
 10
734.5638658659345
 20
-133.9663008213279
 30
0.0
 11
736.7238658659346
 21
-133.9663008213279
 31
0.0
  0
LINE
  5
2AEF
330
26
100
AcDbEntity
  8
0
  6
Continuous
100
AcDbLine
 10
718.3257896546347
 20
-132.9663008213279
 30
0.0
 11
702.8807878041345
 21
-132.9663008213279
 31
0.0
  0
LINE
  5
2AF0
330
26
100
AcDbEntity
  8
0
  6
Continuous
100
AcDbLine
 10
755.5238658659345
 20
-132.5436510905279
 30
0.0
 11
736.7238658659346
 21
-132.5436510905279
 31
0.0
  0
LINE
  5
2AF1
330
26
100
AcDbEntity
  8
0
  6
Continuous
100
AcDbLine
 10
708.9238658659345
 20
-118.9663008213279
 30
0.0
 11
709.5238658659345
 21
-119.3127109828279
 31
0.0
  0
LINE
  5
2AF2
330
26
100
AcDbEntity
  8
0
  6
Continuous
100
AcDbLine
 10
724.2098533384346
 20
-125.2662407595279
 30
0.0
 11
724.2098533384346
 21
-125.2663000584279
 31
0.0
  0
LINE
  5
2AF3
330
26
100
AcDbEntity
  8
0
  6
Continuous
100
AcDbLine
 10
706.9791323311346
 20
-118.9663008213279
 30
0.0
 11
704.8572389872347
 21
-121.0881941652279
 31
0.0
  0
LINE
  5
2AF4
330
26
100
AcDbEntity
  8
0
  6
Continuous
100
AcDbLine
 10
707.6118101256345
 20
-118.9663008213279
 30
0.0
 11
705.3562162320345
 21
-121.2218947149279
 31
0.0
  0
LINE
  5
2AF5
330
26
100
AcDbEntity
  8
0
  6
Continuous
100
AcDbLine
 10
708.2444879202346
 20
-118.9663008213279
 30
0.0
 11
705.8551934768345
 21
-121.3555952647279
 31
0.0
  0
LINE
  5
2AF6
330
26
100
AcDbEntity
  8
0
  6
Continuous
100
AcDbLine
 10
708.8771657148345
 20
-118.9663008213279
 30
0.0
 11
706.3541707216346
 21
-121.4892958145279
 31
0.0
  0
LINE
  5
2AF7
330
26
100
AcDbEntity
  8
0
  6
Continuous
100
AcDbLine
 10
709.2953608058346
 20
-119.1807835249279
 30
0.0
 11
706.8531479664345
 21
-121.6229963643279
 31
0.0
  0
LINE
  5
2AF8
330
26
100
AcDbEntity
  8
0
  6
Continuous
100
AcDbLine
 10
709.5238658659345
 20
-119.5849562593279
 30
0.0
 11
707.3362326086347
 21
-121.7725895166279
 31
0.0
  0
LINE
  5
2AF9
330
26
100
AcDbEntity
  8
0
  6
Continuous
100
AcDbLine
 10
709.5238658659345
 20
-120.2176340539279
 30
0.0
 11
707.5238658659345
 21
-122.2176340539279
 31
0.0
  0
LINE
  5
2AFA
330
26
100
AcDbEntity
  8
0
  6
Continuous
100
AcDbLine
 10
709.5238658659345
 20
-120.8503118485279
 30
0.0
 11
707.5238658659345
 21
-122.8503118485279
 31
0.0
  0
LINE
  5
2AFB
330
26
100
AcDbEntity
  8
0
  6
Continuous
100
AcDbLine
 10
711.5349762231346
 20
-119.3744695490279
 30
0.0
 11
711.0763779220347
 21
-119.8330678501279
 31
0.0
  0
LINE
  5
2AFC
330
26
100
AcDbEntity
  8
0
  6
Continuous
100
AcDbLine
 10
709.5238658659345
 20
-121.4829896431279
 30
0.0
 11
707.5238658659345
 21
-123.4829896431279
 31
0.0
  0
LINE
  5
2AFD
330
26
100
AcDbEntity
  8
0
  6
Continuous
100
AcDbLine
 10
755.5238658659345
 20
-131.6776256867279
 30
0.0
 11
737.2238658659346
 21
-131.6776256867279
 31
0.0
  0
LINE
  5
2AFE
330
26
100
AcDbEntity
  8
0
  6
Continuous
100
AcDbLine
 10
739.5238658659345
 20
-130.3497200676279
 30
0.0
 11
755.5238658659345
 21
-130.3497200676279
 31
0.0
  0
LINE
  5
2AFF
330
26
100
AcDbEntity
  8
0
  6
Continuous
100
AcDbLine
 10
740.0238658659345
 20
-129.4836946638279
 30
0.0
 11
755.5238658659345
 21
-129.4836946638279
 31
0.0
  0
LINE
  5
2B00
330
26
100
AcDbEntity
  8
0
  6
Continuous
100
AcDbLine
 10
699.9238658659345
 20
-119.7663008213279
 30
0.0
 11
707.2273934839345
 21
-121.7232751485279
 31
0.0
  0
LINE
  5
2B01
330
26
100
AcDbEntity
  8
0
  6
Continuous
100
AcDbLine
 10
726.6238658659345
 20
-150.7146347715279
 30
0.0
 11
726.6238658659345
 21
-134.9726674096279
 31
0.0
  0
LINE
  5
2B02
330
26
100
AcDbEntity
  8
0
  6
Continuous
100
AcDbLine
 10
712.1202303853347
 20
-119.0718250081279
 30
0.0
 11
710.8272953586347
 21
-120.3647600348279
 31
0.0
  0
LINE
  5
2B03
330
26
100
AcDbEntity
  8
0
  6
Continuous
100
AcDbLine
 10
712.4785812486346
 20
-118.9960837660279
 30
0.0
 11
710.7384481177346
 21
-120.7362168969279
 31
0.0
  0
LINE
  5
2B04
330
26
100
AcDbEntity
  8
0
  6
Continuous
100
AcDbLine
 10
709.5238658659345
 20
-122.1156674376279
 30
0.0
 11
707.7290782924347
 21
-123.9104550111279
 31
0.0
  0
LINE
  5
2B05
330
26
100
AcDbEntity
  8
0
  6
Continuous
100
AcDbLine
 10
712.7837077004346
 20
-118.9735669356279
 30
0.0
 11
710.7384481177346
 21
-121.0188265182279
 31
0.0
  0
LINE
  5
2B06
330
26
100
AcDbEntity
  8
0
  6
Continuous
100
AcDbLine
 10
713.0357177604346
 20
-119.0041664968279
 30
0.0
 11
710.7570478787344
 21
-121.2828363785279
 31
0.0
  0
LINE
  5
2B07
330
26
100
AcDbEntity
  8
0
  6
Continuous
100
AcDbLine
 10
709.5238658659345
 20
-122.7483452322279
 30
0.0
 11
708.3059102768345
 21
-123.9663008213279
 31
0.0
  0
LINE
  5
2B08
330
26
100
AcDbEntity
  8
0
  6
Continuous
100
AcDbLine
 10
713.2717953632345
 20
-119.0506985153279
 30
0.0
 11
710.8129309534347
 21
-121.5095629251279
 31
0.0
  0
LINE
  5
2B09
330
26
100
AcDbEntity
  8
0
  6
Continuous
100
AcDbLine
 10
713.4766963067345
 20
-119.1284071931279
 30
0.0
 11
710.8799093313345
 21
-121.7251941685279
 31
0.0
  0
LINE
  5
2B0A
330
26
100
AcDbEntity
  8
0
  6
Continuous
100
AcDbLine
 10
713.6763929006347
 20
-119.2113202205279
 30
0.0
 11
710.9771817821346
 21
-121.9105313390279
 31
0.0
  0
LINE
  5
2B0B
330
26
100
AcDbEntity
  8
0
  6
Continuous
100
AcDbLine
 10
709.5238658659345
 20
-123.3810230268279
 30
0.0
 11
708.9385880713345
 21
-123.9663008213279
 31
0.0
  0
LINE
  5
2B0C
330
26
100
AcDbEntity
  8
0
  6
Continuous
100
AcDbLine
 10
713.8435927789346
 20
-119.3267299635279
 30
0.0
 11
711.0744542330345
 21
-122.0958685094279
 31
0.0
  0
LINE
  5
2B0D
330
26
100
AcDbEntity
  8
0
  6
Continuous
100
AcDbLine
 10
714.0107926571345
 20
-119.4421397066279
 30
0.0
 11
711.2059553420344
 21
-122.2469770217279
 31
0.0
  0
LINE
  5
2B0E
330
26
100
AcDbEntity
  8
0
  6
Continuous
100
AcDbLine
 10
714.1516495434346
 20
-119.5838924416279
 30
0.0
 11
711.3387127863346
 21
-122.3968291987279
 31
0.0
  0
LINE
  5
2B0F
330
26
100
AcDbEntity
  8
0
  6
Continuous
100
AcDbLine
 10
714.2844069877347
 20
-119.7337446186279
 30
0.0
 11
711.4906297043347
 21
-122.5275219019279
 31
0.0
  0
LINE
  5
2B10
330
26
100
AcDbEntity
  8
0
  6
Continuous
100
AcDbLine
 10
714.4045132819346
 20
-119.8962479456279
 30
0.0
 11
711.6578295826346
 21
-122.6429316450279
 31
0.0
  0
LINE
  5
2B11
330
26
100
AcDbEntity
  8
0
  6
Continuous
100
AcDbLine
 10
714.5017857328346
 20
-120.0815851160279
 30
0.0
 11
711.8319315431344
 21
-122.7514393058279
 31
0.0
  0
LINE
  5
2B12
330
26
100
AcDbEntity
  8
0
  6
Continuous
100
AcDbLine
 10
714.5968626777346
 20
-120.2691177924279
 30
0.0
 11
712.0368324866344
 21
-122.8291479836279
 31
0.0
  0
LINE
  5
2B13
330
26
100
AcDbEntity
  8
0
  6
Continuous
100
AcDbLine
 10
714.6527457524346
 20
-120.4958443390279
 30
0.0
 11
712.2417334301347
 21
-122.9068566613279
 31
0.0
  0
LINE
  5
2B14
330
26
100
AcDbEntity
  8
0
  6
Continuous
100
AcDbLine
 10
714.7086288271346
 20
-120.7225708856279
 30
0.0
 11
712.4929385447346
 21
-122.9382611680279
 31
0.0
  0
LINE
  5
2B15
330
26
100
AcDbEntity
  8
0
  6
Continuous
100
AcDbLine
 10
714.7092836141346
 20
-121.0045257199279
 30
0.0
 11
712.7507759937345
 21
-122.9630333402279
 31
0.0
  0
LINE
  5
2B16
330
26
100
AcDbEntity
  8
0
  6
Continuous
100
AcDbLine
 10
714.6831936572346
 20
-121.3132252981279
 30
0.0
 11
713.0724430693346
 21
-122.9239758860279
 31
0.0
  0
LINE
  5
2B17
330
26
100
AcDbEntity
  8
0
  6
Continuous
100
AcDbLine
 10
717.1023513168345
 20
-118.9663008213279
 30
0.0
 11
715.9238658659345
 21
-120.1447862722279
 31
0.0
  0
LINE
  5
2B18
330
26
100
AcDbEntity
  8
0
  6
Continuous
100
AcDbLine
 10
713.1023513168345
 20
-122.9663008213279
 30
0.0
 11
710.4131085913346
 21
-125.6555435468279
 31
0.0
  0
LINE
  5
2B19
330
26
100
AcDbEntity
  8
0
  6
Continuous
100
AcDbLine
 10
714.5832729274346
 20
-121.6957556492279
 30
0.0
 11
713.4736964200347
 21
-122.8053321566279
 31
0.0
  0
LINE
  5
2B1A
330
26
100
AcDbEntity
  8
0
  6
Continuous
100
AcDbLine
 10
699.9238658659345
 20
-119.3127109828279
 30
0.0
 11
700.5238658659346
 21
-118.9663008213279
 31
0.0
  0
LINE
  5
2B1B
330
26
100
AcDbEntity
  8
0
  6
Continuous
100
AcDbLine
 10
719.8619856506346
 20
-127.4663008213279
 30
0.0
 11
719.6276710755346
 21
-127.4663008213279
 31
0.0
  0
LINE
  5
2B1C
330
26
100
AcDbEntity
  8
0
  6
Continuous
100
AcDbLine
 10
711.8895512909346
 20
-126.9663008213279
 30
0.0
 11
704.4619856506346
 21
-126.9663008213279
 31
0.0
  0
LINE
  5
2B1D
330
26
100
AcDbEntity
  8
0
  6
Continuous
100
AcDbLine
 10
696.5299348430347
 20
-126.9663008213279
 30
0.0
 11
696.4619856506346
 21
-126.9663008213279
 31
0.0
  0
LINE
  5
2B1E
330
26
100
AcDbEntity
  8
0
  6
Continuous
100
AcDbLine
 10
711.8895512909346
 20
-126.9663008213279
 30
0.0
 11
722.5238658659345
 21
-126.9663008213279
 31
0.0
  0
LINE
  5
2B1F
330
26
100
AcDbEntity
  8
0
  6
Continuous
100
AcDbLine
 10
710.2238658659346
 20
-125.4663008213279
 30
0.0
 11
703.7921126695346
 21
-125.4663008213279
 31
0.0
  0
LINE
  5
2B20
330
26
100
AcDbEntity
  8
0
  6
Continuous
100
AcDbLine
 10
724.2098527802345
 20
-125.2663008213279
 30
0.0
 11
710.0238658659345
 21
-125.2663008213279
 31
0.0
  0
LINE
  5
2B21
330
26
100
AcDbEntity
  8
0
  6
Continuous
100
AcDbLine
 10
730.5238658659345
 20
-125.7663008213279
 30
0.0
 11
730.5238658659345
 21
-129.8614219772279
 31
0.0
  0
LINE
  5
2B22
330
26
100
AcDbEntity
  8
0
  6
Continuous
100
AcDbLine
 10
720.4083958121345
 20
-129.3591211444279
 30
0.0
 11
718.3257896546347
 21
-132.9663008213279
 31
0.0
  0
LINE
  5
2B23
330
26
100
AcDbEntity
  8
0
  6
Continuous
100
AcDbLine
 10
721.8268416422345
 20
-118.9663008213279
 30
0.0
 11
713.8268416422345
 21
-126.9663008213279
 31
0.0
  0
LINE
  5
2B24
330
26
100
AcDbEntity
  8
0
  6
Continuous
100
AcDbLine
 10
707.9238658659345
 20
-123.9663008213279
 30
0.0
 11
709.5238658659345
 21
-123.9663008213279
 31
0.0
  0
LINE
  5
2B25
330
26
100
AcDbEntity
  8
0
  6
Continuous
100
AcDbLine
 10
714.9238658659347
 20
-122.9663008213279
 30
0.0
 11
710.5238658659345
 21
-122.9663008213279
 31
0.0
  0
LINE
  5
2B26
330
26
100
AcDbEntity
  8
0
  6
Continuous
100
AcDbLine
 10
727.3260872657346
 20
-122.9663008213279
 30
0.0
 11
727.7238658659346
 21
-122.9663008213279
 31
0.0
  0
LINE
  5
2B27
330
26
100
AcDbEntity
  8
0
  6
Continuous
100
AcDbLine
 10
734.1238658659344
 20
-152.3663008213279
 30
0.0
 11
734.1238658659344
 21
-152.1319862463279
 31
0.0
  0
LINE
  5
2B28
330
26
100
AcDbEntity
  8
0
  6
Continuous
100
AcDbLine
 10
734.5638658659345
 20
-133.9663008213279
 30
0.0
 11
734.5638658659345
 21
-151.5263008213279
 31
0.0
  0
LINE
  5
2B29
330
26
100
AcDbEntity
  8
0
  6
Continuous
100
AcDbLine
 10
735.5238658659345
 20
-118.9663008213279
 30
0.0
 11
735.5238658659345
 21
-102.9663008213279
 31
0.0
  0
LINE
  5
2B2A
330
26
100
AcDbEntity
  8
0
  6
Continuous
100
AcDbLine
 10
730.4206326993347
 20
-130.6147138504279
 30
0.0
 11
730.5238658659345
 21
-129.8614219772279
 31
0.0
  0
LINE
  5
2B2B
330
26
100
AcDbEntity
  8
0
  6
Continuous
100
AcDbLine
 10
730.4169458005345
 20
-130.6280311499279
 30
0.0
 11
730.4206326993347
 21
-130.6147138504279
 31
0.0
  0
LINE
  5
2B2C
330
26
100
AcDbEntity
  8
0
  6
Continuous
100
AcDbLine
 10
724.5213446123345
 20
-124.8242575992279
 30
0.0
 11
724.7280110543347
 21
-124.4663008213279
 31
0.0
  0
LINE
  5
2B2D
330
26
100
AcDbEntity
  8
0
  6
Continuous
100
AcDbLine
 10
726.5513319676347
 20
-118.9663008213279
 30
0.0
 11
718.5513319676346
 21
-126.9663008213279
 31
0.0
  0
LINE
  5
2B2E
330
26
100
AcDbEntity
  8
0
  6
Continuous
100
AcDbLine
 10
735.5238658659345
 20
-118.9663008213279
 30
0.0
 11
716.9238658659345
 21
-118.9663008213279
 31
0.0
  0
LINE
  5
2B2F
330
26
100
AcDbEntity
  8
0
  6
Continuous
100
AcDbLine
 10
698.8846353814347
 20
-118.9663008213279
 30
0.0
 11
696.4619856506346
 21
-118.9663008213279
 31
0.0
  0
LINE
  5
2B30
330
26
100
AcDbEntity
  8
0
  6
Continuous
100
AcDbLine
 10
700.5238658659346
 20
-118.9663008213279
 30
0.0
 11
708.9238658659345
 21
-118.9663008213279
 31
0.0
  0
LINE
  5
2B31
330
26
100
AcDbEntity
  8
0
  6
Continuous
100
AcDbLine
 10
740.0238658659345
 20
-118.4663008213279
 30
0.0
 11
735.5238658659345
 21
-118.4663008213279
 31
0.0
  0
LINE
  5
2B32
330
26
100
AcDbEntity
  8
0
  6
Continuous
100
AcDbLine
 10
736.7238658659346
 20
-149.2006153964279
 30
0.0
 11
736.7238658659346
 21
-132.5436510905279
 31
0.0
  0
LINE
  5
2B33
330
26
100
AcDbEntity
  8
0
  6
Continuous
100
AcDbLine
 10
740.0238658659345
 20
-129.4836946638279
 30
0.0
 11
740.0238658659345
 21
-118.4663008213279
 31
0.0
  0
LINE
  5
2B34
330
26
100
AcDbEntity
  8
0
  6
Continuous
100
AcDbLine
 10
722.5238658659345
 20
-126.9663008213279
 30
0.0
 11
724.0445887445346
 21
-125.4455779427279
 31
0.0
  0
LINE
  5
2B35
330
26
100
AcDbEntity
  8
0
  6
Continuous
100
AcDbLine
 10
731.2758222930347
 20
-118.9663008213279
 30
0.0
 11
727.2682014854344
 21
-122.9739216289279
 31
0.0
  0
LINE
  5
2B36
330
26
100
AcDbEntity
  8
0
  6
Continuous
100
AcDbLine
 10
736.5003126184347
 20
-118.4663008213279
 30
0.0
 11
730.2970906067346
 21
-124.6695228330279
 31
0.0
  0
LINE
  5
2B37
330
26
100
AcDbEntity
  8
0
  6
Continuous
100
AcDbLine
 10
740.0238658659345
 20
-119.6672378992279
 30
0.0
 11
730.5238658659345
 21
-129.1672378992279
 31
0.0
  0
LINE
  5
2B38
330
26
100
AcDbEntity
  8
0
  6
Continuous
100
AcDbLine
 10
740.0238658659345
 20
-124.3917282246279
 30
0.0
 11
726.6238658659345
 21
-137.7917282246279
 31
0.0
  0
LINE
  5
2B39
330
26
100
AcDbEntity
  8
0
  6
Continuous
100
AcDbLine
 10
740.0238658659345
 20
-129.1162185500279
 30
0.0
 11
737.7883826414345
 21
-131.3517017744279
 31
0.0
  0
LINE
  5
2B3A
330
26
100
AcDbEntity
  8
0
  6
Continuous
100
AcDbLine
 10
736.7511458675346
 20
-132.3889385483279
 30
0.0
 11
726.6238658659345
 21
-142.5162185500279
 31
0.0
  0
LINE
  5
2B3B
330
26
100
AcDbEntity
  8
0
  6
Continuous
100
AcDbLine
 10
727.6238658659345
 20
-133.2406166020279
 30
0.0
 11
729.0238658659346
 21
-132.4323262251279
 31
0.0
  0
LINE
  5
2B3C
330
26
100
AcDbEntity
  8
0
  6
CENTER
100
AcDbLine
 10
687.2344574371346
 20
-102.9663008213279
 30
0.0
 11
780.7104596868416
 21
-102.9663008213279
 31
0.0
  0
LINE
  5
2B3D
330
26
100
AcDbEntity
  8
0
  6
CENTER
100
AcDbLine
 10
755.5238658659345
 20
-77.44564467969718
 30
0.0
 11
755.5238658659345
 21
-161.214407025725
 31
0.0
  0
LINE
  5
2B3E
330
26
100
AcDbEntity
  8
0
  6
Continuous
100
AcDbLine
 10
736.7238658659346
 20
-137.1407088754279
 30
0.0
 11
726.6238658659345
 21
-147.2407088754279
 31
0.0
  0
LINE
  5
2B3F
330
26
100
AcDbEntity
  8
0
  6
Continuous
100
AcDbLine
 10
737.2238658659346
 20
-131.6776256867279
 30
0.0
 11
739.5238658659345
 21
-130.3497200676279
 31
0.0
  0
LINE
  5
2B40
330
26
100
AcDbEntity
  8
0
  6
Continuous
100
AcDbLine
 10
736.7238658659346
 20
-141.8651992007279
 30
0.0
 11
727.4166919450344
 21
-151.1723731217279
 31
0.0
  0
LINE
  5
2B41
330
26
100
AcDbEntity
  8
0
  6
Continuous
100
AcDbLine
 10
736.7238658659346
 20
-146.5896895261279
 30
0.0
 11
730.4118987913345
 21
-152.9016566007279
 31
0.0
  0
LINE
  5
2B42
330
26
100
AcDbEntity
  8
0
  6
Continuous
100
AcDbLine
 10
734.2410231534345
 20
-151.8491435338279
 30
0.0
 11
736.6067085784345
 21
-149.4834581089279
 31
0.0
  0
CIRCLE
  5
2B43
330
26
100
AcDbEntity
  8
0
  6
Continuous
100
AcDbCircle
 10
712.7238658659345
 20
-120.9663008213279
 30
0.0
 40
2.0
  0
ARC
  5
2B44
330
26
100
AcDbEntity
  8
0
  6
Continuous
100
AcDbCircle
 10
707.1238658659344
 20
-122.1096454790279
 30
0.0
 40
0.4
100
AcDbArc
 50
0.0000000009005295
 51
75.00000000410515
  0
ARC
  5
2B45
330
26
100
AcDbEntity
  8
0
  6
Continuous
100
AcDbCircle
 10
707.9238658659345
 20
-123.5663008213279
 30
0.0
 40
0.4
100
AcDbArc
 50
180.0
 51
270.0
  0
ARC
  5
2B46
330
26
100
AcDbEntity
  8
0
  6
Continuous
100
AcDbCircle
 10
720.0619856506346
 20
-129.1591211444279
 30
0.0
 40
0.4
100
AcDbArc
 50
330.0000000038996
 51
0.0
  0
ARC
  5
2B47
330
26
100
AcDbEntity
  8
0
  6
Continuous
100
AcDbCircle
 10
719.8619856506346
 20
-128.0663008213279
 30
0.0
 40
0.6
100
AcDbArc
 50
0.0000000002002986
 51
90.0
  0
ARC
  5
2B48
330
26
100
AcDbEntity
  8
0
  6
Continuous
100
AcDbCircle
 10
719.6276710755346
 20
-127.0663008213279
 30
0.0
 40
0.4
100
AcDbArc
 50
224.9999999895037
 51
270.0000000000912
  0
ARC
  5
2B49
330
26
100
AcDbEntity
  8
0
  6
Continuous
100
AcDbCircle
 10
703.7921126695346
 20
-124.4663008213279
 30
0.0
 40
1.0
100
AcDbArc
 50
209.9999999951983
 51
270.0
  0
ARC
  5
2B4A
330
26
100
AcDbEntity
  8
0
  6
Continuous
100
AcDbCircle
 10
698.8846353814347
 20
-119.9663008213279
 30
0.0
 40
1.0
100
AcDbArc
 50
29.99999999999799
 51
90.0
  0
ARC
  5
2B4B
330
26
100
AcDbEntity
  8
0
  6
Continuous
100
AcDbCircle
 10
696.4619856506346
 20
-125.9663008213279
 30
0.0
 40
1.0
100
AcDbArc
 50
180.0000000004006
 51
270.0
  0
ARC
  5
2B4C
330
26
100
AcDbEntity
  8
0
  6
Continuous
100
AcDbCircle
 10
696.5299348430347
 20
-129.9663008213279
 30
0.0
 40
3.0
100
AcDbArc
 50
29.99999999999799
 51
90.0
  0
ARC
  5
2B4D
330
26
100
AcDbEntity
  8
0
  6
Continuous
100
AcDbCircle
 10
702.8807878041345
 20
-130.9663008213279
 30
0.0
 40
2.0
100
AcDbArc
 50
209.999999999998
 51
270.0
  0
ARC
  5
2B4E
330
26
100
AcDbEntity
  8
0
  6
Continuous
100
AcDbCircle
 10
730.6310455429345
 20
-152.5663008213279
 30
0.0
 40
0.4
100
AcDbArc
 50
240.0000000092981
 51
270.0
  0
ARC
  5
2B4F
330
26
100
AcDbEntity
  8
0
  6
Continuous
100
AcDbCircle
 10
709.9238658659345
 20
-124.6006153964279
 30
0.0
 40
0.4
100
AcDbArc
 50
180.0000000002996
 51
225.000000001003
  0
ARC
  5
2B50
330
26
100
AcDbEntity
  8
0
  6
Continuous
100
AcDbCircle
 10
710.5238658659345
 20
-123.9663008213279
 30
0.0
 40
1.0
100
AcDbArc
 50
90.0
 51
179.9999999991011
  0
ARC
  5
2B51
330
26
100
AcDbEntity
  8
0
  6
Continuous
100
AcDbCircle
 10
716.9238658659345
 20
-119.9663008213279
 30
0.0
 40
1.0
100
AcDbArc
 50
90.0
 51
180.0
  0
ARC
  5
2B52
330
26
100
AcDbEntity
  8
0
  6
Continuous
100
AcDbCircle
 10
714.9238658659347
 20
-121.9663008213279
 30
0.0
 40
1.0
100
AcDbArc
 50
270.0
 51
0.0
  0
ARC
  5
2B53
330
26
100
AcDbEntity
  8
0
  6
Continuous
100
AcDbCircle
 10
728.6238658659344
 20
-134.9726674096279
 30
0.0
 40
2.0
100
AcDbArc
 50
120.0000000000001
 51
180.0
  0
ARC
  5
2B54
330
26
100
AcDbEntity
  8
0
  6
Continuous
100
AcDbCircle
 10
733.5238658659346
 20
-152.3663008213279
 30
0.0
 40
0.6
100
AcDbArc
 50
270.0000000066962
 51
0.0
  0
ARC
  5
2B55
330
26
100
AcDbEntity
  8
0
  6
Continuous
100
AcDbCircle
 10
734.5238658659345
 20
-152.1319862463279
 30
0.0
 40
0.4
100
AcDbArc
 50
134.999999991
 51
180.0000000002002
  0
ARC
  5
2B56
330
26
100
AcDbEntity
  8
0
  6
Continuous
100
AcDbCircle
 10
736.3238658659345
 20
-149.2006153964279
 30
0.0
 40
0.4
100
AcDbArc
 50
314.9999999994013
 51
0.0
  0
ARC
  5
2B57
330
26
100
AcDbEntity
  8
0
  6
Continuous
100
AcDbCircle
 10
737.7238658659345
 20
-132.5436510905279
 30
0.0
 40
1.0
100
AcDbArc
 50
119.9999999732067
 51
180.0000000013011
  0
ARC
  5
2B58
330
26
100
AcDbEntity
  8
0
  6
Continuous
100
AcDbCircle
 10
739.0238658659345
 20
-129.4836946638279
 30
0.0
 40
1.0
100
AcDbArc
 50
299.9999999603015
 51
0.0
  0
ARC
  5
2B59
330
26
100
AcDbEntity
  8
0
  6
Continuous
100
AcDbCircle
 10
711.8895512909346
 20
-126.5663008213279
 30
0.0
 40
0.4
100
AcDbArc
 50
224.9999999828009
 51
270.0000000000912
  0
ARC
  5
2B5A
330
26
100
AcDbEntity
  8
0
  6
Continuous
100
AcDbCircle
 10
721.9232684009345
 20
-123.3242575992279
 30
0.0
 40
3.0
100
AcDbArc
 50
315.0000000000052
 51
330.000000000002
  0
ARC
  5
2B5B
330
26
100
AcDbEntity
  8
0
  6
Continuous
100
AcDbCircle
 10
727.3260872657346
 20
-125.9663008213279
 30
0.0
 40
3.0
100
AcDbArc
 50
90.0
 51
150.000000000002
  0
ARC
  5
2B5C
330
26
100
AcDbEntity
  8
0
  6
Continuous
100
AcDbCircle
 10
727.7238658659346
 20
-129.8614219772279
 30
0.0
 40
2.799999999999999
100
AcDbArc
 50
344.3932783643997
 51
0.0
  0
ARC
  5
2B5D
330
26
100
AcDbEntity
  8
0
  6
Continuous
100
AcDbCircle
 10
733.3100257351345
 20
-131.4218122860279
 30
0.0
 40
3.0
100
AcDbArc
 50
164.3932825303017
 51
164.6571874945988
  0
ARC
  5
2B5E
330
26
100
AcDbEntity
  8
0
  6
Continuous
100
AcDbCircle
 10
727.5238658659345
 20
-129.8342500138279
 30
0.0
 40
3.0
100
AcDbArc
 50
300.0000000000001
 51
344.657187494801
  0
ARC
  5
2B5F
330
26
100
AcDbEntity
  8
0
  6
Continuous
100
AcDbCircle
 10
727.7238658685346
 20
-125.7663008184279
 30
0.0
 40
2.799999999599999
100
AcDbArc
 50
0.0000009309993459
 51
89.99999947939297
  0
SPLINE
  5
2B60
330
26
100
AcDbEntity
  8
0
  6
Continuous
100
AcDbSpline
210
1.0
220
3.030000000000000E-14
230
1.380000000000000E-14
 70
     8
 71
     3
 72
    11
 73
     7
 74
     5
 42
0.0000000001
 43
0.0000000001
 44
0.0000000001
 40
0.0
 40
0.0
 40
0.0
 40
0.0
 40
3.281837640547783
 40
6.997908186769046
 40
10.71397873303554
 40
14.43004927927084
 40
14.43004927927084
 40
14.43004927927084
 40
14.43004927927084
 10
704.4619856506346
 20
-120.9861249251279
 30
-12.4346010343
 10
704.4619856506346
 20
-121.6049247608653
 30
-11.52984459138694
 10
704.4619856506347
 20
-122.9244002836568
 30
-9.600619805654842
 10
704.4619856506345
 20
-124.3315178996107
 30
-6.29601605229716
 10
704.4619856506347
 20
-125.2896905416554
 30
-2.682445839515003
 10
704.4619856506347
 20
-125.4074307281039
 30
-0.2015525761681969
 10
704.4619856506346
 20
-125.4663008213279
 30
1.038894055499999
 11
704.4619856506346
 21
-120.9861249251279
 31
-12.4346010343
 11
704.4619856506346
 21
-122.7544602235279
 31
-9.6699222878
 11
704.4619856506346
 21
-124.2471887596279
 31
-6.266844001599999
 11
704.4619856506346
 21
-125.1594301479279
 31
-2.664484225799999
 11
704.4619856506346
 21
-125.4663008213279
 31
1.038894055499999
  0
SPLINE
  5
2B61
330
26
100
AcDbEntity
  8
0
  6
Continuous
100
AcDbSpline
 70
     0
 71
     3
 72
    16
 73
    12
 74
    10
 42
0.0000000001
 43
0.0000000001
 44
0.0000000001
 40
0.0
 40
0.0
 40
0.0
 40
0.0
 40
0.2006907768753229
 40
0.9246413198059331
 40
2.26927555871745
 40
4.174544537950517
 40
6.56783328043751
 40
9.548421430594154
 40
13.18560470860519
 40
17.47082663048437
 40
21.92031021678297
 40
21.92031021678297
 40
21.92031021678297
 40
21.92031021678297
 10
740.0238658659345
 20
-118.4663008213279
 30
0.0
 10
740.0711691357039
 20
-118.4189975515972
 30
0.0
 10
740.2891091849265
 20
-118.2010575025531
 30
0.0
 10
740.8239825633784
 20
-117.6661841237053
 30
0.0
 10
741.7606288775498
 20
-116.7295378099429
 30
0.0
 10
743.0907419784392
 20
-115.3994247088992
 30
0.0
 10
744.8064531141365
 20
-113.6837135730965
 30
0.0
 10
746.9303803649434
 20
-111.5597863223367
 30
0.0
 10
749.500240542598
 20
-108.9899261446248
 30
0.0
 10
752.4163226949662
 20
-106.0738439924595
 30
0.0
 10
754.4751125270788
 20
-104.0150541602388
 30
0.0
 10
755.5238658659345
 20
-102.9663008213279
 30
0.0
 11
740.0238658659345
 21
-118.4663008213279
 31
0.0
 11
740.1657756752347
 21
-118.3243910121279
 31
0.0
 11
740.6776860133346
 21
-117.8124806739279
 31
0.0
 11
741.6284860019345
 21
-116.8616806854279
 31
0.0
 11
742.9757146171346
 21
-115.5144520702279
 31
0.0
 11
744.6680253162346
 21
-113.8221413710279
 31
0.0
 11
746.7756194091346
 21
-111.7145472781279
 31
0.0
 11
749.3474963694345
 21
-109.1426703178279
 31
0.0
 11
752.3776058493345
 21
-106.1125608380279
 31
0.0
 11
755.5238658659345
 21
-102.9663008213279
 31
0.0
  0
LINE
  5
2B62
330
26
100
AcDbEntity
  8
0
  6
Continuous
100
AcDbLine
 10
701.4663411513348
 20
-73.57683827652789
 30
0.0
 11
701.1487369966346
 21
-73.99047362892787
 31
0.0
  0
LINE
  5
2B63
330
26
100
AcDbEntity
  8
0
  6
Continuous
100
AcDbLine
 10
701.8805783659345
 20
-73.25915385032789
 30
0.0
 11
701.4663411513348
 21
-73.57683827652789
 31
0.0
  0
LINE
  5
2B64
330
26
100
AcDbEntity
  8
0
  6
Continuous
100
AcDbLine
 10
702.3630473233347
 20
-73.05942613372787
 30
0.0
 11
701.8805783659345
 21
-73.25915385032789
 31
0.0
  0
LINE
  5
2B65
330
26
100
AcDbEntity
  8
0
  6
Continuous
100
AcDbLine
 10
702.8807878042345
 20
-72.99130717392796
 30
0.0
 11
702.3630473233347
 21
-73.05942613372787
 31
0.0
  0
LINE
  5
2B66
330
26
100
AcDbEntity
  8
0
  6
Continuous
100
AcDbLine
 10
701.4663411513348
 20
-87.23171273032789
 30
0.0
 11
701.1487369966346
 21
-87.45316584232796
 31
0.0
  0
LINE
  5
2B67
330
26
100
AcDbEntity
  8
0
  6
Continuous
100
AcDbLine
 10
701.8805783659345
 20
-87.06163050732788
 30
0.0
 11
701.4663411513348
 21
-87.23171273032789
 31
0.0
  0
LINE
  5
2B68
330
26
100
AcDbEntity
  8
0
  6
Continuous
100
AcDbLine
 10
702.3630473233347
 20
-86.95469978292795
 30
0.0
 11
701.8805783659345
 21
-87.06163050732788
 31
0.0
  0
LINE
  5
2B69
330
26
100
AcDbEntity
  8
0
  6
Continuous
100
AcDbLine
 10
702.8807878042345
 20
-86.91823015332795
 30
0.0
 11
702.3630473233347
 21
-86.95469978292795
 31
0.0
  0
LINE
  5
2B6A
330
26
100
AcDbEntity
  8
0
  6
Continuous
100
AcDbLine
 10
701.4665742418347
 20
-89.31131792862789
 30
0.0
 11
701.1487369966346
 21
-89.50360860792796
 31
0.0
  0
LINE
  5
2B6B
330
26
100
AcDbEntity
  8
0
  6
Continuous
100
AcDbLine
 10
701.8807878042346
 20
-89.16376810082795
 30
0.0
 11
701.4665742418347
 21
-89.31131792862789
 31
0.0
  0
LINE
  5
2B6C
330
26
100
AcDbEntity
  8
0
  6
Continuous
100
AcDbLine
 10
702.3631497140345
 20
-89.0710144015279
 30
0.0
 11
701.8807878042346
 21
-89.16376810082795
 31
0.0
  0
LINE
  5
2B6D
330
26
100
AcDbEntity
  8
0
  6
Continuous
100
AcDbLine
 10
702.8807878042345
 20
-89.03937784202795
 30
0.0
 11
702.3631497140345
 21
-89.0710144015279
 31
0.0
  0
LINE
  5
2B6E
330
26
100
AcDbEntity
  8
0
  6
Continuous
100
AcDbLine
 10
768.7195970432344
 20
-133.5582201544279
 30
0.0
 11
768.5266619410344
 21
-133.2406166020279
 31
0.0
  0
LINE
  5
2B6F
330
26
100
AcDbEntity
  8
0
  6
Continuous
100
AcDbLine
 10
768.8677776881345
 20
-133.9724569435279
 30
0.0
 11
768.7195970432344
 21
-133.5582201544279
 31
0.0
  0
LINE
  5
2B70
330
26
100
AcDbEntity
  8
0
  6
Continuous
100
AcDbLine
 10
768.9609384805344
 20
-134.4549258209279
 30
0.0
 11
768.8677776881345
 21
-133.9724569435279
 31
0.0
  0
LINE
  5
2B71
330
26
100
AcDbEntity
  8
0
  6
Continuous
100
AcDbLine
 10
768.9927119795347
 20
-134.9726674096279
 30
0.0
 11
768.9609384805344
 21
-134.4549258209279
 31
0.0
  0
LINE
  5
2B72
330
26
100
AcDbEntity
  8
0
  6
Continuous
100
AcDbLine
 10
770.6208291423345
 20
-133.5582201551279
 30
0.0
 11
770.4000956368345
 21
-133.2406166020279
 31
0.0
  0
LINE
  5
2B73
330
26
100
AcDbEntity
  8
0
  6
Continuous
100
AcDbLine
 10
770.7903589346346
 20
-133.9724569435279
 30
0.0
 11
770.6208291423345
 21
-133.5582201551279
 31
0.0
  0
LINE
  5
2B74
330
26
100
AcDbEntity
  8
0
  6
Continuous
100
AcDbLine
 10
770.8969425034347
 20
-134.4549258201279
 30
0.0
 11
770.7903589346346
 21
-133.9724569435279
 31
0.0
  0
LINE
  5
2B75
330
26
100
AcDbEntity
  8
0
  6
Continuous
100
AcDbLine
 10
770.9332938364346
 20
-134.9726674096279
 30
0.0
 11
770.8969425034347
 21
-134.4549258201279
 31
0.0
  0
LINE
  5
2B76
330
26
100
AcDbEntity
  8
0
  6
Continuous
100
AcDbLine
 10
783.8167938810348
 20
-133.5584538470279
 30
0.0
 11
783.4028917088344
 21
-133.2406166020279
 31
0.0
  0
LINE
  5
2B77
330
26
100
AcDbEntity
  8
0
  6
Continuous
100
AcDbLine
 10
784.1343921885346
 20
-133.9726674096279
 30
0.0
 11
783.8167938810348
 21
-133.5584538470279
 31
0.0
  0
LINE
  5
2B78
330
26
100
AcDbEntity
  8
0
  6
Continuous
100
AcDbLine
 10
784.3340428309346
 20
-134.4550293196279
 30
0.0
 11
784.1343921885346
 21
-133.9726674096279
 31
0.0
  0
LINE
  5
2B79
330
26
100
AcDbEntity
  8
0
  6
Continuous
100
AcDbLine
 10
784.4021399469345
 20
-134.9726674096279
 30
0.0
 11
784.3340428309346
 21
-134.4550293196279
 31
0.0
  0
SPLINE
  5
2B7A
330
26
100
AcDbEntity
  8
0
  6
Continuous
100
AcDbSpline
210
0.0
220
0.0
230
1.0
 70
     8
 71
     3
 72
    11
 73
     7
 74
     0
 42
0.0000000001
 43
0.0000000001
 40
0.0
 40
0.0
 40
0.0
 40
0.0
 40
3.283704499439907
 40
6.454734125906453
 40
9.575328783905613
 40
12.6777967885292
 40
12.6777967885292
 40
12.6777967885292
 40
12.6777967885292
 10
768.0606118553346
 20
-150.8389585537279
 30
0.0
 10
766.9953974413807
 20
-151.0919085559682
 30
0.0
 10
764.9015196791374
 20
-151.5891290007087
 30
0.0
 10
761.7496063915223
 20
-152.1085132840854
 30
0.0
 10
758.6330883045948
 20
-152.4324934554927
 30
0.0
 10
756.5582588029747
 20
-152.5044206400325
 30
0.0
 10
755.5238658660345
 20
-152.5044206060142
 30
0.0
  0
SPLINE
  5
2B7B
330
26
100
AcDbEntity
  8
0
  6
Continuous
100
AcDbSpline
210
0.0
220
0.0
230
1.0
 70
     8
 71
     3
 72
    15
 73
    11
 74
     9
 42
0.0000000001
 43
0.0000000001
 44
0.0000000001
 40
0.0
 40
0.0
 40
0.0
 40
0.0
 40
1.756508085630475
 40
3.404722301594734
 40
4.989071125934498
 40
6.543562558252529
 40
8.098014309093601
 40
9.682269855148252
 40
11.32998531083526
 40
13.08615953314429
 40
13.08615953314429
 40
13.08615953314429
 40
13.08615953314429
 10
784.1356942783345
 20
-150.8389585537279
 30
0.0
 10
783.6065876716984
 20
-151.0907047412716
 30
0.0
 10
782.5809954308925
 20
-151.5786762263354
 30
0.0
 10
780.9983740022396
 20
-152.1040010432012
 30
0.0
 10
779.4326255924534
 20
-152.4311945667993
 30
0.0
 10
777.8668491717743
 20
-152.54071796361
 30
0.0
 10
776.3011138764335
 20
-152.4310640504303
 30
0.0
 10
774.735596184105
 20
-152.1038031667754
 30
0.0
 10
773.1532920124
 20
-151.5785158736254
 30
0.0
 10
772.1279530518285
 20
-151.0906592160098
 30
0.0
 10
771.5989482890345
 20
-150.8389585537279
 30
0.0
 11
784.1356942783345
 21
-150.8389585537279
 31
0.0
 11
782.5338833672344
 21
-151.5597376183279
 31
0.0
 11
780.9698268049347
 21
-152.0796772029278
 31
0.0
 11
779.4176294568346
 21
-152.3972375747279
 31
0.0
 11
777.8668375903346
 21
-152.5044205955279
 31
0.0
 11
776.3160942578346
 21
-152.3971109389279
 31
0.0
 11
774.7640106942343
 21
-152.0794597988279
 31
0.0
 11
773.2004480850346
 21
-151.5596154086279
 31
0.0
 11
771.5989482890345
 21
-150.8389585537279
 31
0.0
  0
SPLINE
  5
2B7C
330
26
100
AcDbEntity
  8
0
  6
Continuous
100
AcDbSpline
210
0.0
220
0.0
230
1.0
 70
     8
 71
     3
 72
    10
 73
     6
 74
     4
 42
0.0000000001
 43
0.0000000001
 44
0.0000000001
 40
0.0
 40
0.0
 40
0.0
 40
0.0
 40
0.333148089164227
 40
0.6483813685023497
 40
0.942423366629696
 40
0.942423366629696
 40
0.942423366629696
 40
0.942423366629696
 10
768.0606118553346
 20
-150.8389585537279
 30
0.0
 10
768.1688900352604
 20
-150.8141898088026
 30
0.0
 10
768.3796238103075
 20
-150.7659842412095
 30
0.0
 10
768.6915993172638
 20
-150.723593995074
 30
0.0
 10
768.8946956987014
 20
-150.7175511200406
 30
0.0
 10
768.9927119288345
 20
-150.7146347715279
 30
0.0
 11
768.0606118553346
 21
-150.8389585537279
 31
0.0
 11
768.3864769204347
 21
-150.7696793457279
 31
0.0
 11
768.6989904072348
 21
-150.7283593630279
 31
0.0
 11
768.9927119288345
 21
-150.7146347715279
 31
0.0
  0
SPLINE
  5
2B7D
330
26
100
AcDbEntity
  8
0
  6
Continuous
100
AcDbSpline
210
0.0
220
0.0
230
1.0
 70
     8
 71
     3
 72
    10
 73
     6
 74
     4
 42
0.0000000001
 43
0.0000000001
 44
0.0000000001
 40
0.0
 40
0.0
 40
0.0
 40
0.0
 40
0.2562310915577969
 40
0.4837285850191974
 40
0.682284538216448
 40
0.682284538216448
 40
0.682284538216448
 40
0.682284538216448
 10
770.9332938841346
 20
-150.7146347715279
 30
0.0
 10
771.0186506465107
 20
-150.7171966181013
 30
0.0
 10
771.1797923160676
 20
-150.7220330273382
 30
0.0
 10
771.4060370547813
 20
-150.759212582092
 30
0.0
 10
771.5376240854466
 20
-150.8136082509379
 30
0.0
 10
771.5989482890345
 20
-150.8389585537279
 30
0.0
 11
770.9332938841346
 21
-150.7146347715279
 31
0.0
 11
771.1891571442347
 21
-150.7283593630279
 31
0.0
 11
771.4128707302345
 21
-150.7696793457279
 31
0.0
 11
771.5989482890345
 21
-150.8389585537279
 31
0.0
  0
SPLINE
  5
2B7E
330
26
100
AcDbEntity
  8
0
  6
Continuous
100
AcDbSpline
210
0.0
220
0.0
230
1.0
 70
     8
 71
     3
 72
    10
 73
     6
 74
     4
 42
0.0000000001
 43
0.0000000001
 44
0.0000000001
 40
0.0
 40
0.0
 40
0.0
 40
0.0
 40
0.1560133185939717
 40
0.253955971980457
 40
0.2942252204915981
 40
0.2942252204915981
 40
0.2942252204915981
 40
0.2942252204915981
 10
784.1356942783345
 20
-150.8389585537279
 30
0.0
 10
784.1823108022031
 20
-150.8159776249815
 30
0.0
 10
784.258192430362
 20
-150.7785696386032
 30
0.0
 10
784.3459159137465
 20
-150.7341971896726
 30
0.0
 10
784.3894545761849
 20
-150.719048480628
 30
0.0
 10
784.4021399469345
 20
-150.7146347715279
 30
0.0
 11
784.1356942783345
 21
-150.8389585537279
 31
0.0
 11
784.2754817846346
 21
-150.7696793457279
 31
0.0
 11
784.3642816854344
 21
-150.7283593630279
 31
0.0
 11
784.4021399469345
 21
-150.7146347715279
 31
0.0
  0
SPLINE
  5
2B7F
330
26
100
AcDbEntity
  8
0
  6
Continuous
100
AcDbSpline
210
0.0
220
0.0
230
1.0
 70
     8
 71
     3
 72
    11
 73
     7
 74
     0
 42
0.0000000001
 43
0.0000000001
 40
9.314153540264558
 40
9.314153540264558
 40
9.314153540264558
 40
9.314153540264558
 40
10.60372563427917
 40
13.04445540923335
 40
15.77767405982257
 40
18.62823013612088
 40
18.62823013612088
 40
18.62823013612088
 40
18.62823013612088
 10
755.5238658660345
 20
-132.5484362449289
 30
0.0
 10
755.954169456501
 20
-132.5485965325797
 30
0.0
 10
757.1989939137388
 20
-132.5991757858234
 30
0.0
 10
759.3324325599665
 20
-132.9324946740761
 30
0.0
 10
761.935053561001
 20
-133.5503856112314
 30
0.0
 10
763.7513923663169
 20
-133.9568659665648
 30
0.0
 10
764.6786460381345
 20
-134.1643770327278
 30
0.0
  0
SPLINE
  5
2B80
330
26
100
AcDbEntity
  8
0
  6
Continuous
100
AcDbSpline
210
0.0
220
0.0
230
1.0
 70
     8
 71
     3
 72
    11
 73
     7
 74
     0
 42
0.0000000001
 43
0.0000000001
 40
9.570047351207789
 40
9.570047351207789
 40
9.570047351207789
 40
9.570047351207789
 40
10.94977492875139
 40
13.52657809590511
 40
16.32488322965533
 40
19.14007331410122
 40
19.14007331410122
 40
19.14007331410122
 40
19.14007331410122
 10
755.5238658660345
 20
-131.4627043341859
 30
0.0
 10
755.983923278865
 20
-131.4627963683425
 30
0.0
 10
757.3032196175693
 20
-131.4930119468312
 30
0.0
 10
759.5480516370564
 20
-131.6883929769403
 30
0.0
 10
762.2533430856842
 20
-132.0567533355579
 30
0.0
 10
764.1076931325752
 20
-132.3068844703654
 30
0.0
 10
765.0376570253347
 20
-132.4323262251279
 30
0.0
  0
SPLINE
  5
2B81
330
26
100
AcDbEntity
  8
0
  6
Continuous
100
AcDbSpline
210
0.0
220
0.0
230
1.0
 70
     8
 71
     3
 72
     9
 73
     5
 74
     3
 42
0.0000000001
 43
0.0000000001
 44
0.0000000001
 40
0.0
 40
0.0
 40
0.0
 40
0.0
 40
1.716654398216647
 40
3.477586939261238
 40
3.477586939261238
 40
3.477586939261238
 40
3.477586939261238
 10
764.6786460381345
 20
-134.1643770327278
 30
0.0
 10
765.2380574900919
 20
-134.2851188169233
 30
0.0
 10
766.3713094486816
 20
-134.5297167116293
 30
0.0
 10
767.4927514912138
 20
-134.8237691713443
 30
0.0
 10
768.0606118553346
 20
-134.9726674028279
 30
0.0
 11
764.6786460381345
 21
-134.1643770327278
 31
0.0
 11
766.3540026208347
 21
-134.5386531924279
 31
0.0
 11
768.0606118553346
 21
-134.9726674028279
 31
0.0
  0
SPLINE
  5
2B82
330
26
100
AcDbEntity
  8
0
  6
Continuous
100
AcDbSpline
210
0.0
220
0.0
230
1.0
 70
     8
 71
     3
 72
     9
 73
     5
 74
     3
 42
0.0000000001
 43
0.0000000001
 44
0.0000000001
 40
0.0
 40
0.0
 40
0.0
 40
0.0
 40
1.771174548601726
 40
3.581787274155096
 40
3.581787274155096
 40
3.581787274155096
 40
3.581787274155096
 10
765.0376570253347
 20
-132.4323262251279
 30
0.0
 10
765.6156598422034
 20
-132.553012323162
 30
0.0
 10
766.7845356797204
 20
-132.7970717979592
 30
0.0
 10
767.9417078812203
 20
-133.0916870221296
 30
0.0
 10
768.5266646509344
 20
-133.2406166020279
 30
0.0
 11
765.0376570253347
 21
-132.4323262251279
 31
0.0
 11
766.7688036451345
 21
-132.8067466604279
 31
0.0
 11
768.5266646509344
 21
-133.2406166020279
 31
0.0
  0
SPLINE
  5
2B83
330
26
100
AcDbEntity
  8
0
  6
Continuous
100
AcDbSpline
210
0.0
220
0.0
230
1.0
 70
     8
 71
     3
 72
     9
 73
     5
 74
     3
 42
0.0000000001
 43
0.0000000001
 44
0.0000000001
 40
0.0
 40
0.0
 40
0.0
 40
0.0
 40
0.9570502939284619
 40
1.874828359279954
 40
1.874828359279954
 40
1.874828359279954
 40
1.874828359279954
 10
771.5989482890345
 20
-134.9726674029279
 30
0.0
 10
771.8815310815456
 20
-134.8243392156433
 30
0.0
 10
772.4351009791837
 20
-134.5337694370579
 30
0.0
 10
773.0089949306498
 20
-134.2857762543336
 30
0.0
 10
773.2899311976345
 20
-134.1643770327278
 30
0.0
 11
771.5989482890345
 21
-134.9726674029279
 31
0.0
 11
772.4519927745346
 21
-134.5387775887279
 31
0.0
 11
773.2899311976345
 21
-134.1643770327278
 31
0.0
  0
SPLINE
  5
2B84
330
26
100
AcDbEntity
  8
0
  6
Continuous
100
AcDbSpline
210
0.0
220
0.0
230
1.0
 70
     8
 71
     3
 72
     9
 73
     5
 74
     3
 42
0.0000000001
 43
0.0000000001
 44
0.0000000001
 40
0.0
 40
0.0
 40
0.0
 40
0.0
 40
1.000066723013537
 40
1.961495225065518
 40
1.961495225065518
 40
1.961495225065518
 40
1.961495225065518
 10
770.4000930740344
 20
-133.2406166020279
 30
0.0
 10
770.6987294240253
 20
-133.0922018490556
 30
0.0
 10
771.2844641165793
 20
-132.8011064425338
 30
0.0
 10
771.8899069629341
 20
-132.5536279918204
 30
0.0
 10
772.1866652733347
 20
-132.4323262251279
 30
0.0
 11
770.4000930740344
 21
-133.2406166020279
 31
0.0
 11
771.3011251833345
 21
-132.8067104042279
 31
0.0
 11
772.1866652733347
 21
-132.4323262251279
 31
0.0
  0
SPLINE
  5
2B85
330
26
100
AcDbEntity
  8
0
  6
Continuous
100
AcDbSpline
210
0.0
220
0.0
230
1.0
 70
     8
 71
     3
 72
    11
 73
     7
 74
     5
 42
0.0000000001
 43
0.0000000001
 44
0.0000000001
 40
0.0
 40
0.0
 40
0.0
 40
0.0
 40
0.5479197832569209
 40
1.10239909802192
 40
1.650816828552298
 40
2.182019253100019
 40
2.182019253100019
 40
2.182019253100019
 40
2.182019253100019
 10
771.5989483149346
 20
-134.9726675318279
 30
0.0
 10
771.5616367743879
 20
-134.7928997947347
 30
0.0
 10
771.4865670107082
 20
-134.4312121950518
 30
0.0
 10
771.217007787118
 20
-133.9442086892708
 30
0.0
 10
770.8602133163508
 20
-133.5233026471217
 30
0.0
 10
770.5518290234791
 20
-133.3338381944158
 30
0.0
 10
770.4000955797346
 20
-133.2406165403279
 30
0.0
 11
771.5989483149346
 21
-134.9726675318279
 31
0.0
 11
771.4610901680345
 21
-134.4423740091279
 31
0.0
 11
771.2006707422347
 21
-133.9528548234279
 31
0.0
 11
770.8377064234346
 21
-133.5417357282279
 31
0.0
 11
770.4000955797346
 21
-133.2406165403279
 31
0.0
  0
SPLINE
  5
2B86
330
26
100
AcDbEntity
  8
0
  6
Continuous
100
AcDbSpline
210
0.0
220
0.0
230
1.0
 70
     8
 71
     3
 72
    14
 73
    10
 74
     8
 42
0.0000000001
 43
0.0000000001
 44
0.0000000001
 40
0.0
 40
0.0
 40
0.0
 40
0.0
 40
0.4546712984772396
 40
1.782512850679353
 40
2.987518819525444
 40
4.177917997277157
 40
5.488617192768193
 40
7.021546694230344
 40
8.748274238511776
 40
8.748274238511776
 40
8.748274238511776
 40
8.748274238511776
 10
774.2257190370347
 20
-133.7487881527279
 30
0.0
 10
774.3629699620866
 20
-133.6845024239583
 30
0.0
 10
774.9010543727198
 20
-133.4324738969085
 30
0.0
 10
775.8018817946081
 20
-133.0084647637045
 30
0.0
 10
776.9781374978367
 20
-132.5940454396003
 30
0.0
 10
778.2304445795999
 20
-132.493293064076
 30
0.0
 10
779.549171359522
 20
-132.8363564665835
 30
0.0
 10
780.9298129220881
 20
-133.4804110058417
 30
0.0
 10
781.920119487758
 20
-133.92752747637
 30
0.0
 10
782.4447113697346
 20
-134.1643770327278
 30
0.0
 11
774.2257190370347
 21
-133.7487881527279
 31
0.0
 11
774.6374325932347
 21
-133.5558686428279
 31
0.0
 11
775.8489388146345
 21
-133.0123469199279
 31
0.0
 11
776.9960769954345
 21
-132.6434114525279
 31
0.0
 11
778.1835606783347
 21
-132.5601485842279
 31
0.0
 11
779.4615327890347
 21
-132.8512150119279
 31
0.0
 11
780.8725097087345
 21
-133.4503952757279
 31
0.0
 11
782.4447113697346
 21
-134.1643770327278
 31
0.0
  0
SPLINE
  5
2B87
330
26
100
AcDbEntity
  8
0
  6
Continuous
100
AcDbSpline
210
0.0
220
0.0
230
1.0
 70
    24
 71
     3
 72
     8
 73
     4
 74
     2
 42
0.0000000001
 43
0.0000000001
 44
0.0000000001
 40
0.0
 40
0.0
 40
0.0
 40
0.0
 40
1.023920405866009
 40
1.023920405866009
 40
1.023920405866009
 40
1.023920405866009
 10
773.2899311976345
 20
-134.1643770327278
 30
0.0
 10
773.6018604774345
 20
-134.0258474060611
 30
0.0
 10
773.9137897572346
 20
-133.8873177793945
 30
0.0
 10
774.2257190370347
 20
-133.7487881527279
 30
0.0
 11
773.2899311976345
 21
-134.1643770327278
 31
0.0
 11
774.2257190370347
 21
-133.7487881527279
 31
0.0
  0
SPLINE
  5
2B88
330
26
100
AcDbEntity
  8
0
  6
Continuous
100
AcDbSpline
210
0.0
220
0.0
230
1.0
 70
     8
 71
     3
 72
    14
 73
    10
 74
     8
 42
0.0000000001
 43
0.0000000001
 44
0.0000000001
 40
0.0
 40
0.0
 40
0.0
 40
0.0
 40
1.696856703338311
 40
3.193653201969102
 40
4.53967973895616
 40
5.834229191642491
 40
7.126433421182711
 40
8.442007971080614
 40
9.743114280136439
 40
9.743114280136439
 40
9.743114280136439
 40
9.743114280136439
 10
772.1866652733347
 20
-132.4323262251279
 30
0.0
 10
772.7395165952769
 20
-132.3127458506471
 30
0.0
 10
773.7800378078582
 20
-132.0876836841707
 30
0.0
 10
775.2525952901606
 20
-131.7391192916209
 30
0.0
 10
776.6112210225965
 20
-131.4936654486808
 30
0.0
 10
777.9268727872725
 20
-131.4281750227174
 30
0.0
 10
779.2219354993836
 20
-131.6144140935545
 30
0.0
 10
780.4706673507529
 20
-131.993367770701
 30
0.0
 10
781.292040593635
 20
-132.2865470926799
 30
0.0
 10
781.7004564326346
 20
-132.4323262251279
 30
0.0
 11
772.1866652733347
 21
-132.4323262251279
 31
0.0
 11
773.8439260810346
 21
-132.0678961400279
 31
0.0
 11
775.3046568702345
 21
-131.7412995696279
 31
0.0
 11
776.6323487802346
 21
-131.5198912807279
 31
0.0
 11
777.9259304464345
 21
-131.4698437201279
 31
0.0
 11
779.2062337288346
 21
-131.6448159348279
 31
0.0
 11
780.4716112238345
 21
-132.0047550845279
 31
0.0
 11
781.7004564326346
 21
-132.4323262251279
 31
0.0
  0
SPLINE
  5
2B89
330
26
100
AcDbEntity
  8
0
  6
Continuous
100
AcDbSpline
210
0.0
220
0.0
230
1.0
 70
     8
 71
     3
 72
    11
 73
     7
 74
     5
 42
0.0000000001
 43
0.0000000001
 44
0.0000000001
 40
0.0
 40
0.0
 40
0.0
 40
0.0
 40
0.5378969684644872
 40
1.078513370048774
 40
1.61096331535599
 40
2.126289612095972
 40
2.126289612095972
 40
2.126289612095972
 40
2.126289612095972
 10
773.2899317704346
 20
-134.1643770327278
 30
0.0
 10
773.2591285454623
 20
-133.986821874832
 30
0.0
 10
773.1973663643742
 20
-133.6308138975824
 30
0.0
 10
772.9529418126854
 20
-133.1459780156863
 30
0.0
 10
772.6222295981479
 20
-132.7236558845713
 30
0.0
 10
772.3302650607884
 20
-132.5283662161764
 30
0.0
 10
772.1866685582345
 20
-132.4323171767279
 30
0.0
 11
773.2899317704346
 21
-134.1643770327278
 31
0.0
 11
773.1721813657345
 21
-133.6395265865279
 31
0.0
 11
772.9363195909345
 21
-133.1530748244279
 31
0.0
 11
772.5996033650345
 21
-132.7406125504279
 31
0.0
 11
772.1866685582345
 21
-132.4323171767279
 31
0.0
  0
SPLINE
  5
2B8A
330
26
100
AcDbEntity
  8
0
  6
Continuous
100
AcDbSpline
210
0.0
220
0.0
230
1.0
 70
     8
 71
     3
 72
     9
 73
     5
 74
     3
 42
0.0000000001
 43
0.0000000001
 44
0.0000000001
 40
0.0
 40
0.0
 40
0.0
 40
0.0
 40
0.9771408427758174
 40
1.874823708340411
 40
1.874823708340411
 40
1.874823708340411
 40
1.874823708340411
 10
782.4447113697346
 20
-134.1643770327278
 30
0.0
 10
782.7437081601008
 20
-134.2939068798428
 30
0.0
 10
783.3173882753482
 20
-134.5424336199789
 30
0.0
 10
783.8707429579001
 20
-134.8333662065298
 30
0.0
 10
784.1356942783345
 20
-134.9726674095279
 30
0.0
 11
782.4447113697346
 21
-134.1643770327278
 31
0.0
 11
783.3361805436346
 21
-134.5644856912279
 31
0.0
 11
784.1356942783345
 21
-134.9726674095279
 31
0.0
  0
SPLINE
  5
2B8B
330
26
100
AcDbEntity
  8
0
  6
Continuous
100
AcDbSpline
210
0.0
220
0.0
230
1.0
 70
     8
 71
     3
 72
    11
 73
     7
 74
     5
 42
0.0000000001
 43
0.0000000001
 44
0.0000000001
 40
0.0
 40
0.0
 40
0.0
 40
0.0
 40
0.5302617989692215
 40
1.03654779077552
 40
1.519034907478322
 40
1.985520171169893
 40
1.985520171169893
 40
1.985520171169893
 40
1.985520171169893
 10
784.1356942782344
 20
-134.9726674101279
 30
0.0
 10
784.1472993949765
 20
-134.7951528995144
 30
0.0
 10
784.1699849026712
 20
-134.4481502035541
 30
0.0
 10
784.0350381527364
 20
-133.9525244416137
 30
0.0
 10
783.786660011325
 20
-133.5227871492891
 30
0.0
 10
783.5293682996795
 20
-133.3336101313013
 30
0.0
 10
783.4028917083347
 20
-133.2406166017279
 30
0.0
 11
784.1356942782344
 21
-134.9726674101279
 31
0.0
 11
784.1404745754346
 21
-134.4424271587279
 31
0.0
 11
784.0117082792344
 21
-133.9527897965279
 31
0.0
 11
783.7592872522345
 21
-133.5415995207279
 31
0.0
 11
783.4028917083347
 21
-133.2406166017279
 31
0.0
  0
SPLINE
  5
2B8C
330
26
100
AcDbEntity
  8
0
  6
Continuous
100
AcDbSpline
210
0.0
220
0.0
230
1.0
 70
     8
 71
     3
 72
    10
 73
     6
 74
     4
 42
0.0000000001
 43
0.0000000001
 44
0.0000000001
 40
0.0
 40
0.0
 40
0.0
 40
0.0
 40
0.6655361299354933
 40
1.292977190198497
 40
1.88535018501746
 40
1.88535018501746
 40
1.88535018501746
 40
1.88535018501746
 10
781.7004564326346
 20
-132.4323262251279
 30
0.0
 10
781.9046914678456
 20
-132.5190060831741
 30
0.0
 10
782.3014711918752
 20
-132.6874042726371
 30
0.0
 10
782.8682354694716
 20
-132.9595084566407
 30
0.0
 10
783.2281436222004
 20
-133.1487271505719
 30
0.0
 10
783.4029242532347
 20
-133.2406166020279
 30
0.0
 11
781.7004564326346
 21
-132.4323262251279
 31
0.0
 11
782.3110176885346
 21
-132.6971908944279
 31
0.0
 11
782.8769819844347
 21
-132.9680537746279
 31
0.0
 11
783.4029242532347
 21
-133.2406166020279
 31
0.0
  0
SPLINE
  5
2B8D
330
26
100
AcDbEntity
  8
0
  6
Continuous
100
AcDbSpline
210
0.0
220
0.0
230
1.0
 70
     8
 71
     3
 72
    11
 73
     7
 74
     5
 42
0.0000000001
 43
0.0000000001
 44
0.0000000001
 40
0.0
 40
0.0
 40
0.0
 40
0.0
 40
0.5249264684644218
 40
1.029770900869646
 40
1.512715505320923
 40
1.978403830428616
 40
1.978403830428616
 40
1.978403830428616
 40
1.978403830428616
 10
782.4447113587345
 20
-134.1643770327278
 30
0.0
 10
782.4511574772432
 20
-133.9884823577821
 30
0.0
 10
782.463803106036
 20
-133.6434221850557
 30
0.0
 10
782.3223577553904
 20
-133.1525571262285
 30
0.0
 10
782.0760335868722
 20
-132.7238762710687
 30
0.0
 10
781.8241213102629
 20
-132.528323867823
 30
0.0
 10
781.7004563999346
 20
-132.4323262819279
 30
0.0
 11
782.4447113587345
 21
-134.1643770327278
 31
0.0
 11
782.4357437752346
 21
-133.6395271687279
 31
0.0
 11
782.3007088622346
 21
-133.1530773016279
 31
0.0
 11
782.0494862728347
 21
-132.7406179684279
 31
0.0
 11
781.7004563999346
 21
-132.4323262819279
 31
0.0
  0
SPLINE
  5
2B8E
330
26
100
AcDbEntity
  8
0
  6
Continuous
100
AcDbSpline
210
0.0
220
0.0
230
1.0
 70
    24
 71
     3
 72
     8
 73
     4
 74
     2
 42
0.0000000001
 43
0.0000000001
 44
0.0000000001
 40
0.0
 40
0.0
 40
0.0
 40
0.0
 40
0.0217222331766625
 40
0.0217222331766625
 40
0.0217222331766625
 40
0.0217222331766625
 10
761.9148086427276
 20
-110.3663462043266
 30
0.0
 10
761.9100760369943
 20
-110.3608661657933
 30
0.0
 10
761.9053434312609
 20
-110.3553861272599
 30
0.0
 10
761.9006108255278
 20
-110.3499060887266
 30
0.0
 11
761.9148086427276
 21
-110.3663462043266
 31
0.0
 11
761.9006108255278
 21
-110.3499060887266
 31
0.0
  0
SPLINE
  5
2B8F
330
26
100
AcDbEntity
  8
0
  6
Continuous
100
AcDbSpline
210
0.0
220
0.0
230
1.0
 70
     8
 71
     3
 72
    10
 73
     6
 74
     4
 42
0.0000000001
 43
0.0000000001
 44
0.0000000001
 40
0.0
 40
0.0
 40
0.0
 40
0.0
 40
0.1553994701883808
 40
0.2531902480947117
 40
0.2937917702148216
 40
0.2937917702148216
 40
0.2937917702148216
 40
0.2937917702148216
 10
718.4493987851347
 20
-73.25758927622798
 30
0.0
 10
718.4265496127362
 20
-73.21113815351474
 30
0.0
 10
718.3893217661976
 20
-73.13545596959364
 30
0.0
 10
718.3450945950293
 20
-73.04780387707977
 30
0.0
 10
718.3301686323842
 20
-73.00412243266274
 30
0.0
 10
718.3257896546347
 20
-72.99130717392796
 30
0.0
 11
718.4493987851347
 21
-73.25758927622798
 31
0.0
 11
718.3805170505348
 21
-73.11828995112791
 31
0.0
 11
718.3394350569346
 21
-73.02954703002791
 31
0.0
 11
718.3257896546347
 21
-72.99130717392796
 31
0.0
  0
SPLINE
  5
2B90
330
26
100
AcDbEntity
  8
0
  6
Continuous
100
AcDbSpline
210
0.0
220
0.0
230
1.0
 70
     8
 71
     3
 72
    10
 73
     6
 74
     4
 42
0.0000000001
 43
0.0000000001
 44
0.0000000001
 40
0.0
 40
0.0
 40
0.0
 40
0.0
 40
0.3317289872023646
 40
0.645699450659506
 40
0.9387090155719203
 40
0.9387090155719203
 40
0.9387090155719203
 40
0.9387090155719203
 10
718.4493987851347
 20
-89.96783937392792
 30
0.0
 10
718.4247711073937
 20
-89.86001428158002
 30
0.0
 10
718.376834151017
 20
-89.65013632221474
 30
0.0
 10
718.3346912532484
 20
-89.33938141765785
 30
0.0
 10
718.3286877476307
 20
-89.13704999048795
 30
0.0
 10
718.3257896546347
 20
-89.03937784202795
 30
0.0
 11
718.4493987851347
 21
-89.96783937392792
 31
0.0
 11
718.3805170505348
 21
-89.64334064112791
 31
0.0
 11
718.3394350569346
 21
-89.33206950252793
 31
0.0
 11
718.3257896546347
 21
-89.03937784202795
 31
0.0
  0
SPLINE
  5
2B91
330
26
100
AcDbEntity
  8
0
  6
Continuous
100
AcDbSpline
210
0.0
220
0.0
230
1.0
 70
     8
 71
     3
 72
    10
 73
     6
 74
     4
 42
0.0000000001
 43
0.0000000001
 44
0.0000000001
 40
0.0
 40
0.0
 40
0.0
 40
0.0
 40
0.2548174204530163
 40
0.4811060366634171
 40
0.6787003533173243
 40
0.6787003533173243
 40
0.6787003533173243
 40
0.6787003533173243
 10
718.3257896546347
 20
-86.91823015332795
 30
0.0
 10
718.3283363227354
 20
-86.83334389101285
 30
0.0
 10
718.3331445395145
 20
-86.67307504770929
 30
0.0
 10
718.3701272188933
 20
-86.44802330043366
 30
0.0
 10
718.424194948673
 20
-86.3170870530505
 30
0.0
 10
718.4493987851347
 20
-86.25605072362794
 30
0.0
 11
718.3257896546347
 21
-86.91823015332795
 31
0.0
 11
718.3394350569346
 21
-86.66377834892798
 31
0.0
 11
718.3805170505348
 21
-86.44125013132793
 31
0.0
 11
718.4493987851347
 21
-86.25605072362794
 31
0.0
  0
SPLINE
  5
2B92
330
26
100
AcDbEntity
  8
0
  6
Continuous
100
AcDbSpline
210
0.0
220
0.0
230
1.0
 70
     8
 71
     3
 72
    15
 73
    11
 74
     9
 42
0.0000000001
 43
0.0000000001
 44
0.0000000001
 40
0.0
 40
0.0
 40
0.0
 40
0.0
 40
1.85814631369879
 40
3.58744556807628
 40
5.230683577053483
 40
6.829052957326741
 40
8.42571288636319
 40
10.06443588587234
 40
11.78973789472068
 40
13.64579436665168
 40
13.64579436665168
 40
13.64579436665168
 40
13.64579436665168
 10
702.8807877025347
 20
-86.25605072362794
 30
0.0
 10
702.6008306201861
 20
-85.70299700856513
 30
0.0
 10
702.0603291607915
 20
-84.63523927367461
 30
0.0
 10
701.4755471629187
 20
-82.98722984663993
 30
0.0
 10
701.11352611353
 20
-81.36557117685118
 30
0.0
 10
700.9933600018705
 20
-79.75119574401776
 30
0.0
 10
701.1151343417447
 20
-78.13847566961502
 30
0.0
 10
701.4774939282374
 20
-76.52043115496178
 30
0.0
 10
702.0615173362704
 20
-74.87594129878323
 30
0.0
 10
702.6011305355734
 20
-73.81001221460038
 30
0.0
 10
702.8807877037348
 20
-73.25758927622798
 30
0.0
 11
702.8807877025347
 21
-86.25605072362794
 31
0.0
 11
702.0783230325346
 21
-84.58011570802796
 31
0.0
 11
701.5004812677346
 21
-82.95021546382793
 31
0.0
 11
701.1502348232347
 21
-81.34473778342795
 31
0.0
 11
701.0333214337347
 21
-79.75064997682796
 31
0.0
 11
701.1517810923346
 21
-78.1583905010279
 31
0.0
 11
701.5021697002346
 21
-76.55756543482794
 31
0.0
 11
702.0791312360348
 21
-74.93159421492788
 31
0.0
 11
702.8807877037348
 21
-73.25758927622798
 31
0.0
  0
SPLINE
  5
2B93
330
26
100
AcDbEntity
  8
0
  6
Continuous
100
AcDbSpline
210
0.0
220
0.0
230
1.0
 70
     8
 71
     3
 72
    11
 73
     7
 74
     5
 42
0.0000000001
 43
0.0000000001
 44
0.0000000001
 40
0.0
 40
0.0
 40
0.0
 40
0.0
 40
0.530256431473544
 40
1.036409320017521
 40
1.518737041404954
 40
1.985229180566775
 40
1.985229180566775
 40
1.985229180566775
 40
1.985229180566775
 10
702.8807878038346
 20
-73.25758927282794
 30
0.0
 10
702.703268892796
 20
-73.24612561171699
 30
0.0
 10
702.3563004394978
 20
-73.2237193861406
 30
0.0
 10
701.8608383328422
 20
-73.35875960957586
 30
0.0
 10
701.4311317587684
 20
-73.60693768770408
 30
0.0
 10
701.2418153638503
 20
-73.86405875339688
 30
0.0
 10
701.1487369896344
 20
-73.99047364092797
 30
0.0
 11
702.8807878038346
 21
-73.25758927282794
 31
0.0
 11
702.3505496563346
 21
-73.25318585882798
 31
0.0
 11
701.8610734096346
 21
-73.38204140002796
 31
0.0
 11
701.4499460409346
 21
-73.63426018902788
 31
0.0
 11
701.1487369896344
 21
-73.99047364092797
 31
0.0
  0
SPLINE
  5
2B94
330
26
100
AcDbEntity
  8
0
  6
Continuous
100
AcDbSpline
210
0.0
220
0.0
230
1.0
 70
     8
 71
     3
 72
    16
 73
    12
 74
    10
 42
0.0000000001
 43
0.0000000001
 44
0.0000000001
 40
0.0
 40
0.0
 40
0.0
 40
0.0
 40
1.732213093690911
 40
3.359952238944942
 40
4.910819306961334
 40
6.409161743424255
 40
7.881158803642085
 40
9.354471796565887
 40
10.85931561058343
 40
12.42792839439178
 40
14.09301281794435
 40
14.09301281794435
 40
14.09301281794435
 40
14.09301281794435
 10
701.1487369966346
 20
-87.45318063012792
 30
0.0
 10
700.8974315528828
 20
-86.93296404969455
 30
0.0
 10
700.4099775026461
 20
-85.92390640515325
 30
0.0
 10
699.8596449146588
 20
-84.37868569473508
 30
0.0
 10
699.4828012914279
 20
-82.86306777739527
 30
0.0
 10
699.2934951064448
 20
-81.36399747908723
 30
0.0
 10
699.2936657745516
 20
-79.87883721857038
 30
0.0
 10
699.4830914615471
 20
-78.40348567993551
 30
0.0
 10
699.8597660323004
 20
-76.93236871868189
 30
0.0
 10
700.4098605902043
 20
-75.44785336410112
 30
0.0
 10
700.8975946334981
 20
-74.48583312551448
 30
0.0
 10
701.1487369966346
 20
-73.99047291962796
 30
0.0
 11
701.1487369966346
 21
-87.45318063012792
 31
0.0
 11
700.4243019135347
 21
-85.87972709972792
 31
0.0
 11
699.8772793291346
 21
-84.34665795022795
 31
0.0
 11
699.5090984622347
 21
-82.84012832492795
 31
0.0
 11
699.3240675963347
 21
-81.35325454562792
 31
0.0
 11
699.3249520575345
 21
-79.8812577511279
 31
0.0
 11
699.5111064772345
 21
-78.41975246302792
 31
0.0
 11
699.8789783900347
 21
-76.96056599092793
 31
0.0
 11
700.4250945639346
 21
-75.49008879282798
 31
0.0
 11
701.1487369966346
 21
-73.99047291962796
 31
0.0
  0
SPLINE
  5
2B95
330
26
100
AcDbEntity
  8
0
  6
Continuous
100
AcDbSpline
210
0.0
220
0.0
230
1.0
 70
     8
 71
     3
 72
    11
 73
     7
 74
     5
 42
0.0000000001
 43
0.0000000001
 44
0.0000000001
 40
0.0
 40
0.0
 40
0.0
 40
0.0
 40
0.5477423644075264
 40
1.101959769692591
 40
1.650083108449914
 40
2.181018975364879
 40
2.181018975364879
 40
2.181018975364879
 40
2.181018975364879
 10
702.8807878039347
 20
-86.2560507261279
 30
0.0
 10
702.7010526623583
 20
-86.29322588775584
 30
0.0
 10
702.3394576715608
 20
-86.36801567070449
 30
0.0
 10
701.8524781437542
 20
-86.6371063944016
 30
0.0
 10
701.4315487969708
 20
-86.99344979846433
 30
0.0
 10
701.242001209326
 20
-87.30156306115907
 30
0.0
 10
701.1487369915344
 20
-87.45316584752789
 30
0.0
 11
702.8807878039347
 21
-86.2560507261279
 31
0.0
 11
702.3505707972344
 21
-86.39349752882794
 31
0.0
 11
701.8611017576345
 21
-86.65345327812793
 31
0.0
 11
701.4499671550348
 21
-87.0159550478279
 31
0.0
 11
701.1487369915344
 21
-87.45316584752789
 31
0.0
  0
SPLINE
  5
2B96
330
26
100
AcDbEntity
  8
0
  6
Continuous
100
AcDbSpline
210
0.0
220
0.0
230
1.0
 70
     8
 71
     3
 72
    11
 73
     7
 74
     0
 42
0.0000000001
 43
0.0000000001
 40
13.1651966694262
 40
13.1651966694262
 40
13.1651966694262
 40
13.1651966694262
 40
16.35567096635936
 40
19.57532230778535
 40
22.88317230609635
 40
26.33039333579923
 40
26.33039333579923
 40
26.33039333579923
 40
26.33039333579923
 10
701.0333213226342
 20
-102.9663008213278
 30
0.0
 10
701.033321323511
 20
-101.9025344012691
 30
0.0
 10
701.1126662217366
 20
-99.76527336342265
 30
0.0
 10
701.4706731589349
 20
-96.54347876029124
 30
0.0
 10
702.0476877055544
 20
-93.26591700622168
 30
0.0
 10
702.5992941109726
 20
-91.08221666359161
 30
0.0
 10
702.8807877019344
 20
-89.96783937392792
 30
0.0
  0
SPLINE
  5
2B97
330
26
100
AcDbEntity
  8
0
  6
Continuous
100
AcDbSpline
210
0.0
220
0.0
230
1.0
 70
     8
 71
     3
 72
    12
 73
     8
 74
     0
 42
0.0000000001
 43
0.0000000001
 40
13.62476192016027
 40
13.62476192016027
 40
13.62476192016027
 40
13.62476192016027
 40
15.0986922471531
 40
18.05051167680609
 40
21.03495393608431
 40
24.09010001704638
 40
27.24952362346725
 40
27.24952362346725
 40
27.24952362346725
 40
27.24952362346725
 10
699.3013004562758
 20
-102.9663008213279
 30
0.0
 10
699.30130044125
 20
-102.4749102863449
 30
0.0
 10
699.324588157463
 20
-100.9994188597071
 30
0.0
 10
699.4806593161642
 20
-98.53259100470844
 30
0.0
 10
699.8542650488289
 20
-95.55734890118094
 30
0.0
 10
700.3993387500009
 20
-92.53771398352569
 30
0.0
 10
700.8961587797726
 20
-90.52621736471502
 30
0.0
 10
701.1487369966346
 20
-89.50359307672797
 30
0.0
  0
SPLINE
  5
2B98
330
26
100
AcDbEntity
  8
0
  6
Continuous
100
AcDbSpline
210
0.0
220
0.0
230
1.0
 70
     8
 71
     3
 72
    15
 73
    11
 74
     9
 42
0.0000000001
 43
0.0000000001
 44
0.0000000001
 40
0.0
 40
0.0
 40
0.0
 40
0.0
 40
1.82005027382056
 40
3.528213202152464
 40
5.170831148197859
 40
6.782657774237372
 40
8.394525050559309
 40
10.03723893257938
 40
11.74591186540689
 40
13.56630241280327
 40
13.56630241280327
 40
13.56630241280327
 40
13.56630241280327
 10
718.4493987851347
 20
-73.25758927622798
 30
0.0
 10
718.7099254149418
 20
-73.80599080859324
 30
0.0
 10
719.2149628350725
 20
-74.86908096297132
 30
0.0
 10
719.7586562077283
 20
-76.50960272651493
 30
0.0
 10
720.0973894592589
 20
-78.13285270041789
 30
0.0
 10
720.210878590852
 20
-79.75633752309949
 30
0.0
 10
720.0975225908051
 20
-81.37986454008703
 30
0.0
 10
719.758857979108
 20
-83.00335055117536
 30
0.0
 10
719.2151262859866
 20
-84.64419649446499
 30
0.0
 10
718.7099717515039
 20
-85.7075453645017
 30
0.0
 10
718.4493987851347
 20
-86.25605072362794
 30
0.0
 11
718.4493987851347
 21
-73.25758927622798
 31
0.0
 11
719.1953045355344
 21
-74.91777228142797
 31
0.0
 11
719.7334254089346
 21
-76.53895904282791
 31
0.0
 11
720.0622358903347
 21
-78.14833077862789
 31
0.0
 11
720.1733105055345
 21
-79.75632564872797
 31
0.0
 11
720.0623650818347
 21
-81.36437018462789
 31
0.0
 11
719.7336470743346
 21
-82.97385872752795
 31
0.0
 11
719.1954289199346
 21
-84.59555056312792
 31
0.0
 11
718.4493987851347
 21
-86.25605072362794
 31
0.0
  0
SPLINE
  5
2B99
330
26
100
AcDbEntity
  8
0
  6
Continuous
100
AcDbSpline
210
0.0
220
0.0
230
1.0
 70
     8
 71
     3
 72
    12
 73
     8
 74
     0
 42
0.0000000001
 43
0.0000000001
 40
0.0
 40
0.0
 40
0.0
 40
0.0
 40
3.40311707578498
 40
6.689841910083083
 40
9.925336596835386
 40
13.14324392601898
 40
13.14423240267443
 40
13.14423240267443
 40
13.14423240267443
 40
13.14423240267443
 10
718.4493987851347
 20
-89.96783937392792
 30
0.0
 10
718.7111678159135
 20
-91.07187985141029
 30
0.0
 10
719.2257529429808
 20
-93.24220079312704
 30
0.0
 10
719.7633124315602
 20
-96.50945102334602
 30
0.0
 10
720.0987655455165
 20
-99.74080776392225
 30
0.0
 10
720.1732990695577
 20
-101.8927609454571
 30
0.0
 10
720.173310516069
 20
-102.9659712538612
 30
0.0
 10
720.1733105160799
 20
-102.9663008213279
 30
0.0
  0
ARC
  5
2B9A
330
26
100
AcDbEntity
  8
0
  6
Continuous
100
AcDbCircle
 10
755.5238658660345
 20
-142.5263008213279
 30
0.0
 40
6.0
100
AcDbArc
 50
270.0
 51
90.0
  0
ARC
  5
2B9B
330
26
100
AcDbEntity
  8
0
  6
Continuous
100
AcDbCircle
 10
755.5238658660345
 20
-102.9663008213279
 30
0.0
 40
19.0
100
AcDbArc
 50
0.0
 51
90.0
  0
ARC
  5
2B9C
330
26
100
AcDbEntity
  8
0
  6
Continuous
100
AcDbCircle
 10
783.5238658660346
 20
-129.8342500138279
 30
0.0
 40
3.0
100
AcDbArc
 50
195.3428125054012
 51
239.9999999999998
  0
ARC
  5
2B9D
330
26
100
AcDbEntity
  8
0
  6
Continuous
100
AcDbCircle
 10
755.5238616071279
 20
-102.9662965618266
 30
0.0
 40
9.777777777800001
100
AcDbArc
 50
270.0
 51
180.9732612625037
  0
ARC
  5
2B9E
330
26
100
AcDbEntity
  8
0
  6
Continuous
100
AcDbCircle
 10
755.5238616071279
 20
-102.9662965618266
 30
0.0
 40
11.0
100
AcDbArc
 50
270.0
 51
180.7959664059345
  0
ARC
  5
2B9F
330
26
100
AcDbEntity
  8
0
  6
Continuous
100
AcDbCircle
 10
736.2260654347346
 20
-85.96630082132793
 30
0.0
 40
3.0
100
AcDbArc
 50
58.9972808660978
 51
90.0
  0
ARC
  5
2BA0
330
26
100
AcDbEntity
  8
0
  6
Continuous
100
AcDbCircle
 10
739.8316167102345
 20
-79.96630082132793
 30
0.0
 40
4.0
100
AcDbArc
 50
238.9972808660978
 51
270.0
  0
ARC
  5
2BA1
330
26
100
AcDbEntity
  8
0
  6
Continuous
100
AcDbCircle
 10
777.7377059968346
 20
-131.4218122860279
 30
0.0
 40
3.0
100
AcDbArc
 50
15.34281250540118
 51
60.00000000000028
  0
ARC
  5
2BA2
330
26
100
AcDbEntity
  8
0
  6
Continuous
100
AcDbCircle
 10
782.4238658660346
 20
-134.9726674096279
 30
0.0
 40
2.0
100
AcDbArc
 50
0.0
 51
60.00000000000028
  0
ARC
  5
2BA3
330
26
100
AcDbEntity
  8
0
  6
Continuous
100
AcDbCircle
 10
777.5238658660346
 20
-124.3701483986279
 30
0.0
 40
3.0
100
AcDbArc
 50
180.0
 51
239.9999999999998
  0
ARC
  5
2BA4
330
26
100
AcDbEntity
  8
0
  6
Continuous
100
AcDbCircle
 10
727.3260872658346
 20
-79.96630082132793
 30
0.0
 40
3.0
100
AcDbArc
 50
209.999999999998
 51
270.0
  0
ARC
  5
2BA5
330
26
100
AcDbEntity
  8
0
  6
Continuous
100
AcDbCircle
 10
721.9232684010344
 20
-82.60834404352795
 30
0.0
 40
3.0
100
AcDbArc
 50
29.99999999999799
 51
45.0000000000046
  0
ARC
  5
2BA6
330
26
100
AcDbEntity
  8
0
  6
Continuous
100
AcDbCircle
 10
780.4166861890346
 20
-152.5663008213279
 30
0.0
 40
0.4
100
AcDbArc
 50
270.0
 51
299.9999999907019
  0
ARC
  5
2BA7
330
26
100
AcDbEntity
  8
0
  6
Continuous
100
AcDbCircle
 10
696.4619856506346
 20
-79.96630082132793
 30
0.0
 40
1.0
100
AcDbArc
 50
90.0
 51
180.0
  0
ARC
  5
2BA8
330
26
100
AcDbEntity
  8
0
  6
Continuous
100
AcDbCircle
 10
696.5299348431345
 20
-75.96630082132793
 30
0.0
 40
3.0
100
AcDbArc
 50
270.0
 51
330.000000000002
  0
ARC
  5
2BA9
330
26
100
AcDbEntity
  8
0
  6
Continuous
100
AcDbCircle
 10
720.0619856506346
 20
-76.77348049832796
 30
0.0
 40
0.4
100
AcDbArc
 50
0.0
 51
29.99999999730263
  0
ARC
  5
2BAA
330
26
100
AcDbEntity
  8
0
  6
Continuous
100
AcDbCircle
 10
702.8807878042345
 20
-74.96630082132793
 30
0.0
 40
2.0
100
AcDbArc
 50
90.0
 51
150.000000000002
  0
LINE
  5
2BAB
330
26
100
AcDbEntity
  8
0
  6
Continuous
100
AcDbLine
 10
699.1280110544344
 20
-77.46630082132793
 30
0.0
 11
701.1487369966346
 21
-73.96630082132793
 31
0.0
  0
LINE
  5
2BAC
330
26
100
AcDbEntity
  8
0
  6
Continuous
100
AcDbLine
 10
695.4619856506346
 20
-79.96630082132793
 30
0.0
 11
695.4619856506346
 21
-102.9663008213278
 31
0.0
  0
LINE
  5
2BAD
330
26
100
AcDbEntity
  8
0
  6
Continuous
100
AcDbLine
 10
696.4619856506346
 20
-78.96630082132793
 30
0.0
 11
696.4619856506346
 21
-102.966300821328
 31
0.0
  0
LINE
  5
2BAE
330
26
100
AcDbEntity
  8
0
  6
Continuous
100
AcDbLine
 10
696.5299348431345
 20
-102.966300821328
 30
0.0
 11
696.5299348431345
 21
-78.96630082132793
 31
0.0
  0
LINE
  5
2BAF
330
26
100
AcDbEntity
  8
0
  6
Continuous
100
AcDbLine
 10
699.1280110544344
 20
-102.9663008213279
 30
0.0
 11
699.1280110544344
 21
-77.46630082132793
 31
0.0
  0
LINE
  5
2BB0
330
26
100
AcDbEntity
  8
0
  6
Continuous
100
AcDbLine
 10
718.3257896546347
 20
-72.96630082132793
 30
0.0
 11
702.8807878042345
 21
-72.96630082132793
 31
0.0
  0
LINE
  5
2BB1
330
26
100
AcDbEntity
  8
0
  6
Continuous
100
AcDbLine
 10
702.8807878042345
 20
-72.99130717392796
 30
0.0
 11
718.3257896546347
 21
-72.99130717392796
 31
0.0
  0
LINE
  5
2BB2
330
26
100
AcDbEntity
  8
0
  6
Continuous
100
AcDbLine
 10
702.8807877037348
 20
-73.25758927622798
 30
0.0
 11
718.4493987851347
 21
-73.25758927622798
 31
0.0
  0
LINE
  5
2BB3
330
26
100
AcDbEntity
  8
0
  6
Continuous
100
AcDbLine
 10
701.1487369966346
 20
-73.99047291962796
 30
0.0
 11
701.1487369966346
 21
-73.96630082132793
 31
0.0
  0
LINE
  5
2BB4
330
26
100
AcDbEntity
  8
0
  6
Continuous
100
AcDbLine
 10
701.1487369966346
 20
-89.50359307672797
 30
0.0
 11
701.1487369966346
 21
-87.45318063012792
 31
0.0
  0
LINE
  5
2BB5
330
26
100
AcDbEntity
  8
0
  6
Continuous
100
AcDbLine
 10
702.8807878042345
 20
-73.25758927622798
 30
0.0
 11
702.8807878042345
 21
-72.96630082132793
 31
0.0
  0
LINE
  5
2BB6
330
26
100
AcDbEntity
  8
0
  6
Continuous
100
AcDbLine
 10
702.8807878042345
 20
-89.96783937392792
 30
0.0
 11
702.8807878042345
 21
-86.25605072362794
 31
0.0
  0
LINE
  5
2BB7
330
26
100
AcDbEntity
  8
0
  6
Continuous
100
AcDbLine
 10
722.5238658660345
 20
-78.96630082132793
 30
0.0
 11
720.4619856506346
 21
-78.96630082132793
 31
0.0
  0
LINE
  5
2BB8
330
26
100
AcDbEntity
  8
0
  6
Continuous
100
AcDbLine
 10
696.4619856506346
 20
-78.96630082132793
 30
0.0
 11
696.5299348431345
 21
-78.96630082132793
 31
0.0
  0
LINE
  5
2BB9
330
26
100
AcDbEntity
  8
0
  6
Continuous
100
AcDbLine
 10
720.4619856506346
 20
-80.66630082132792
 30
0.0
 11
724.1821529182345
 21
-80.66630082132792
 31
0.0
  0
LINE
  5
2BBA
330
26
100
AcDbEntity
  8
0
  6
Continuous
100
AcDbLine
 10
736.2260654347346
 20
-82.96630082132793
 30
0.0
 11
727.3260872658346
 21
-82.96630082132793
 31
0.0
  0
LINE
  5
2BBB
330
26
100
AcDbEntity
  8
0
  6
Continuous
100
AcDbLine
 10
755.5238658660345
 20
-83.96630082132793
 30
0.0
 11
739.8316167102345
 21
-83.96630082132793
 31
0.0
  0
LINE
  5
2BBC
330
26
100
AcDbEntity
  8
0
  6
Continuous
100
AcDbLine
 10
718.4493987851347
 20
-86.25605072362794
 30
0.0
 11
702.8807877025347
 21
-86.25605072362794
 31
0.0
  0
LINE
  5
2BBD
330
26
100
AcDbEntity
  8
0
  6
Continuous
100
AcDbLine
 10
718.3257896546347
 20
-86.91823015332795
 30
0.0
 11
702.8807878042345
 21
-86.91823015332795
 31
0.0
  0
LINE
  5
2BBE
330
26
100
AcDbEntity
  8
0
  6
Continuous
100
AcDbLine
 10
702.8807878042345
 20
-89.03937784202795
 30
0.0
 11
718.3257896546347
 21
-89.03937784202795
 31
0.0
  0
LINE
  5
2BBF
330
26
100
AcDbEntity
  8
0
  6
Continuous
100
AcDbLine
 10
702.8807877019344
 20
-89.96783937392792
 30
0.0
 11
718.4493987851347
 21
-89.96783937392792
 31
0.0
  0
LINE
  5
2BC0
330
26
100
AcDbEntity
  8
0
  6
Continuous
100
AcDbLine
 10
718.3257896546347
 20
-72.99130717392796
 30
0.0
 11
718.3257896546347
 21
-72.96630082132793
 31
0.0
  0
LINE
  5
2BC1
330
26
100
AcDbEntity
  8
0
  6
Continuous
100
AcDbLine
 10
718.3257896546347
 20
-89.03937784202795
 30
0.0
 11
718.3257896546347
 21
-86.91823015332795
 31
0.0
  0
LINE
  5
2BC2
330
26
100
AcDbEntity
  8
0
  6
Continuous
100
AcDbLine
 10
759.6183058820279
 20
-97.34407413832663
 30
0.0
 11
758.3349728189277
 21
-97.57811678282663
 31
0.0
  0
LINE
  5
2BC3
330
26
100
AcDbEntity
  8
0
  6
Continuous
100
AcDbLine
 10
759.4349727235275
 20
-98.51428688392662
 30
0.0
 11
758.5183059774276
 21
-98.74832952842661
 31
0.0
  0
LINE
  5
2BC4
330
26
100
AcDbEntity
  8
0
  6
Continuous
100
AcDbLine
 10
720.4083958122346
 20
-102.9663008213279
 30
0.0
 11
720.4083958122346
 21
-76.57348049832791
 31
0.0
  0
LINE
  5
2BC5
330
26
100
AcDbEntity
  8
0
  6
Continuous
100
AcDbLine
 10
720.4619856506346
 20
-102.9663008213279
 30
0.0
 11
720.4619856506346
 21
-76.77348049832796
 31
0.0
  0
LINE
  5
2BC6
330
26
100
AcDbEntity
  8
0
  6
Continuous
100
AcDbLine
 10
722.5238658660345
 20
-78.96630082132793
 30
0.0
 11
722.5238658660345
 21
-102.966300821328
 31
0.0
  0
LINE
  5
2BC7
330
26
100
AcDbEntity
  8
0
  6
Continuous
100
AcDbLine
 10
760.3516394696278
 20
-97.34407413832663
 30
0.0
 11
761.4516393743278
 21
-97.57811678282663
 31
0.0
  0
LINE
  5
2BC8
330
26
100
AcDbEntity
  8
0
  6
Continuous
100
AcDbLine
 10
759.6183058820279
 20
-97.34407413832663
 30
0.0
 11
760.3516394696278
 21
-97.34407413832663
 31
0.0
  0
LINE
  5
2BC9
330
26
100
AcDbEntity
  8
0
  6
Continuous
100
AcDbLine
 10
749.5349728666278
 20
-97.34407413832663
 30
0.0
 11
750.6349727712277
 21
-97.34407413832663
 31
0.0
  0
LINE
  5
2BCA
330
26
100
AcDbEntity
  8
0
  6
Continuous
100
AcDbLine
 10
759.4349727235275
 20
-98.51428688392662
 30
0.0
 11
760.1683060727277
 21
-98.51428688392662
 31
0.0
  0
LINE
  5
2BCB
330
26
100
AcDbEntity
  8
0
  6
Continuous
100
AcDbLine
 10
756.6849727235275
 20
-99.91854251252664
 30
0.0
 11
757.6016394696278
 21
-99.91854251252664
 31
0.0
  0
LINE
  5
2BCC
330
26
100
AcDbEntity
  8
0
  6
Continuous
100
AcDbLine
 10
702.8807878040348
 20
-89.96783936912789
 30
0.0
 11
701.1487369916345
 21
-89.50360861202796
 31
0.0
  0
LINE
  5
2BCD
330
26
100
AcDbEntity
  8
0
  6
Continuous
100
AcDbLine
 10
724.0445887446344
 20
-102.9663008213279
 30
0.0
 11
724.0445887446344
 21
-80.48702369992795
 31
0.0
  0
LINE
  5
2BCE
330
26
100
AcDbEntity
  8
0
  6
Continuous
100
AcDbLine
 10
724.2098533385346
 20
-102.9663008213278
 30
0.0
 11
724.2098533385346
 21
-80.66630158432793
 31
0.0
  0
LINE
  5
2BCF
330
26
100
AcDbEntity
  8
0
  6
Continuous
100
AcDbLine
 10
724.5213446124346
 20
-102.9663008213278
 30
0.0
 11
724.5213446124346
 21
-81.10834404352795
 31
0.0
  0
LINE
  5
2BD0
330
26
100
AcDbEntity
  8
0
  6
Continuous
100
AcDbLine
 10
724.7280110544346
 20
-81.46630082132793
 30
0.0
 11
724.7280110544343
 21
-102.966300821328
 31
0.0
  0
LINE
  5
2BD1
330
26
100
AcDbEntity
  8
0
  6
Continuous
100
AcDbLine
 10
727.3260872658346
 20
-82.96630082132793
 30
0.0
 11
727.3260872658346
 21
-102.9663008213279
 31
0.0
  0
LINE
  5
2BD2
330
26
100
AcDbEntity
  8
0
  6
Continuous
100
AcDbLine
 10
760.1683060727277
 20
-98.51428688392662
 30
0.0
 11
761.0849725805279
 21
-98.74832952842661
 31
0.0
  0
LINE
  5
2BD3
330
26
100
AcDbEntity
  8
0
  6
Continuous
100
AcDbLine
 10
753.8888542199279
 20
-102.9662965618266
 30
0.0
 11
755.5238621874277
 21
-102.9662965618266
 31
0.0
  0
LINE
  5
2BD4
330
26
100
AcDbEntity
  8
0
  6
Continuous
100
AcDbLine
 10
750.6349727712277
 20
-102.9662965618266
 30
0.0
 11
753.1481875374277
 21
-102.9662965618266
 31
0.0
  0
LINE
  5
2BD5
330
26
100
AcDbEntity
  8
0
  6
Continuous
100
AcDbLine
 10
745.7460838293277
 20
-102.9662965618266
 30
0.0
 11
749.5349728666278
 21
-102.9662965618266
 31
0.0
  0
LINE
  5
2BD6
330
26
100
AcDbEntity
  8
0
  6
CENTER
100
AcDbLine
 10
753.8888542199279
 20
-102.9662965618266
 30
0.0
 11
753.1481875374277
 21
-102.9662965618266
 31
0.0
  0
LINE
  5
2BD8
330
26
100
AcDbEntity
  8
0
  6
Continuous
100
AcDbLine
 10
761.4516393743278
 20
-97.57811678282663
 30
0.0
 11
762.1849724851276
 21
-98.0462020718266
 31
0.0
  0
LINE
  5
2BD9
330
26
100
AcDbEntity
  8
0
  6
Continuous
100
AcDbLine
 10
757.9683060251277
 20
-107.1738613926266
 30
0.0
 11
763.1016394696278
 21
-107.1738613926266
 31
0.0
  0
LINE
  5
2BDA
330
26
100
AcDbEntity
  8
0
  6
Continuous
100
AcDbLine
 10
756.5016393862279
 20
-108.3440741383266
 30
0.0
 11
763.1016394696278
 21
-108.3440741383266
 31
0.0
  0
LINE
  5
2BDB
330
26
100
AcDbEntity
  8
0
  6
Continuous
100
AcDbLine
 10
762.1849724851276
 20
-98.0462020718266
 30
0.0
 11
762.9183060727277
 21
-98.9823721729266
 31
0.0
  0
LINE
  5
2BDC
330
26
100
AcDbEntity
  8
0
  6
Continuous
100
AcDbLine
 10
761.0849725805279
 20
-98.74832952842661
 30
0.0
 11
761.6349727712276
 21
-99.21641481752658
 31
0.0
  0
LINE
  5
2BDD
330
26
100
AcDbEntity
  8
0
  6
Continuous
100
AcDbLine
 10
736.2260654347346
 20
-82.96630082132793
 30
0.0
 11
736.2260654347344
 21
-102.9663008213279
 31
0.0
  0
LINE
  5
2BDE
330
26
100
AcDbEntity
  8
0
  6
Continuous
100
AcDbLine
 10
737.7713016957345
 20
-102.9663008213279
 30
0.0
 11
737.7713016957345
 21
-83.39487224992791
 31
0.0
  0
LINE
  5
2BDF
330
26
100
AcDbEntity
  8
0
  6
Continuous
100
AcDbLine
 10
761.6349727712276
 20
-99.21641481752658
 30
0.0
 11
762.0016395650277
 21
-99.91854251252664
 31
0.0
  0
LINE
  5
2BE0
330
26
100
AcDbEntity
  8
0
  6
Continuous
100
AcDbLine
 10
755.0349727175277
 20
-100.1525849186266
 30
0.0
 11
754.4849726758278
 21
-99.68449986802661
 31
0.0
  0
LINE
  5
2BE1
330
26
100
AcDbEntity
  8
0
  6
Continuous
100
AcDbLine
 10
718.3366177230346
 20
-72.98505558582798
 30
0.0
 11
720.4083958122346
 21
-76.57348049832791
 31
0.0
  0
LINE
  5
2BE2
330
26
100
AcDbEntity
  8
0
  6
Continuous
100
AcDbLine
 10
724.7280110544346
 20
-81.46630082132793
 30
0.0
 11
724.5213446124346
 21
-81.10834404352795
 31
0.0
  0
LINE
  5
2BE3
330
26
100
AcDbEntity
  8
0
  6
Continuous
100
AcDbLine
 10
739.8316167102345
 20
-102.966300821328
 30
0.0
 11
739.8316167102345
 21
-83.96630082132793
 31
0.0
  0
LINE
  5
2BE4
330
26
100
AcDbEntity
  8
0
  6
Continuous
100
AcDbLine
 10
762.9183060727277
 20
-98.9823721729266
 30
0.0
 11
763.1016394696278
 21
-99.91854251252664
 31
0.0
  0
LINE
  5
2BE5
330
26
100
AcDbEntity
  8
0
  6
Continuous
100
AcDbLine
 10
783.4238658660347
 20
-133.2406166020279
 30
0.0
 11
782.0238658660346
 21
-132.4323262251279
 31
0.0
  0
LINE
  5
2BE6
330
26
100
AcDbEntity
  8
0
  6
Continuous
100
AcDbLine
 10
779.2377059968345
 20
-128.8237360746279
 30
0.0
 11
776.0238658660346
 21
-126.9682246100279
 31
0.0
  0
LINE
  5
2BE7
330
26
100
AcDbEntity
  8
0
  6
Continuous
100
AcDbLine
 10
774.5238658660346
 20
-124.3701483986279
 30
0.0
 11
755.5238658660345
 21
-124.3701483986279
 31
0.0
  0
LINE
  5
2BE8
330
26
100
AcDbEntity
  8
0
  6
Continuous
100
AcDbLine
 10
763.1016394696278
 20
-100.3866275631265
 30
0.0
 11
762.9183060727277
 21
-101.3227977835266
 31
0.0
  0
LINE
  5
2BE9
330
26
100
AcDbEntity
  8
0
  6
Continuous
100
AcDbLine
 10
763.1016394696278
 20
-107.1738613926266
 30
0.0
 11
763.1016394696278
 21
-108.3440741383266
 31
0.0
  0
LINE
  5
2BEA
330
26
100
AcDbEntity
  8
0
  6
Continuous
100
AcDbLine
 10
763.1016394696278
 20
-99.91854251252664
 30
0.0
 11
763.1016394696278
 21
-100.3866275631265
 31
0.0
  0
LINE
  5
2BEB
330
26
100
AcDbEntity
  8
0
  6
Continuous
100
AcDbLine
 10
762.0016395650277
 20
-99.91854251252664
 30
0.0
 11
762.0016395650277
 21
-100.3866275631265
 31
0.0
  0
LINE
  5
2BEC
330
26
100
AcDbEntity
  8
0
  6
Continuous
100
AcDbLine
 10
776.0238658660346
 20
-126.9682246100279
 30
0.0
 11
755.5238658660345
 21
-126.9682244707264
 31
0.0
  0
LINE
  5
2BED
330
26
100
AcDbEntity
  8
0
  6
Continuous
100
AcDbLine
 10
724.0445887446344
 20
-80.48702369992795
 30
0.0
 11
722.5238658660345
 21
-78.96630082132793
 31
0.0
  0
LINE
  5
2BEE
330
26
100
AcDbEntity
  8
0
  6
Continuous
100
AcDbLine
 10
757.9683060251277
 20
-107.1738613926266
 30
0.0
 11
762.5516392789277
 21
-102.0249254190266
 31
0.0
  0
LINE
  5
2BEF
330
26
100
AcDbEntity
  8
0
  6
Continuous
100
AcDbLine
 10
756.5016393862279
 20
-107.1738613926266
 30
0.0
 11
761.6349727712276
 21
-101.3227977835266
 31
0.0
  0
LINE
  5
2BF0
330
26
100
AcDbEntity
  8
0
  6
Continuous
100
AcDbLine
 10
762.9183060727277
 20
-101.3227977835266
 30
0.0
 11
762.5516392789277
 21
-102.0249254190266
 31
0.0
  0
LINE
  5
2BF1
330
26
100
AcDbEntity
  8
0
  6
Continuous
100
AcDbLine
 10
762.0016395650277
 20
-100.3866275631265
 30
0.0
 11
761.6349727712276
 21
-101.3227977835266
 31
0.0
  0
LINE
  5
2BF2
330
26
100
AcDbEntity
  8
0
  6
Continuous
100
AcDbLine
 10
756.5016393862279
 20
-108.3440741383266
 30
0.0
 11
756.5016393862279
 21
-107.1738613926266
 31
0.0
  0
LINE
  5
2BF3
330
26
100
AcDbEntity
  8
0
  6
Continuous
100
AcDbLine
 10
755.5238658660345
 20
-128.8237360746279
 30
0.0
 11
779.2377059968345
 21
-128.8237360746279
 31
0.0
  0
LINE
  5
2BF4
330
26
100
AcDbEntity
  8
0
  6
Continuous
100
AcDbLine
 10
755.5238658660345
 20
-130.6280311499279
 30
0.0
 11
780.6307859314347
 21
-130.6280311499279
 31
0.0
  0
LINE
  5
2BF5
330
26
100
AcDbEntity
  8
0
  6
Continuous
100
AcDbLine
 10
758.5183059774276
 20
-98.74832952842661
 30
0.0
 11
757.9683060251277
 21
-99.21641481752658
 31
0.0
  0
LINE
  5
2BF6
330
26
100
AcDbEntity
  8
0
  6
Continuous
100
AcDbLine
 10
757.9683060251277
 20
-99.21641481752658
 30
0.0
 11
757.6016394696278
 21
-99.91854251252664
 31
0.0
  0
LINE
  5
2BF7
330
26
100
AcDbEntity
  8
0
  6
Continuous
100
AcDbLine
 10
756.8683060012276
 20
-98.9823721729266
 30
0.0
 11
756.6849727235275
 21
-99.91854251252664
 31
0.0
  0
LINE
  5
2BF9
330
26
100
AcDbEntity
  8
0
  6
Continuous
100
AcDbLine
 10
772.1866652733347
 20
-132.4323262251279
 30
0.0
 11
765.0376570253347
 21
-132.4323262251279
 31
0.0
  0
LINE
  5
2BFA
330
26
100
AcDbEntity
  8
0
  6
Continuous
100
AcDbLine
 10
782.0238658660346
 20
-132.4323262251279
 30
0.0
 11
781.7004564326346
 21
-132.4323262251279
 31
0.0
  0
LINE
  5
2BFB
330
26
100
AcDbEntity
  8
0
  6
Continuous
100
AcDbLine
 10
783.4029242532347
 20
-133.2406166020279
 30
0.0
 11
783.4238658660347
 21
-133.2406166020279
 31
0.0
  0
LINE
  5
2BFC
330
26
100
AcDbEntity
  8
0
  6
Continuous
100
AcDbLine
 10
768.5266646509344
 20
-133.2406166020279
 30
0.0
 11
770.4000930740344
 21
-133.2406166020279
 31
0.0
  0
LINE
  5
2BFD
330
26
100
AcDbEntity
  8
0
  6
Continuous
100
AcDbLine
 10
784.1356942783345
 20
-134.9726674101279
 30
0.0
 11
784.4238658660347
 21
-134.9726674096279
 31
0.0
  0
LINE
  5
2BFE
330
26
100
AcDbEntity
  8
0
  6
Continuous
100
AcDbLine
 10
768.0606118553346
 20
-134.9726675340279
 30
0.0
 11
771.5989482890345
 21
-134.9726675319279
 31
0.0
  0
LINE
  5
2BFF
330
26
100
AcDbEntity
  8
0
  6
Continuous
100
AcDbLine
 10
758.3349728189277
 20
-97.57811678282663
 30
0.0
 11
757.6016394696278
 21
-98.0462020718266
 31
0.0
  0
LINE
  5
2C00
330
26
100
AcDbEntity
  8
0
  6
Continuous
100
AcDbLine
 10
757.6016394696278
 20
-98.0462020718266
 30
0.0
 11
756.8683060012276
 21
-98.9823721729266
 31
0.0
  0
LINE
  5
2C01
330
26
100
AcDbEntity
  8
0
  6
Continuous
100
AcDbLine
 10
748.4349724851276
 20
-98.9823721729266
 30
0.0
 11
748.4349724851276
 21
-100.8547126137266
 31
0.0
  0
LINE
  5
2C02
330
26
100
AcDbEntity
  8
0
  6
Continuous
100
AcDbLine
 10
748.4349724851276
 20
-100.8547126137266
 30
0.0
 11
749.5349728666278
 21
-99.21641481752658
 31
0.0
  0
LINE
  5
2C03
330
26
100
AcDbEntity
  8
0
  6
Continuous
100
AcDbLine
 10
749.5349728666278
 20
-97.34407413832663
 30
0.0
 11
748.4349724851276
 21
-98.9823721729266
 31
0.0
  0
LINE
  5
2C04
330
26
100
AcDbEntity
  8
0
  6
Continuous
100
AcDbLine
 10
764.6786460381345
 20
-134.1643770327278
 30
0.0
 11
765.0376567100348
 21
-132.4323277454279
 31
0.0
  0
LINE
  5
2C05
330
26
100
AcDbEntity
  8
0
  6
Continuous
100
AcDbLine
 10
768.0606118553346
 20
-134.9726674028279
 30
0.0
 11
768.0606118553346
 21
-150.8389585537279
 31
0.0
  0
LINE
  5
2C06
330
26
100
AcDbEntity
  8
0
  6
Continuous
100
AcDbLine
 10
768.9927119288345
 20
-134.9726675340279
 30
0.0
 11
768.9927119288345
 21
-150.7146347715279
 31
0.0
  0
LINE
  5
2C07
330
26
100
AcDbEntity
  8
0
  6
Continuous
100
AcDbLine
 10
770.9332938841346
 20
-150.7146347715279
 30
0.0
 11
770.9332938841346
 21
-134.9726675319279
 31
0.0
  0
LINE
  5
2C08
330
26
100
AcDbEntity
  8
0
  6
Continuous
100
AcDbLine
 10
768.0606118025345
 20
-134.9726675340279
 30
0.0
 11
768.5266618904348
 21
-133.2406165392279
 31
0.0
  0
LINE
  5
2C09
330
26
100
AcDbEntity
  8
0
  6
Continuous
100
AcDbLine
 10
771.5989482890345
 20
-150.8389585537279
 30
0.0
 11
771.5989482890345
 21
-134.9726674029279
 31
0.0
  0
LINE
  5
2C0A
330
26
100
AcDbEntity
  8
0
  6
Continuous
100
AcDbLine
 10
774.5238658660346
 20
-124.3701483986279
 30
0.0
 11
774.5238658660346
 21
-102.9663008213279
 31
0.0
  0
LINE
  5
2C0B
330
26
100
AcDbEntity
  8
0
  6
Continuous
100
AcDbLine
 10
770.9332938841346
 20
-150.7146347715279
 30
0.0
 11
768.9927119288345
 21
-150.7146347715279
 31
0.0
  0
LINE
  5
2C0C
330
26
100
AcDbEntity
  8
0
  6
Continuous
100
AcDbLine
 10
784.4238658660347
 20
-150.7146347715279
 30
0.0
 11
784.4021399469345
 21
-150.7146347715279
 31
0.0
  0
LINE
  5
2C0D
330
26
100
AcDbEntity
  8
0
  6
Continuous
100
AcDbLine
 10
755.5238658660345
 20
-152.9127109828278
 30
0.0
 11
780.6166861890346
 21
-152.9127109828278
 31
0.0
  0
LINE
  5
2C0E
330
26
100
AcDbEntity
  8
0
  6
Continuous
100
AcDbLine
 10
755.5238658660345
 20
-152.966300821328
 30
0.0
 11
780.4166861890346
 21
-152.9663008213279
 31
0.0
  0
LINE
  5
2C0F
330
26
100
AcDbEntity
  8
0
  6
Continuous
100
AcDbLine
 10
784.1356942783345
 20
-134.9726674095279
 30
0.0
 11
784.1356942783345
 21
-150.8389585537279
 31
0.0
  0
LINE
  5
2C10
330
26
100
AcDbEntity
  8
0
  6
Continuous
100
AcDbLine
 10
784.4021399469345
 20
-134.9726674101279
 30
0.0
 11
784.4021399469345
 21
-150.7146347715279
 31
0.0
  0
LINE
  5
2C11
330
26
100
AcDbEntity
  8
0
  6
Continuous
100
AcDbLine
 10
784.4238658660347
 20
-150.7146347715279
 30
0.0
 11
784.4238658660347
 21
-134.9726674096279
 31
0.0
  0
LINE
  5
2C12
330
26
100
AcDbEntity
  8
0
  6
Continuous
100
AcDbLine
 10
780.6166861890346
 20
-152.9127109828278
 30
0.0
 11
784.4075714267347
 21
-150.7240423704279
 31
0.0
  0
LEADER
  5
3C1A
330
26
100
AcDbEntity
  8
0
  6
Continuous
100
AcDbLeader
  3
dimensionali
 76
     3
 10
4742.343203675238
 20
155.8380403142116
 30
0.0
 10
4757.902017335047
 20
136.8901693944412
 30
0.0
 10
4783.479369618905
 20
136.7947445882755
 30
0.0
  0
TEXT
  5
3C1B
330
26
100
AcDbEntity
  8
0
100
AcDbText
 10
4784.238716156438
 20
235.8641573906574
 30
0.0
 40
8.0
  1
Ex'
100
AcDbText
  0
ENDSEC
  0
SECTION
  2
OBJECTS
  0
DICTIONARY
  5
593
330
0
100
AcDbDictionary
281
     1
  3
ACAD_COLOR
350
618
  3
ACAD_GROUP
350
594
  3
ACAD_LAYOUT
350
619
  3
ACAD_MATERIAL
350
617
  3
ACAD_MLINESTYLE
350
595
  3
ACAD_PLOTSETTINGS
350
61A
  3
ACAD_PLOTSTYLENAME
350
615
  3
AcadDim
350
3268
  3
ACDBHEADERROUNDTRIPXREC
350
5F06
  3
AcDbVariableDictionary
350
5EFE
  0
DICTIONARY
  5
618
102
{ACAD_REACTORS
330
593
102
}
330
593
100
AcDbDictionary
281
     1
  0
DICTIONARY
  5
594
102
{ACAD_REACTORS
330
593
102
}
330
593
100
AcDbDictionary
281
     1
  0
DICTIONARY
  5
619
102
{ACAD_REACTORS
330
593
102
}
330
593
100
AcDbDictionary
281
     1
  3
Layout1
350
61C
  3
Model
350
61B
  0
DICTIONARY
  5
617
102
{ACAD_REACTORS
330
593
102
}
330
593
100
AcDbDictionary
281
     1
  0
DICTIONARY
  5
595
102
{ACAD_REACTORS
330
593
102
}
330
593
100
AcDbDictionary
281
     1
  3
STANDARD
350
596
  0
DICTIONARY
  5
61A
102
{ACAD_REACTORS
330
593
102
}
330
593
100
AcDbDictionary
281
     1
  0
ACDBDICTIONARYWDFLT
  5
615
102
{ACAD_REACTORS
330
593
102
}
330
593
100
AcDbDictionary
281
     1
  3
Normal
350
616
100
AcDbDictionaryWithDefault
340
616
  0
XRECORD
  5
3268
102
{ACAD_REACTORS
330
593
102
}
330
593
100
AcDbXrecord
280
     1
 90
   990106
  3

 60
     0
 61
     0
 62
     1
 63
     3
 64
     0
 65
     0
 66
     0
 67
     3
 68
     1
 69
     0
 70
     0
 71
     0
 72
     0
 40
25.0445657995416
170
     0
  0
DICTIONARY
  5
5F06
102
{ACAD_REACTORS
330
593
102
}
330
593
100
AcDbDictionary
281
     1
  3
COLORDICT
350
5F07
  3
MATERIALDICT
350
5F08
  0
DICTIONARY
  5
5EFE
102
{ACAD_REACTORS
330
593
102
}
330
593
100
AcDbDictionary
281
     1
  0
LAYOUT
  5
61C
102
{ACAD_REACTORS
330
619
102
}
330
619
100
AcDbPlotSettings
  1

  2
\\alderaan\HP LaserJet 4050 Ricerca
  4

  6

 40
0.0
 41
0.0
 42
0.0
 43
0.0
 44
0.0
 45
0.0
 46
0.0
 47
0.0
 48
0.0
 49
0.0
140
0.0
141
0.0
142
1.0
143
1.0
 70
   688
 72
     0
 73
     0
 74
     5
  7

 75
    16
147
1.0
148
0.0
149
0.0
100
AcDbLayout
  1
Layout1
 70
     0
 71
     1
 10
0.0
 20
0.0
 11
12.0
 21
9.0
 12
0.0
 22
0.0
 32
0.0
 14
1.000000000000000E+20
 24
1.000000000000000E+20
 34
1.000000000000000E+20
 15
-1.000000000000000E+20
 25
-1.000000000000000E+20
 35
-1.000000000000000E+20
146
0.0
 13
0.0
 23
0.0
 33
0.0
 16
1.0
 26
0.0
 36
0.0
 17
0.0
 27
1.0
 37
0.0
 76
     0
330
27
  0
LAYOUT
  5
61B
102
{ACAD_REACTORS
330
619
102
}
330
619
100
AcDbPlotSettings
  1

  2
\\alderaan\HP LaserJet 4050 Ricerca
  4
A4
  6

 40
5.027083396911621
 41
5.069430828094482
 42
5.365737915039062
 43
5.365753173828125
 44
209.8886566162109
 45
297.0530090332031
 46
0.254
 47
0.0
 48
259.215225634116
 49
-488.3976836719121
140
1317.037973125747
141
245.6809236204426
142
1.0
143
93.74398742770123
 70
 11956
 72
     0
 73
     1
 74
     4
  7

 75
     0
147
0.0106673508076583
148
-6584.066731106545
149
12405.30116526656
100
AcDbLayout
  1
Model
 70
     1
 71
     0
 10
0.0
 20
0.0
 11
12.0
 21
9.0
 12
0.0
 22
0.0
 32
0.0
 14
0.0
 24
0.0
 34
0.0
 15
0.0
 25
0.0
 35
0.0
146
0.0
 13
0.0
 23
0.0
 33
0.0
 16
1.0
 26
0.0
 36
0.0
 17
0.0
 27
1.0
 37
0.0
 76
     0
330
26
  0
MLINESTYLE
  5
596
102
{ACAD_REACTORS
330
595
102
}
330
595
100
AcDbMlineStyle
  2
STANDARD
 70
     0
  3

 62
     0
 51
90.00000000000019
 52
90.00000000000019
 71
     2
 49
0.5
 62
   256
  6
BYLAYER
 49
-0.5
 62
   256
  6
BYLAYER
  0
ACDBPLACEHOLDER
  5
616
102
{ACAD_REACTORS
330
615
102
}
330
615
  0
XRECORD
  5
5F07
102
{ACAD_REACTORS
330
5F06
102
}
330
5F06
100
AcDbXrecord
280
     1
340
618
  0
XRECORD
  5
5F08
102
{ACAD_REACTORS
330
5F06
102
}
330
5F06
100
AcDbXrecord
280
     1
340
617
  0
ENDSEC
  0
EOF
