  0
SECTION
  2
HEADER
  9
$ACADVER
  1
AC1015
  9
$ACADMAINTVER
 70
     6
  9
$DWGCODEPAGE
  3
ANSI_1252
  9
$INSBASE
 10
0.0
 20
0.0
 30
0.0
  9
$EXTMIN
 10
80.46286980856489
 20
-370.773169833776
 30
-18.8
  9
$EXTMAX
 10
1760.060663696097
 20
334.946701594559
 30
1.038894055499999
  9
$LIMMIN
 10
0.0
 20
0.0
  9
$LIMMAX
 10
420.0
 20
297.0
  9
$ORTHOMODE
 70
     0
  9
$REGENMODE
 70
     1
  9
$FILLMODE
 70
     1
  9
$QTEXTMODE
 70
     0
  9
$MIRRTEXT
 70
     1
  9
$LTSCALE
 40
23.1
  9
$ATTMODE
 70
     1
  9
$TEXTSIZE
 40
35.06651165617814
  9
$TRACEWID
 40
0.05
  9
$TEXTSTYLE
  7
STANDARD
  9
$CLAYER
  8
0
  9
$CELTYPE
  6
BYLAYER
  9
$CECOLOR
 62
   256
  9
$CELTSCALE
 40
1.0
  9
$DISPSILH
 70
     0
  9
$DIMSCALE
 40
1.0
  9
$DIMASZ
 40
0.18
  9
$DIMEXO
 40
0.0625
  9
$DIMDLI
 40
0.38
  9
$DIMRND
 40
0.0
  9
$DIMDLE
 40
0.0
  9
$DIMEXE
 40
0.18
  9
$DIMTP
 40
0.003
  9
$DIMTM
 40
0.003
  9
$DIMTXT
 40
1.5
  9
$DIMCEN
 40
0.09
  9
$DIMTSZ
 40
0.0
  9
$DIMTOL
 70
     1
  9
$DIMLIM
 70
     0
  9
$DIMTIH
 70
     1
  9
$DIMTOH
 70
     1
  9
$DIMSE1
 70
     0
  9
$DIMSE2
 70
     0
  9
$DIMTAD
 70
     0
  9
$DIMZIN
 70
     0
  9
$DIMBLK
  1

  9
$DIMASO
 70
     1
  9
$DIMSHO
 70
     1
  9
$DIMPOST
  1

  9
$DIMAPOST
  1

  9
$DIMALT
 70
     0
  9
$DIMALTD
 70
     2
  9
$DIMALTF
 40
25.4
  9
$DIMLFAC
 40
1.0
  9
$DIMTOFL
 70
     0
  9
$DIMTVP
 40
0.0
  9
$DIMTIX
 70
     0
  9
$DIMSOXD
 70
     0
  9
$DIMSAH
 70
     0
  9
$DIMBLK1
  1

  9
$DIMBLK2
  1

  9
$DIMSTYLE
  2
STANDARD
  9
$DIMCLRD
 70
     0
  9
$DIMCLRE
 70
     0
  9
$DIMCLRT
 70
     0
  9
$DIMTFAC
 40
1.0
  9
$DIMGAP
 40
0.09
  9
$DIMJUST
 70
     0
  9
$DIMSD1
 70
     0
  9
$DIMSD2
 70
     0
  9
$DIMTOLJ
 70
     1
  9
$DIMTZIN
 70
     0
  9
$DIMALTZ
 70
     0
  9
$DIMALTTZ
 70
     0
  9
$DIMUPT
 70
     0
  9
$DIMDEC
 70
     4
  9
$DIMTDEC
 70
     4
  9
$DIMALTU
 70
     2
  9
$DIMALTTD
 70
     2
  9
$DIMTXSTY
  7
STANDARD
  9
$DIMAUNIT
 70
     0
  9
$DIMADEC
 70
     0
  9
$DIMALTRND
 40
0.0
  9
$DIMAZIN
 70
     0
  9
$DIMDSEP
 70
    46
  9
$DIMATFIT
 70
     0
  9
$DIMFRAC
 70
     0
  9
$DIMLDRBLK
  1

  9
$DIMLUNIT
 70
     2
  9
$DIMLWD
 70
    -2
  9
$DIMLWE
 70
    -2
  9
$DIMTMOVE
 70
     0
  9
$LUNITS
 70
     2
  9
$LUPREC
 70
     4
  9
$SKETCHINC
 40
0.1
  9
$FILLETRAD
 40
0.0
  9
$AUNITS
 70
     0
  9
$AUPREC
 70
     0
  9
$MENU
  1
acad
  9
$ELEVATION
 40
0.0
  9
$PELEVATION
 40
0.0
  9
$THICKNESS
 40
0.0
  9
$LIMCHECK
 70
     0
  9
$CHAMFERA
 40
0.0
  9
$CHAMFERB
 40
0.0
  9
$CHAMFERC
 40
0.0
  9
$CHAMFERD
 40
0.0
  9
$SKPOLY
 70
     0
  9
$TDCREATE
 40
2444972.041666667
  9
$TDUCREATE
 40
2444972.0
  9
$TDUPDATE
 40
2453410.425688055
  9
$TDUUPDATE
 40
2453410.384021389
  9
$TDINDWG
 40
2.3154065972
  9
$TDUSRTIMER
 40
2.3154065972
  9
$USRTIMER
 70
     1
  9
$ANGBASE
 50
0.0
  9
$ANGDIR
 70
     0
  9
$PDMODE
 70
     0
  9
$PDSIZE
 40
0.0
  9
$PLINEWID
 40
0.0
  9
$SPLFRAME
 70
     0
  9
$SPLINETYPE
 70
     6
  9
$SPLINESEGS
 70
     8
  9
$HANDSEED
  5
5E37
  9
$SURFTAB1
 70
     6
  9
$SURFTAB2
 70
     6
  9
$SURFTYPE
 70
     6
  9
$SURFU
 70
     6
  9
$SURFV
 70
     6
  9
$UCSBASE
  2

  9
$UCSNAME
  2

  9
$UCSORG
 10
0.0
 20
0.0
 30
0.0
  9
$UCSXDIR
 10
1.0
 20
0.0
 30
0.0
  9
$UCSYDIR
 10
0.0
 20
1.0
 30
0.0
  9
$UCSORTHOREF
  2

  9
$UCSORTHOVIEW
 70
     0
  9
$UCSORGTOP
 10
0.0
 20
0.0
 30
0.0
  9
$UCSORGBOTTOM
 10
0.0
 20
0.0
 30
0.0
  9
$UCSORGLEFT
 10
0.0
 20
0.0
 30
0.0
  9
$UCSORGRIGHT
 10
0.0
 20
0.0
 30
0.0
  9
$UCSORGFRONT
 10
0.0
 20
0.0
 30
0.0
  9
$UCSORGBACK
 10
0.0
 20
0.0
 30
0.0
  9
$PUCSBASE
  2

  9
$PUCSNAME
  2

  9
$PUCSORG
 10
0.0
 20
0.0
 30
0.0
  9
$PUCSXDIR
 10
1.0
 20
0.0
 30
0.0
  9
$PUCSYDIR
 10
0.0
 20
1.0
 30
0.0
  9
$PUCSORTHOREF
  2

  9
$PUCSORTHOVIEW
 70
     0
  9
$PUCSORGTOP
 10
0.0
 20
0.0
 30
0.0
  9
$PUCSORGBOTTOM
 10
0.0
 20
0.0
 30
0.0
  9
$PUCSORGLEFT
 10
0.0
 20
0.0
 30
0.0
  9
$PUCSORGRIGHT
 10
0.0
 20
0.0
 30
0.0
  9
$PUCSORGFRONT
 10
0.0
 20
0.0
 30
0.0
  9
$PUCSORGBACK
 10
0.0
 20
0.0
 30
0.0
  9
$USERI1
 70
     0
  9
$USERI2
 70
     0
  9
$USERI3
 70
     0
  9
$USERI4
 70
     0
  9
$USERI5
 70
     0
  9
$USERR1
 40
0.0
  9
$USERR2
 40
0.0
  9
$USERR3
 40
0.0
  9
$USERR4
 40
0.0
  9
$USERR5
 40
0.0
  9
$WORLDVIEW
 70
     1
  9
$SHADEDGE
 70
     3
  9
$SHADEDIF
 70
    70
  9
$TILEMODE
 70
     1
  9
$MAXACTVP
 70
    16
  9
$PINSBASE
 10
0.0
 20
0.0
 30
0.0
  9
$PLIMCHECK
 70
     0
  9
$PEXTMIN
 10
1.000000000000000E+20
 20
1.000000000000000E+20
 30
1.000000000000000E+20
  9
$PEXTMAX
 10
-1.000000000000000E+20
 20
-1.000000000000000E+20
 30
-1.000000000000000E+20
  9
$PLIMMIN
 10
0.0
 20
0.0
  9
$PLIMMAX
 10
12.0
 20
9.0
  9
$UNITMODE
 70
     0
  9
$VISRETAIN
 70
     0
  9
$PLINEGEN
 70
     1
  9
$PSLTSCALE
 70
     0
  9
$TREEDEPTH
 70
  3020
  9
$CMLSTYLE
  2
STANDARD
  9
$CMLJUST
 70
     0
  9
$CMLSCALE
 40
1.0
  9
$PROXYGRAPHICS
 70
     1
  9
$MEASUREMENT
 70
     0
  9
$CELWEIGHT
370
    -1
  9
$ENDCAPS
280
     0
  9
$JOINSTYLE
280
     0
  9
$LWDISPLAY
290
     0
  9
$INSUNITS
 70
     0
  9
$HYPERLINKBASE
  1

  9
$STYLESHEET
  1

  9
$XEDIT
290
     1
  9
$CEPSNTYPE
380
     0
  9
$PSTYLEMODE
290
     1
  9
$FINGERPRINTGUID
  2
{9C19D7CE-BE25-492F-B456-B99F77E59DF7}
  9
$VERSIONGUID
  2
{DDA44746-75F2-4FAD-8804-29233A70F81A}
  9
$EXTNAMES
290
     1
  9
$PSVPSCALE
 40
0.0
  9
$OLESTARTUP
290
     0
  0
ENDSEC
  0
SECTION
  2
CLASSES
  0
CLASS
  1
IMAGE
  2
AcDbRasterImage
  3
ISM
 90
      127
280
     0
281
     1
  0
CLASS
  1
DICTIONARYVAR
  2
AcDbDictionaryVar
  3
ObjectDBX Classes
 90
        0
280
     0
281
     0
  0
CLASS
  1
RASTERVARIABLES
  2
AcDbRasterVariables
  3
ISM
 90
        0
280
     0
281
     0
  0
CLASS
  1
IMAGEDEF
  2
AcDbRasterImageDef
  3
ISM
 90
        0
280
     0
281
     0
  0
CLASS
  1
IMAGEDEF_REACTOR
  2
AcDbRasterImageDefReactor
  3
ISM
 90
        1
280
     0
281
     0
  0
CLASS
  1
IDBUFFER
  2
AcDbIdBuffer
  3
ObjectDBX Classes
 90
        0
280
     0
281
     0
  0
CLASS
  1
SPATIAL_FILTER
  2
AcDbSpatialFilter
  3
ObjectDBX Classes
 90
        0
280
     0
281
     0
  0
CLASS
  1
SORTENTSTABLE
  2
AcDbSortentsTable
  3
ObjectDBX Classes
 90
        0
280
     0
281
     0
  0
CLASS
  1
LAYER_INDEX
  2
AcDbLayerIndex
  3
ObjectDBX Classes
 90
        0
280
     0
281
     0
  0
CLASS
  1
SPATIAL_INDEX
  2
AcDbSpatialIndex
  3
AutoCAD 2000
 90
        0
280
     0
281
     0
  0
CLASS
  1
OBJECT_PTR
  2
CAseDLPNTableRecord
  3
ASE-LPNTableRecord
 90
        1
280
     0
281
     0
  0
CLASS
  1
PLOTSETTINGS
  2
AcDbPlotSettings
  3
ObjectDBX Classes
 90
        0
280
     0
281
     0
  0
CLASS
  1
ACDBDICTIONARYWDFLT
  2
AcDbDictionaryWithDefault
  3
ObjectDBX Classes
 90
        0
280
     0
281
     0
  0
CLASS
  1
WIPEOUT
  2
AcDbWipeout
  3
WipeOut|AutoCAD Express Tool|expresstools@autodesk.com
 90
      127
280
     0
281
     1
  0
CLASS
  1
WIPEOUTVARIABLES
  2
AcDbWipeoutVariables
  3
WipeOut|AutoCAD Express Tool|expresstools@autodesk.com
 90
        0
280
     0
281
     0
  0
CLASS
  1
RTEXT
  2
RText
  3
RText|AutoCAD Express Tool|expresstools@autodesk.com
 90
        0
280
     0
281
     1
  0
CLASS
  1
ARCALIGNEDTEXT
  2
AcDbArcAlignedText
  3
ATEXT|AutoCAD Express Tool|expresstools@autodesk.com
 90
        0
280
     0
281
     1
  0
CLASS
  1
ACDBPLACEHOLDER
  2
AcDbPlaceHolder
  3
ObjectDBX Classes
 90
        0
280
     0
281
     0
  0
CLASS
  1
LAYOUT
  2
AcDbLayout
  3
ObjectDBX Classes
 90
        0
280
     0
281
     0
  0
ENDSEC
  0
SECTION
  2
TABLES
  0
TABLE
  2
VPORT
  5
6
330
0
100
AcDbSymbolTable
 70
     1
  0
VPORT
  5
5E2D
330
6
100
AcDbSymbolTableRecord
100
AcDbViewportTableRecord
  2
*Active
 70
     0
 10
0.0
 20
0.0
 11
1.0
 21
1.0
 12
1118.119975839175
 22
223.2291701601945
 13
0.0
 23
0.0
 14
1.0
 24
1.0
 15
0.0
 25
0.0
 16
0.0
 26
0.0
 36
1.0
 17
0.0
 27
0.0
 37
0.0
 40
267.3442762892995
 41
1.888667992047713
 42
50.0
 43
0.0
 44
0.0
 50
0.0
 51
0.0
 71
     0
 72
   100
 73
     1
 74
     1
 75
     0
 76
     0
 77
     0
 78
     0
281
     0
 65
     1
110
0.0
120
0.0
130
0.0
111
1.0
121
0.0
131
0.0
112
0.0
122
1.0
132
0.0
 79
     0
146
0.0
  0
ENDTAB
  0
TABLE
  2
LTYPE
  5
3
330
0
100
AcDbSymbolTable
 70
     2
  0
LTYPE
  5
C
330
3
100
AcDbSymbolTableRecord
100
AcDbLinetypeTableRecord
  2
BYBLOCK
 70
     0
  3

 72
    65
 73
     0
 40
0.0
  0
LTYPE
  5
D
330
3
100
AcDbSymbolTableRecord
100
AcDbLinetypeTableRecord
  2
BYLAYER
 70
     0
  3

 72
    65
 73
     0
 40
0.0
  0
LTYPE
  5
E
330
3
100
AcDbSymbolTableRecord
100
AcDbLinetypeTableRecord
  2
CONTINUOUS
 70
     0
  3
Solid line
 72
    65
 73
     0
 40
0.0
  0
LTYPE
  5
F
330
3
100
AcDbSymbolTableRecord
100
AcDbLinetypeTableRecord
  2
CENTER
 70
     0
  3
____ _ ____ _ ____ _ ____ _ ____ _ ____ _ ____
 72
    65
 73
     4
 40
0.6
 49
0.375
 74
     0
 49
-0.075
 74
     0
 49
0.075
 74
     0
 49
-0.075
 74
     0
  0
ENDTAB
  0
TABLE
  2
LAYER
  5
1
330
0
100
AcDbSymbolTable
 70
     2
  0
LAYER
  5
14
330
1
100
AcDbSymbolTableRecord
100
AcDbLayerTableRecord
  2
0
 70
     0
 62
     7
  6
CONTINUOUS
370
    -3
390
273
  0
LAYER
  5
27A
330
1
100
AcDbSymbolTableRecord
100
AcDbLayerTableRecord
  2
Defpoints
 70
     0
 62
     7
  6
CONTINUOUS
290
     0
370
    -3
390
273
  0
ENDTAB
  0
TABLE
  2
STYLE
  5
2
330
0
100
AcDbSymbolTable
 70
     1
  0
STYLE
  5
1B
330
2
100
AcDbSymbolTableRecord
100
AcDbTextStyleTableRecord
  2
STANDARD
 70
     0
 40
0.0
 41
1.0
 50
0.0
 71
     0
 42
35.06651165617814
  3
VERDANA.TTF
  4

1001
ACAD
1000
Verdana
1071
       34
  0
ENDTAB
  0
TABLE
  2
VIEW
  5
4
330
0
100
AcDbSymbolTable
 70
     0
  0
ENDTAB
  0
TABLE
  2
UCS
  5
5
330
0
100
AcDbSymbolTable
 70
     0
  0
ENDTAB
  0
TABLE
  2
APPID
  5
7
330
0
100
AcDbSymbolTable
 70
     1
  0
APPID
  5
19
330
7
100
AcDbSymbolTableRecord
100
AcDbRegAppTableRecord
  2
ACAD
 70
     0
  0
ENDTAB
  0
TABLE
  2
DIMSTYLE
  5
8
330
0
100
AcDbSymbolTable
 70
     1
100
AcDbDimStyleTable
  0
DIMSTYLE
105
28
330
8
100
AcDbSymbolTableRecord
100
AcDbDimStyleTableRecord
  2
STANDARD
 70
     0
 47
0.003
 48
0.003
 71
     1
140
1.5
289
     0
340
1B
  0
ENDTAB
  0
TABLE
  2
BLOCK_RECORD
  5
23
330
0
100
AcDbSymbolTable
 70
     0
  0
BLOCK_RECORD
  5
21
330
23
100
AcDbSymbolTableRecord
100
AcDbBlockTableRecord
  2
*MODEL_SPACE
340
276
  0
BLOCK_RECORD
  5
22
330
23
100
AcDbSymbolTableRecord
100
AcDbBlockTableRecord
  2
*PAPER_SPACE
340
277
  0
ENDTAB
  0
ENDSEC
  0
SECTION
  2
BLOCKS
  0
BLOCK
  5
24
330
21
100
AcDbEntity
  8
0
100
AcDbBlockBegin
  2
*MODEL_SPACE
 70
     0
 71
     0
 10
0.0
 20
0.0
 30
0.0
  3
*MODEL_SPACE
  1

  0
ENDBLK
  5
25
330
21
100
AcDbEntity
  8
0
100
AcDbBlockEnd
  0
BLOCK
  5
26
330
22
100
AcDbEntity
 67
     1
  8
0
100
AcDbBlockBegin
  2
*PAPER_SPACE
 70
     0
 71
     0
 10
0.0
 20
0.0
 30
0.0
  3
*PAPER_SPACE
  1

  0
ENDBLK
  5
27
330
22
100
AcDbEntity
 67
     1
  8
0
100
AcDbBlockEnd
  0
ENDSEC
  0
SECTION
  2
ENTITIES
  0
LINE
  5
DF5
330
21
100
AcDbEntity
  8
0
  6
Continuous
100
AcDbLine
 10
1068.893664773023
 20
179.6668151704452
 30
0.0
 11
1072.700844449923
 21
177.4687389590452
 31
0.0
  0
LINE
  5
DF6
330
21
100
AcDbEntity
  8
0
  6
Continuous
100
AcDbLine
 10
1051.793664773023
 20
227.4151491205453
 30
0.0
 11
1051.793664773023
 21
205.7808345455452
 31
0.0
  0
LINE
  5
DF7
330
21
100
AcDbEntity
  8
0
  6
Continuous
100
AcDbLine
 10
1052.793664773023
 20
227.4151491205453
 30
0.0
 11
1052.793664773023
 21
207.4151491205452
 31
0.0
  0
LINE
  5
DF8
330
21
100
AcDbEntity
  8
0
  6
Continuous
100
AcDbLine
 10
1072.900844449923
 20
177.4151491205452
 30
0.0
 11
1097.793664773023
 21
177.4151491205452
 31
0.0
  0
LINE
  5
DF9
330
21
100
AcDbEntity
  8
0
  6
Continuous
100
AcDbLine
 10
1076.393664773023
 20
178.0151491205452
 30
0.0
 11
1097.793664773023
 21
178.0151491205452
 31
0.0
  0
LINE
  5
DFA
330
21
100
AcDbEntity
  8
0
  6
Continuous
100
AcDbLine
 10
1097.793664773023
 20
178.2494636956452
 30
0.0
 11
1076.393664773023
 21
178.2494636956452
 31
0.0
  0
LINE
  5
DFB
330
21
100
AcDbEntity
  8
0
  6
Continuous
100
AcDbLine
 10
1097.793664773023
 20
178.5323064081452
 30
0.0
 11
1076.510822060523
 21
178.5323064081452
 31
0.0
  0
LINE
  5
DFC
330
21
100
AcDbEntity
  8
0
  6
Continuous
100
AcDbLine
 10
1076.833665688523
 20
178.8551491778452
 30
0.0
 11
1097.793664773023
 21
178.8551491778452
 31
0.0
  0
LINE
  5
DFD
330
21
100
AcDbEntity
  8
0
  6
Continuous
100
AcDbLine
 10
1057.193664773023
 20
227.4151491205453
 30
0.0
 11
1057.193664773023
 21
207.4151491205452
 31
0.0
  0
LINE
  5
DFE
330
21
100
AcDbEntity
  8
0
  6
Continuous
100
AcDbLine
 10
1078.876507485423
 20
180.8979918330452
 30
0.0
 11
1097.793664773023
 21
180.8979918330452
 31
0.0
  0
LINE
  5
DFF
330
21
100
AcDbEntity
  8
0
  6
Continuous
100
AcDbLine
 10
1078.993664773023
 20
181.1808345455452
 30
0.0
 11
1097.793664773023
 21
181.1808345455452
 31
0.0
  0
LINE
  5
E00
330
21
100
AcDbEntity
  8
0
  6
Continuous
100
AcDbLine
 10
1051.910822060523
 20
205.4979918330452
 30
0.0
 11
1053.876507485423
 21
203.5323064081453
 31
0.0
  0
LINE
  5
E01
330
21
100
AcDbEntity
  8
0
  6
Continuous
100
AcDbLine
 10
1058.193664773023
 20
208.4151491205453
 30
0.0
 11
1058.193664773023
 21
227.4151491205453
 31
0.0
  0
LINE
  5
E02
330
21
100
AcDbEntity
  8
0
  6
Continuous
100
AcDbLine
 10
1059.193664773023
 20
211.4151491205452
 30
0.0
 11
1059.193664773023
 21
227.4151491205453
 31
0.0
  0
LINE
  5
E03
330
21
100
AcDbEntity
  8
0
  6
Continuous
100
AcDbLine
 10
1066.479652245523
 20
205.1152091823452
 30
0.0
 11
1066.479652245523
 21
205.1151498835452
 31
0.0
  0
LINE
  5
E04
330
21
100
AcDbEntity
  8
0
  6
Continuous
100
AcDbLine
 10
1068.893664773023
 20
179.6668151704452
 30
0.0
 11
1068.893664773023
 21
195.4087825323452
 31
0.0
  0
LINE
  5
E05
330
21
100
AcDbEntity
  8
0
  6
Continuous
100
AcDbLine
 10
1059.372150223823
 20
211.4151491205452
 30
0.0
 11
1058.193664773023
 21
210.2366636697452
 31
0.0
  0
LINE
  5
E06
330
21
100
AcDbEntity
  8
0
  6
Continuous
100
AcDbLine
 10
1055.372150223823
 20
207.4151491205452
 30
0.0
 11
1052.682907498423
 21
204.7259063951452
 31
0.0
  0
LINE
  5
E07
330
21
100
AcDbEntity
  8
0
  6
Continuous
100
AcDbLine
 10
1076.833664773023
 20
196.4151491205452
 30
0.0
 11
1078.993664773023
 21
196.4151491205452
 31
0.0
  0
LINE
  5
E08
330
21
100
AcDbEntity
  8
0
  6
Continuous
100
AcDbLine
 10
1072.793664773023
 20
204.6151491205452
 30
0.0
 11
1072.793664773023
 21
200.5200279647452
 31
0.0
  0
LINE
  5
E09
330
21
100
AcDbEntity
  8
0
  6
Continuous
100
AcDbLine
 10
1072.690431606423
 20
199.7667360915452
 30
0.0
 11
1072.793664773023
 21
200.5200279647452
 31
0.0
  0
LINE
  5
E0A
330
21
100
AcDbEntity
  8
0
  6
Continuous
100
AcDbLine
 10
1066.791143519323
 20
205.5571923427452
 30
0.0
 11
1066.997809961423
 21
205.9151491205452
 31
0.0
  0
LINE
  5
E0B
330
21
100
AcDbEntity
  8
0
  6
Continuous
100
AcDbLine
 10
1064.096640549223
 20
211.4151491205452
 30
0.0
 11
1056.096640549223
 21
203.4151491205452
 31
0.0
  0
LINE
  5
E0C
330
21
100
AcDbEntity
  8
0
  6
Continuous
100
AcDbLine
 10
1097.793664773023
 20
197.8377988513452
 30
0.0
 11
1078.993664773023
 21
197.8377988513452
 31
0.0
  0
LINE
  5
E0D
330
21
100
AcDbEntity
  8
0
  6
Continuous
100
AcDbLine
 10
1097.793664773023
 20
198.7038242551452
 30
0.0
 11
1079.493664773023
 21
198.7038242551452
 31
0.0
  0
LINE
  5
E0E
330
21
100
AcDbEntity
  8
0
  6
Continuous
100
AcDbLine
 10
1081.793664773023
 20
200.0317298743452
 30
0.0
 11
1097.793664773023
 21
200.0317298743452
 31
0.0
  0
LINE
  5
E0F
330
21
100
AcDbEntity
  8
0
  6
Continuous
100
AcDbLine
 10
1076.393664773023
 20
178.0151491205452
 30
0.0
 11
1076.393664773023
 21
178.2494636956452
 31
0.0
  0
LINE
  5
E10
330
21
100
AcDbEntity
  8
0
  6
Continuous
100
AcDbLine
 10
1076.833664773023
 20
196.4151491205452
 30
0.0
 11
1076.833664773023
 21
178.8551491205452
 31
0.0
  0
LINE
  5
E11
330
21
100
AcDbEntity
  8
0
  6
Continuous
100
AcDbLine
 10
1077.793664773023
 20
211.4151491205452
 30
0.0
 11
1077.793664773023
 21
227.4151491205453
 31
0.0
  0
LINE
  5
E12
330
21
100
AcDbEntity
  8
0
  6
Continuous
100
AcDbLine
 10
1078.993664773023
 20
181.1808345455452
 30
0.0
 11
1078.993664773023
 21
197.8377988513452
 31
0.0
  0
LINE
  5
E13
330
21
100
AcDbEntity
  8
0
  6
Continuous
100
AcDbLine
 10
1072.686744707623
 20
199.7534187920452
 30
0.0
 11
1072.690431606423
 21
199.7667360915452
 31
0.0
  0
LINE
  5
E14
330
21
100
AcDbEntity
  8
0
  6
Continuous
100
AcDbLine
 10
1068.821130874623
 20
211.4151491205452
 30
0.0
 11
1060.821130874623
 21
203.4151491205452
 31
0.0
  0
LINE
  5
E15
330
21
100
AcDbEntity
  8
0
  6
Continuous
100
AcDbLine
 10
1082.293664773023
 20
200.8977552781452
 30
0.0
 11
1097.793664773023
 21
200.8977552781452
 31
0.0
  0
LINE
  5
E16
330
21
100
AcDbEntity
  8
0
  6
Continuous
100
AcDbLine
 10
1054.159350197923
 20
203.4151491205452
 30
0.0
 11
1064.793664773023
 21
203.4151491205452
 31
0.0
  0
LINE
  5
E17
330
21
100
AcDbEntity
  8
0
  6
Continuous
100
AcDbLine
 10
1082.293664773023
 20
200.8977552781452
 30
0.0
 11
1082.293664773023
 21
211.9151491205452
 31
0.0
  0
LINE
  5
E18
330
21
100
AcDbEntity
  8
0
  6
Continuous
100
AcDbLine
 10
1064.793664773023
 20
203.4151491205452
 30
0.0
 11
1066.314387651523
 21
204.9358719991452
 31
0.0
  0
LINE
  5
E19
330
21
100
AcDbEntity
  8
0
  6
Continuous
100
AcDbLine
 10
1073.545621200023
 20
211.4151491205452
 30
0.0
 11
1069.538000392523
 21
207.4075283130452
 31
0.0
  0
LINE
  5
E1A
330
21
100
AcDbEntity
  8
0
  6
Continuous
100
AcDbLine
 10
1066.479651687223
 20
205.1151491205452
 30
0.0
 11
1052.293664773023
 21
205.1151491205452
 31
0.0
  0
LINE
  5
E1B
330
21
100
AcDbEntity
  8
0
  6
Continuous
100
AcDbLine
 10
1057.193664773023
 20
207.4151491205452
 30
0.0
 11
1052.793664773023
 21
207.4151491205452
 31
0.0
  0
LINE
  5
E1C
330
21
100
AcDbEntity
  8
0
  6
Continuous
100
AcDbLine
 10
1069.595886172723
 20
207.4151491205452
 30
0.0
 11
1069.993664773023
 21
207.4151491205452
 31
0.0
  0
LINE
  5
E1D
330
21
100
AcDbEntity
  8
0
  6
Continuous
100
AcDbLine
 10
1078.770111525423
 20
211.9151491205452
 30
0.0
 11
1072.566889513823
 21
205.7119271089452
 31
0.0
  0
LINE
  5
E1E
330
21
100
AcDbEntity
  8
0
  6
Continuous
100
AcDbLine
 10
1082.293664773023
 20
210.7142120427452
 30
0.0
 11
1072.793664773023
 21
201.2142120427452
 31
0.0
  0
LINE
  5
E1F
330
21
100
AcDbEntity
  8
0
  6
Continuous
100
AcDbLine
 10
1077.793664773023
 20
211.4151491205452
 30
0.0
 11
1059.193664773023
 21
211.4151491205452
 31
0.0
  0
LINE
  5
E20
330
21
100
AcDbEntity
  8
0
  6
Continuous
100
AcDbLine
 10
1082.293664773023
 20
211.9151491205452
 30
0.0
 11
1077.793664773023
 21
211.9151491205452
 31
0.0
  0
LINE
  5
E21
330
21
100
AcDbEntity
  8
0
  6
Continuous
100
AcDbLine
 10
1082.293664773023
 20
205.9897217173452
 30
0.0
 11
1068.893664773023
 21
192.5897217173452
 31
0.0
  0
LINE
  5
E22
330
21
100
AcDbEntity
  8
0
  6
Continuous
100
AcDbLine
 10
1082.293664773023
 20
201.2652313919452
 30
0.0
 11
1080.058181548523
 21
199.0297481674452
 31
0.0
  0
LINE
  5
E23
330
21
100
AcDbEntity
  8
0
  6
Continuous
100
AcDbLine
 10
1079.020944774623
 20
197.9925113935452
 30
0.0
 11
1068.893664773023
 21
187.8652313919452
 31
0.0
  0
LINE
  5
E24
330
21
100
AcDbEntity
  8
0
  6
Continuous
100
AcDbLine
 10
1069.893664773023
 20
197.1408333399452
 30
0.0
 11
1071.293664773023
 21
197.9491237168452
 31
0.0
  0
LINE
  5
E25
330
21
100
AcDbEntity
  8
0
  6
CENTER
100
AcDbLine
 10
1097.793664773023
 20
257.2097703995123
 30
0.0
 11
1097.793664773023
 21
168.3140847774421
 31
0.0
  0
LINE
  5
E26
330
21
100
AcDbEntity
  8
0
  6
Continuous
100
AcDbLine
 10
1078.993664773023
 20
193.2407410665452
 30
0.0
 11
1068.893664773023
 21
183.1407410665452
 31
0.0
  0
LINE
  5
E27
330
21
100
AcDbEntity
  8
0
  6
Continuous
100
AcDbLine
 10
1079.493664773023
 20
198.7038242551452
 30
0.0
 11
1081.793664773023
 21
200.0317298743452
 31
0.0
  0
LINE
  5
E28
330
21
100
AcDbEntity
  8
0
  6
Continuous
100
AcDbLine
 10
1078.993664773023
 20
188.5162507411452
 30
0.0
 11
1069.686490852023
 21
179.2090768202452
 31
0.0
  0
LINE
  5
E29
330
21
100
AcDbEntity
  8
0
  6
Continuous
100
AcDbLine
 10
1078.993664773023
 20
183.7917604157452
 30
0.0
 11
1072.681697698423
 21
177.4797933412452
 31
0.0
  0
LINE
  5
E2A
330
21
100
AcDbEntity
  8
0
  6
Continuous
100
AcDbLine
 10
1076.510822060523
 20
178.5323064081452
 30
0.0
 11
1078.876507485423
 21
180.8979918330452
 31
0.0
  0
ARC
  5
E2B
330
21
100
AcDbEntity
  8
0
  6
Continuous
100
AcDbCircle
 10
1072.900844449923
 20
177.8151491205452
 30
0.0
 40
0.4
100
AcDbArc
 50
240.0000000092973
 51
270.0
  0
ARC
  5
E2C
330
21
100
AcDbEntity
  8
0
  6
Continuous
100
AcDbCircle
 10
1052.193664773023
 20
205.7808345455452
 30
0.0
 40
0.4
100
AcDbArc
 50
180.0000000002996
 51
225.0000000010018
  0
ARC
  5
E2D
330
21
100
AcDbEntity
  8
0
  6
Continuous
100
AcDbCircle
 10
1052.793664773023
 20
206.4151491205453
 30
0.0
 40
1.0
100
AcDbArc
 50
90.0
 51
179.9999999991011
  0
ARC
  5
E2E
330
21
100
AcDbEntity
  8
0
  6
Continuous
100
AcDbCircle
 10
1059.193664773023
 20
210.4151491205452
 30
0.0
 40
1.0
100
AcDbArc
 50
90.0
 51
180.0
  0
ARC
  5
E2F
330
21
100
AcDbEntity
  8
0
  6
Continuous
100
AcDbCircle
 10
1057.193664773023
 20
208.4151491205453
 30
0.0
 40
1.0
100
AcDbArc
 50
270.0
 51
0.000000000000007
  0
ARC
  5
E30
330
21
100
AcDbEntity
  8
0
  6
Continuous
100
AcDbCircle
 10
1070.893664773023
 20
195.4087825323452
 30
0.0
 40
2.0
100
AcDbArc
 50
119.9999999999997
 51
180.0
  0
ARC
  5
E31
330
21
100
AcDbEntity
  8
0
  6
Continuous
100
AcDbCircle
 10
1075.793664773023
 20
178.0151491205452
 30
0.0
 40
0.6
100
AcDbArc
 50
270.0000000066962
 51
0.000000000000007
  0
ARC
  5
E32
330
21
100
AcDbEntity
  8
0
  6
Continuous
100
AcDbCircle
 10
1076.793664773023
 20
178.2494636956452
 30
0.0
 40
0.4
100
AcDbArc
 50
134.999999991
 51
180.0000000002003
  0
ARC
  5
E33
330
21
100
AcDbEntity
  8
0
  6
Continuous
100
AcDbCircle
 10
1078.593664773023
 20
181.1808345455452
 30
0.0
 40
0.4
100
AcDbArc
 50
314.9999999994013
 51
0.000000000000007
  0
ARC
  5
E34
330
21
100
AcDbEntity
  8
0
  6
Continuous
100
AcDbCircle
 10
1079.993664773023
 20
197.8377988513452
 30
0.0
 40
1.0
100
AcDbArc
 50
119.9999999731954
 51
180.0000000013011
  0
ARC
  5
E35
330
21
100
AcDbEntity
  8
0
  6
Continuous
100
AcDbCircle
 10
1081.293664773023
 20
200.8977552781452
 30
0.0
 40
1.0
100
AcDbArc
 50
299.9999999603015
 51
0.000000000000007
  0
ARC
  5
E36
330
21
100
AcDbEntity
  8
0
  6
Continuous
100
AcDbCircle
 10
1054.159350197923
 20
203.8151491205452
 30
0.0
 40
0.4
100
AcDbArc
 50
224.9999999828002
 51
270.0000000001042
  0
ARC
  5
E37
330
21
100
AcDbEntity
  8
0
  6
Continuous
100
AcDbCircle
 10
1064.193067308023
 20
207.0571923427452
 30
0.0
 40
3.0
100
AcDbArc
 50
315.0000000000058
 51
330.0000000000027
  0
ARC
  5
E38
330
21
100
AcDbEntity
  8
0
  6
Continuous
100
AcDbCircle
 10
1069.595886172723
 20
204.4151491205453
 30
0.0
 40
3.0
100
AcDbArc
 50
90.0
 51
150.0000000000027
  0
ARC
  5
E39
330
21
100
AcDbEntity
  8
0
  6
Continuous
100
AcDbCircle
 10
1069.993664773023
 20
200.5200279647452
 30
0.0
 40
2.799999999999999
100
AcDbArc
 50
344.393278364399
 51
0.000000000000007
  0
ARC
  5
E3A
330
21
100
AcDbEntity
  8
0
  6
Continuous
100
AcDbCircle
 10
1075.579824642123
 20
198.9596376559452
 30
0.0
 40
3.0
100
AcDbArc
 50
164.3932825303025
 51
164.6571874945996
  0
ARC
  5
E3B
330
21
100
AcDbEntity
  8
0
  6
Continuous
100
AcDbCircle
 10
1069.793664773023
 20
200.5471999281452
 30
0.0
 40
3.0
100
AcDbArc
 50
300.0000000000006
 51
344.6571874948003
  0
ARC
  5
E3C
330
21
100
AcDbEntity
  8
0
  6
Continuous
100
AcDbCircle
 10
1069.993664775623
 20
204.6151491235452
 30
0.0
 40
2.799999999599999
100
AcDbArc
 50
0.0000009309993529
 51
89.99999947940601
  0
SPLINE
  5
E3D
330
21
100
AcDbEntity
  8
0
  6
Continuous
100
AcDbSpline
210
0.0
220
0.0
230
1.0
 70
    24
 71
     3
 72
    16
 73
    12
 74
    10
 42
0.0000000001
 43
0.0000000001
 44
0.0000000001
 40
0.0
 40
0.0
 40
0.0
 40
0.0
 40
0.2006907768750416
 40
0.9246413198765546
 40
2.26927555871741
 40
4.174544537950407
 40
6.567833280508213
 40
9.548421430664774
 40
13.18560470867589
 40
17.47082663048448
 40
21.92031021678303
 40
21.92031021678303
 40
21.92031021678303
 40
21.92031021678303
 10
1082.293664773023
 20
211.9151491205452
 30
0.0
 10
1082.340968042754
 20
211.9624523903138
 30
0.0
 10
1082.558908091819
 20
212.1803924395497
 30
0.0
 10
1083.093781470564
 20
212.7152658181049
 30
0.0
 10
1084.03042778447
 20
213.6519121321313
 30
0.0
 10
1085.360540885464
 20
214.982025233071
 30
0.0
 10
1087.07625202122
 20
216.6977363688478
 30
0.0
 10
1089.200179272024
 20
218.8216636196447
 30
0.0
 10
1091.770039449692
 20
221.3915237973095
 30
0.0
 10
1094.686121601927
 20
224.3076059495747
 30
0.0
 10
1096.744911434119
 20
226.3663957816832
 30
0.0
 10
1097.793664773023
 20
227.4151491205453
 30
0.0
 11
1082.293664773023
 21
211.9151491205452
 31
0.0
 11
1082.435574582223
 21
212.0570589298452
 31
0.0
 11
1082.947484920423
 21
212.5689692680452
 31
0.0
 11
1083.898284908923
 21
213.5197692565452
 31
0.0
 11
1085.245513524123
 21
214.8669978717452
 31
0.0
 11
1086.937824223323
 21
216.5593085709452
 31
0.0
 11
1089.045418316223
 21
218.6669026638452
 31
0.0
 11
1091.617295276523
 21
221.2387796241452
 31
0.0
 11
1094.647404756323
 21
224.2688891039453
 31
0.0
 11
1097.793664773023
 21
227.4151491205453
 31
0.0
  0
SPLINE
  5
E3E
330
21
100
AcDbEntity
  8
0
  6
Continuous
100
AcDbSpline
210
-3.900000000000000E-15
220
-1.0
230
-1.900000000000000E-15
 70
     8
 71
     3
 72
    16
 73
    12
 74
     0
 42
0.0000000001
 43
0.0000000001
 40
29.49350334575846
 40
29.49350334575846
 40
29.49350334575846
 40
29.49350334575846
 40
32.77055927313445
 40
36.04761520044752
 40
39.32467112771988
 40
42.60172705502001
 40
45.87878298236044
 40
49.15583890966061
 40
52.43289483698134
 40
55.70995076432026
 40
58.98700669158792
 40
58.98700669158792
 40
58.98700669158792
 40
58.98700669158792
 10
1097.793664773023
 20
196.4151491205452
 30
-17.76110594449999
 10
1096.699931553933
 20
196.4151491205452
 30
-17.7611059445023
 10
1094.512465115775
 20
196.4151491205452
 30
-17.56972729159787
 10
1091.330948960972
 20
196.4151491205452
 30
-16.71724576928213
 10
1088.345855510976
 20
196.4151491205452
 30
-15.32525292310767
 10
1085.647617633206
 20
196.4151491205452
 30
-13.43604375185275
 10
1083.319220221666
 20
196.4151491205452
 30
-11.10702092002498
 10
1081.427676934115
 20
196.4151491205453
 30
-8.408950607704197
 10
1080.044395132794
 20
196.4151491205452
 30
-5.423812316122173
 10
1079.159403548037
 20
196.4151491205452
 30
-2.242307961783973
 10
1079.04891103136
 20
196.4151491205452
 30
-0.0548399502533968
 10
1078.993664773023
 20
196.4151491205452
 30
1.038894055499999
  0
LINE
  5
E3F
330
21
100
AcDbEntity
  8
0
100
AcDbLine
 10
1051.793664773023
 20
227.4151491205453
 30
0.0
 11
1051.793664773023
 21
227.4151491205453
 31
0.0
  0
SPLINE
  5
E43
330
21
100
AcDbEntity
  8
0
  6
Continuous
100
AcDbSpline
210
0.0
220
0.0
230
1.0
 70
    24
 71
     3
 72
     8
 73
     4
 74
     0
 42
0.0000000001
 43
0.0000000001
 40
3.543704776380526
 40
3.543704776380526
 40
3.543704776380526
 40
3.543704776380526
 40
3.543710404479413
 40
3.543710404479413
 40
3.543710404479413
 40
3.543710404479413
 10
1097.793660514116
 20
227.4151448610441
 30
0.0
 10
1097.793661740318
 20
227.4151462808778
 30
0.0
 10
1097.793662966521
 20
227.4151477007115
 30
0.0
 10
1097.793664192723
 20
227.4151491205453
 30
0.0
  0
SPLINE
  5
E45
330
21
100
AcDbEntity
  8
0
  6
Continuous
100
AcDbSpline
210
0.0
220
0.0
230
1.0
 70
     8
 71
     3
 72
    11
 73
     7
 74
     0
 42
0.0000000001
 43
0.0000000001
 40
9.314152578082233
 40
9.314152578082233
 40
9.314152578082233
 40
9.314152578082233
 40
10.6037256342653
 40
13.04445540921954
 40
15.77767405980869
 40
18.62823013610704
 40
18.62823013610704
 40
18.62823013610704
 40
18.62823013610704
 10
1097.793663809857
 20
197.8330136973373
 30
0.0
 10
1098.223967721327
 20
197.8328534354425
 30
0.0
 10
1099.46879250314
 20
197.7822742058066
 30
0.0
 10
1101.602231466955
 20
197.4489552678825
 30
0.0
 10
1104.204852467989
 20
196.8310643307458
 30
0.0
 10
1106.021191273305
 20
196.4245839754098
 30
0.0
 10
1106.948444945123
 20
196.2170729092452
 30
0.0
  0
SPLINE
  5
E4A
330
21
100
AcDbEntity
  8
0
  6
Continuous
100
AcDbSpline
210
0.0
220
0.0
230
1.0
 70
     8
 71
     3
 72
    11
 73
     7
 74
     0
 42
0.0000000001
 43
0.0000000001
 40
0.0
 40
0.0
 40
0.0
 40
0.0
 40
3.283704499515495
 40
6.454734125883424
 40
9.575328783992173
 40
12.67779682079068
 40
12.67779682079068
 40
12.67779682079068
 40
12.67779682079068
 10
1110.330410762323
 20
179.5424913881452
 30
0.0
 10
1109.265196348333
 20
179.2895413859464
 30
0.0
 10
1107.171318586076
 20
178.7923209413006
 30
0.0
 10
1104.019405298441
 20
178.2729366579066
 30
0.0
 10
1100.90288720085
 20
177.9489564852116
 30
0.0
 10
1098.828057688405
 20
177.877029301163
 30
0.0
 10
1097.793664740737
 20
177.8770293359588
 30
0.0
  0
SPLINE
  5
E4B
330
21
100
AcDbEntity
  8
0
  6
Continuous
100
AcDbSpline
210
0.0
220
0.0
230
1.0
 70
     8
 71
     3
 72
    15
 73
    11
 74
     9
 42
0.0000000001
 43
0.0000000001
 44
0.0000000001
 40
0.0
 40
0.0
 40
0.0
 40
0.0
 40
1.756508085589146
 40
3.404722301553755
 40
4.989071125913426
 40
6.543562558224676
 40
8.098014309065862
 40
9.682269855100019
 40
11.3299853108189
 40
13.0861595330869
 40
13.0861595330869
 40
13.0861595330869
 40
13.0861595330869
 10
1126.405493185323
 20
179.5424913881452
 30
0.0
 10
1125.876386578684
 20
179.2907452006385
 30
0.0
 10
1124.850794337861
 20
178.8027737156409
 30
0.0
 10
1123.268172909216
 20
178.2774488988109
 30
0.0
 10
1121.70242449946
 20
177.9502553750081
 30
0.0
 10
1120.136648078754
 20
177.8407319783967
 30
0.0
 10
1118.57091278344
 20
177.9503858915731
 30
0.0
 10
1117.005395091057
 20
178.2776467750334
 30
0.0
 10
1115.423090919433
 20
178.8029340684018
 30
0.0
 10
1114.397751958825
 20
179.2907907259191
 30
0.0
 10
1113.868747196023
 20
179.5424913881452
 30
0.0
 11
1126.405493185323
 21
179.5424913881452
 31
0.0
 11
1124.803682274223
 21
178.8217123236452
 31
0.0
 11
1123.239625711923
 21
178.3017727390452
 31
0.0
 11
1121.687428363823
 21
177.9842123671452
 31
0.0
 11
1120.136636497323
 21
177.8770293464452
 31
0.0
 11
1118.585893164823
 21
177.9843390030452
 31
0.0
 11
1117.033809601223
 21
178.3019901430452
 31
0.0
 11
1115.470246992023
 21
178.8218345333452
 31
0.0
 11
1113.868747196023
 21
179.5424913881452
 31
0.0
  0
SPLINE
  5
E4C
330
21
100
AcDbEntity
  8
0
  6
Continuous
100
AcDbSpline
210
0.0
220
0.0
230
1.0
 70
     8
 71
     3
 72
    10
 73
     6
 74
     4
 42
0.0000000001
 43
0.0000000001
 44
0.0000000001
 40
0.0
 40
0.0
 40
0.0
 40
0.0
 40
0.3331480891850197
 40
0.6483813685229171
 40
0.9424233666504904
 40
0.9424233666504904
 40
0.9424233666504904
 40
0.9424233666504904
 10
1110.330410762323
 20
179.5424913881452
 30
0.0
 10
1110.438688942247
 20
179.5672601331127
 30
0.0
 10
1110.649422717284
 20
179.6154657007865
 30
0.0
 10
1110.961398224253
 20
179.6578559468939
 30
0.0
 10
1111.16449460569
 20
179.6638988219308
 30
0.0
 10
1111.262510835823
 20
179.6668151704452
 30
0.0
 11
1110.330410762323
 21
179.5424913881452
 31
0.0
 11
1110.656275827423
 21
179.6117705962452
 31
0.0
 11
1110.968789314223
 21
179.6530905789452
 31
0.0
 11
1111.262510835823
 21
179.6668151704452
 31
0.0
  0
SPLINE
  5
E4D
330
21
100
AcDbEntity
  8
0
  6
Continuous
100
AcDbSpline
210
0.0
220
0.0
230
1.0
 70
     8
 71
     3
 72
    10
 73
     6
 74
     4
 42
0.0000000001
 43
0.0000000001
 44
0.0000000001
 40
0.0
 40
0.0
 40
0.0
 40
0.0
 40
0.2562310916574706
 40
0.4837285851190947
 40
0.6822845383512325
 40
0.6822845383512325
 40
0.6822845383512325
 40
0.6822845383512325
 10
1113.203092791023
 20
179.6668151704452
 30
0.0
 10
1113.288449553432
 20
179.6642533238707
 30
0.0
 10
1113.44959122302
 20
179.6594169146325
 30
0.0
 10
1113.675835961791
 20
179.6222373599057
 30
0.0
 10
1113.807422992438
 20
179.5678416909764
 30
0.0
 10
1113.868747196023
 20
179.5424913881452
 30
0.0
 11
1113.203092791023
 21
179.6668151704452
 31
0.0
 11
1113.458956051223
 21
179.6530905789452
 31
0.0
 11
1113.682669637223
 21
179.6117705962452
 31
0.0
 11
1113.868747196023
 21
179.5424913881452
 31
0.0
  0
SPLINE
  5
E4E
330
21
100
AcDbEntity
  8
0
  6
Continuous
100
AcDbSpline
210
0.0
220
0.0
230
1.0
 70
     8
 71
     3
 72
    10
 73
     6
 74
     4
 42
0.0000000001
 43
0.0000000001
 44
0.0000000001
 40
0.0
 40
0.0
 40
0.0
 40
0.0
 40
0.1560133186383721
 40
0.2539559720250636
 40
0.2942252205359909
 40
0.2942252205359909
 40
0.2942252205359909
 40
0.2942252205359909
 10
1126.405493185323
 20
179.5424913881452
 30
0.0
 10
1126.452109709187
 20
179.5654723169337
 30
0.0
 10
1126.527991337331
 20
179.6028803033766
 30
0.0
 10
1126.615714820735
 20
179.6472527522995
 30
0.0
 10
1126.659253483173
 20
179.6624014613449
 30
0.0
 10
1126.671938853923
 20
179.6668151704452
 30
0.0
 11
1126.405493185323
 21
179.5424913881452
 31
0.0
 11
1126.545280691623
 21
179.6117705962452
 31
0.0
 11
1126.634080592423
 21
179.6530905789452
 31
0.0
 11
1126.671938853923
 21
179.6668151704452
 31
0.0
  0
SPLINE
  5
E4F
330
21
100
AcDbEntity
  8
0
  6
Continuous
100
AcDbSpline
210
0.0
220
0.0
230
1.0
 70
     8
 71
     3
 72
     9
 73
     5
 74
     3
 42
0.0000000001
 43
0.0000000001
 44
0.0000000001
 40
0.0
 40
0.0
 40
0.0
 40
0.0
 40
1.716654398216518
 40
3.477586939285855
 40
3.477586939285855
 40
3.477586939285855
 40
3.477586939285855
 10
1106.948444945123
 20
196.2170729092452
 30
0.0
 10
1107.507856397082
 20
196.0963311250572
 30
0.0
 10
1108.641108355684
 20
195.8517332303648
 30
0.0
 10
1109.762550398204
 20
195.5576807705702
 30
0.0
 10
1110.330410762323
 20
195.4087825390452
 30
0.0
 11
1106.948444945123
 21
196.2170729092452
 31
0.0
 11
1108.623801527823
 21
195.8427967495452
 31
0.0
 11
1110.330410762323
 21
195.4087825390452
 31
0.0
  0
SPLINE
  5
E50
330
21
100
AcDbEntity
  8
0
  6
Continuous
100
AcDbSpline
210
0.0
220
0.0
230
1.0
 70
     8
 71
     3
 72
     9
 73
     5
 74
     3
 42
0.0000000001
 43
0.0000000001
 44
0.0000000001
 40
0.0
 40
0.0
 40
0.0
 40
0.0
 40
1.771174548623085
 40
3.581787274055587
 40
3.581787274055587
 40
3.581787274055587
 40
3.581787274055587
 10
1107.307455932323
 20
197.9491237168452
 30
0.0
 10
1107.885458749188
 20
197.8284376187644
 30
0.0
 10
1109.054334586653
 20
197.5843781438825
 30
0.0
 10
1110.211506788139
 20
197.2897629197955
 30
0.0
 10
1110.796463557823
 20
197.1408333399452
 30
0.0
 11
1107.307455932323
 21
197.9491237168452
 31
0.0
 11
1109.038602552123
 21
197.5747032814452
 31
0.0
 11
1110.796463557823
 21
197.1408333399452
 31
0.0
  0
SPLINE
  5
E51
330
21
100
AcDbEntity
  8
0
  6
Continuous
100
AcDbSpline
210
0.0
220
0.0
230
1.0
 70
     8
 71
     3
 72
     9
 73
     5
 74
     3
 42
0.0000000001
 43
0.0000000001
 44
0.0000000001
 40
0.0
 40
0.0
 40
0.0
 40
0.0
 40
0.9570502939738054
 40
1.874828359325355
 40
1.874828359325355
 40
1.874828359325355
 40
1.874828359325355
 10
1113.868747196023
 20
195.4087825389452
 30
0.0
 10
1114.151329988531
 20
195.5571107262702
 30
0.0
 10
1114.704899886149
 20
195.8476805049278
 30
0.0
 10
1115.278793837635
 20
196.0956736876456
 30
0.0
 10
1115.559730104623
 20
196.2170729092452
 30
0.0
 11
1113.868747196023
 21
195.4087825389452
 31
0.0
 11
1114.721791681523
 21
195.8426723532452
 31
0.0
 11
1115.559730104623
 21
196.2170729092452
 31
0.0
  0
SPLINE
  5
E52
330
21
100
AcDbEntity
  8
0
  6
Continuous
100
AcDbSpline
210
0.0
220
0.0
230
1.0
 70
     8
 71
     3
 72
     9
 73
     5
 74
     3
 42
0.0000000001
 43
0.0000000001
 44
0.0000000001
 40
0.0
 40
0.0
 40
0.0
 40
0.0
 40
1.000066722969949
 40
1.961495225060866
 40
1.961495225060866
 40
1.961495225060866
 40
1.961495225060866
 10
1112.669891981023
 20
197.1408333399452
 30
0.0
 10
1112.968528331021
 20
197.2892480928695
 30
0.0
 10
1113.554263023612
 20
197.5803434993091
 30
0.0
 10
1114.159705869929
 20
197.8278219501063
 30
0.0
 10
1114.456464180323
 20
197.9491237168452
 30
0.0
 11
1112.669891981023
 21
197.1408333399452
 31
0.0
 11
1113.570924090323
 21
197.5747395376452
 31
0.0
 11
1114.456464180323
 21
197.9491237168452
 31
0.0
  0
SPLINE
  5
E53
330
21
100
AcDbEntity
  8
0
  6
Continuous
100
AcDbSpline
210
0.0
220
0.0
230
1.0
 70
     8
 71
     3
 72
    11
 73
     7
 74
     5
 42
0.0000000001
 43
0.0000000001
 44
0.0000000001
 40
0.0
 40
0.0
 40
0.0
 40
0.0
 40
0.547919783353692
 40
1.102399098118744
 40
1.650816828574167
 40
2.182019253178567
 40
2.182019253178567
 40
2.182019253178567
 40
2.182019253178567
 10
1113.868747221923
 20
195.4087824100452
 30
0.0
 10
1113.831435681379
 20
195.5885501471712
 30
0.0
 10
1113.756365917711
 20
195.950237746888
 30
0.0
 10
1113.48680669414
 20
196.4372412527025
 30
0.0
 10
1113.130012223277
 20
196.8581472947464
 30
0.0
 10
1112.82162793046
 20
197.047611747515
 30
0.0
 10
1112.669894486723
 20
197.1408334016452
 30
0.0
 11
1113.868747221923
 21
195.4087824100452
 31
0.0
 11
1113.730889075023
 21
195.9390759328452
 31
0.0
 11
1113.470469649223
 21
196.4285951185452
 31
0.0
 11
1113.107505330423
 21
196.8397142136452
 31
0.0
 11
1112.669894486723
 21
197.1408334016452
 31
0.0
  0
SPLINE
  5
E54
330
21
100
AcDbEntity
  8
0
  6
Continuous
100
AcDbSpline
210
0.0
220
0.0
230
1.0
 70
     8
 71
     3
 72
    14
 73
    10
 74
     8
 42
0.0000000001
 43
0.0000000001
 44
0.0000000001
 40
0.0
 40
0.0
 40
0.0
 40
0.0
 40
0.4546712984770337
 40
1.782512850679354
 40
2.987518819494941
 40
4.177917997153735
 40
5.488617192742318
 40
7.021546694243761
 40
8.748274238483793
 40
8.748274238483793
 40
8.748274238483793
 40
8.748274238483793
 10
1116.495517944023
 20
196.6326617892452
 30
0.0
 10
1116.632768869075
 20
196.696947518014
 30
0.0
 10
1117.170853279709
 20
196.9489760450612
 30
0.0
 10
1118.071680701574
 20
197.3729851783124
 30
0.0
 10
1119.24793640482
 20
197.7874045021996
 30
0.0
 10
1120.500243486541
 20
197.8881568779311
 30
0.0
 10
1121.81897026651
 20
197.5450934754178
 30
0.0
 10
1123.199611829028
 20
196.9010389359928
 30
0.0
 10
1124.189918394738
 20
196.4539224655515
 30
0.0
 10
1124.714510276723
 20
196.2170729092452
 30
0.0
 11
1116.495517944023
 21
196.6326617892452
 31
0.0
 11
1116.907231500223
 21
196.8255812991452
 31
0.0
 11
1118.118737721623
 21
197.3691030220452
 31
0.0
 11
1119.265875902423
 21
197.7380384893452
 31
0.0
 11
1120.453359585223
 21
197.8213013577452
 31
0.0
 11
1121.731331696023
 21
197.5302349300452
 31
0.0
 11
1123.142308615723
 21
196.9310546661452
 31
0.0
 11
1124.714510276723
 21
196.2170729092452
 31
0.0
  0
SPLINE
  5
E55
330
21
100
AcDbEntity
  8
0
  6
Continuous
100
AcDbSpline
210
0.0
220
0.0
230
1.0
 70
    24
 71
     3
 72
     8
 73
     4
 74
     2
 42
0.0000000001
 43
0.0000000001
 44
0.0000000001
 40
0.0
 40
0.0
 40
0.0
 40
0.0
 40
1.023920405865952
 40
1.023920405865952
 40
1.023920405865952
 40
1.023920405865952
 10
1115.559730104623
 20
196.2170729092452
 30
0.0
 10
1115.871659384423
 20
196.3556025359119
 30
0.0
 10
1116.183588664223
 20
196.4941321625785
 30
0.0
 10
1116.495517944023
 20
196.6326617892452
 30
0.0
 11
1115.559730104623
 21
196.2170729092452
 31
0.0
 11
1116.495517944023
 21
196.6326617892452
 31
0.0
  0
SPLINE
  5
E56
330
21
100
AcDbEntity
  8
0
  6
Continuous
100
AcDbSpline
210
0.0
220
0.0
230
1.0
 70
     8
 71
     3
 72
    14
 73
    10
 74
     8
 42
0.0000000001
 43
0.0000000001
 44
0.0000000001
 40
0.0
 40
0.0
 40
0.0
 40
0.0
 40
1.69685670321912
 40
3.193653201947656
 40
4.539679738951165
 40
5.834229191637609
 40
7.126433421177605
 40
8.442007971075515
 40
9.743114280131332
 40
9.743114280131332
 40
9.743114280131332
 40
9.743114280131332
 10
1114.456464180323
 20
197.9491237168452
 30
0.0
 10
1115.009315502232
 20
198.0687040912929
 30
0.0
 10
1116.049836714817
 20
198.2937662577214
 30
0.0
 10
1117.522394197129
 20
198.6423306502047
 30
0.0
 10
1118.881019929574
 20
198.8877844933262
 30
0.0
 10
1120.196671694263
 20
198.9532749192468
 30
0.0
 10
1121.491734406372
 20
198.767035848421
 30
0.0
 10
1122.740466257741
 20
198.3880821712714
 30
0.0
 10
1123.561839500624
 20
198.094902849293
 30
0.0
 10
1123.970255339623
 20
197.9491237168452
 30
0.0
 11
1114.456464180323
 21
197.9491237168452
 31
0.0
 11
1116.113724987923
 21
198.3135538018452
 31
0.0
 11
1117.574455777223
 21
198.6401503722452
 31
0.0
 11
1118.902147687223
 21
198.8615586612452
 31
0.0
 11
1120.195729353423
 21
198.9116062218452
 31
0.0
 11
1121.476032635823
 21
198.7366340071452
 31
0.0
 11
1122.741410130823
 21
198.3766948574452
 31
0.0
 11
1123.970255339623
 21
197.9491237168452
 31
0.0
  0
SPLINE
  5
E57
330
21
100
AcDbEntity
  8
0
  6
Continuous
100
AcDbSpline
210
0.0
220
0.0
230
1.0
 70
     8
 71
     3
 72
    11
 73
     7
 74
     5
 42
0.0000000001
 43
0.0000000001
 44
0.0000000001
 40
0.0
 40
0.0
 40
0.0
 40
0.0
 40
0.5378969684645732
 40
1.07851337004891
 40
1.610963315278505
 40
2.126289612078321
 40
2.126289612078321
 40
2.126289612078321
 40
2.126289612078321
 10
1115.559730677423
 20
196.2170729092452
 30
0.0
 10
1115.528927452449
 20
196.3946280671393
 30
0.0
 10
1115.467165271357
 20
196.7506360443855
 30
0.0
 10
1115.222740719709
 20
197.2354719262843
 30
0.0
 10
1114.892028505074
 20
197.6577940573016
 30
0.0
 10
1114.600063967769
 20
197.8530837257551
 30
0.0
 10
1114.456467465223
 20
197.9491327652452
 30
0.0
 11
1115.559730677423
 21
196.2170729092452
 31
0.0
 11
1115.441980272723
 21
196.7419233554452
 31
0.0
 11
1115.206118497923
 21
197.2283751175452
 31
0.0
 11
1114.869402272023
 21
197.6408373914452
 31
0.0
 11
1114.456467465223
 21
197.9491327652452
 31
0.0
  0
SPLINE
  5
E58
330
21
100
AcDbEntity
  8
0
  6
Continuous
100
AcDbSpline
210
0.0
220
0.0
230
1.0
 70
     8
 71
     3
 72
     9
 73
     5
 74
     3
 42
0.0000000001
 43
0.0000000001
 44
0.0000000001
 40
0.0
 40
0.0
 40
0.0
 40
0.0
 40
0.9771408427756672
 40
1.87482370834026
 40
1.87482370834026
 40
1.87482370834026
 40
1.87482370834026
 10
1124.714510276723
 20
196.2170729092452
 30
0.0
 10
1125.013507067089
 20
196.0875430621302
 30
0.0
 10
1125.587187182337
 20
195.8390163219942
 30
0.0
 10
1126.140541864889
 20
195.5480837354433
 30
0.0
 10
1126.405493185323
 20
195.4087825324452
 30
0.0
 11
1124.714510276723
 21
196.2170729092452
 31
0.0
 11
1125.605979450623
 21
195.8169642507452
 31
0.0
 11
1126.405493185323
 21
195.4087825324452
 31
0.0
  0
SPLINE
  5
E59
330
21
100
AcDbEntity
  8
0
  6
Continuous
100
AcDbSpline
210
0.0
220
0.0
230
1.0
 70
     8
 71
     3
 72
    11
 73
     7
 74
     5
 42
0.0000000001
 43
0.0000000001
 44
0.0000000001
 40
0.0
 40
0.0
 40
0.0
 40
0.0
 40
0.5302617989692205
 40
1.036547790704179
 40
1.519034907439937
 40
1.985520171131595
 40
1.985520171131595
 40
1.985520171131595
 40
1.985520171131595
 10
1126.405493185223
 20
195.4087825318452
 30
0.0
 10
1126.417098301984
 20
195.5862970424651
 30
0.0
 10
1126.439783809715
 20
195.933299738414
 30
0.0
 10
1126.304837059527
 20
196.4289255002537
 30
0.0
 10
1126.056458918369
 20
196.8586627927023
 30
0.0
 10
1125.799167206683
 20
197.0478398106801
 30
0.0
 10
1125.672690615323
 20
197.1408333402452
 30
0.0
 11
1126.405493185223
 21
195.4087825318452
 31
0.0
 11
1126.410273482423
 21
195.9390227832452
 31
0.0
 11
1126.281507186123
 21
196.4286601453452
 31
0.0
 11
1126.029086159223
 21
196.8398504212452
 31
0.0
 11
1125.672690615323
 21
197.1408333402452
 31
0.0
  0
SPLINE
  5
E5A
330
21
100
AcDbEntity
  8
0
  6
Continuous
100
AcDbSpline
210
0.0
220
0.0
230
1.0
 70
     8
 71
     3
 72
    10
 73
     6
 74
     4
 42
0.0000000001
 43
0.0000000001
 44
0.0000000001
 40
0.0
 40
0.0
 40
0.0
 40
0.0
 40
0.6655361298437127
 40
1.292977190106716
 40
1.885350185014504
 40
1.885350185014504
 40
1.885350185014504
 40
1.885350185014504
 10
1123.970255339623
 20
197.9491237168452
 30
0.0
 10
1124.1744903748
 20
197.8624438587964
 30
0.0
 10
1124.571270098789
 20
197.6940456693172
 30
0.0
 10
1125.138034376382
 20
197.4219414853097
 30
0.0
 10
1125.497942529154
 20
197.2327227913985
 30
0.0
 10
1125.672723160223
 20
197.1408333399452
 30
0.0
 11
1123.970255339623
 21
197.9491237168452
 31
0.0
 11
1124.580816595423
 21
197.6842590475452
 31
0.0
 11
1125.146780891323
 21
197.4133961673452
 31
0.0
 11
1125.672723160223
 21
197.1408333399452
 31
0.0
  0
SPLINE
  5
E5B
330
21
100
AcDbEntity
  8
0
  6
Continuous
100
AcDbSpline
210
0.0
220
0.0
230
1.0
 70
     8
 71
     3
 72
    11
 73
     7
 74
     5
 42
0.0000000001
 43
0.0000000001
 44
0.0000000001
 40
0.0
 40
0.0
 40
0.0
 40
0.0
 40
0.5249264684645374
 40
1.029770900773389
 40
1.512715505362128
 40
1.978403830394838
 40
1.978403830394838
 40
1.978403830394838
 40
1.978403830394838
 10
1124.714510265723
 20
196.2170729092452
 30
0.0
 10
1124.720956384235
 20
196.3929675841912
 30
0.0
 10
1124.733602013033
 20
196.7380277568859
 30
0.0
 10
1124.592156662353
 20
197.228892815724
 30
0.0
 10
1124.345832493788
 20
197.6575736708337
 30
0.0
 10
1124.093920217209
 20
197.8531260741414
 30
0.0
 10
1123.970255306923
 20
197.9491236600452
 30
0.0
 11
1124.714510265723
 21
196.2170729092452
 31
0.0
 11
1124.705542682223
 21
196.7419227732452
 31
0.0
 11
1124.570507769223
 21
197.2283726402452
 31
0.0
 11
1124.319285179723
 21
197.6408319735452
 31
0.0
 11
1123.970255306923
 21
197.9491236600452
 31
0.0
  0
ARC
  5
E5D
330
21
100
AcDbEntity
  8
0
  6
Continuous
100
AcDbCircle
 10
1097.793664773023
 20
227.4151491205453
 30
0.0
 40
19.0
100
AcDbArc
 50
0.000000000000007
 51
90.0
  0
ARC
  5
E5E
330
21
100
AcDbEntity
  8
0
  6
Continuous
100
AcDbCircle
 10
1125.793664773023
 20
200.5471999281452
 30
0.0
 40
3.0
100
AcDbArc
 50
195.3428125054004
 51
239.9999999999995
  0
ARC
  5
E61
330
21
100
AcDbEntity
  8
0
  6
Continuous
100
AcDbCircle
 10
1078.495864341723
 20
244.4151491205452
 30
0.0
 40
3.0
100
AcDbArc
 50
58.99728086609867
 51
90.0
  0
ARC
  5
E62
330
21
100
AcDbEntity
  8
0
  6
Continuous
100
AcDbCircle
 10
1082.101415617223
 20
250.4151491205452
 30
0.0
 40
4.0
100
AcDbArc
 50
238.9972808660978
 51
270.0
  0
ARC
  5
E63
330
21
100
AcDbEntity
  8
0
  6
Continuous
100
AcDbCircle
 10
1120.007504903823
 20
198.9596376559452
 30
0.0
 40
3.0
100
AcDbArc
 50
15.34281250540041
 51
60.00000000000026
  0
ARC
  5
E64
330
21
100
AcDbEntity
  8
0
  6
Continuous
100
AcDbCircle
 10
1124.693664773023
 20
195.4087825323452
 30
0.0
 40
2.0
100
AcDbArc
 50
0.000000000000007
 51
60.00000000000026
  0
ARC
  5
E65
330
21
100
AcDbEntity
  8
0
  6
Continuous
100
AcDbCircle
 10
1119.793664773023
 20
206.0113015432452
 30
0.0
 40
3.0
100
AcDbArc
 50
180.0
 51
239.9999999999995
  0
ARC
  5
E66
330
21
100
AcDbEntity
  8
0
  6
Continuous
100
AcDbCircle
 10
1069.595886172823
 20
250.4151491205452
 30
0.0
 40
3.0
100
AcDbArc
 50
209.9999999999973
 51
270.0
  0
ARC
  5
E67
330
21
100
AcDbEntity
  8
0
  6
Continuous
100
AcDbCircle
 10
1064.193067308023
 20
247.7731058984452
 30
0.0
 40
3.0
100
AcDbArc
 50
29.9999999999973
 51
45.00000000000461
  0
ARC
  5
E68
330
21
100
AcDbEntity
  8
0
  6
Continuous
100
AcDbCircle
 10
1052.193664773023
 20
249.0494636956452
 30
0.0
 40
0.4
100
AcDbArc
 50
135.0000000143037
 51
180.0
  0
ARC
  5
E69
330
21
100
AcDbEntity
  8
0
  6
Continuous
100
AcDbCircle
 10
1054.159350197923
 20
251.0151491205453
 30
0.0
 40
0.4
100
AcDbArc
 50
90.00000000010421
 51
135.0000000101986
  0
ARC
  5
E6A
330
21
100
AcDbEntity
  8
0
  6
Continuous
100
AcDbCircle
 10
1122.686485096023
 20
177.8151491205452
 30
0.0
 40
0.4
100
AcDbArc
 50
270.0
 51
299.9999999907028
  0
LINE
  5
E6B
330
21
100
AcDbEntity
  8
0
  6
Continuous
100
AcDbLine
 10
1053.876507485523
 20
251.2979918330453
 30
0.0
 11
1051.910822060523
 21
249.3323064081452
 31
0.0
  0
LINE
  5
E6C
330
21
100
AcDbEntity
  8
0
  6
Continuous
100
AcDbLine
 10
1064.793664773023
 20
251.4151491205452
 30
0.0
 11
1054.159350197923
 21
251.4151491205452
 31
0.0
  0
LINE
  5
E6D
330
21
100
AcDbEntity
  8
0
  6
Continuous
100
AcDbLine
 10
1051.793664773023
 20
227.4151491205452
 30
0.0
 11
1051.793664773023
 21
249.0494636956452
 31
0.0
  0
LINE
  5
E6E
330
21
100
AcDbEntity
  8
0
  6
Continuous
100
AcDbLine
 10
1051.910822060523
 20
227.4151491205453
 30
0.0
 11
1051.910822060523
 21
249.3323064081452
 31
0.0
  0
LINE
  5
E6F
330
21
100
AcDbEntity
  8
0
  6
Continuous
100
AcDbLine
 10
1052.293664773023
 20
227.4151491205453
 30
0.0
 11
1052.293664773023
 21
249.7151483576452
 31
0.0
  0
LINE
  5
E70
330
21
100
AcDbEntity
  8
0
  6
Continuous
100
AcDbLine
 10
1052.293664773023
 20
249.7151491205452
 30
0.0
 11
1066.451951825223
 21
249.7151491205452
 31
0.0
  0
LINE
  5
E71
330
21
100
AcDbEntity
  8
0
  6
Continuous
100
AcDbLine
 10
1078.495864341723
 20
247.4151491205452
 30
0.0
 11
1069.595886172823
 21
247.4151491205452
 31
0.0
  0
LINE
  5
E72
330
21
100
AcDbEntity
  8
0
  6
Continuous
100
AcDbLine
 10
1053.876507485523
 20
227.4151491205453
 30
0.0
 11
1053.876507485523
 21
251.2979918330453
 31
0.0
  0
LINE
  5
E73
330
21
100
AcDbEntity
  8
0
  6
Continuous
100
AcDbLine
 10
1054.159350197923
 20
227.4151491205452
 30
0.0
 11
1054.159350197923
 21
251.4151491205452
 31
0.0
  0
LINE
  5
E74
330
21
100
AcDbEntity
  8
0
  6
Continuous
100
AcDbLine
 10
1097.793664773023
 20
246.4151491205452
 30
0.0
 11
1082.101415617223
 21
246.4151491205452
 31
0.0
  0
LINE
  5
E76
330
21
100
AcDbEntity
  8
0
  6
Continuous
100
AcDbLine
 10
1064.793664773023
 20
251.4151491205452
 30
0.0
 11
1064.793664773023
 21
227.4151491205452
 31
0.0
  0
LINE
  5
E77
330
21
100
AcDbEntity
  8
0
  6
Continuous
100
AcDbLine
 10
1066.314387651623
 20
227.4151491205453
 30
0.0
 11
1066.314387651623
 21
249.8944262419453
 31
0.0
  0
LINE
  5
E78
330
21
100
AcDbEntity
  8
0
  6
Continuous
100
AcDbLine
 10
1066.479652245523
 20
227.4151491205453
 30
0.0
 11
1066.479652245523
 21
249.7151483576452
 31
0.0
  0
LINE
  5
E79
330
21
100
AcDbEntity
  8
0
  6
Continuous
100
AcDbLine
 10
1066.791143519423
 20
227.4151491205453
 30
0.0
 11
1066.791143519423
 21
249.2731058984452
 31
0.0
  0
LINE
  5
E7A
330
21
100
AcDbEntity
  8
0
  6
Continuous
100
AcDbLine
 10
1066.997809961423
 20
248.9151491205452
 30
0.0
 11
1066.997809961423
 21
227.4151491205452
 31
0.0
  0
LINE
  5
E80
330
21
100
AcDbEntity
  8
0
  6
Continuous
100
AcDbLine
 10
1069.595886172823
 20
247.4151491205452
 30
0.0
 11
1069.595886172823
 21
227.4151491205453
 31
0.0
  0
LINE
  5
E8C
330
21
100
AcDbEntity
  8
0
  6
CENTER
100
AcDbLine
 10
1040.649091672326
 20
227.4151491205452
 30
0.0
 11
1123.53736820319
 21
227.4151491205453
 31
0.0
  0
LINE
  5
E91
330
21
100
AcDbEntity
  8
0
  6
Continuous
100
AcDbLine
 10
1078.495864341723
 20
247.4151491205452
 30
0.0
 11
1078.495864341723
 21
227.4151491205452
 31
0.0
  0
LINE
  5
E92
330
21
100
AcDbEntity
  8
0
  6
Continuous
100
AcDbLine
 10
1080.041100602623
 20
227.4151491205452
 30
0.0
 11
1080.041100602623
 21
246.9865776920452
 31
0.0
  0
LINE
  5
E96
330
21
100
AcDbEntity
  8
0
  6
Continuous
100
AcDbLine
 10
1082.101415617223
 20
227.4151491205453
 30
0.0
 11
1082.101415617223
 21
246.4151491205452
 31
0.0
  0
LINE
  5
E98
330
21
100
AcDbEntity
  8
0
  6
Continuous
100
AcDbLine
 10
1066.997809961423
 20
248.9151491205452
 30
0.0
 11
1066.791143519423
 21
249.2731058984452
 31
0.0
  0
LINE
  5
E9E
330
21
100
AcDbEntity
  8
0
  6
Continuous
100
AcDbLine
 10
1125.693664773023
 20
197.1408333399452
 30
0.0
 11
1124.293664773023
 21
197.9491237168452
 31
0.0
  0
LINE
  5
E9F
330
21
100
AcDbEntity
  8
0
  6
Continuous
100
AcDbLine
 10
1121.507504903823
 20
201.5577138672453
 30
0.0
 11
1118.293664773023
 21
203.4132253319452
 31
0.0
  0
LINE
  5
EA4
330
21
100
AcDbEntity
  8
0
  6
Continuous
100
AcDbLine
 10
1116.793664773023
 20
206.0113015432452
 30
0.0
 11
1097.793664773023
 21
206.0113015432452
 31
0.0
  0
LINE
  5
EA5
330
21
100
AcDbEntity
  8
0
  6
Continuous
100
AcDbLine
 10
1066.314387651623
 20
249.8944262419453
 30
0.0
 11
1064.793664773023
 21
251.4151491205452
 31
0.0
  0
LINE
  5
EAF
330
21
100
AcDbEntity
  8
0
  6
Continuous
100
AcDbLine
 10
1118.293664773023
 20
203.4132253319452
 30
0.0
 11
1097.793664773023
 21
203.4132254711947
 31
0.0
  0
LINE
  5
EB0
330
21
100
AcDbEntity
  8
0
  6
Continuous
100
AcDbLine
 10
1097.793664773023
 20
201.5577138672453
 30
0.0
 11
1121.507504903823
 21
201.5577138672453
 31
0.0
  0
LINE
  5
EBD
330
21
100
AcDbEntity
  8
0
  6
Continuous
100
AcDbLine
 10
1097.793664773023
 20
199.7534187920453
 30
0.0
 11
1122.900584838423
 21
199.7534187920452
 31
0.0
  0
LINE
  5
EBE
330
21
100
AcDbEntity
  8
0
  6
Continuous
100
AcDbLine
 10
1114.456464180323
 20
197.9491237168452
 30
0.0
 11
1107.307455932323
 21
197.9491237168452
 31
0.0
  0
LINE
  5
EBF
330
21
100
AcDbEntity
  8
0
  6
Continuous
100
AcDbLine
 10
1124.293664773023
 20
197.9491237168452
 30
0.0
 11
1123.970255339623
 21
197.9491237168452
 31
0.0
  0
LINE
  5
EC8
330
21
100
AcDbEntity
  8
0
  6
Continuous
100
AcDbLine
 10
1125.672723160223
 20
197.1408333399452
 30
0.0
 11
1125.693664773023
 21
197.1408333399452
 31
0.0
  0
LINE
  5
EC9
330
21
100
AcDbEntity
  8
0
  6
Continuous
100
AcDbLine
 10
1110.796463557823
 20
197.1408333399452
 30
0.0
 11
1112.669891981023
 21
197.1408333399452
 31
0.0
  0
LINE
  5
ECA
330
21
100
AcDbEntity
  8
0
  6
Continuous
100
AcDbLine
 10
1126.405493185323
 20
195.4087825318452
 30
0.0
 11
1126.693664773023
 21
195.4087825323452
 31
0.0
  0
LINE
  5
ECB
330
21
100
AcDbEntity
  8
0
  6
Continuous
100
AcDbLine
 10
1110.330410762323
 20
195.4087824079452
 30
0.0
 11
1113.868747196023
 21
195.4087824100452
 31
0.0
  0
LINE
  5
ECD
330
21
100
AcDbEntity
  8
0
  6
Continuous
100
AcDbLine
 10
1106.948444945123
 20
196.2170729092452
 30
0.0
 11
1107.307455617023
 21
197.9491221965452
 31
0.0
  0
LWPOLYLINE
  5
ED1
330
21
100
AcDbEntity
  8
0
  6
Continuous
100
AcDbPolyline
 90
        5
 70
     0
 43
0.0
 10
1113.203092743423
 20
195.4087825323452
 10
1113.166741410423
 20
195.9265241218452
 10
1113.060157841623
 20
196.4089929983452
 10
1112.890628049323
 20
196.8232297868452
 10
1112.669894543823
 20
197.1408333399452
  0
LWPOLYLINE
  5
ED2
330
21
100
AcDbEntity
  8
0
  6
Continuous
100
AcDbPolyline
 90
        5
 70
     0
 43
0.0
 10
1111.262510886523
 20
195.4087825323452
 10
1111.230737387523
 20
195.9265241210452
 10
1111.137576595023
 20
196.4089929983452
 10
1110.989395950223
 20
196.8232297874452
 10
1110.796460848023
 20
197.1408333399452
  0
LINE
  5
ED3
330
21
100
AcDbEntity
  8
0
  6
Continuous
100
AcDbLine
 10
1110.330410762323
 20
195.4087825390452
 30
0.0
 11
1110.330410762323
 21
179.5424913881452
 31
0.0
  0
LINE
  5
ED4
330
21
100
AcDbEntity
  8
0
  6
Continuous
100
AcDbLine
 10
1111.262510835823
 20
195.4087824079452
 30
0.0
 11
1111.262510835823
 21
179.6668151704452
 31
0.0
  0
LINE
  5
ED5
330
21
100
AcDbEntity
  8
0
  6
Continuous
100
AcDbLine
 10
1113.203092791023
 20
179.6668151704452
 30
0.0
 11
1113.203092791023
 21
195.4087824100452
 31
0.0
  0
LINE
  5
ED6
330
21
100
AcDbEntity
  8
0
  6
Continuous
100
AcDbLine
 10
1110.330410709523
 20
195.4087824079452
 30
0.0
 11
1110.796460797323
 21
197.1408334027452
 31
0.0
  0
LINE
  5
EDF
330
21
100
AcDbEntity
  8
0
  6
Continuous
100
AcDbLine
 10
1113.868747196023
 20
179.5424913881452
 30
0.0
 11
1113.868747196023
 21
195.4087825389452
 31
0.0
  0
LINE
  5
EE0
330
21
100
AcDbEntity
  8
0
  6
Continuous
100
AcDbLine
 10
1116.793664773023
 20
206.0113015432452
 30
0.0
 11
1116.793664773023
 21
227.4151491205453
 31
0.0
  0
LINE
  5
EE6
330
21
100
AcDbEntity
  8
0
  6
Continuous
100
AcDbLine
 10
1113.203092791023
 20
179.6668151704452
 30
0.0
 11
1111.262510835823
 21
179.6668151704452
 31
0.0
  0
LINE
  5
EE7
330
21
100
AcDbEntity
  8
0
  6
Continuous
100
AcDbLine
 10
1126.693664773023
 20
179.6668151704452
 30
0.0
 11
1126.671938853923
 21
179.6668151704452
 31
0.0
  0
LINE
  5
EE8
330
21
100
AcDbEntity
  8
0
  6
Continuous
100
AcDbLine
 10
1097.793664773023
 20
177.4687389590452
 30
0.0
 11
1122.886485096023
 21
177.4687389590452
 31
0.0
  0
LINE
  5
EE9
330
21
100
AcDbEntity
  8
0
  6
Continuous
100
AcDbLine
 10
1097.793664773023
 20
177.4151491205452
 30
0.0
 11
1122.686485096023
 21
177.4151491205452
 31
0.0
  0
LWPOLYLINE
  5
EEA
330
21
100
AcDbEntity
  8
0
  6
Continuous
100
AcDbPolyline
 90
        5
 70
     0
 43
0.0
 10
1126.671938853923
 20
195.4087825323452
 10
1126.603841737923
 20
195.9264206223452
 10
1126.404191095523
 20
196.4087825323452
 10
1126.086592788023
 20
196.8229960949452
 10
1125.672690615823
 20
197.1408333399452
  0
LINE
  5
EEB
330
21
100
AcDbEntity
  8
0
  6
Continuous
100
AcDbLine
 10
1126.405493185323
 20
195.4087825324452
 30
0.0
 11
1126.405493185323
 21
179.5424913881452
 31
0.0
  0
LINE
  5
EEC
330
21
100
AcDbEntity
  8
0
  6
Continuous
100
AcDbLine
 10
1126.671938853923
 20
195.4087825318452
 30
0.0
 11
1126.671938853923
 21
179.6668151704452
 31
0.0
  0
LINE
  5
EED
330
21
100
AcDbEntity
  8
0
  6
Continuous
100
AcDbLine
 10
1126.693664773023
 20
179.6668151704452
 30
0.0
 11
1126.693664773023
 21
195.4087825323452
 31
0.0
  0
LINE
  5
EEE
330
21
100
AcDbEntity
  8
0
  6
Continuous
100
AcDbLine
 10
1122.886485096023
 20
177.4687389590452
 30
0.0
 11
1126.677370333723
 21
179.6574075714452
 31
0.0
  0
LINE
  5
10BF
330
21
100
AcDbEntity
  8
0
100
AcDbLine
 10
1107.307455617023
 20
197.9491221965452
 30
0.0
 11
1097.793664773023
 21
198.7038242551452
 31
0.0
  0
MTEXT
  5
2E3E
330
21
100
AcDbEntity
  8
0
100
AcDbMText
 10
2320.303926075331
 20
185.571951966812
 30
0.0
 40
0.18
 41
14.68390410115808
 71
     9
 72
     1
  1
\A1;
 73
     1
 44
1.0
  0
LINE
  5
5728
330
21
100
AcDbEntity
  8
0
  6
Continuous
100
AcDbLine
 10
1101.302823582566
 20
222.2468888847878
 30
0.0
 11
1101.743852486666
 21
224.2804235747878
 31
0.0
  0
CIRCLE
  5
5729
330
21
100
AcDbEntity
  8
0
  6
Continuous
100
AcDbCircle
 10
1100.698684528666
 20
233.6128184051878
 30
0.0
 40
0.328409678
  0
ARC
  5
572A
330
21
100
AcDbEntity
  8
0
  6
Continuous
100
AcDbCircle
 10
1097.865875110866
 20
227.5660456446878
 30
0.0
 40
10.999690002
100
AcDbArc
 50
270.0
 51
180.538696085294
  0
SPLINE
  5
572B
330
21
100
AcDbEntity
  8
0
  6
Continuous
100
AcDbSpline
210
0.0
220
0.0
230
1.0
 70
     8
 71
     3
 72
     9
 73
     5
 74
     3
 42
0.0000000001
 43
0.0000000001
 44
0.0000000001
 40
0.0
 40
0.0
 40
0.0
 40
0.0
 40
0.0349854327710896
 40
0.0534825351899166
 40
0.0534825351899166
 40
0.0534825351899166
 40
0.0534825351899166
 10
1100.527777225866
 20
224.6369416550878
 30
0.0
 10
1100.533657414728
 20
224.6470149560027
 30
0.0
 10
1100.542646510555
 20
224.6624140986739
 30
0.0
 10
1100.550952993058
 20
224.6781899447709
 30
0.0
 10
1100.553825816066
 20
224.6836460705878
 30
0.0
 11
1100.527777225866
 21
224.6369416550878
 31
0.0
 11
1100.545125696666
 21
224.6673227522879
 31
0.0
 11
1100.553825816066
 21
224.6836460705878
 31
0.0
  0
SPLINE
  5
572C
330
21
100
AcDbEntity
  8
0
  6
Continuous
100
AcDbSpline
210
0.0
220
0.0
230
1.0
 70
     8
 71
     3
 72
    12
 73
     8
 74
     6
 42
0.0000000001
 43
0.0000000001
 44
0.0000000001
 40
0.0
 40
0.0
 40
0.0
 40
0.0
 40
0.0695508282239515
 40
0.116420480408249
 40
0.1650960116004492
 40
0.2110435548583954
 40
0.253753346578896
 40
0.253753346578896
 40
0.253753346578896
 40
0.253753346578896
 10
1100.553825816066
 20
224.6836460705878
 30
0.0
 10
1100.56387897964
 20
224.7045745508654
 30
0.0
 10
1100.580706876056
 20
224.7396065381237
 30
0.0
 10
1100.595831156005
 20
224.7928527521913
 30
0.0
 10
1100.602730779623
 20
224.839224581962
 30
0.0
 10
1100.601167029129
 20
224.8869042107632
 30
0.0
 10
1100.583376057417
 20
224.9112818019422
 30
0.0
 10
1100.574805433266
 20
224.9230254646878
 30
0.0
 11
1100.553825816066
 21
224.6836460705878
 31
0.0
 11
1100.581785830966
 21
224.7473293122878
 31
0.0
 11
1100.594680613066
 21
224.7923902586879
 31
0.0
 11
1100.601357691666
 21
224.8406056499879
 31
0.0
 11
1100.596622771466
 21
224.8863085739878
 31
0.0
 11
1100.574805433266
 21
224.9230254646878
 31
0.0
  0
SPLINE
  5
572D
330
21
100
AcDbEntity
  8
0
  6
Continuous
100
AcDbSpline
210
0.0
220
0.0
230
1.0
 70
     8
 71
     3
 72
    10
 73
     6
 74
     4
 42
0.0000000001
 43
0.0000000001
 44
0.0000000001
 40
0.0
 40
0.0
 40
0.0
 40
0.0
 40
0.1069947517302725
 40
0.2141854777355324
 40
0.3442195391799008
 40
0.3442195391799008
 40
0.3442195391799008
 40
0.3442195391799008
 10
1100.574805433266
 20
224.9230254646878
 30
0.0
 10
1100.543224139604
 20
224.9407795866896
 30
0.0
 10
1100.48000370719
 20
224.976320349589
 30
0.0
 10
1100.362196108335
 20
224.9775912758603
 30
0.0
 10
1100.284050193617
 20
224.9680093219922
 30
0.0
 10
1100.241214742966
 20
224.9627570024879
 30
0.0
 11
1100.574805433266
 21
224.9230254646878
 31
0.0
 11
1100.477545265766
 21
224.9676162340878
 31
0.0
 11
1100.370635473066
 21
224.9753717460878
 31
0.0
 11
1100.241214742966
 21
224.9627570024879
 31
0.0
  0
SPLINE
  5
572E
330
21
100
AcDbEntity
  8
0
  6
Continuous
100
AcDbSpline
210
0.0
220
0.0
230
1.0
 70
     8
 71
     3
 72
     9
 73
     5
 74
     3
 42
0.0000000001
 43
0.0000000001
 44
0.0000000001
 40
0.0
 40
0.0
 40
0.0
 40
0.0
 40
0.0996467207163268
 40
0.1636212900669359
 40
0.1636212900669359
 40
0.1636212900669359
 40
0.1636212900669359
 10
1098.772024018966
 20
226.5647977995878
 30
0.0
 10
1098.804577200122
 20
226.5714014514943
 30
0.0
 10
1098.858029972658
 20
226.5822447390237
 30
0.0
 10
1098.911638369407
 20
226.5922880105116
 30
0.0
 10
1098.932598808566
 20
226.5962148464878
 30
0.0
 11
1098.772024018966
 21
226.5647977995878
 31
0.0
 11
1098.869741282066
 21
226.5843120364878
 31
0.0
 11
1098.932598808566
 21
226.5962148464878
 31
0.0
  0
SPLINE
  5
572F
330
21
100
AcDbEntity
  8
0
  6
Continuous
100
AcDbSpline
210
0.0
220
0.0
230
1.0
 70
    24
 71
     3
 72
     8
 73
     4
 74
     2
 42
0.0000000001
 43
0.0000000001
 44
0.0000000001
 40
0.0
 40
0.0
 40
0.0
 40
0.0
 40
0.0520902899067309
 40
0.0520902899067309
 40
0.0520902899067309
 40
0.0520902899067309
 10
1098.431458592666
 20
227.0518740523878
 30
0.0
 10
1098.423278088733
 20
227.0365584376211
 30
0.0
 10
1098.415097584799
 20
227.0212428228545
 30
0.0
 10
1098.406917080866
 20
227.0059272080878
 30
0.0
 11
1098.431458592666
 21
227.0518740523878
 31
0.0
 11
1098.406917080866
 21
227.0059272080878
 31
0.0
  0
SPLINE
  5
5730
330
21
100
AcDbEntity
  8
0
  6
Continuous
100
AcDbSpline
210
0.0
220
0.0
230
1.0
 70
    24
 71
     3
 72
     8
 73
     4
 74
     2
 42
0.0000000001
 43
0.0000000001
 44
0.0000000001
 40
0.0
 40
0.0
 40
0.0
 40
0.0
 40
0.0254656761287314
 40
0.0254656761287314
 40
0.0254656761287314
 40
0.0254656761287314
 10
1098.406917080866
 20
227.0059272080878
 30
0.0
 10
1098.403269424866
 20
226.9982623379211
 30
0.0
 10
1098.399621768866
 20
226.9905974677545
 30
0.0
 10
1098.395974112866
 20
226.9829325975878
 30
0.0
 11
1098.406917080866
 21
227.0059272080878
 31
0.0
 11
1098.395974112866
 21
226.9829325975878
 31
0.0
  0
SPLINE
  5
5731
330
21
100
AcDbEntity
  8
0
  6
Continuous
100
AcDbSpline
210
0.0
220
0.0
230
1.0
 70
     8
 71
     3
 72
    16
 73
    12
 74
    10
 42
0.0000000001
 43
0.0000000001
 44
0.0000000001
 40
0.0
 40
0.0
 40
0.0
 40
0.0
 40
0.0010773520114963
 40
0.1087265401578089
 40
0.2103604716497512
 40
0.3116521570612263
 40
0.4154820476176157
 40
0.5177280606620417
 40
0.6205716091071996
 40
0.7236235361442468
 40
0.7263140754415143
 40
0.7263140754415143
 40
0.7263140754415143
 40
0.7263140754415143
 10
1098.395974338466
 20
226.9829330934879
 30
0.0
 10
1098.395825779399
 20
226.982606146782
 30
0.0
 10
1098.380833174203
 20
226.9496106320655
 30
0.0
 10
1098.356695200935
 20
226.8834412166319
 30
0.0
 10
1098.348996977055
 20
226.7770353995764
 30
0.0
 10
1098.393848840743
 20
226.6809585850053
 30
0.0
 10
1098.468726818293
 20
226.6085771195478
 30
0.0
 10
1098.563474128097
 20
226.5633995711965
 30
0.0
 10
1098.666918885244
 20
226.551673061414
 30
0.0
 10
1098.736375940909
 20
226.5588429627615
 30
0.0
 10
1098.771141022236
 20
226.5646503008408
 30
0.0
 10
1098.772025594166
 20
226.5647980642878
 30
0.0
 11
1098.395974338466
 21
226.9829330934879
 31
0.0
 11
1098.395528908366
 21
226.9819521350878
 31
0.0
 11
1098.360986138166
 21
226.8799955524878
 31
0.0
 11
1098.357692888266
 21
226.7784149906878
 31
0.0
 11
1098.398349424766
 21
226.6856407939878
 31
0.0
 11
1098.472413418266
 21
226.6128728680878
 31
0.0
 11
1098.564769100066
 21
226.5690017474878
 31
0.0
 11
1098.666709442466
 21
226.5554016721878
 31
0.0
 11
1098.769371589566
 21
226.5643561804878
 31
0.0
 11
1098.772025594166
 21
226.5647980642878
 31
0.0
  0
SPLINE
  5
5732
330
21
100
AcDbEntity
  8
0
  6
Continuous
100
AcDbSpline
210
0.0
220
0.0
230
1.0
 70
     8
 71
     3
 72
    26
 73
    22
 74
    20
 42
0.0000000001
 43
0.0000000001
 44
0.0000000001
 40
0.0
 40
0.0
 40
0.0
 40
0.0
 40
0.0840344929918038
 40
0.2979869562341866
 40
0.5119131863514482
 40
0.6190475435332847
 40
0.7262238094015959
 40
0.9406855709616525
 40
1.154689816206578
 40
1.368781121272023
 40
1.581241979552709
 40
1.799023439773713
 40
1.908799527033414
 40
2.015458734289757
 40
2.121216807162568
 40
2.229007665037495
 40
2.336231593754277
 40
2.443541968213103
 40
2.658735162887791
 40
2.873492197076617
 40
3.087577192872562
 40
3.087577192872562
 40
3.087577192872562
 40
3.087577192872562
 10
1100.241209841066
 20
224.9627561707879
 30
0.0
 10
1100.213723775296
 20
224.9573583930076
 30
0.0
 10
1100.116257975409
 20
224.9382178316271
 30
0.0
 10
1099.954107859396
 20
224.8792802400994
 30
0.0
 10
1099.803648397763
 20
224.7828324033935
 30
0.0
 10
1099.680059406004
 20
224.711299362674
 30
0.0
 10
1099.550510615004
 20
224.6505474649443
 30
0.0
 10
1099.381269406534
 20
224.591919702477
 30
0.0
 10
1099.171896007288
 20
224.5457180623475
 30
0.0
 10
1098.96087788572
 20
224.5119441908028
 30
0.0
 10
1098.7466271973
 20
224.4954239969413
 30
0.0
 10
1098.566784740579
 20
224.4859915798735
 30
0.0
 10
1098.423331989111
 20
224.4653063952372
 30
0.0
 10
1098.320007142554
 20
224.4325971505607
 30
0.0
 10
1098.23024399246
 20
224.3717328731806
 30
0.0
 10
1098.162631981319
 20
224.2870574326875
 30
0.0
 10
1098.118267801764
 20
224.1882474141026
 30
0.0
 10
1098.085406337673
 20
224.0482211968517
 30
0.0
 10
1098.083838603418
 20
223.8667436270254
 30
0.0
 10
1098.132166762683
 20
223.6563578726663
 30
0.0
 10
1098.182579883474
 20
223.5225330409111
 30
0.0
 10
1098.207746942666
 20
223.4557254834879
 30
0.0
 11
1100.241209841066
 21
224.9627561707879
 31
0.0
 11
1100.158996390866
 21
224.9453566127878
 31
0.0
 11
1099.957900367666
 21
224.8723083685879
 31
0.0
 11
1099.772564692766
 21
224.7654668057879
 31
0.0
 11
1099.679346384666
 21
224.7126641777879
 31
0.0
 11
1099.582432152766
 21
224.6668997415878
 31
0.0
 11
1099.380063790866
 21
224.5959004931878
 31
0.0
 11
1099.171540798866
 21
224.5477758758878
 31
0.0
 11
1098.960009191766
 21
224.5147688144879
 31
0.0
 11
1098.748342336466
 21
224.4964178289878
 31
0.0
 11
1098.531200687666
 21
224.4797364389878
 31
0.0
 11
1098.422841187966
 21
224.4621578110879
 31
0.0
 11
1098.321879912066
 21
224.4277629384878
 31
0.0
 11
1098.234456516366
 21
224.3682489076878
 31
0.0
 11
1098.166464817166
 21
224.2846068256878
 31
0.0
 11
1098.121557688166
 21
224.1872398874878
 31
0.0
 11
1098.096282498266
 21
224.0829485587878
 31
0.0
 11
1098.092233816166
 21
223.8677934537878
 31
0.0
 11
1098.136789734166
 21
223.6577092946878
 31
0.0
 11
1098.207746942666
 21
223.4557254834879
 31
0.0
  0
SPLINE
  5
5733
330
21
100
AcDbEntity
  8
0
  6
Continuous
100
AcDbSpline
210
0.0
220
0.0
230
1.0
 70
    24
 71
     3
 72
     8
 73
     4
 74
     2
 42
0.0000000001
 43
0.0000000001
 44
0.0000000001
 40
0.0
 40
0.0
 40
0.0
 40
0.0
 40
0.9080242580399384
 40
0.9080242580399384
 40
0.9080242580399384
 40
0.9080242580399384
 10
1098.207746942666
 20
223.4557254834879
 30
0.0
 10
1098.292142919766
 20
223.1650550086212
 30
0.0
 10
1098.376538896866
 20
222.8743845337545
 30
0.0
 10
1098.460934873966
 20
222.5837140588878
 30
0.0
 11
1098.207746942666
 21
223.4557254834879
 31
0.0
 11
1098.460934873966
 21
222.5837140588878
 31
0.0
  0
SPLINE
  5
5734
330
21
100
AcDbEntity
  8
0
  6
Continuous
100
AcDbSpline
210
0.0
220
0.0
230
1.0
 70
    24
 71
     3
 72
     8
 73
     4
 74
     2
 42
0.0000000001
 43
0.0000000001
 44
0.0000000001
 40
0.0
 40
0.0
 40
0.0
 40
0.0
 40
0.721864060088519
 40
0.721864060088519
 40
0.721864060088519
 40
0.721864060088519
 10
1098.460934873966
 20
222.5837140588878
 30
0.0
 10
1098.506165599233
 20
222.3473820526211
 30
0.0
 10
1098.551396324499
 20
222.1110500463545
 30
0.0
 10
1098.596627049766
 20
221.8747180400879
 30
0.0
 11
1098.460934873966
 21
222.5837140588878
 31
0.0
 11
1098.596627049766
 21
221.8747180400879
 31
0.0
  0
SPLINE
  5
5735
330
21
100
AcDbEntity
  8
0
  6
Continuous
100
AcDbSpline
210
0.0
220
0.0
230
1.0
 70
     8
 71
     3
 72
    17
 73
    13
 74
    11
 42
0.0000000001
 43
0.0000000001
 44
0.0000000001
 40
0.0
 40
0.0
 40
0.0
 40
0.0
 40
0.4489361004936178
 40
0.6737886890806722
 40
0.8984770302455984
 40
1.124019338362227
 40
1.239994698782678
 40
1.353698208749339
 40
1.464443142451893
 40
1.576876643148834
 40
1.692437945218409
 40
1.807171317071074
 40
1.807171317071074
 40
1.807171317071074
 40
1.807171317071074
 10
1098.596627049766
 20
221.8747180400879
 30
0.0
 10
1098.637451389962
 20
221.7299456406987
 30
0.0
 10
1098.698722868536
 20
221.5126630361314
 30
0.0
 10
1098.70775962499
 20
221.2117221666552
 30
0.0
 10
1098.686960212656
 20
220.9874291729896
 30
0.0
 10
1098.650469122945
 20
220.8016182128973
 30
0.0
 10
1098.60203013559
 20
220.6574809356
 30
0.0
 10
1098.549366165408
 20
220.5561691010678
 30
0.0
 10
1098.473261239431
 20
220.4711628218733
 30
0.0
 10
1098.373747066541
 20
220.4148251381468
 30
0.0
 10
1098.26407613768
 20
220.3801371776306
 30
0.0
 10
1098.187601324109
 20
220.3719251122291
 30
0.0
 10
1098.149501384266
 20
220.3678338410878
 30
0.0
 11
1098.596627049766
 21
221.8747180400879
 31
0.0
 11
1098.694907882566
 21
221.4366718093878
 31
0.0
 11
1098.703164959866
 21
221.2119708808878
 31
0.0
 11
1098.683214625866
 21
220.9881699987878
 31
0.0
 11
1098.637157854866
 21
220.7673802648878
 31
0.0
 11
1098.598960258766
 21
220.6578757997878
 31
0.0
 11
1098.544806773966
 21
220.5578963605878
 31
0.0
 11
1098.469913123466
 21
220.4763158392878
 31
0.0
 11
1098.373212371866
 21
220.4189550798878
 31
0.0
 11
1098.263110715366
 21
220.3838546557878
 31
0.0
 11
1098.149501384266
 21
220.3678338410878
 31
0.0
  0
SPLINE
  5
5736
330
21
100
AcDbEntity
  8
0
  6
Continuous
100
AcDbSpline
210
0.0
220
0.0
230
1.0
 70
     8
 71
     3
 72
    22
 73
    18
 74
    16
 42
0.0000000001
 43
0.0000000001
 44
0.0000000001
 40
0.0
 40
0.0
 40
0.0
 40
0.0
 40
0.2585020564636819
 40
0.3885099966072295
 40
0.519181811312867
 40
0.6487507249008845
 40
0.7778859501016514
 40
0.9082386181411957
 40
1.038781548736006
 40
1.168301512197476
 40
1.29784302323741
 40
1.427730638294507
 40
1.557542359705353
 40
1.686937011181817
 40
1.816156105546416
 40
2.07508866469435
 40
2.079557976007231
 40
2.079557976007231
 40
2.079557976007231
 40
2.079557976007231
 10
1101.302823582566
 20
222.2468888847878
 30
0.0
 10
1101.284485122854
 20
222.1626061223681
 30
0.0
 10
1101.256923737008
 20
222.0359351929771
 30
0.0
 10
1101.239479555093
 20
221.8635036912349
 30
0.0
 10
1101.238929414403
 20
221.733165769238
 30
0.0
 10
1101.257303386095
 20
221.6039209186148
 30
0.0
 10
1101.302629848163
 20
221.4813398458065
 30
0.0
 10
1101.370932851291
 20
221.3699663171801
 30
0.0
 10
1101.455107610393
 20
221.2701888977198
 30
0.0
 10
1101.550921296097
 20
221.1821144264738
 30
0.0
 10
1101.654414025275
 20
221.1038223813571
 30
0.0
 10
1101.762319313011
 20
221.0317000109075
 30
0.0
 10
1101.873326352561
 20
220.9645064749253
 30
0.0
 10
1101.988707038699
 20
220.9054049558395
 30
0.0
 10
1102.1493712421
 20
220.8417940197975
 30
0.0
 10
1102.277469474208
 20
220.811803114887
 30
0.0
 10
1102.363882063117
 20
220.7962637673317
 30
0.0
 10
1102.365348281866
 20
220.7960001010878
 30
0.0
 11
1101.302823582566
 21
222.2468888847878
 31
0.0
 11
1101.254230968166
 21
221.9929950663878
 31
0.0
 11
1101.241588987166
 21
221.8636032396878
 31
0.0
 11
1101.242116508766
 21
221.7329324897878
 31
0.0
 11
1101.261821926566
 21
221.6048707863878
 31
0.0
 11
1101.306255118066
 21
221.4836206404878
 31
0.0
 11
1101.373536005766
 21
221.3719734272878
 31
0.0
 11
1101.457315150266
 21
221.2718609321878
 31
0.0
 11
1101.552221281266
 21
221.1837232714878
 31
0.0
 11
1101.655042314366
 21
221.1049270898878
 31
0.0
 11
1101.762865015266
 21
221.0325043191879
 31
0.0
 11
1101.874209274566
 21
220.9657694786878
 31
0.0
 11
1101.989625896666
 21
220.9072717934878
 31
0.0
 11
1102.109784687966
 21
220.8597382345878
 31
0.0
 11
1102.360949762066
 21
220.7967924186878
 31
0.0
 11
1102.365348281866
 21
220.7960001010878
 31
0.0
  0
SPLINE
  5
5737
330
21
100
AcDbEntity
  8
0
  6
Continuous
100
AcDbSpline
210
0.0
220
0.0
230
1.0
 70
     8
 71
     3
 72
    10
 73
     6
 74
     4
 42
0.0000000001
 43
0.0000000001
 44
0.0000000001
 40
0.0
 40
0.0
 40
0.0
 40
0.0
 40
0.0825692431351498
 40
0.1700593304850517
 40
0.3447456989748322
 40
0.3447456989748322
 40
0.3447456989748322
 40
0.3447456989748322
 10
1102.365348281866
 20
220.7960001010878
 30
0.0
 10
1102.392331842149
 20
220.7905323582464
 30
0.0
 10
1102.447907090528
 20
220.7792710138089
 30
0.0
 10
1102.557194738235
 20
220.7417453283195
 30
0.0
 10
1102.631307756721
 20
220.6946852918004
 30
0.0
 10
1102.680688750966
 20
220.6633295132878
 30
0.0
 11
1102.365348281866
 21
220.7960001010878
 31
0.0
 11
1102.445906493066
 21
220.7778878256878
 31
0.0
 11
1102.528550516766
 21
220.7491740531878
 31
0.0
 11
1102.680688750966
 21
220.6633295132878
 31
0.0
  0
SPLINE
  5
5738
330
21
100
AcDbEntity
  8
0
  6
Continuous
100
AcDbSpline
210
0.0
220
0.0
230
1.0
 70
     8
 71
     3
 72
    13
 73
     9
 74
     7
 42
0.0000000001
 43
0.0000000001
 44
0.0000000001
 40
0.0
 40
0.0
 40
0.0
 40
0.0
 40
0.0710365867746624
 40
0.1434325209825278
 40
0.182172580218895
 40
0.2220312178961635
 40
0.2594055417842934
 40
0.294266184983227
 40
0.294266184983227
 40
0.294266184983227
 40
0.294266184983227
 10
1102.680688750966
 20
220.6633295132878
 30
0.0
 10
1102.699603132873
 20
220.6490393317418
 30
0.0
 10
1102.737793839986
 20
220.6201855134841
 30
0.0
 10
1102.780596680576
 20
220.5768567832286
 30
0.0
 10
1102.812807770974
 20
220.5380205949536
 30
0.0
 10
1102.834780085498
 20
220.5065377156055
 30
0.0
 10
1102.851772434492
 20
220.4716144416824
 30
0.0
 10
1102.848506752749
 20
220.4472582488576
 30
0.0
 10
1102.846930732566
 20
220.4355039339878
 30
0.0
 11
1102.680688750966
 21
220.6633295132878
 31
0.0
 11
1102.736330538066
 21
220.6191685781878
 31
0.0
 11
1102.787484240766
 21
220.5679389969878
 31
0.0
 11
1102.812113452566
 21
220.5380359182878
 31
0.0
 11
1102.834471767766
 21
220.5050386950878
 31
0.0
 11
1102.848347877566
 21
220.4703357605878
 31
0.0
 11
1102.846930732566
 21
220.4355039339878
 31
0.0
  0
SPLINE
  5
5739
330
21
100
AcDbEntity
  8
0
  6
Continuous
100
AcDbSpline
210
0.0
220
0.0
230
1.0
 70
     8
 71
     3
 72
    13
 73
     9
 74
     7
 42
0.0000000001
 43
0.0000000001
 44
0.0000000001
 40
0.0
 40
0.0
 40
0.0
 40
0.0
 40
0.0389548943536657
 40
0.0836071560940561
 40
0.1326169816040597
 40
0.1786631375237104
 40
0.2617600169270403
 40
0.3429329034815373
 40
0.3429329034815373
 40
0.3429329034815373
 40
0.3429329034815373
 10
1102.846930732566
 20
220.4355039339878
 30
0.0
 10
1102.840648583106
 20
220.4235924513528
 30
0.0
 10
1102.827165485302
 20
220.3980273662845
 30
0.0
 10
1102.781963679151
 20
220.3842132676174
 30
0.0
 10
1102.736750382794
 20
220.3768579575536
 30
0.0
 10
1102.67723283746
 20
220.372298806536
 30
0.0
 10
1102.607065739478
 20
220.3744114251595
 30
0.0
 10
1102.552734093251
 20
220.3814544335504
 30
0.0
 10
1102.525886447066
 20
220.3849346924878
 30
0.0
 11
1102.846930732566
 21
220.4355039339878
 31
0.0
 11
1102.824824922466
 21
220.4034287573878
 31
0.0
 11
1102.783815463866
 21
220.3857638547878
 31
0.0
 11
1102.735527079366
 21
220.3773856139878
 31
0.0
 11
1102.689618249566
 21
220.3738320493878
 31
0.0
 11
1102.606544931866
 21
220.3758107491878
 31
0.0
 11
1102.525886447066
 21
220.3849346924878
 31
0.0
  0
SPLINE
  5
573A
330
21
100
AcDbEntity
  8
0
  6
Continuous
100
AcDbSpline
210
0.0
220
0.0
230
1.0
 70
     8
 71
     3
 72
     9
 73
     5
 74
     3
 42
0.0000000001
 43
0.0000000001
 44
0.0000000001
 40
0.0
 40
0.0
 40
0.0
 40
0.0
 40
0.1734679222021443
 40
0.3469771970134787
 40
0.3469771970134787
 40
0.3469771970134787
 40
0.3469771970134787
 10
1102.525886447066
 20
220.3849346924878
 30
0.0
 10
1102.468632284912
 20
220.3931342009631
 30
0.0
 10
1102.354110311919
 20
220.4095351725752
 30
0.0
 10
1102.240835988547
 20
220.4330554597373
 30
0.0
 10
1102.184192076866
 20
220.4448170048878
 30
0.0
 11
1102.525886447066
 21
220.3849346924878
 31
0.0
 11
1102.354435798666
 21
220.4113126225878
 31
0.0
 11
1102.184192076866
 21
220.4448170048878
 31
0.0
  0
SPLINE
  5
573B
330
21
100
AcDbEntity
  8
0
  6
Continuous
100
AcDbSpline
210
0.0
220
0.0
230
1.0
 70
     8
 71
     3
 72
     9
 73
     5
 74
     3
 42
0.0000000001
 43
0.0000000001
 44
0.0000000001
 40
0.0
 40
0.0
 40
0.0
 40
0.0
 40
0.3470043748935439
 40
0.6940049083428692
 40
0.6940049083428692
 40
0.6940049083428692
 40
0.6940049083428692
 10
1102.184192076866
 20
220.4448170048878
 30
0.0
 10
1102.070913368639
 20
220.4683820623405
 30
0.0
 10
1101.844357206213
 20
220.5155119163737
 30
0.0
 10
1101.615164430107
 20
220.5474429172311
 30
0.0
 10
1101.500568676366
 20
220.5634083292879
 30
0.0
 11
1102.184192076866
 21
220.4448170048878
 31
0.0
 11
1101.843696791466
 21
220.5117124218878
 31
0.0
 11
1101.500568676366
 21
220.5634083292879
 31
0.0
  0
SPLINE
  5
573C
330
21
100
AcDbEntity
  8
0
  6
Continuous
100
AcDbSpline
210
0.0
220
0.0
230
1.0
 70
     8
 71
     3
 72
     9
 73
     5
 74
     3
 42
0.0000000001
 43
0.0000000001
 44
0.0000000001
 40
0.0
 40
0.0
 40
0.0
 40
0.0
 40
0.3454712490186128
 40
0.6909600997899021
 40
0.6909600997899021
 40
0.6909600997899021
 40
0.6909600997899021
 10
1101.500568676366
 20
220.5634083292879
 30
0.0
 10
1101.384900019625
 20
220.5708833101367
 30
0.0
 10
1101.153556812828
 20
220.5858336526843
 30
0.0
 10
1100.928486162495
 20
220.5302779421016
 30
0.0
 10
1100.815947970566
 20
220.5024993791878
 30
0.0
 11
1101.500568676366
 21
220.5634083292879
 31
0.0
 11
1101.155130765366
 21
220.5682076565878
 31
0.0
 11
1100.815947970566
 21
220.5024993791878
 31
0.0
  0
SPLINE
  5
573D
330
21
100
AcDbEntity
  8
0
  6
Continuous
100
AcDbSpline
210
0.0
220
0.0
230
1.0
 70
     8
 71
     3
 72
    23
 73
    19
 74
    17
 42
0.0000000001
 43
0.0000000001
 44
0.0000000001
 40
0.0
 40
0.0
 40
0.0
 40
0.0
 40
0.1346459741810383
 40
0.2682873103625477
 40
0.3331705721771354
 40
0.3981845216304813
 40
0.4642935307902817
 40
0.530776101962994
 40
0.6619731584449337
 40
0.792465901033673
 40
1.05372538178013
 40
1.183927333412947
 40
1.314613738442439
 40
1.445423504715256
 40
1.576190418914424
 40
1.706591128262707
 40
1.837071906177852
 40
2.098764468473697
 40
2.098764468473697
 40
2.098764468473697
 40
2.098764468473697
 10
1100.815947970566
 20
220.5024993791878
 30
0.0
 10
1100.771650890823
 20
220.4949579926925
 30
0.0
 10
1100.683387246452
 20
220.4799314884725
 30
0.0
 10
1100.57060322367
 20
220.4877171906409
 30
0.0
 10
1100.487242278819
 20
220.5174994188918
 30
0.0
 10
1100.432432123702
 20
220.5542616494191
 30
0.0
 10
1100.386810692987
 20
220.6023984501487
 30
0.0
 10
1100.339219923101
 20
220.6768753782009
 30
0.0
 10
1100.306735024466
 20
220.7837989193174
 30
0.0
 10
1100.309412170421
 20
220.9601544569568
 30
0.0
 10
1100.364922081659
 20
221.126759438439
 30
0.0
 10
1100.392524522299
 20
221.2987578177198
 30
0.0
 10
1100.406486460612
 20
221.4285725399105
 30
0.0
 10
1100.424184887514
 20
221.5581815368103
 30
0.0
 10
1100.449168373777
 20
221.6864579007143
 30
0.0
 10
1100.469888847405
 20
221.8153786541197
 30
0.0
 10
1100.479342726945
 20
221.9901277574781
 30
0.0
 10
1100.45577701456
 20
222.1193473596821
 30
0.0
 10
1100.440051897566
 20
222.2055740490878
 30
0.0
 11
1100.815947970566
 21
220.5024993791878
 31
0.0
 11
1100.682412869266
 21
220.4852391623878
 31
0.0
 11
1100.549324913866
 21
220.4973883542878
 31
0.0
 11
1100.488472355466
 21
220.5199006575878
 31
0.0
 11
1100.434310257666
 21
220.5558628708878
 31
0.0
 11
1100.388560126466
 21
220.6035842139878
 31
0.0
 11
1100.352715817466
 21
220.6595763364878
 31
0.0
 11
1100.313512928166
 21
220.7847793759878
 31
0.0
 11
1100.313142950266
 21
220.9152715940879
 31
0.0
 11
1100.369533918366
 21
221.1703727014878
 31
0.0
 11
1100.391380044566
 21
221.2987288270878
 31
0.0
 11
1100.407100841266
 21
221.4284662272878
 31
0.0
 11
1100.425404747666
 21
221.5579890513878
 31
0.0
 11
1100.448482536666
 21
221.6867034697878
 31
0.0
 11
1100.467615369466
 21
221.8156929255878
 31
0.0
 11
1100.473574940966
 21
221.9460375338878
 31
0.0
 11
1100.440051897566
 21
222.2055740490878
 31
0.0
  0
SPLINE
  5
573E
330
21
100
AcDbEntity
  8
0
  6
Continuous
100
AcDbSpline
210
0.0
220
0.0
230
1.0
 70
     8
 71
     3
 72
    10
 73
     6
 74
     4
 42
0.0000000001
 43
0.0000000001
 44
0.0000000001
 40
0.0
 40
0.0
 40
0.0
 40
0.0
 40
1.241134952899443
 40
2.091691992374766
 40
2.469969145925719
 40
2.469969145925719
 40
2.469969145925719
 40
2.469969145925719
 10
1100.440051897566
 20
222.2055740490878
 30
0.0
 10
1100.318781218994
 20
222.6044411005081
 30
0.0
 10
1100.114403035392
 20
223.2766540742294
 30
0.0
 10
1100.228436876483
 20
224.1289704744031
 30
0.0
 10
1100.436975288993
 20
224.4831119158054
 30
0.0
 10
1100.501170538066
 20
224.5921287523878
 30
0.0
 11
1100.440051897566
 21
222.2055740490878
 31
0.0
 11
1100.182197810666
 21
223.4196281010878
 31
0.0
 11
1100.322970159466
 21
224.2584549146878
 31
0.0
 11
1100.501170538066
 21
224.5921287523878
 31
0.0
  0
SPLINE
  5
573F
330
21
100
AcDbEntity
  8
0
  6
Continuous
100
AcDbSpline
210
0.0
220
0.0
230
1.0
 70
     8
 71
     3
 72
     9
 73
     5
 74
     3
 42
0.0000000001
 43
0.0000000001
 44
0.0000000001
 40
0.0
 40
0.0
 40
0.0
 40
0.0
 40
0.0514429211942773
 40
0.0528142853150211
 40
0.0528142853150211
 40
0.0528142853150211
 40
0.0528142853150211
 10
1100.501178174466
 20
224.5921234872878
 30
0.0
 10
1100.509958367375
 20
224.6068528107436
 30
0.0
 10
1100.518972622449
 20
224.6219747881396
 30
0.0
 10
1100.527898944062
 20
224.6371487289762
 30
0.0
 10
1100.528130722966
 20
224.6375427321878
 30
0.0
 11
1100.501178174466
 21
224.5921234872878
 31
0.0
 11
1100.527435326966
 21
224.6363607575878
 31
0.0
 11
1100.528130722966
 21
224.6375427321878
 31
0.0
  0
SPLINE
  5
5740
330
21
100
AcDbEntity
  8
0
  6
Continuous
100
AcDbSpline
210
0.0
220
0.0
230
1.0
 70
     8
 71
     3
 72
    18
 73
    14
 74
    12
 42
0.0000000001
 43
0.0000000001
 44
0.0000000001
 40
0.0
 40
0.0
 40
0.0
 40
0.0
 40
0.1276090459104403
 40
0.2552169562325105
 40
0.3173865858315842
 40
0.3793003666513665
 40
0.4419402744638191
 40
0.5050211280278729
 40
0.6296913559240787
 40
0.7540030503979154
 40
0.8802884848859254
 40
1.006077213119417
 40
1.048303833264083
 40
1.048303833264083
 40
1.048303833264083
 40
1.048303833264083
 10
1103.640037714266
 20
233.4914173199878
 30
0.0
 10
1103.656634457764
 20
233.4520764288534
 30
0.0
 10
1103.689827797064
 20
233.3733949966778
 30
0.0
 10
1103.69846172763
 20
233.2653911106559
 30
0.0
 10
1103.682177951396
 20
233.1825184416825
 30
0.0
 10
1103.655491045884
 20
233.1256065802861
 30
0.0
 10
1103.61722249911
 20
233.075625439975
 30
0.0
 10
1103.55513105638
 20
233.0193704616873
 30
0.0
 10
1103.461363818776
 20
232.969466780456
 30
0.0
 10
1103.335123375546
 20
232.9516574322752
 30
0.0
 10
1103.210094242574
 20
232.9730815497261
 30
0.0
 10
1103.118599430873
 20
233.0111248530823
 30
0.0
 10
1103.0712563811
 20
233.0410761707651
 30
0.0
 10
1103.059357843266
 20
233.0486037146878
 30
0.0
 11
1103.640037714266
 21
233.4914173199878
 31
0.0
 11
1103.683265230966
 21
233.3713529605878
 31
0.0
 11
1103.692356366766
 21
233.2440693008878
 31
0.0
 11
1103.679724782066
 21
233.1831964340878
 31
0.0
 11
1103.653716529166
 21
233.1270102521878
 31
0.0
 11
1103.615938394566
 21
233.0770445579878
 31
0.0
 11
1103.569291228966
 21
233.0345800312878
 31
0.0
 11
1103.459013425666
 21
232.9764296071878
 31
0.0
 11
1103.336047449466
 21
232.9581877300878
 31
0.0
 11
1103.211276494466
 21
232.9776869544879
 31
0.0
 11
1103.095362397866
 21
233.0265410879878
 31
0.0
 11
1103.059357843266
 21
233.0486037146878
 31
0.0
  0
SPLINE
  5
5741
330
21
100
AcDbEntity
  8
0
  6
Continuous
100
AcDbSpline
210
0.0
220
0.0
230
1.0
 70
     8
 71
     3
 72
     9
 73
     5
 74
     3
 42
0.0000000001
 43
0.0000000001
 44
0.0000000001
 40
0.0
 40
0.0
 40
0.0
 40
0.0
 40
0.1321464198430593
 40
0.654907343716488
 40
0.654907343716488
 40
0.654907343716488
 40
0.654907343716488
 10
1103.059357843266
 20
233.0486037146878
 30
0.0
 10
1103.022980548549
 20
233.0736635233121
 30
0.0
 10
1102.842697514903
 20
233.1978579791263
 30
0.0
 10
1102.712255987732
 20
233.3767428398904
 30
0.0
 10
1102.608134795766
 20
233.5195325275878
 30
0.0
 11
1103.059357843266
 21
233.0486037146878
 31
0.0
 11
1102.952255240366
 21
233.1260098431878
 31
0.0
 11
1102.608134795766
 21
233.5195325275878
 31
0.0
  0
SPLINE
  5
5742
330
21
100
AcDbEntity
  8
0
  6
Continuous
100
AcDbSpline
210
0.0
220
0.0
230
1.0
 70
     8
 71
     3
 72
    14
 73
    10
 74
     8
 42
0.0000000001
 43
0.0000000001
 44
0.0000000001
 40
0.0
 40
0.0
 40
0.0
 40
0.0
 40
0.4248448291089862
 40
0.6383067240851186
 40
0.8543818512104784
 40
1.066982497218395
 40
1.282086364134105
 40
1.506323809221812
 40
1.63627971538179
 40
1.63627971538179
 40
1.63627971538179
 40
1.63627971538179
 10
1102.608134795766
 20
233.5195325275878
 30
0.0
 10
1102.501704717593
 20
233.6162032921955
 30
0.0
 10
1102.341799194709
 20
233.761445966329
 30
0.0
 10
1102.066988556328
 20
233.8516799497775
 30
0.0
 10
1101.851549150351
 20
233.8684953434015
 30
0.0
 10
1101.637340024208
 20
233.8117199617625
 30
0.0
 10
1101.471587906276
 20
233.6621442439674
 30
0.0
 10
1101.372694227055
 20
233.4973440730006
 30
0.0
 10
1101.335839343711
 20
233.3850183932788
 30
0.0
 10
1101.322317040866
 20
233.3438053511879
 30
0.0
 11
1102.608134795766
 21
233.5195325275878
 31
0.0
 11
1102.268730288966
 21
233.7750666927878
 31
0.0
 11
1102.066359342266
 21
233.8429782568879
 31
0.0
 11
1101.850684783866
 21
233.8561291283878
 31
0.0
 11
1101.646467940166
 21
233.7970147017879
 31
0.0
 11
1101.482391349766
 21
233.6579156505878
 31
0.0
 11
1101.366205401266
 21
233.4661260336879
 31
0.0
 11
1101.322317040866
 21
233.3438053511879
 31
0.0
  0
SPLINE
  5
5743
330
21
100
AcDbEntity
  8
0
  6
Continuous
100
AcDbSpline
210
0.0
220
0.0
230
1.0
 70
     8
 71
     3
 72
    10
 73
     6
 74
     4
 42
0.0000000001
 43
0.0000000001
 44
0.0000000001
 40
0.0
 40
0.0
 40
0.0
 40
0.0
 40
0.0910986346215681
 40
0.4382162938386397
 40
0.7867737451442718
 40
0.7867737451442718
 40
0.7867737451442718
 40
0.7867737451442718
 10
1101.322317040866
 20
233.3438053511879
 30
0.0
 10
1101.315117536963
 20
233.3142925134054
 30
0.0
 10
1101.280485405196
 20
233.1723254416988
 30
0.0
 10
1101.272248770681
 20
232.9062405218663
 30
0.0
 10
1101.310967416677
 20
232.6775318349541
 30
0.0
 10
1101.330366806366
 20
232.5629408199878
 30
0.0
 11
1101.322317040866
 21
233.3438053511879
 31
0.0
 11
1101.302016938666
 21
233.2549973161878
 31
0.0
 11
1101.283716684866
 21
232.9083623928878
 31
0.0
 11
1101.330366806366
 21
232.5629408199878
 31
0.0
  0
SPLINE
  5
5744
330
21
100
AcDbEntity
  8
0
  6
Continuous
100
AcDbSpline
210
0.0
220
0.0
230
1.0
 70
    24
 71
     3
 72
     8
 73
     4
 74
     2
 42
0.0000000001
 43
0.0000000001
 44
0.0000000001
 40
0.0
 40
0.0
 40
0.0
 40
0.0
 40
1.04103987989746
 40
1.04103987989746
 40
1.04103987989746
 40
1.04103987989746
 10
1101.330366806366
 20
232.5629408199878
 30
0.0
 10
1101.380276066466
 20
232.2195353868878
 30
0.0
 10
1101.430185326566
 20
231.8761299537878
 30
0.0
 10
1101.480094586666
 20
231.5327245206878
 30
0.0
 11
1101.330366806366
 21
232.5629408199878
 31
0.0
 11
1101.480094586666
 21
231.5327245206878
 31
0.0
  0
SPLINE
  5
5745
330
21
100
AcDbEntity
  8
0
  6
Continuous
100
AcDbSpline
210
0.0
220
0.0
230
1.0
 70
     8
 71
     3
 72
     9
 73
     5
 74
     3
 42
0.0000000001
 43
0.0000000001
 44
0.0000000001
 40
0.0
 40
0.0
 40
0.0
 40
0.0
 40
0.345562067088682
 40
0.6911347874307597
 40
0.6911347874307597
 40
0.6911347874307597
 40
0.6911347874307597
 10
1101.480094586666
 20
231.5327245206878
 30
0.0
 10
1101.507883016424
 20
231.4208246737034
 30
0.0
 10
1101.563460732624
 20
231.19702153
 30
0.0
 10
1101.592321662897
 20
230.9682338988473
 30
0.0
 10
1101.606752350466
 20
230.8538383199878
 30
0.0
 11
1101.480094586666
 21
231.5327245206878
 31
0.0
 11
1101.556780885366
 21
231.1957788962878
 31
0.0
 11
1101.606752350466
 21
230.8538383199878
 31
0.0
  0
SPLINE
  5
5746
330
21
100
AcDbEntity
  8
0
  6
Continuous
100
AcDbSpline
210
0.0
220
0.0
230
1.0
 70
     8
 71
     3
 72
    11
 73
     7
 74
     5
 42
0.0000000001
 43
0.0000000001
 44
0.0000000001
 40
0.0
 40
0.0
 40
0.0
 40
0.0
 40
0.1730341425467963
 40
0.3460203246373335
 40
0.5221181369856285
 40
0.698054587232751
 40
0.698054587232751
 40
0.698054587232751
 40
0.698054587232751
 10
1101.606752350466
 20
230.8538383199878
 30
0.0
 10
1101.599049011781
 20
230.7960642887942
 30
0.0
 10
1101.583644469571
 20
230.68053223983
 30
0.0
 10
1101.489922052311
 20
230.5292620861353
 30
0.0
 10
1101.371841082666
 20
230.3999527366621
 30
0.0
 10
1101.281689774168
 20
230.3245822612131
 30
0.0
 10
1101.236634781266
 20
230.2869142972878
 30
0.0
 11
1101.606752350466
 21
230.8538383199878
 31
0.0
 11
1101.571962204266
 21
230.6843376998878
 31
0.0
 11
1101.486588549966
 21
230.5338865172878
 31
0.0
 11
1101.369058223266
 21
230.4027489489878
 31
0.0
 11
1101.236634781266
 21
230.2869142972878
 31
0.0
  0
SPLINE
  5
5747
330
21
100
AcDbEntity
  8
0
  6
Continuous
100
AcDbSpline
210
0.0
220
0.0
230
1.0
 70
     8
 71
     3
 72
    14
 73
    10
 74
     8
 42
0.0000000001
 43
0.0000000001
 44
0.0000000001
 40
0.0
 40
0.0
 40
0.0
 40
0.0
 40
0.433388528309237
 40
0.6500573049477385
 40
0.8668227704969045
 40
1.084009393114638
 40
1.302012114510801
 40
1.519146320551115
 40
1.734879723114282
 40
1.734879723114282
 40
1.734879723114282
 40
1.734879723114282
 10
1101.236634781266
 20
230.2869142972878
 30
0.0
 10
1101.124249848524
 20
230.1960372391754
 30
0.0
 10
1100.955679058753
 20
230.0597269964734
 30
0.0
 10
1100.717613257918
 20
229.8956561582426
 30
0.0
 10
1100.531460346599
 20
229.784031589748
 30
0.0
 10
1100.336089461483
 20
229.6881250551533
 30
0.0
 10
1100.134337710945
 20
229.6072928530813
 30
0.0
 10
1099.932930103789
 20
229.5251168157531
 30
0.0
 10
1099.810035721146
 20
229.449016613786
 30
0.0
 10
1099.748787379166
 20
229.4110896467878
 30
0.0
 11
1101.236634781266
 21
230.2869142972878
 31
0.0
 11
1100.895052015966
 21
230.0201806643878
 31
0.0
 11
1100.716397065266
 21
229.8975928698878
 31
0.0
 11
1100.530113299666
 21
229.7867523279879
 31
0.0
 11
1100.335292141366
 21
229.6907588629879
 31
0.0
 11
1100.134051423366
 21
229.6069295127878
 31
0.0
 11
1099.935277972266
 21
229.5195431375878
 31
0.0
 11
1099.748787379166
 21
229.4110896467878
 31
0.0
  0
SPLINE
  5
5748
330
21
100
AcDbEntity
  8
0
  6
Continuous
100
AcDbSpline
210
0.0
220
0.0
230
1.0
 70
     8
 71
     3
 72
     9
 73
     5
 74
     3
 42
0.0000000001
 43
0.0000000001
 44
0.0000000001
 40
0.0
 40
0.0
 40
0.0
 40
0.0
 40
0.3347850975810778
 40
0.6699669612553643
 40
0.6699669612553643
 40
0.6699669612553643
 40
0.6699669612553643
 10
1099.748787379166
 20
229.4110896467878
 30
0.0
 10
1099.66239872833
 20
229.3359851754262
 30
0.0
 10
1099.4895190443
 20
229.1856872236405
 30
0.0
 10
1099.433298599453
 20
228.9636065518182
 30
0.0
 10
1099.405171729666
 20
228.8525004558878
 30
0.0
 11
1099.748787379166
 21
229.4110896467878
 31
0.0
 11
1099.518751702866
 21
229.1678518018879
 31
0.0
 11
1099.405171729666
 21
228.8525004558878
 31
0.0
  0
SPLINE
  5
5749
330
21
100
AcDbEntity
  8
0
  6
Continuous
100
AcDbSpline
210
0.0
220
0.0
230
1.0
 70
     8
 71
     3
 72
    22
 73
    18
 74
    16
 42
0.0000000001
 43
0.0000000001
 44
0.0000000001
 40
0.0
 40
0.0
 40
0.0
 40
0.0
 40
0.2153918738517603
 40
0.3239533545589883
 40
0.4317467439472787
 40
0.5402177204140697
 40
0.6506549330720871
 40
0.7043837155608823
 40
0.7567725181841056
 40
0.8633479617048249
 40
0.9767680545746327
 40
1.091937953752403
 40
1.202810864339146
 40
1.310335424132383
 40
1.41690295514231
 40
1.524802862892067
 40
1.741696880013777
 40
1.741696880013777
 40
1.741696880013777
 40
1.741696880013777
 10
1099.405171729666
 20
228.8525004558878
 30
0.0
 10
1099.397480776804
 20
228.7792861214323
 30
0.0
 10
1099.385913441719
 20
228.6691704108229
 30
0.0
 10
1099.445904960686
 20
228.5352568877217
 30
0.0
 10
1099.503281248177
 20
228.4437960894532
 30
0.0
 10
1099.563322846445
 20
228.3528438080211
 30
0.0
 10
1099.601218519342
 20
228.269254975578
 30
0.0
 10
1099.615731752923
 20
228.1981074089088
 30
0.0
 10
1099.614141153741
 20
228.1265757870911
 30
0.0
 10
1099.581889933574
 20
228.0393926406152
 30
0.0
 10
1099.516815399411
 20
227.9479341685195
 30
0.0
 10
1099.438547221829
 20
227.8658866077119
 30
0.0
 10
1099.354179092507
 20
227.793132806302
 30
0.0
 10
1099.263591805582
 20
227.7331740980455
 30
0.0
 10
1099.166253469072
 20
227.686843468329
 30
0.0
 10
1099.02824624082
 20
227.6458149905608
 30
0.0
 10
1098.9264989327
 20
227.6088121295814
 30
0.0
 10
1098.858553134766
 20
227.5841020024878
 30
0.0
 11
1099.405171729666
 21
228.8525004558878
 31
0.0
 11
1099.407111734166
 21
228.6371173188879
 31
0.0
 11
1099.448064593366
 21
228.5365764892878
 31
0.0
 11
1099.503545397866
 21
228.4441573617878
 31
0.0
 11
1099.560554404766
 21
228.3518755874879
 31
0.0
 11
1099.603753347366
 21
228.2502378518878
 31
0.0
 11
1099.613794965166
 21
228.1974557717878
 31
0.0
 11
1099.612631214166
 21
228.1450798963879
 31
0.0
 11
1099.578789245666
 21
228.0440202786878
 31
0.0
 11
1099.515106224966
 21
227.9501661879878
 31
0.0
 11
1099.436244290566
 21
227.8662322795878
 31
0.0
 11
1099.351878140466
 21
227.7942937292878
 31
0.0
 11
1099.262053783866
 21
227.7351911411878
 31
0.0
 11
1099.165722500166
 21
227.6896178765878
 31
0.0
 11
1099.063356144866
 21
227.6555074764878
 31
0.0
 11
1098.858553134766
 21
227.5841020024878
 31
0.0
  0
SPLINE
  5
574A
330
21
100
AcDbEntity
  8
0
  6
Continuous
100
AcDbSpline
210
0.0
220
0.0
230
1.0
 70
     8
 71
     3
 72
     9
 73
     5
 74
     3
 42
0.0000000001
 43
0.0000000001
 44
0.0000000001
 40
0.0
 40
0.0
 40
0.0
 40
0.0
 40
0.3302378139930927
 40
0.5727370776070564
 40
0.5727370776070564
 40
0.5727370776070564
 40
0.5727370776070564
 10
1098.858553134766
 20
227.5841020024878
 30
0.0
 10
1098.771906817438
 20
227.5139336364291
 30
0.0
 10
1098.621634630338
 20
227.3922394414761
 30
0.0
 10
1098.530004976331
 20
227.2228189744967
 30
0.0
 10
1098.491208599266
 20
227.1510856432878
 30
0.0
 11
1098.858553134766
 21
227.5841020024878
 31
0.0
 11
1098.618110641066
 21
227.3577296962878
 31
0.0
 11
1098.491208599266
 21
227.1510856432878
 31
0.0
  0
SPLINE
  5
574B
330
21
100
AcDbEntity
  8
0
  6
Continuous
100
AcDbSpline
210
0.0
220
0.0
230
1.0
 70
    24
 71
     3
 72
     8
 73
     4
 74
     2
 42
0.0000000001
 43
0.0000000001
 44
0.0000000001
 40
0.0
 40
0.0
 40
0.0
 40
0.0
 40
0.0876008858635176
 40
0.0876008858635176
 40
0.0876008858635176
 40
0.0876008858635176
 10
1098.491208599266
 20
227.1510856432878
 30
0.0
 10
1098.476049189199
 20
227.1261286897212
 30
0.0
 10
1098.460889779133
 20
227.1011717361545
 30
0.0
 10
1098.445730369066
 20
227.0762147825878
 30
0.0
 11
1098.491208599266
 21
227.1510856432878
 31
0.0
 11
1098.445730369066
 21
227.0762147825878
 31
0.0
  0
SPLINE
  5
574C
330
21
100
AcDbEntity
  8
0
  6
Continuous
100
AcDbSpline
210
0.0
220
0.0
230
1.0
 70
    24
 71
     3
 72
     8
 73
     4
 74
     2
 42
0.0000000001
 43
0.0000000001
 44
0.0000000001
 40
0.0
 40
0.0
 40
0.0
 40
0.0
 40
0.0282173199389502
 40
0.0282173199389502
 40
0.0282173199389502
 40
0.0282173199389502
 10
1098.445730369066
 20
227.0762147825878
 30
0.0
 10
1098.440972927833
 20
227.0681008855878
 30
0.0
 10
1098.436215486599
 20
227.0599869885878
 30
0.0
 10
1098.431458045366
 20
227.0518730915878
 30
0.0
 11
1098.445730369066
 21
227.0762147825878
 31
0.0
 11
1098.431458045366
 21
227.0518730915878
 31
0.0
  0
SPLINE
  5
574D
330
21
100
AcDbEntity
  8
0
  6
Continuous
100
AcDbSpline
210
0.0
220
0.0
230
1.0
 70
     8
 71
     3
 72
    11
 73
     7
 74
     5
 42
0.0000000001
 43
0.0000000001
 44
0.0000000001
 40
0.0
 40
0.0
 40
0.0
 40
0.0
 40
0.3772389112327224
 40
0.7707906682502628
 40
1.159813847991225
 40
1.549327646167315
 40
1.549327646167315
 40
1.549327646167315
 40
1.549327646167315
 10
1096.250778810166
 20
227.8307514483878
 30
0.0
 10
1096.258140191168
 20
227.9567898464317
 30
0.0
 10
1096.27318127949
 20
228.2143168887403
 30
0.0
 10
1096.200071119905
 20
228.5959248766241
 30
0.0
 10
1096.161346417734
 20
228.9852909587229
 30
0.0
 10
1096.168835787338
 20
229.2449713268412
 30
0.0
 10
1096.172582831966
 20
229.3748933335878
 30
0.0
 11
1096.250778810166
 21
227.8307514483878
 31
0.0
 11
1096.257621956166
 21
228.2079282868878
 31
0.0
 11
1096.205722511766
 21
228.5980429278878
 31
0.0
 11
1096.169655039566
 21
228.9853905389878
 31
0.0
 11
1096.172582831966
 21
229.3748933335878
 31
0.0
  0
SPLINE
  5
574E
330
21
100
AcDbEntity
  8
0
  6
Continuous
100
AcDbSpline
210
0.0
220
0.0
230
1.0
 70
     8
 71
     3
 72
    11
 73
     7
 74
     5
 42
0.0000000001
 43
0.0000000001
 44
0.0000000001
 40
0.0
 40
0.0
 40
0.0
 40
0.0
 40
0.7211258206531763
 40
1.442237220541472
 40
2.163361315385052
 40
2.884484992338341
 40
2.884484992338341
 40
2.884484992338341
 40
2.884484992338341
 10
1096.172582831966
 20
229.3748933335878
 30
0.0
 10
1096.186565032687
 20
229.6150789848714
 30
0.0
 10
1096.214529154518
 20
230.095445484309
 30
0.0
 10
1096.132208816654
 20
230.8175338814719
 30
0.0
 10
1095.901773669172
 20
231.5042583457192
 30
0.0
 10
1095.84246119824
 20
231.9825242313574
 30
0.0
 10
1095.812804971366
 20
232.2216571048878
 30
0.0
 11
1096.172582831966
 21
229.3748933335878
 31
0.0
 11
1096.193817967966
 21
230.0957064287878
 31
0.0
 11
1096.107523986766
 21
230.8116358944878
 31
0.0
 11
1095.925351600166
 21
231.5093702147878
 31
0.0
 11
1095.812804971366
 21
232.2216571048878
 31
0.0
  0
SPLINE
  5
574F
330
21
100
AcDbEntity
  8
0
  6
Continuous
100
AcDbSpline
210
0.0
220
0.0
230
1.0
 70
     8
 71
     3
 72
    15
 73
    11
 74
     9
 42
0.0000000001
 43
0.0000000001
 44
0.0000000001
 40
0.0
 40
0.0
 40
0.0
 40
0.0
 40
0.742014692363095
 40
1.214581619414166
 40
1.789756484284349
 40
3.674019684913613
 40
4.541650766422791
 40
5.328676197520857
 40
6.756177783338358
 40
7.666261252161289
 40
7.666261252161289
 40
7.666261252161289
 40
7.666261252161289
 10
1095.812804971366
 20
232.2216571048878
 30
0.0
 10
1095.767727764529
 20
232.4678354005393
 30
0.0
 10
1095.693942235157
 20
232.8707972772709
 30
0.0
 10
1095.948744770102
 20
233.4733647205255
 30
0.0
 10
1096.953834449744
 20
233.7494934066465
 30
0.0
 10
1097.96533476598
 20
234.069768326637
 30
0.0
 10
1099.074882352136
 20
234.5667120267623
 30
0.0
 10
1099.697578777625
 20
235.4065834007096
 30
0.0
 10
1100.378567370085
 20
236.1909489199766
 30
0.0
 10
1100.967404687996
 20
236.7032376702406
 30
0.0
 10
1101.196654574666
 20
236.9026851820878
 30
0.0
 11
1095.812804971366
 21
232.2216571048878
 31
0.0
 11
1095.769648911066
 21
232.9624157417879
 31
0.0
 11
1095.976857638366
 21
233.3871321693878
 31
0.0
 11
1096.499863553966
 21
233.6264874229878
 31
0.0
 11
1098.286676900866
 21
234.2246060337878
 31
0.0
 11
1099.049430103766
 21
234.6381169103878
 31
0.0
 11
1099.572632036266
 21
235.2260529332878
 31
0.0
 11
1100.520936304566
 21
236.2930486184878
 31
0.0
 11
1101.196654574666
 21
236.9026851820878
 31
0.0
  0
SPLINE
  5
5750
330
21
100
AcDbEntity
  8
0
  6
Continuous
100
AcDbSpline
210
0.0
220
0.0
230
1.0
 70
     8
 71
     3
 72
    14
 73
    10
 74
     8
 42
0.0000000001
 43
0.0000000001
 44
0.0000000001
 40
0.0
 40
0.0
 40
0.0
 40
0.0
 40
0.1971906304884062
 40
0.3944503658149567
 40
0.5903299888515825
 40
0.7870697249860971
 40
0.983166553148381
 40
1.179458802884104
 40
1.569060756518243
 40
1.569060756518243
 40
1.569060756518243
 40
1.569060756518243
 10
1101.196654574666
 20
236.9026851820878
 30
0.0
 10
1101.25353708269
 20
236.9359129839326
 30
0.0
 10
1101.367322033034
 20
237.0023802322011
 30
0.0
 10
1101.558046856145
 20
237.0598396335516
 30
0.0
 10
1101.75727861795
 20
237.064135251764
 30
0.0
 10
1101.948943641767
 20
237.0092675284154
 30
0.0
 10
1102.116075066514
 20
236.902127067797
 30
0.0
 10
1102.295954735042
 20
236.7079859856227
 30
0.0
 10
1102.36285347762
 20
236.521649129019
 30
0.0
 10
1102.407339121366
 20
236.3977407459878
 30
0.0
 11
1101.196654574666
 21
236.9026851820878
 31
0.0
 11
1101.370714589966
 21
236.9953526295878
 31
0.0
 11
1101.559944571666
 21
237.0510609521879
 31
0.0
 11
1101.755797256166
 21
237.0543094433879
 31
0.0
 11
1101.945027276666
 21
237.0004715095878
 31
0.0
 11
1102.110760507866
 21
236.8956551840878
 31
0.0
 11
1102.243869687366
 21
236.7513894790878
 31
0.0
 11
1102.407339121366
 21
236.3977407459878
 31
0.0
  0
SPLINE
  5
5751
330
21
100
AcDbEntity
  8
0
  6
Continuous
100
AcDbSpline
210
0.0
220
0.0
230
1.0
 70
     8
 71
     3
 72
    10
 73
     6
 74
     4
 42
0.0000000001
 43
0.0000000001
 44
0.0000000001
 40
0.0
 40
0.0
 40
0.0
 40
0.0
 40
0.9018566394138047
 40
1.352842493844876
 40
1.804113669923233
 40
1.804113669923233
 40
1.804113669923233
 40
1.804113669923233
 10
1102.407339121366
 20
236.3977407459878
 30
0.0
 10
1102.45963723491
 20
236.1018294191455
 30
0.0
 10
1102.538087741628
 20
235.657943550963
 30
0.0
 10
1102.638996189078
 20
235.0642248082591
 30
0.0
 10
1102.727842366431
 20
234.7765335889061
 30
0.0
 10
1102.772279503066
 20
234.6326424907879
 30
0.0
 11
1102.407339121366
 21
236.3977407459878
 31
0.0
 11
1102.562996789766
 21
235.5094186825879
 31
0.0
 11
1102.648569351766
 21
235.0666257540878
 31
0.0
 11
1102.772279503066
 21
234.6326424907879
 31
0.0
  0
SPLINE
  5
5752
330
21
100
AcDbEntity
  8
0
  6
Continuous
100
AcDbSpline
210
0.0
220
0.0
230
1.0
 70
     8
 71
     3
 72
    11
 73
     7
 74
     5
 42
0.0000000001
 43
0.0000000001
 44
0.0000000001
 40
0.0
 40
0.0
 40
0.0
 40
0.0
 40
0.3600644447211769
 40
0.72003222151189
 40
1.080000255516468
 40
1.43997542076077
 40
1.43997542076077
 40
1.43997542076077
 40
1.43997542076077
 10
1102.772279503066
 20
234.6326424907879
 30
0.0
 10
1102.827850700217
 20
234.5259261582631
 30
0.0
 10
1102.938978175101
 20
234.3125221437709
 30
0.0
 10
1103.170370994169
 20
234.0336778405767
 30
0.0
 10
1103.44015527018
 20
233.7927464015716
 30
0.0
 10
1103.57340979293
 20
233.5918610104579
 30
0.0
 10
1103.640037714266
 20
233.4914173199878
 30
0.0
 11
1102.772279503066
 21
234.6326424907879
 31
0.0
 11
1102.949781308566
 21
234.3193702235878
 31
0.0
 11
1103.176772655666
 21
234.0399928288878
 31
0.0
 11
1103.428503144966
 21
233.7826822261878
 31
0.0
 11
1103.640037714266
 21
233.4914173199878
 31
0.0
  0
SPLINE
  5
5753
330
21
100
AcDbEntity
  8
0
  6
Continuous
100
AcDbSpline
210
0.0
220
0.0
230
1.0
 70
     8
 71
     3
 72
    12
 73
     8
 74
     6
 42
0.0000000001
 43
0.0000000001
 44
0.0000000001
 40
0.0
 40
0.0
 40
0.0
 40
0.0
 40
0.0383854049894953
 40
0.2432813955713533
 40
0.3456401048146802
 40
0.4481083294636923
 40
0.6531815642262429
 40
0.6531815642262429
 40
0.6531815642262429
 40
0.6531815642262429
 10
1098.932598529066
 20
226.5962147981878
 30
0.0
 10
1098.945222590082
 20
226.5983092587594
 30
0.0
 10
1099.025232145346
 20
226.6115836606046
 30
0.0
 10
1099.140174799113
 20
226.6211049204743
 30
0.0
 10
1099.275690222853
 20
226.6383471592405
 30
0.0
 10
1099.409908353028
 20
226.6646307695988
 30
0.0
 10
1099.508404361201
 20
226.6932752616854
 30
0.0
 10
1099.574082969366
 20
226.7123758364878
 30
0.0
 11
1098.932598529066
 21
226.5962147981878
 31
0.0
 11
1098.970492960866
 21
226.6023345493878
 31
0.0
 11
1099.174027477166
 21
226.6259156356878
 31
0.0
 11
1099.275484794066
 21
226.6394699045878
 31
0.0
 11
1099.376066405866
 21
226.6590422429878
 31
0.0
 11
1099.574082969366
 21
226.7123758364878
 31
0.0
  0
SPLINE
  5
5754
330
21
100
AcDbEntity
  8
0
  6
Continuous
100
AcDbSpline
210
0.0
220
0.0
230
1.0
 70
    24
 71
     3
 72
     8
 73
     4
 74
     2
 42
0.0000000001
 43
0.0000000001
 44
0.0000000001
 40
0.0
 40
0.0
 40
0.0
 40
0.0
 40
0.3469178471296573
 40
0.3469178471296573
 40
0.3469178471296573
 40
0.3469178471296573
 10
1099.574082969366
 20
226.7123758364878
 30
0.0
 10
1099.687482440166
 20
226.7350254203878
 30
0.0
 10
1099.800881910966
 20
226.7576750042878
 30
0.0
 10
1099.914281381766
 20
226.7803245881878
 30
0.0
 11
1099.574082969366
 21
226.7123758364878
 31
0.0
 11
1099.914281381766
 21
226.7803245881878
 31
0.0
  0
SPLINE
  5
5755
330
21
100
AcDbEntity
  8
0
  6
Continuous
100
AcDbSpline
210
0.0
220
0.0
230
1.0
 70
     8
 71
     3
 72
    15
 73
    11
 74
     9
 42
0.0000000001
 43
0.0000000001
 44
0.0000000001
 40
0.0
 40
0.0
 40
0.0
 40
0.0
 40
0.3843221060323932
 40
0.5766428766490912
 40
0.7683065895522776
 40
0.9601481996535221
 40
1.154929323507214
 40
1.349490672840153
 40
1.540711257101855
 40
1.563033440442186
 40
1.563033440442186
 40
1.563033440442186
 40
1.563033440442186
 10
1099.914281381766
 20
226.7803245881878
 30
0.0
 10
1100.0406883872
 20
226.8019968626267
 30
0.0
 10
1100.230351427911
 20
226.8345142809064
 30
0.0
 10
1100.486156415809
 20
226.8500816925627
 30
0.0
 10
1100.677744564314
 20
226.8611978510906
 30
0.0
 10
1100.870185389916
 20
226.8722489417935
 30
0.0
 10
1101.063824902649
 20
226.8801416384022
 30
0.0
 10
1101.257508213102
 20
226.8720941194974
 30
0.0
 10
1101.391634414212
 20
226.8394388708744
 30
0.0
 10
1101.456415452866
 20
226.8099245618147
 30
0.0
 10
1101.463187184066
 20
226.8068393539878
 30
0.0
 11
1099.914281381766
 21
226.7803245881878
 31
0.0
 11
1100.294536573966
 21
226.8360872099878
 31
0.0
 11
1100.486353244866
 21
226.8500027974878
 31
0.0
 11
1100.677691018166
 21
226.8611757716878
 31
0.0
 11
1100.869245580466
 21
226.8716663878878
 31
0.0
 11
1101.063940208466
 21
226.8774705275878
 31
0.0
 11
1101.258136431866
 21
226.8655564404878
 31
0.0
 11
1101.442812970666
 21
226.8159591838878
 31
0.0
 11
1101.463187184066
 21
226.8068393539878
 31
0.0
  0
SPLINE
  5
5756
330
21
100
AcDbEntity
  8
0
  6
Continuous
100
AcDbSpline
210
0.0
220
0.0
230
1.0
 70
     8
 71
     3
 72
    14
 73
    10
 74
     8
 42
0.0000000001
 43
0.0000000001
 44
0.0000000001
 40
0.0
 40
0.0
 40
0.0
 40
0.0
 40
0.32363190590116
 40
0.669089135783469
 40
1.01456203075675
 40
1.36000050525798
 40
1.704523353442284
 40
2.051731077837373
 40
2.74264923656416
 40
2.74264923656416
 40
2.74264923656416
 40
2.74264923656416
 10
1101.463187184066
 20
226.8068393539878
 30
0.0
 10
1101.555314239418
 20
226.7478496089693
 30
0.0
 10
1101.745781281524
 20
226.6258919255801
 30
0.0
 10
1101.913109588559
 20
226.3185368314854
 30
0.0
 10
1101.999984902285
 20
225.9837891330428
 30
0.0
 10
1102.022094532673
 20
225.6360453008363
 30
0.0
 10
1101.96463710066
 20
225.293369320885
 30
0.0
 10
1101.845192630159
 20
224.8482864533414
 30
0.0
 10
1101.784347548476
 20
224.5073390060686
 30
0.0
 10
1101.743852486666
 20
224.2804235747878
 30
0.0
 11
1101.463187184066
 21
226.8068393539878
 31
0.0
 11
1101.720824610866
 21
226.6109808161878
 31
0.0
 11
1101.899099034566
 21
226.3150772380878
 31
0.0
 11
1101.989195773266
 21
225.9815594741878
 31
0.0
 11
1102.008840060266
 21
225.6366800145878
 31
0.0
 11
1101.959468207266
 21
225.2957131348878
 31
0.0
 11
1101.878110841666
 21
224.9581717552878
 31
0.0
 11
1101.743852486666
 21
224.2804235747878
 31
0.0
  0
SPLINE
  5
5757
330
21
100
AcDbEntity
  8
0
  6
Continuous
100
AcDbSpline
210
0.0
220
0.0
230
1.0
 70
     8
 71
     3
 72
    11
 73
     7
 74
     5
 42
0.0000000001
 43
0.0000000001
 44
0.0000000001
 40
0.0
 40
0.0
 40
0.0
 40
0.0
 40
0.0935285689529155
 40
0.1870563008760156
 40
0.2805843015979196
 40
0.3741131171001317
 40
0.3741131171001317
 40
0.3741131171001317
 40
0.3741131171001317
 10
1100.787114116566
 20
231.7435812448878
 30
0.0
 10
1100.78653373886
 20
231.7760235764376
 30
0.0
 10
1100.785372988641
 20
231.8409079491961
 30
0.0
 10
1100.707479842516
 20
231.9087219317751
 30
0.0
 10
1100.604493836919
 20
231.9164433742215
 30
0.0
 10
1100.557529957338
 20
231.8716587006899
 30
0.0
 10
1100.534047915266
 20
231.8492662663878
 30
0.0
 11
1100.787114116566
 21
231.7435812448878
 31
0.0
 11
1100.772680859466
 21
231.8359894387878
 31
0.0
 11
1100.703297811466
 21
231.8987064961878
 31
0.0
 11
1100.609917494466
 21
231.9039603819879
 31
0.0
 11
1100.534047915266
 21
231.8492662663878
 31
0.0
  0
SPLINE
  5
5758
330
21
100
AcDbEntity
  8
0
  6
Continuous
100
AcDbSpline
210
0.0
220
0.0
230
1.0
 70
     8
 71
     3
 72
     9
 73
     5
 74
     3
 42
0.0000000001
 43
0.0000000001
 44
0.0000000001
 40
0.0
 40
0.0
 40
0.0
 40
0.0
 40
0.9444512605351217
 40
1.888902543450764
 40
1.888902543450764
 40
1.888902543450764
 40
1.888902543450764
 10
1100.534047915266
 20
231.8492662663878
 30
0.0
 10
1100.318959929342
 20
231.6064503196017
 30
0.0
 10
1099.888783952398
 20
231.1208184202756
 30
0.0
 10
1099.251371084028
 20
231.0000105202275
 30
0.0
 10
1098.932664646066
 20
230.9396065694878
 30
0.0
 11
1100.534047915266
 21
231.8492662663878
 31
0.0
 11
1099.836974735866
 21
231.2120244236878
 31
0.0
 11
1098.932664646066
 21
230.9396065694878
 31
0.0
  0
SPLINE
  5
5759
330
21
100
AcDbEntity
  8
0
  6
Continuous
100
AcDbSpline
210
0.0
220
0.0
230
1.0
 70
     8
 71
     3
 72
    11
 73
     7
 74
     5
 42
0.0000000001
 43
0.0000000001
 44
0.0000000001
 40
0.0
 40
0.0
 40
0.0
 40
0.0
 40
0.1133348159797493
 40
0.2266682086736534
 40
0.3400014425682542
 40
0.4518321886393159
 40
0.4518321886393159
 40
0.4518321886393159
 40
0.4518321886393159
 10
1098.932664646066
 20
230.9396065694878
 30
0.0
 10
1098.89475073924
 20
230.9284890322793
 30
0.0
 10
1098.81892340172
 20
230.9062540974788
 30
0.0
 10
1098.769543074464
 20
230.7895083348021
 30
0.0
 10
1098.805362512549
 20
230.6685911795466
 30
0.0
 10
1098.877403298332
 20
230.6376781904196
 30
0.0
 10
1098.913183332166
 20
230.6223248348878
 30
0.0
 11
1098.932664646066
 21
230.9396065694878
 31
0.0
 11
1098.829649819066
 21
230.8923548400878
 31
0.0
 11
1098.783769495866
 21
230.7887235038879
 31
0.0
 11
1098.817736446366
 21
230.6806001105878
 31
0.0
 11
1098.913183332166
 21
230.6223248348878
 31
0.0
  0
SPLINE
  5
575A
330
21
100
AcDbEntity
  8
0
  6
Continuous
100
AcDbSpline
210
0.0
220
0.0
230
1.0
 70
     8
 71
     3
 72
    11
 73
     7
 74
     5
 42
0.0000000001
 43
0.0000000001
 44
0.0000000001
 40
0.0
 40
0.0
 40
0.0
 40
0.0
 40
0.8541128099376837
 40
1.59637190003742
 40
2.014326647485623
 40
2.437561408050571
 40
2.437561408050571
 40
2.437561408050571
 40
2.437561408050571
 10
1098.913183332166
 20
230.6223248348878
 30
0.0
 10
1099.199683616195
 20
230.608008587653
 30
0.0
 10
1099.735164406852
 20
230.5812509339406
 30
0.0
 10
1100.384293773356
 20
230.88193679791
 30
0.0
 10
1100.688367205056
 20
231.3315301462611
 30
0.0
 10
1100.754061029491
 20
231.6056573277331
 30
0.0
 10
1100.787114116566
 20
231.7435812448878
 30
0.0
 11
1098.913183332166
 21
230.6223248348878
 31
0.0
 11
1099.766661263266
 21
230.6552507095878
 31
0.0
 11
1100.426963718666
 21
230.9942923356878
 31
0.0
 11
1100.663692665866
 21
231.3387420075879
 31
0.0
 11
1100.787114116566
 21
231.7435812448878
 31
0.0
  0
SPLINE
  5
575B
330
21
100
AcDbEntity
  8
0
  6
Continuous
100
AcDbSpline
210
0.0
220
0.0
230
1.0
 70
     8
 71
     3
 72
    14
 73
    10
 74
     8
 42
0.0000000001
 43
0.0000000001
 44
0.0000000001
 40
0.0
 40
0.0
 40
0.0
 40
0.0
 40
0.1314363787655129
 40
0.4603145457231109
 40
2.296145027206178
 40
2.598057162509258
 40
2.862071666029181
 40
3.877359736664769
 40
4.290351374099908
 40
4.290351374099908
 40
4.290351374099908
 40
4.290351374099908
 10
1099.473507364866
 20
233.8974874302878
 30
0.0
 10
1099.435617044642
 20
233.9217112714319
 30
0.0
 10
1099.302918124409
 20
234.0065476503449
 30
0.0
 10
1098.497765565396
 20
233.7633622982125
 30
0.0
 10
1097.87830667899
 20
233.2805174847574
 30
0.0
 10
1097.184302565653
 20
232.8621581276668
 30
0.0
 10
1096.878116265624
 20
232.4092509506189
 30
0.0
 10
1097.033063889953
 20
231.7841852635679
 30
0.0
 10
1097.2012588621
 20
231.3460662142211
 30
0.0
 10
1097.249892975266
 20
231.2193826923878
 30
0.0
 11
1099.473507364866
 21
233.8974874302878
 31
0.0
 11
1099.357495471866
 21
233.9592673812878
 31
0.0
 11
1099.031156942666
 21
233.9184750650879
 31
0.0
 11
1097.433457893366
 21
233.0142453903878
 31
0.0
 11
1097.188703996466
 21
232.8374786870878
 31
0.0
 11
1097.039132170566
 21
232.6199196675878
 31
0.0
 11
1097.107119364166
 21
231.6069104830878
 31
0.0
 11
1097.249892975266
 21
231.2193826923878
 31
0.0
  0
SPLINE
  5
575C
330
21
100
AcDbEntity
  8
0
  6
Continuous
100
AcDbSpline
210
0.0
220
0.0
230
1.0
 70
     8
 71
     3
 72
    18
 73
    14
 74
    12
 42
0.0000000001
 43
0.0000000001
 44
0.0000000001
 40
0.0
 40
0.0
 40
0.0
 40
0.0
 40
0.2898829832057587
 40
0.6774696199301674
 40
0.9268074966289598
 40
1.103312516985321
 40
2.063473678585134
 40
3.017646752551507
 40
3.936480531594316
 40
4.059610576113812
 40
4.128944181478
 40
4.202483575274489
 40
4.292516427462683
 40
4.292516427462683
 40
4.292516427462683
 40
4.292516427462683
 10
1097.249892975266
 20
231.2193826923878
 30
0.0
 10
1097.316745545179
 20
231.1399456275775
 30
0.0
 10
1097.472983019452
 20
230.9542976205432
 30
0.0
 10
1097.864551427065
 20
231.1093867000882
 30
0.0
 10
1097.903418812347
 20
231.4043917173717
 30
0.0
 10
1097.734907050004
 20
231.8362202335606
 30
0.0
 10
1097.816170851926
 20
232.5831279427501
 30
0.0
 10
1098.353209869671
 20
233.3991080507697
 30
0.0
 10
1099.003283943406
 20
233.6918871436524
 30
0.0
 10
1099.365052825719
 20
233.7351719206226
 30
0.0
 10
1099.458821722787
 20
233.7375713735971
 30
0.0
 10
1099.508655102495
 20
233.8156338435351
 30
0.0
 10
1099.485985233369
 20
233.8684284250459
 30
0.0
 10
1099.473507364866
 20
233.8974874302878
 30
0.0
 11
1097.249892975266
 21
231.2193826923878
 31
0.0
 11
1097.474250209566
 21
231.0358180569878
 31
0.0
 11
1097.834582335566
 21
231.1785911634878
 31
0.0
 11
1097.882173371066
 21
231.4233450604878
 31
0.0
 11
1097.834582335566
 21
231.5933130443878
 31
0.0
 11
1097.888972090466
 21
232.5519324739878
 31
0.0
 11
1098.426070919766
 21
233.3405839195878
 31
0.0
 11
1099.262313400866
 21
233.7213122036878
 31
0.0
 11
1099.384690349366
 21
233.7349096423878
 31
0.0
 11
1099.452677542966
 21
233.7485070810878
 31
0.0
 11
1099.493469859066
 21
233.8096955553878
 31
0.0
 11
1099.473507364866
 21
233.8974874302878
 31
0.0
  0
SPLINE
  5
575D
330
21
100
AcDbEntity
  8
0
  6
Continuous
100
AcDbSpline
210
0.0
220
0.0
230
1.0
 70
     8
 71
     3
 72
     9
 73
     5
 74
     3
 42
0.0000000001
 43
0.0000000001
 44
0.0000000001
 40
0.0
 40
0.0
 40
0.0
 40
0.0
 40
3.158231882708432
 40
6.316463775368368
 40
6.316463775368368
 40
6.316463775368368
 40
6.316463775368368
 10
1103.902578315166
 20
232.5146595139878
 30
0.0
 10
1104.447800466048
 20
231.6016886029258
 30
0.0
 10
1105.538244769529
 20
229.775746777925
 30
0.0
 10
1105.871707892845
 20
227.6752861920034
 30
0.0
 10
1106.038439454766
 20
226.6250558973879
 30
0.0
 11
1103.902578315166
 21
232.5146595139878
 31
0.0
 11
1105.348999473366
 21
229.7071170907878
 31
0.0
 11
1106.038439454766
 21
226.6250558973879
 31
0.0
  0
SPLINE
  5
575E
330
21
100
AcDbEntity
  8
0
  6
Continuous
100
AcDbSpline
210
0.0
220
0.0
230
1.0
 70
     8
 71
     3
 72
    15
 73
    11
 74
     9
 42
0.0000000001
 43
0.0000000001
 44
0.0000000001
 40
0.0
 40
0.0
 40
0.0
 40
0.0
 40
0.3890681942698979
 40
0.8130068211353643
 40
1.261850964326857
 40
1.525417037602491
 40
1.792928191935262
 40
4.308203671007565
 40
6.721128272271653
 40
7.596849517751296
 40
7.596849517751296
 40
7.596849517751296
 40
7.596849517751296
 10
1106.038439454766
 20
226.6250558973879
 30
0.0
 10
1106.020290735245
 20
226.4887712115491
 30
0.0
 10
1105.982366708086
 20
226.2039872563579
 30
0.0
 10
1105.524584385897
 20
226.0103699545817
 30
0.0
 10
1105.129465526754
 20
226.2154887881762
 30
0.0
 10
1105.049359696295
 20
226.5463438679518
 30
0.0
 10
1105.025624243979
 20
227.5562310545494
 30
0.0
 10
1104.996124241594
 20
229.3092074959338
 30
0.0
 10
1104.338012160562
 20
231.1583738335989
 30
0.0
 10
1103.840867829569
 20
232.1345552020817
 30
0.0
 10
1103.708485118566
 20
232.3944989003878
 30
0.0
 11
1106.038439454766
 21
226.6250558973879
 31
0.0
 11
1105.925131114666
 21
226.2528526197878
 31
0.0
 11
1105.536724482166
 21
226.0829578076879
 31
0.0
 11
1105.140253492866
 21
226.2933665040879
 31
0.0
 11
1105.059355912966
 21
226.5442103928879
 31
0.0
 11
1105.043191903866
 21
226.8112327561878
 31
0.0
 11
1104.857265585766
 21
229.3196270911878
 31
0.0
 11
1104.096823474366
 21
231.6095906119878
 31
0.0
 11
1103.708485118566
 21
232.3944989003878
 31
0.0
  0
SPLINE
  5
575F
330
21
100
AcDbEntity
  8
0
  6
Continuous
100
AcDbSpline
210
0.0
220
0.0
230
1.0
 70
     8
 71
     3
 72
    11
 73
     7
 74
     5
 42
0.0000000001
 43
0.0000000001
 44
0.0000000001
 40
0.0
 40
0.0
 40
0.0
 40
0.0
 40
0.0848384952168968
 40
0.1696754701877947
 40
0.2545123713724874
 40
0.3393510447419011
 40
0.3393510447419011
 40
0.3393510447419011
 40
0.3393510447419011
 10
1103.708485118566
 20
232.3944989003878
 30
0.0
 10
1103.700380506394
 20
232.4230821039882
 30
0.0
 10
1103.684171427278
 20
232.480247998998
 30
0.0
 10
1103.742390578999
 20
232.5565728398981
 30
0.0
 10
1103.836668587894
 20
232.5746619989896
 30
0.0
 10
1103.880608253099
 20
232.5346604815877
 30
0.0
 10
1103.902578315166
 20
232.5146595139878
 30
0.0
 11
1103.708485118566
 21
232.3944989003878
 31
0.0
 11
1103.697927022066
 21
232.4786778577879
 31
0.0
 11
1103.748400362866
 21
232.5468669638878
 31
0.0
 11
1103.831939894866
 21
232.5616468960878
 31
0.0
 11
1103.902578315166
 21
232.5146595139878
 31
0.0
  0
SPLINE
  5
5760
330
21
100
AcDbEntity
  8
0
  6
Continuous
100
AcDbSpline
210
0.0
220
0.0
230
1.0
 70
     8
 71
     3
 72
     9
 73
     5
 74
     3
 42
0.0000000001
 43
0.0000000001
 44
0.0000000001
 40
0.0
 40
0.0
 40
0.0
 40
0.0
 40
2.293945445279729
 40
4.587890824581235
 40
4.587890824581235
 40
4.587890824581235
 40
4.587890824581235
 10
1104.889734494766
 20
232.2913364744878
 30
0.0
 10
1105.404674606421
 20
231.7051997586233
 30
0.0
 10
1106.43455481492
 20
230.5329263437529
 30
0.0
 10
1106.715671433498
 20
228.9980479620851
 30
0.0
 10
1106.856229740766
 20
228.2306087822878
 30
0.0
 11
1104.889734494766
 21
232.2913364744878
 31
0.0
 11
1106.247363926866
 21
230.4422750825878
 31
0.0
 11
1106.856229740766
 21
228.2306087822878
 31
0.0
  0
SPLINE
  5
5761
330
21
100
AcDbEntity
  8
0
  6
Continuous
100
AcDbSpline
210
0.0
220
0.0
230
1.0
 70
     8
 71
     3
 72
    19
 73
    15
 74
    13
 42
0.0000000001
 43
0.0000000001
 44
0.0000000001
 40
0.0
 40
0.0
 40
0.0
 40
0.0
 40
0.0399291134071939
 40
0.0799186345070354
 40
0.1602806135567059
 40
0.2407244687157028
 40
0.3208728017925114
 40
0.4822081742645233
 40
0.6454570204999758
 40
0.8085390885374644
 40
0.9707720216504192
 40
1.130473659796031
 40
1.29014559290878
 40
1.294133039315011
 40
1.294133039315011
 40
1.294133039315011
 40
1.294133039315011
 10
1106.856229740766
 20
228.2306087822878
 30
0.0
 10
1106.856949036092
 20
228.2173119883528
 30
0.0
 10
1106.858388714948
 20
228.1906982841172
 30
0.0
 10
1106.855607295772
 20
228.1372243292836
 30
0.0
 10
1106.84059092725
 20
228.0714432294729
 30
0.0
 10
1106.807898531702
 20
227.9975850563671
 30
0.0
 10
1106.746110645744
 20
227.9089898101962
 30
0.0
 10
1106.634649438929
 20
227.8261185648696
 30
0.0
 10
1106.472843767836
 20
227.7844263684286
 30
0.0
 10
1106.30793965973
 20
227.8138665124284
 30
0.0
 10
1106.167678069745
 20
227.9028957546886
 30
0.0
 10
1106.0765328342
 20
228.0403841020779
 30
0.0
 10
1106.055683146322
 20
228.1495187960527
 30
0.0
 10
1106.056666687473
 20
228.2040590202417
 30
0.0
 10
1106.056690650766
 20
228.2053878546878
 30
0.0
 11
1106.856229740766
 21
228.2306087822878
 31
0.0
 11
1106.857682059166
 21
228.1907060897878
 31
0.0
 11
1106.855544786266
 21
228.1507737236878
 31
0.0
 11
1106.838151496666
 21
228.0723165942879
 31
0.0
 11
1106.805591703066
 21
227.9987565937878
 31
0.0
 11
1106.759472723166
 21
227.9332066510878
 31
0.0
 11
1106.630653468666
 21
227.8360742564878
 31
0.0
 11
1106.472320290766
 21
227.7963150993878
 31
0.0
 11
1106.311604955766
 21
227.8239979823879
 31
0.0
 11
1106.175116300666
 21
227.9116927462879
 31
0.0
 11
1106.086491481266
 21
228.0445470070878
 31
0.0
 11
1106.056625608866
 21
228.2014009387878
 31
0.0
 11
1106.056690650766
 21
228.2053878546878
 31
0.0
  0
SPLINE
  5
5762
330
21
100
AcDbEntity
  8
0
  6
Continuous
100
AcDbSpline
210
0.0
220
0.0
230
1.0
 70
     8
 71
     3
 72
     9
 73
     5
 74
     3
 42
0.0000000001
 43
0.0000000001
 44
0.0000000001
 40
0.0
 40
0.0
 40
0.0
 40
0.0
 40
2.0958502935116
 40
4.195624821426428
 40
4.195624821426428
 40
4.195624821426428
 40
4.195624821426428
 10
1106.056690650766
 20
228.2053878546878
 30
0.0
 10
1106.001204080488
 20
228.914928093869
 30
0.0
 10
1105.890127047822
 20
230.3353371032938
 30
0.0
 10
1105.089907039871
 20
231.514198442324
 30
0.0
 10
1104.689422806666
 20
232.1041804156878
 30
0.0
 11
1106.056690650766
 21
228.2053878546878
 31
0.0
 11
1105.718267328566
 21
230.2737345634878
 31
0.0
 11
1104.689422806666
 21
232.1041804156878
 31
0.0
  0
SPLINE
  5
5763
330
21
100
AcDbEntity
  8
0
  6
Continuous
100
AcDbSpline
210
0.0
220
0.0
230
1.0
 70
     8
 71
     3
 72
    11
 73
     7
 74
     5
 42
0.0000000001
 43
0.0000000001
 44
0.0000000001
 40
0.0
 40
0.0
 40
0.0
 40
0.0
 40
0.1010135617105715
 40
0.2020255336048099
 40
0.3030373571436441
 40
0.404050708736426
 40
0.404050708736426
 40
0.404050708736426
 40
0.404050708736426
 10
1104.689422806666
 20
232.1041804156878
 30
0.0
 10
1104.673704306925
 20
232.1358355171332
 30
0.0
 10
1104.642267554831
 20
232.1991452218155
 30
0.0
 10
1104.692760070996
 20
232.30138302231
 30
0.0
 10
1104.798187232936
 20
232.3448248697409
 30
0.0
 10
1104.859218586948
 20
232.3091660294762
 30
0.0
 10
1104.889734494766
 20
232.2913364744878
 30
0.0
 11
1104.689422806666
 21
232.1041804156878
 31
0.0
 11
1104.658542197166
 21
232.2003579993878
 31
0.0
 11
1104.701915845366
 21
232.2915837912878
 31
0.0
 11
1104.795873345466
 21
232.3286698623878
 31
0.0
 11
1104.889734494766
 21
232.2913364744878
 31
0.0
  0
SPLINE
  5
5764
330
21
100
AcDbEntity
  8
0
  6
Continuous
100
AcDbSpline
210
0.0
220
0.0
230
1.0
 70
     8
 71
     3
 72
    10
 73
     6
 74
     4
 42
0.0000000001
 43
0.0000000001
 44
0.0000000001
 40
0.0
 40
0.0
 40
0.0
 40
0.0
 40
0.5130985299143439
 40
1.028927229064208
 40
1.536656807987531
 40
1.536656807987531
 40
1.536656807987531
 40
1.536656807987531
 10
1101.572226270566
 20
223.4890743890879
 30
0.0
 10
1101.457174163012
 20
223.6156257464092
 30
0.0
 10
1101.226457761928
 20
223.8694018339078
 30
0.0
 10
1100.881906931773
 20
224.2484176171721
 30
0.0
 10
1100.652391709875
 20
224.5008670433822
 30
0.0
 10
1100.538542142666
 20
224.6260929768878
 30
0.0
 11
1101.572226270566
 21
223.4890743890879
 31
0.0
 11
1101.227072245466
 21
223.8687305497879
 31
0.0
 11
1100.880087918166
 21
224.2504125161878
 31
0.0
 11
1100.538542142666
 21
224.6260929768878
 31
0.0
  0
SPLINE
  5
5765
330
21
100
AcDbEntity
  8
0
  6
Continuous
100
AcDbSpline
210
0.0
220
0.0
230
1.0
 70
    24
 71
     3
 72
     8
 73
     4
 74
     2
 42
0.0000000001
 43
0.0000000001
 44
0.0000000001
 40
0.0
 40
0.0
 40
0.0
 40
0.0
 40
0.0154700086229608
 40
0.0154700086229608
 40
0.0154700086229608
 40
0.0154700086229608
 10
1100.538542142666
 20
224.6260929768878
 30
0.0
 10
1100.535073355566
 20
224.6299085707878
 30
0.0
 10
1100.531604568466
 20
224.6337241646878
 30
0.0
 10
1100.528135781366
 20
224.6375397585878
 30
0.0
 11
1100.538542142666
 21
224.6260929768878
 31
0.0
 11
1100.528135781366
 21
224.6375397585878
 31
0.0
  0
SPLINE
  5
5766
330
21
100
AcDbEntity
  8
0
  6
Continuous
100
AcDbSpline
210
0.0
220
0.0
230
1.0
 70
     8
 71
     3
 72
    10
 73
     6
 74
     4
 42
0.0000000001
 43
0.0000000001
 44
0.0000000001
 40
0.0
 40
0.0
 40
0.0
 40
0.0
 40
0.719546792793641
 40
1.444185613601393
 40
2.088387835352458
 40
2.088387835352458
 40
2.088387835352458
 40
2.088387835352458
 10
1100.241209841066
 20
224.9627561707879
 30
0.0
 10
1100.077806343809
 20
225.1383372327668
 30
0.0
 10
1099.749842989217
 20
225.4907418939651
 30
0.0
 10
1099.283962306926
 20
226.0080216754061
 30
0.0
 10
1098.974939623049
 20
226.3437275281703
 30
0.0
 10
1098.829507762566
 20
226.5017169874878
 30
0.0
 11
1100.241209841066
 21
224.9627561707879
 31
0.0
 11
1099.752437222766
 21
225.4908176393878
 31
0.0
 11
1099.264992813766
 21
226.0270073154878
 31
0.0
 11
1098.829507762566
 21
226.5017169874878
 31
0.0
  0
SPLINE
  5
5767
330
21
100
AcDbEntity
  8
0
  6
Continuous
100
AcDbSpline
210
0.0
220
0.0
230
1.0
 70
    24
 71
     3
 72
     8
 73
     4
 74
     2
 42
0.0000000001
 43
0.0000000001
 44
0.0000000001
 40
0.0
 40
0.0
 40
0.0
 40
0.0
 40
0.0853427408936681
 40
0.0853427408936681
 40
0.0853427408936681
 40
0.0853427408936681
 10
1098.829507762566
 20
226.5017169874878
 30
0.0
 10
1098.810347054599
 20
226.5227439248545
 30
0.0
 10
1098.791186346633
 20
226.5437708622212
 30
0.0
 10
1098.772025638666
 20
226.5647977995878
 30
0.0
 11
1098.829507762566
 21
226.5017169874878
 31
0.0
 11
1098.772025638666
 21
226.5647977995878
 31
0.0
  0
SPLINE
  5
5768
330
21
100
AcDbEntity
  8
0
  6
Continuous
100
AcDbSpline
210
0.0
220
0.0
230
1.0
 70
    24
 71
     3
 72
     8
 73
     4
 74
     2
 42
0.0000000001
 43
0.0000000001
 44
0.0000000001
 40
0.0
 40
0.0
 40
0.0
 40
0.0
 40
0.0998655773840811
 40
0.0998655773840811
 40
0.0998655773840811
 40
0.0998655773840811
 10
1101.701339104866
 20
224.0843996380878
 30
0.0
 10
1101.676695936633
 20
224.1067790976211
 30
0.0
 10
1101.652052768399
 20
224.1291585571545
 30
0.0
 10
1101.627409600166
 20
224.1515380166879
 30
0.0
 11
1101.701339104866
 21
224.0843996380878
 31
0.0
 11
1101.627409600166
 21
224.1515380166879
 31
0.0
  0
SPLINE
  5
5769
330
21
100
AcDbEntity
  8
0
  6
Continuous
100
AcDbSpline
210
0.0
220
0.0
230
1.0
 70
     8
 71
     3
 72
     9
 73
     5
 74
     3
 42
0.0000000001
 43
0.0000000001
 44
0.0000000001
 40
0.0
 40
0.0
 40
0.0
 40
0.0
 40
1.131179815068326
 40
1.297828318166629
 40
1.297828318166629
 40
1.297828318166629
 40
1.297828318166629
 10
1101.627409600166
 20
224.1515380166879
 30
0.0
 10
1101.347415215123
 20
224.404080118815
 30
0.0
 10
1101.026171291747
 20
224.6938274138992
 30
0.0
 10
1100.705532376704
 20
224.9842437321667
 30
0.0
 10
1100.664360524866
 20
225.0215348314879
 30
0.0
 11
1101.627409600166
 21
224.1515380166879
 31
0.0
 11
1100.787886055766
 21
224.9096725643878
 31
0.0
 11
1100.664360524866
 21
225.0215348314879
 31
0.0
  0
SPLINE
  5
576A
330
21
100
AcDbEntity
  8
0
  6
Continuous
100
AcDbSpline
210
0.0
220
0.0
230
1.0
 70
     8
 71
     3
 72
     9
 73
     5
 74
     3
 42
0.0000000001
 43
0.0000000001
 44
0.0000000001
 40
0.0
 40
0.0
 40
0.0
 40
0.0
 40
1.079667936357478
 40
2.34064452153057
 40
2.34064452153057
 40
2.34064452153057
 40
2.34064452153057
 10
1100.664360524866
 20
225.0215348314879
 30
0.0
 10
1100.398156402735
 20
225.2637241931224
 30
0.0
 10
1099.821044497218
 20
225.7887737786416
 30
0.0
 10
1099.243655558621
 20
226.3135187040149
 30
0.0
 10
1098.932598529066
 20
226.5962147981878
 30
0.0
 11
1100.664360524866
 21
225.0215348314879
 31
0.0
 11
1099.865689214266
 21
225.7480380939878
 31
0.0
 11
1098.932598529066
 21
226.5962147981878
 31
0.0
  0
SPLINE
  5
576B
330
21
100
AcDbEntity
  8
0
  6
Continuous
100
AcDbSpline
210
0.0
220
0.0
230
1.0
 70
     8
 71
     3
 72
    10
 73
     6
 74
     4
 42
0.0000000001
 43
0.0000000001
 44
0.0000000001
 40
0.0
 40
0.0
 40
0.0
 40
0.0
 40
0.1218340587757342
 40
0.2440554208260783
 40
0.3666633073390981
 40
0.3666633073390981
 40
0.3666633073390981
 40
0.3666633073390981
 10
1105.265044546366
 20
219.4269135161878
 30
0.0
 10
1105.237728476187
 20
219.4569653763068
 30
0.0
 10
1105.183009499655
 20
219.5171646296326
 30
0.0
 10
1105.100796722139
 20
219.6076027693351
 30
0.0
 10
1105.045898336454
 20
219.6679875229368
 30
0.0
 10
1105.018405808166
 20
219.6982275659878
 30
0.0
 11
1105.265044546366
 21
219.4269135161878
 31
0.0
 11
1105.183095633666
 21
219.5170684582878
 31
0.0
 11
1105.100882619366
 21
219.6075067334879
 31
0.0
 11
1105.018405808166
 21
219.6982275659878
 31
0.0
  0
SPLINE
  5
576C
330
21
100
AcDbEntity
  8
0
  6
Continuous
100
AcDbSpline
210
0.0
220
0.0
230
1.0
 70
     8
 71
     3
 72
    10
 73
     6
 74
     4
 42
0.0000000001
 43
0.0000000001
 44
0.0000000001
 40
0.0
 40
0.0
 40
0.0
 40
0.0
 40
0.1218278074771332
 40
0.2440429232829428
 40
0.3666445759582003
 40
0.3666445759582003
 40
0.3666445759582003
 40
0.3666445759582003
 10
1106.004992494666
 20
220.1668774690878
 30
0.0
 10
1105.974942318504
 20
220.1941922939001
 30
0.0
 10
1105.914746432295
 20
220.2489087813276
 30
0.0
 10
1105.82431373653
 20
220.3311182651584
 30
0.0
 10
1105.763932816676
 20
220.386014683583
 30
0.0
 10
1105.733694689566
 20
220.4135062302878
 30
0.0
 11
1106.004992494666
 21
220.1668774690878
 31
0.0
 11
1105.914842670166
 21
220.2488227179879
 31
0.0
 11
1105.824409825766
 21
220.3310324204879
 31
0.0
 11
1105.733694689566
 21
220.4135062302878
 31
0.0
  0
SPLINE
  5
576D
330
21
100
AcDbEntity
  8
0
  6
Continuous
100
AcDbSpline
210
0.0
220
0.0
230
1.0
 70
    24
 71
     3
 72
     8
 73
     4
 74
     2
 42
0.0000000001
 43
0.0000000001
 44
0.0000000001
 40
0.0
 40
0.0
 40
0.0
 40
0.0
 40
0.0355557275652189
 40
0.0355557275652189
 40
0.0355557275652189
 40
0.0355557275652189
 10
1098.395974338466
 20
226.9829330934879
 30
0.0
 10
1098.388001995499
 20
226.9917028995879
 30
0.0
 10
1098.380029652532
 20
227.0004727056879
 30
0.0
 10
1098.372057309566
 20
227.0092425117879
 30
0.0
 11
1098.395974338466
 21
226.9829330934879
 31
0.0
 11
1098.372057309566
 21
227.0092425117879
 31
0.0
  0
SPLINE
  5
576E
330
21
100
AcDbEntity
  8
0
  6
Continuous
100
AcDbSpline
210
0.0
220
0.0
230
1.0
 70
     8
 71
     3
 72
    10
 73
     6
 74
     4
 42
0.0000000001
 43
0.0000000001
 44
0.0000000001
 40
0.0
 40
0.0
 40
0.0
 40
0.0
 40
0.2265378049948283
 40
0.4892239081499807
 40
0.752495920595439
 40
0.752495920595439
 40
0.752495920595439
 40
0.752495920595439
 10
1098.372057309566
 20
227.0092425117879
 30
0.0
 10
1098.321263496686
 20
227.0651186389128
 30
0.0
 10
1098.211570778299
 20
227.1857869630582
 30
0.0
 10
1098.042847391725
 20
227.371391644621
 30
0.0
 10
1097.924909662361
 20
227.5011127846107
 30
0.0
 10
1097.865875107266
 20
227.5660456082878
 30
0.0
 11
1098.372057309566
 21
227.0092425117879
 31
0.0
 11
1098.219675816366
 21
227.1768708435878
 31
0.0
 11
1098.042976699566
 21
227.3712452526878
 31
0.0
 11
1097.865875107266
 21
227.5660456082878
 31
0.0
  0
SPLINE
  5
576F
330
21
100
AcDbEntity
  8
0
  6
Continuous
100
AcDbSpline
210
0.0
220
0.0
230
1.0
 70
     8
 71
     3
 72
    10
 73
     6
 74
     4
 42
0.0000000001
 43
0.0000000001
 44
0.0000000001
 40
0.0
 40
0.0
 40
0.0
 40
0.0
 40
0.2542457595648103
 40
0.5090369102475303
 40
0.7643673904632308
 40
0.7643673904632308
 40
0.7643673904632308
 40
0.7643673904632308
 10
1098.431458045366
 20
227.0518730915878
 30
0.0
 10
1098.36874964884
 20
227.1088816867556
 30
0.0
 10
1098.2431983379
 20
227.2230211681435
 30
0.0
 10
1098.054663897762
 20
227.3944045564863
 30
0.0
 10
1097.928849050563
 20
227.5087916655733
 30
0.0
 10
1097.865875117666
 20
227.5660456883878
 30
0.0
 11
1098.431458045366
 21
227.0518730915878
 31
0.0
 11
1098.243331660966
 21
227.2228975627879
 31
0.0
 11
1098.054799122066
 21
227.3942860461878
 31
0.0
 11
1097.865875117666
 21
227.5660456883878
 31
0.0
  0
SPLINE
  5
5770
330
21
100
AcDbEntity
  8
0
  6
Continuous
100
AcDbSpline
210
0.0
220
0.0
230
1.0
 70
    24
 71
     3
 72
     8
 73
     4
 74
     2
 42
0.0000000001
 43
0.0000000001
 44
0.0000000001
 40
0.0
 40
0.0
 40
0.0
 40
0.0
 40
0.0143883520716792
 40
0.0143883520716792
 40
0.0143883520716792
 40
0.0143883520716792
 10
1100.462834538666
 20
224.5590147888878
 30
0.0
 10
1100.459699842333
 20
224.5626447228545
 30
0.0
 10
1100.456565145999
 20
224.5662746568212
 30
0.0
 10
1100.453430449666
 20
224.5699045907878
 30
0.0
 11
1100.462834538666
 21
224.5590147888878
 31
0.0
 11
1100.453430449666
 21
224.5699045907878
 31
0.0
  0
SPLINE
  5
5771
330
21
100
AcDbEntity
  8
0
  6
Continuous
100
AcDbSpline
210
0.0
220
0.0
230
1.0
 70
    24
 71
     3
 72
     8
 73
     4
 74
     2
 42
0.0000000001
 43
0.0000000001
 44
0.0000000001
 40
0.0
 40
0.0
 40
0.0
 40
0.0
 40
0.1433529347852462
 40
0.1433529347852462
 40
0.1433529347852462
 40
0.1433529347852462
 10
1100.453430449666
 20
224.5699045907878
 30
0.0
 10
1100.422201252533
 20
224.6060719473545
 30
0.0
 10
1100.390972055399
 20
224.6422393039211
 30
0.0
 10
1100.359742858266
 20
224.6784066604878
 30
0.0
 11
1100.453430449666
 21
224.5699045907878
 31
0.0
 11
1100.359742858266
 21
224.6784066604878
 31
0.0
  0
SPLINE
  5
5772
330
21
100
AcDbEntity
  8
0
  6
Continuous
100
AcDbSpline
210
0.0
220
0.0
230
1.0
 70
    24
 71
     3
 72
     8
 73
     4
 74
     2
 42
0.0000000001
 43
0.0000000001
 44
0.0000000001
 40
0.0
 40
0.0
 40
0.0
 40
0.0
 40
0.1719699684845695
 40
0.1719699684845695
 40
0.1719699684845695
 40
0.1719699684845695
 10
1100.359742858266
 20
224.6784066604878
 30
0.0
 10
1100.322274751733
 20
224.7217898868879
 30
0.0
 10
1100.284806645199
 20
224.7651731132879
 30
0.0
 10
1100.247338538666
 20
224.8085563396879
 30
0.0
 11
1100.359742858266
 21
224.6784066604878
 31
0.0
 11
1100.247338538666
 21
224.8085563396879
 31
0.0
  0
SPLINE
  5
5773
330
21
100
AcDbEntity
  8
0
  6
Continuous
100
AcDbSpline
210
0.0
220
0.0
230
1.0
 70
    24
 71
     3
 72
     8
 73
     4
 74
     2
 42
0.0000000001
 43
0.0000000001
 44
0.0000000001
 40
0.0
 40
0.0
 40
0.0
 40
0.0
 40
0.1207067942661307
 40
0.1207067942661307
 40
0.1207067942661307
 40
0.1207067942661307
 10
1100.247338538666
 20
224.8085563396879
 30
0.0
 10
1100.221040650699
 20
224.8390083419545
 30
0.0
 10
1100.194742762733
 20
224.8694603442212
 30
0.0
 10
1100.168444874766
 20
224.8999123464878
 30
0.0
 11
1100.247338538666
 21
224.8085563396879
 31
0.0
 11
1100.168444874766
 21
224.8999123464878
 31
0.0
  0
SPLINE
  5
5774
330
21
100
AcDbEntity
  8
0
  6
Continuous
100
AcDbSpline
210
0.0
220
0.0
230
1.0
 70
    24
 71
     3
 72
     8
 73
     4
 74
     2
 42
0.0000000001
 43
0.0000000001
 44
0.0000000001
 40
0.0
 40
0.0
 40
0.0
 40
0.0
 40
0.0515735752981969
 40
0.0515735752981969
 40
0.0515735752981969
 40
0.0515735752981969
 10
1100.168444874766
 20
224.8999123464878
 30
0.0
 10
1100.157208538099
 20
224.9129231809212
 30
0.0
 10
1100.145972201433
 20
224.9259340153545
 30
0.0
 10
1100.134735864766
 20
224.9389448497878
 30
0.0
 11
1100.168444874766
 21
224.8999123464878
 31
0.0
 11
1100.134735864766
 21
224.9389448497878
 31
0.0
  0
SPLINE
  5
5775
330
21
100
AcDbEntity
  8
0
  6
Continuous
100
AcDbSpline
210
0.0
220
0.0
230
1.0
 70
    24
 71
     3
 72
     8
 73
     4
 74
     2
 42
0.0000000001
 43
0.0000000001
 44
0.0000000001
 40
0.0
 40
0.0
 40
0.0
 40
0.0
 40
0.1772224734812536
 40
0.1772224734812536
 40
0.1772224734812536
 40
0.1772224734812536
 10
1098.735083865566
 20
226.5594770395878
 30
0.0
 10
1098.696489785599
 20
226.6042012289544
 30
0.0
 10
1098.657895705632
 20
226.6489254183211
 30
0.0
 10
1098.619301625666
 20
226.6936496076878
 30
0.0
 11
1098.735083865566
 21
226.5594770395878
 31
0.0
 11
1098.619301625666
 21
226.6936496076878
 31
0.0
  0
SPLINE
  5
5776
330
21
100
AcDbEntity
  8
0
  6
Continuous
100
AcDbSpline
210
0.0
220
0.0
230
1.0
 70
    24
 71
     3
 72
     8
 73
     4
 74
     2
 42
0.0000000001
 43
0.0000000001
 44
0.0000000001
 40
0.0
 40
0.0
 40
0.0
 40
0.0
 40
0.1774969182971911
 40
0.1774969182971911
 40
0.1774969182971911
 40
0.1774969182971911
 10
1098.619301625666
 20
226.6936496076878
 30
0.0
 10
1098.580630537233
 20
226.7384281718545
 30
0.0
 10
1098.541959448799
 20
226.7832067360212
 30
0.0
 10
1098.503288360366
 20
226.8279853001878
 30
0.0
 11
1098.619301625666
 21
226.6936496076878
 31
0.0
 11
1098.503288360366
 21
226.8279853001878
 31
0.0
  0
SPLINE
  5
5777
330
21
100
AcDbEntity
  8
0
  6
Continuous
100
AcDbSpline
210
0.0
220
0.0
230
1.0
 70
    24
 71
     3
 72
     8
 73
     4
 74
     2
 42
0.0000000001
 43
0.0000000001
 44
0.0000000001
 40
0.0
 40
0.0
 40
0.0
 40
0.0
 40
0.1777691074671241
 40
0.1777691074671241
 40
0.1777691074671241
 40
0.1777691074671241
 10
1098.503288360366
 20
226.8279853001878
 30
0.0
 10
1098.464556457966
 20
226.8728312255545
 30
0.0
 10
1098.425824555566
 20
226.9176771509212
 30
0.0
 10
1098.387092653166
 20
226.9625230762879
 30
0.0
 11
1098.503288360366
 21
226.8279853001878
 31
0.0
 11
1098.387092653166
 21
226.9625230762879
 31
0.0
  0
SPLINE
  5
5778
330
21
100
AcDbEntity
  8
0
  6
Continuous
100
AcDbSpline
210
0.0
220
0.0
230
1.0
 70
    24
 71
     3
 72
     8
 73
     4
 74
     2
 42
0.0000000001
 43
0.0000000001
 44
0.0000000001
 40
0.0
 40
0.0
 40
0.0
 40
0.0
 40
0.0309442544269229
 40
0.0309442544269229
 40
0.0309442544269229
 40
0.0309442544269229
 10
1098.979992884166
 20
226.6037275630878
 30
0.0
 10
1098.972187164499
 20
226.6104703250211
 30
0.0
 10
1098.964381444833
 20
226.6172130869545
 30
0.0
 10
1098.956575725166
 20
226.6239558488878
 30
0.0
 11
1098.979992884166
 21
226.6037275630878
 31
0.0
 11
1098.956575725166
 21
226.6239558488878
 31
0.0
  0
SPLINE
  5
5779
330
21
100
AcDbEntity
  8
0
  6
Continuous
100
AcDbSpline
210
0.0
220
0.0
230
1.0
 70
    24
 71
     3
 72
     8
 73
     4
 74
     2
 42
0.0000000001
 43
0.0000000001
 44
0.0000000001
 40
0.0
 40
0.0
 40
0.0
 40
0.0
 40
0.1009362682948609
 40
0.1009362682948609
 40
0.1009362682948609
 40
0.1009362682948609
 10
1098.956575725166
 20
226.6239558488878
 30
0.0
 10
1098.931121683166
 20
226.6459582628211
 30
0.0
 10
1098.905667641166
 20
226.6679606767544
 30
0.0
 10
1098.880213599166
 20
226.6899630906878
 30
0.0
 11
1098.956575725166
 21
226.6239558488878
 31
0.0
 11
1098.880213599166
 21
226.6899630906878
 31
0.0
  0
SPLINE
  5
577A
330
21
100
AcDbEntity
  8
0
  6
Continuous
100
AcDbSpline
210
0.0
220
0.0
230
1.0
 70
    24
 71
     3
 72
     8
 73
     4
 74
     2
 42
0.0000000001
 43
0.0000000001
 44
0.0000000001
 40
0.0
 40
0.0
 40
0.0
 40
0.0
 40
0.1048831063597687
 40
0.1048831063597687
 40
0.1048831063597687
 40
0.1048831063597687
 10
1098.880213599166
 20
226.6899630906878
 30
0.0
 10
1098.853765756233
 20
226.7128275960212
 30
0.0
 10
1098.827317913299
 20
226.7356921013545
 30
0.0
 10
1098.800870070366
 20
226.7585566066879
 30
0.0
 11
1098.880213599166
 21
226.6899630906878
 31
0.0
 11
1098.800870070366
 21
226.7585566066879
 31
0.0
  0
SPLINE
  5
577B
330
21
100
AcDbEntity
  8
0
  6
Continuous
100
AcDbSpline
210
0.0
220
0.0
230
1.0
 70
     8
 71
     3
 72
     9
 73
     5
 74
     3
 42
0.0000000001
 43
0.0000000001
 44
0.0000000001
 40
0.0
 40
0.0
 40
0.0
 40
0.0
 40
0.2372572813444516
 40
0.4530957563968407
 40
0.4530957563968407
 40
0.4530957563968407
 40
0.4530957563968407
 10
1098.800870070366
 20
226.7585566066879
 30
0.0
 10
1098.741015758468
 20
226.8102481809919
 30
0.0
 10
1098.626710584905
 20
226.9089647844441
 30
0.0
 10
1098.512401848527
 20
227.0076772623169
 30
0.0
 10
1098.457949289666
 20
227.0547003261878
 30
0.0
 11
1098.800870070366
 21
226.7585566066879
 31
0.0
 11
1098.621306157766
 21
226.9136301983878
 31
0.0
 11
1098.457949289666
 21
227.0547003261878
 31
0.0
  0
SPLINE
  5
577C
330
21
100
AcDbEntity
  8
0
  6
Continuous
100
AcDbSpline
210
0.0
220
0.0
230
1.0
 70
     8
 71
     3
 72
    10
 73
     6
 74
     4
 42
0.0000000001
 43
0.0000000001
 44
0.0000000001
 40
0.0
 40
0.0
 40
0.0
 40
0.0
 40
1.785904583974443
 40
3.628495968508487
 40
5.45458386834063
 40
5.45458386834063
 40
5.45458386834063
 40
5.45458386834063
 10
1105.913210102366
 20
220.6161101319878
 30
0.0
 10
1105.462663409739
 20
221.0052008502684
 30
0.0
 10
1104.547269120205
 20
221.7957325031538
 30
0.0
 10
1103.171234422962
 20
222.9841601194414
 30
0.0
 10
1102.245715977663
 20
223.7834617700822
 30
0.0
 10
1101.785038468666
 20
224.1813147736878
 30
0.0
 11
1105.913210102366
 21
220.6161101319878
 31
0.0
 11
1104.561577067066
 21
221.7833904414879
 31
0.0
 11
1103.167066998866
 21
222.9877511349878
 31
0.0
 11
1101.785038468666
 21
224.1813147736878
 31
0.0
  0
SPLINE
  5
577D
330
21
100
AcDbEntity
  8
0
  6
Continuous
100
AcDbSpline
210
0.0
220
0.0
230
1.0
 70
    24
 71
     3
 72
     8
 73
     4
 74
     2
 42
0.0000000001
 43
0.0000000001
 44
0.0000000001
 40
0.0
 40
0.0
 40
0.0
 40
0.0
 40
0.0697547938472369
 40
0.0697547938472369
 40
0.0697547938472369
 40
0.0697547938472369
 10
1101.785038468666
 20
224.1813147736878
 30
0.0
 10
1101.7674409878
 20
224.1965123219879
 30
0.0
 10
1101.749843506933
 20
224.2117098702879
 30
0.0
 10
1101.732246026066
 20
224.2269074185879
 30
0.0
 11
1101.785038468666
 21
224.1813147736878
 31
0.0
 11
1101.732246026066
 21
224.2269074185879
 31
0.0
  0
SPLINE
  5
577E
330
21
100
AcDbEntity
  8
0
  6
Continuous
100
AcDbSpline
210
0.0
220
0.0
230
1.0
 70
     8
 71
     3
 72
    10
 73
     6
 74
     4
 42
0.0000000001
 43
0.0000000001
 44
0.0000000001
 40
0.0
 40
0.0
 40
0.0
 40
0.0
 40
1.616402165925707
 40
3.290411640778281
 40
5.00927422071333
 40
5.00927422071333
 40
5.00927422071333
 40
5.00927422071333
 10
1104.809148009566
 20
219.5264095172878
 30
0.0
 10
1104.456991151649
 20
219.9341983910459
 30
0.0
 10
1103.740126840837
 20
220.7643094150714
 30
0.0
 10
1102.648700047137
 20
222.027986423477
 30
0.0
 10
1101.909512630456
 20
222.8839458236555
 30
0.0
 10
1101.535032965566
 20
223.3175833316878
 30
0.0
 11
1104.809148009566
 21
219.5264095172878
 31
0.0
 11
1103.752664259166
 21
220.7497647588879
 31
0.0
 11
1102.658486254866
 21
222.0166831527878
 31
0.0
 11
1101.535032965566
 21
223.3175833316878
 31
0.0
  0
ARC
  5
577F
330
21
100
AcDbEntity
  8
0
  6
Continuous
100
AcDbCircle
 10
1097.865875110866
 20
227.5660456446878
 30
0.0
 40
10.6330336686
100
AcDbArc
 50
270.0
 51
180.561865240287
  0
ENDSEC
  0
SECTION
  2
OBJECTS
  0
DICTIONARY
  5
232
330
0
100
AcDbDictionary
281
     1
  3
ACAD_COLOR
350
2B7
  3
ACAD_GROUP
350
233
  3
ACAD_LAYOUT
350
274
  3
ACAD_MATERIAL
350
2B6
  3
ACAD_MLINESTYLE
350
234
  3
ACAD_PLOTSETTINGS
350
275
  3
ACAD_PLOTSTYLENAME
350
272
  3
ACDBHEADERROUNDTRIPXREC
350
5E34
  3
AcDbVariableDictionary
350
2AE
  0
DICTIONARY
  5
2B7
102
{ACAD_REACTORS
330
232
102
}
330
232
100
AcDbDictionary
281
     1
  0
DICTIONARY
  5
233
102
{ACAD_REACTORS
330
232
102
}
330
232
100
AcDbDictionary
281
     1
  0
DICTIONARY
  5
274
102
{ACAD_REACTORS
330
232
102
}
330
232
100
AcDbDictionary
281
     1
  3
Layout1
350
277
  3
Model
350
276
  0
DICTIONARY
  5
2B6
102
{ACAD_REACTORS
330
232
102
}
330
232
100
AcDbDictionary
281
     1
  0
DICTIONARY
  5
234
102
{ACAD_REACTORS
330
232
102
}
330
232
100
AcDbDictionary
281
     1
  3
STANDARD
350
235
  0
DICTIONARY
  5
275
102
{ACAD_REACTORS
330
232
102
}
330
232
100
AcDbDictionary
281
     1
  0
ACDBDICTIONARYWDFLT
  5
272
102
{ACAD_REACTORS
330
232
102
}
330
232
100
AcDbDictionary
281
     1
  3
Normal
350
273
100
AcDbDictionaryWithDefault
340
273
  0
DICTIONARY
  5
5E34
102
{ACAD_REACTORS
330
232
102
}
330
232
100
AcDbDictionary
281
     1
  3
COLORDICT
350
5E35
  3
MATERIALDICT
350
5E36
  0
DICTIONARY
  5
2AE
102
{ACAD_REACTORS
330
232
102
}
330
232
100
AcDbDictionary
281
     1
  0
LAYOUT
  5
277
102
{ACAD_REACTORS
330
274
102
}
330
274
100
AcDbPlotSettings
  1

  2
\\alderaan\HP LaserJet 5Si/5Si MX PS Tecnico
  4

  6

 40
0.0
 41
0.0
 42
0.0
 43
0.0
 44
0.0
 45
0.0
 46
0.0
 47
0.0
 48
0.0
 49
0.0
140
0.0
141
0.0
142
1.0
143
1.0
 70
   688
 72
     0
 73
     0
 74
     5
  7

 75
    16
147
1.0
148
0.0
149
0.0
100
AcDbLayout
  1
Layout1
 70
     0
 71
     1
 10
0.0
 20
0.0
 11
12.0
 21
9.0
 12
0.0
 22
0.0
 32
0.0
 14
1.000000000000000E+20
 24
1.000000000000000E+20
 34
1.000000000000000E+20
 15
-1.000000000000000E+20
 25
-1.000000000000000E+20
 35
-1.000000000000000E+20
146
0.0
 13
0.0
 23
0.0
 33
0.0
 16
1.0
 26
0.0
 36
0.0
 17
0.0
 27
1.0
 37
0.0
 76
     0
330
22
  0
LAYOUT
  5
276
102
{ACAD_REACTORS
330
274
102
}
330
274
100
AcDbPlotSettings
  1

  2
\\alderaan\HP LaserJet 4050 Ricerca
  4
A4
  6

 40
5.027083396911621
 41
5.069430828094482
 42
5.365737915039062
 43
5.365753173828125
 44
209.8886566162109
 45
297.0530090332031
 46
0.0
 47
0.0
 48
70.15568666023683
 49
-413.5017910393744
140
1567.471881557387
141
355.5977189696187
142
1.0
143
5.224086096996019
 70
 11952
 72
     1
 73
     1
 74
     4
  7

 75
     0
147
0.1914210411989621
148
-70.15568666023683
149
413.5017910393744
100
AcDbLayout
  1
Model
 70
     1
 71
     0
 10
0.0
 20
0.0
 11
12.0
 21
9.0
 12
0.0
 22
0.0
 32
0.0
 14
0.0
 24
0.0
 34
0.0
 15
0.0
 25
0.0
 35
0.0
146
0.0
 13
0.0
 23
0.0
 33
0.0
 16
1.0
 26
0.0
 36
0.0
 17
0.0
 27
1.0
 37
0.0
 76
     0
330
21
  0
MLINESTYLE
  5
235
102
{ACAD_REACTORS
330
234
102
}
330
234
100
AcDbMlineStyle
  2
STANDARD
 70
     0
  3

 62
     0
 51
90.00000000000019
 52
90.00000000000019
 71
     2
 49
0.5
 62
   256
  6
BYLAYER
 49
-0.5
 62
   256
  6
BYLAYER
  0
ACDBPLACEHOLDER
  5
273
102
{ACAD_REACTORS
330
272
102
}
330
272
  0
XRECORD
  5
5E35
102
{ACAD_REACTORS
330
5E34
102
}
330
5E34
100
AcDbXrecord
280
     1
340
2B7
  0
XRECORD
  5
5E36
102
{ACAD_REACTORS
330
5E34
102
}
330
5E34
100
AcDbXrecord
280
     1
340
2B6
  0
ENDSEC
  0
EOF
