  0
SECTION
  2
HEADER
  9
$ACADVER
  1
AC1015
  9
$ACADMAINTVER
 70
     6
  9
$DWGCODEPAGE
  3
ANSI_1252
  9
$INSBASE
 10
0.0
 20
0.0
 30
0.0
  9
$EXTMIN
 10
284.3190627940706
 20
-451.816176746759
 30
-40.73332500000001
  9
$EXTMAX
 10
4800.663162093308
 20
246.9266154161779
 30
20.8
  9
$LIMMIN
 10
0.0
 20
0.0
  9
$LIMMAX
 10
420.0
 20
297.0
  9
$ORTHOMODE
 70
     1
  9
$REGENMODE
 70
     1
  9
$FILLMODE
 70
     1
  9
$QTEXTMODE
 70
     0
  9
$MIRRTEXT
 70
     1
  9
$LTSCALE
 40
23.1
  9
$ATTMODE
 70
     1
  9
$TEXTSIZE
 40
0.2
  9
$TRACEWID
 40
0.05
  9
$TEXTSTYLE
  7
STANDARD
  9
$CLAYER
  8
0
  9
$CELTYPE
  6
BYLAYER
  9
$CECOLOR
 62
   256
  9
$CELTSCALE
 40
1.0
  9
$DISPSILH
 70
     0
  9
$DIMSCALE
 40
1.0
  9
$DIMASZ
 40
3.0
  9
$DIMEXO
 40
2.625
  9
$DIMDLI
 40
15.96
  9
$DIMRND
 40
0.0
  9
$DIMDLE
 40
0.0
  9
$DIMEXE
 40
7.559999999999999
  9
$DIMTP
 40
0.0
  9
$DIMTM
 40
0.0
  9
$DIMTXT
 40
0.18
  9
$DIMCEN
 40
3.779999999999999
  9
$DIMTSZ
 40
0.0
  9
$DIMTOL
 70
     0
  9
$DIMLIM
 70
     0
  9
$DIMTIH
 70
     1
  9
$DIMTOH
 70
     1
  9
$DIMSE1
 70
     0
  9
$DIMSE2
 70
     0
  9
$DIMTAD
 70
     0
  9
$DIMZIN
 70
     0
  9
$DIMBLK
  1

  9
$DIMASO
 70
     1
  9
$DIMSHO
 70
     1
  9
$DIMPOST
  1

  9
$DIMAPOST
  1

  9
$DIMALT
 70
     0
  9
$DIMALTD
 70
     2
  9
$DIMALTF
 40
25.4
  9
$DIMLFAC
 40
1.0
  9
$DIMTOFL
 70
     0
  9
$DIMTVP
 40
0.0
  9
$DIMTIX
 70
     0
  9
$DIMSOXD
 70
     0
  9
$DIMSAH
 70
     0
  9
$DIMBLK1
  1

  9
$DIMBLK2
  1

  9
$DIMSTYLE
  2
STANDARD
  9
$DIMCLRD
 70
     0
  9
$DIMCLRE
 70
     0
  9
$DIMCLRT
 70
     0
  9
$DIMTFAC
 40
1.0
  9
$DIMGAP
 40
0.09
  9
$DIMJUST
 70
     0
  9
$DIMSD1
 70
     0
  9
$DIMSD2
 70
     0
  9
$DIMTOLJ
 70
     1
  9
$DIMTZIN
 70
     0
  9
$DIMALTZ
 70
     0
  9
$DIMALTTZ
 70
     0
  9
$DIMUPT
 70
     0
  9
$DIMDEC
 70
     4
  9
$DIMTDEC
 70
     4
  9
$DIMALTU
 70
     2
  9
$DIMALTTD
 70
     2
  9
$DIMTXSTY
  7
STANDARD
  9
$DIMAUNIT
 70
     0
  9
$DIMADEC
 70
     0
  9
$DIMALTRND
 40
0.0
  9
$DIMAZIN
 70
     0
  9
$DIMDSEP
 70
    46
  9
$DIMATFIT
 70
     3
  9
$DIMFRAC
 70
     0
  9
$DIMLDRBLK
  1

  9
$DIMLUNIT
 70
     2
  9
$DIMLWD
 70
    -2
  9
$DIMLWE
 70
    -2
  9
$DIMTMOVE
 70
     0
  9
$LUNITS
 70
     2
  9
$LUPREC
 70
     4
  9
$SKETCHINC
 40
0.1
  9
$FILLETRAD
 40
0.0
  9
$AUNITS
 70
     0
  9
$AUPREC
 70
     0
  9
$MENU
  1
acad
  9
$ELEVATION
 40
0.0
  9
$PELEVATION
 40
0.0
  9
$THICKNESS
 40
0.0
  9
$LIMCHECK
 70
     0
  9
$CHAMFERA
 40
0.0
  9
$CHAMFERB
 40
0.0
  9
$CHAMFERC
 40
0.0
  9
$CHAMFERD
 40
0.0
  9
$SKPOLY
 70
     0
  9
$TDCREATE
 40
2444972.041666667
  9
$TDUCREATE
 40
2444972.0
  9
$TDUPDATE
 40
2453410.55808353
  9
$TDUUPDATE
 40
2453410.516416864
  9
$TDINDWG
 40
1.2634201968
  9
$TDUSRTIMER
 40
1.2634201968
  9
$USRTIMER
 70
     1
  9
$ANGBASE
 50
0.0
  9
$ANGDIR
 70
     0
  9
$PDMODE
 70
     0
  9
$PDSIZE
 40
0.0
  9
$PLINEWID
 40
0.0
  9
$SPLFRAME
 70
     0
  9
$SPLINETYPE
 70
     6
  9
$SPLINESEGS
 70
     8
  9
$HANDSEED
  5
5F09
  9
$SURFTAB1
 70
     6
  9
$SURFTAB2
 70
     6
  9
$SURFTYPE
 70
     6
  9
$SURFU
 70
     6
  9
$SURFV
 70
     6
  9
$UCSBASE
  2

  9
$UCSNAME
  2

  9
$UCSORG
 10
0.0
 20
0.0
 30
0.0
  9
$UCSXDIR
 10
1.0
 20
0.0
 30
0.0
  9
$UCSYDIR
 10
0.0
 20
1.0
 30
0.0
  9
$UCSORTHOREF
  2

  9
$UCSORTHOVIEW
 70
     0
  9
$UCSORGTOP
 10
0.0
 20
0.0
 30
0.0
  9
$UCSORGBOTTOM
 10
0.0
 20
0.0
 30
0.0
  9
$UCSORGLEFT
 10
0.0
 20
0.0
 30
0.0
  9
$UCSORGRIGHT
 10
0.0
 20
0.0
 30
0.0
  9
$UCSORGFRONT
 10
0.0
 20
0.0
 30
0.0
  9
$UCSORGBACK
 10
0.0
 20
0.0
 30
0.0
  9
$PUCSBASE
  2

  9
$PUCSNAME
  2

  9
$PUCSORG
 10
0.0
 20
0.0
 30
0.0
  9
$PUCSXDIR
 10
1.0
 20
0.0
 30
0.0
  9
$PUCSYDIR
 10
0.0
 20
1.0
 30
0.0
  9
$PUCSORTHOREF
  2

  9
$PUCSORTHOVIEW
 70
     0
  9
$PUCSORGTOP
 10
0.0
 20
0.0
 30
0.0
  9
$PUCSORGBOTTOM
 10
0.0
 20
0.0
 30
0.0
  9
$PUCSORGLEFT
 10
0.0
 20
0.0
 30
0.0
  9
$PUCSORGRIGHT
 10
0.0
 20
0.0
 30
0.0
  9
$PUCSORGFRONT
 10
0.0
 20
0.0
 30
0.0
  9
$PUCSORGBACK
 10
0.0
 20
0.0
 30
0.0
  9
$USERI1
 70
     0
  9
$USERI2
 70
     0
  9
$USERI3
 70
     0
  9
$USERI4
 70
     0
  9
$USERI5
 70
     0
  9
$USERR1
 40
0.0
  9
$USERR2
 40
0.0
  9
$USERR3
 40
0.0
  9
$USERR4
 40
0.0
  9
$USERR5
 40
0.0
  9
$WORLDVIEW
 70
     1
  9
$SHADEDGE
 70
     3
  9
$SHADEDIF
 70
    70
  9
$TILEMODE
 70
     1
  9
$MAXACTVP
 70
    16
  9
$PINSBASE
 10
0.0
 20
0.0
 30
0.0
  9
$PLIMCHECK
 70
     0
  9
$PEXTMIN
 10
1.000000000000000E+20
 20
1.000000000000000E+20
 30
1.000000000000000E+20
  9
$PEXTMAX
 10
-1.000000000000000E+20
 20
-1.000000000000000E+20
 30
-1.000000000000000E+20
  9
$PLIMMIN
 10
0.0
 20
0.0
  9
$PLIMMAX
 10
12.0
 20
9.0
  9
$UNITMODE
 70
     0
  9
$VISRETAIN
 70
     0
  9
$PLINEGEN
 70
     1
  9
$PSLTSCALE
 70
     0
  9
$TREEDEPTH
 70
  3020
  9
$CMLSTYLE
  2
STANDARD
  9
$CMLJUST
 70
     0
  9
$CMLSCALE
 40
1.0
  9
$PROXYGRAPHICS
 70
     1
  9
$MEASUREMENT
 70
     0
  9
$CELWEIGHT
370
    -1
  9
$ENDCAPS
280
     0
  9
$JOINSTYLE
280
     0
  9
$LWDISPLAY
290
     0
  9
$INSUNITS
 70
     0
  9
$HYPERLINKBASE
  1

  9
$STYLESHEET
  1

  9
$XEDIT
290
     1
  9
$CEPSNTYPE
380
     0
  9
$PSTYLEMODE
290
     1
  9
$FINGERPRINTGUID
  2
{0BC36D6C-D7C2-4D71-98D4-CB92CFD2B5E3}
  9
$VERSIONGUID
  2
{29C5E370-6D17-4828-A018-6E5078546ADF}
  9
$EXTNAMES
290
     1
  9
$PSVPSCALE
 40
0.0
  9
$OLESTARTUP
290
     0
  0
ENDSEC
  0
SECTION
  2
CLASSES
  0
CLASS
  1
IMAGE
  2
AcDbRasterImage
  3
ISM
 90
      127
280
     0
281
     1
  0
CLASS
  1
DICTIONARYVAR
  2
AcDbDictionaryVar
  3
ObjectDBX Classes
 90
        0
280
     0
281
     0
  0
CLASS
  1
RASTERVARIABLES
  2
AcDbRasterVariables
  3
ISM
 90
        0
280
     0
281
     0
  0
CLASS
  1
IMAGEDEF
  2
AcDbRasterImageDef
  3
ISM
 90
        0
280
     0
281
     0
  0
CLASS
  1
IMAGEDEF_REACTOR
  2
AcDbRasterImageDefReactor
  3
ISM
 90
        1
280
     0
281
     0
  0
CLASS
  1
IDBUFFER
  2
AcDbIdBuffer
  3
ObjectDBX Classes
 90
        0
280
     0
281
     0
  0
CLASS
  1
SPATIAL_FILTER
  2
AcDbSpatialFilter
  3
ObjectDBX Classes
 90
        0
280
     0
281
     0
  0
CLASS
  1
SORTENTSTABLE
  2
AcDbSortentsTable
  3
ObjectDBX Classes
 90
        0
280
     0
281
     0
  0
CLASS
  1
LAYER_INDEX
  2
AcDbLayerIndex
  3
ObjectDBX Classes
 90
        0
280
     0
281
     0
  0
CLASS
  1
SPATIAL_INDEX
  2
AcDbSpatialIndex
  3
AutoCAD 2000
 90
        0
280
     0
281
     0
  0
CLASS
  1
OBJECT_PTR
  2
CAseDLPNTableRecord
  3
ASE-LPNTableRecord
 90
        1
280
     0
281
     0
  0
CLASS
  1
PLOTSETTINGS
  2
AcDbPlotSettings
  3
ObjectDBX Classes
 90
        0
280
     0
281
     0
  0
CLASS
  1
ACDBDICTIONARYWDFLT
  2
AcDbDictionaryWithDefault
  3
ObjectDBX Classes
 90
        0
280
     0
281
     0
  0
CLASS
  1
WIPEOUT
  2
AcDbWipeout
  3
WipeOut|AutoCAD Express Tool|expresstools@autodesk.com
 90
      127
280
     0
281
     1
  0
CLASS
  1
WIPEOUTVARIABLES
  2
AcDbWipeoutVariables
  3
WipeOut|AutoCAD Express Tool|expresstools@autodesk.com
 90
        0
280
     0
281
     0
  0
CLASS
  1
RTEXT
  2
RText
  3
RText|AutoCAD Express Tool|expresstools@autodesk.com
 90
        0
280
     0
281
     1
  0
CLASS
  1
ARCALIGNEDTEXT
  2
AcDbArcAlignedText
  3
ATEXT|AutoCAD Express Tool|expresstools@autodesk.com
 90
        0
280
     0
281
     1
  0
CLASS
  1
ACDBPLACEHOLDER
  2
AcDbPlaceHolder
  3
ObjectDBX Classes
 90
        0
280
     0
281
     0
  0
CLASS
  1
LAYOUT
  2
AcDbLayout
  3
ObjectDBX Classes
 90
        0
280
     0
281
     0
  0
ENDSEC
  0
SECTION
  2
TABLES
  0
TABLE
  2
VPORT
  5
6
330
0
100
AcDbSymbolTable
 70
     1
  0
VPORT
  5
5EFD
330
6
100
AcDbSymbolTableRecord
100
AcDbViewportTableRecord
  2
*Active
 70
     0
 10
0.0
 20
0.0
 11
1.0
 21
1.0
 12
975.8722889344616
 22
-115.2549018890845
 13
0.0
 23
0.0
 14
1.0
 24
1.0
 15
0.0
 25
0.0
 16
0.0
 26
0.0
 36
1.0
 17
0.0
 27
0.0
 37
0.0
 40
182.3737671662229
 41
1.888667992047713
 42
50.0
 43
0.0
 44
0.0
 50
0.0
 51
0.0
 71
     0
 72
   100
 73
     1
 74
     1
 75
     0
 76
     0
 77
     0
 78
     0
281
     0
 65
     1
110
0.0
120
0.0
130
0.0
111
1.0
121
0.0
131
0.0
112
0.0
122
1.0
132
0.0
 79
     0
146
0.0
  0
ENDTAB
  0
TABLE
  2
LTYPE
  5
3
330
0
100
AcDbSymbolTable
 70
     2
  0
LTYPE
  5
C
330
3
100
AcDbSymbolTableRecord
100
AcDbLinetypeTableRecord
  2
BYBLOCK
 70
     0
  3

 72
    65
 73
     0
 40
0.0
  0
LTYPE
  5
D
330
3
100
AcDbSymbolTableRecord
100
AcDbLinetypeTableRecord
  2
BYLAYER
 70
     0
  3

 72
    65
 73
     0
 40
0.0
  0
LTYPE
  5
E
330
3
100
AcDbSymbolTableRecord
100
AcDbLinetypeTableRecord
  2
CONTINUOUS
 70
     0
  3
Solid line
 72
    65
 73
     0
 40
0.0
  0
LTYPE
  5
F
330
3
100
AcDbSymbolTableRecord
100
AcDbLinetypeTableRecord
  2
CENTER
 70
     0
  3
____ _ ____ _ ____ _ ____ _ ____ _ ____ _ ____
 72
    65
 73
     4
 40
0.6
 49
0.375
 74
     0
 49
-0.075
 74
     0
 49
0.075
 74
     0
 49
-0.075
 74
     0
  0
ENDTAB
  0
TABLE
  2
LAYER
  5
1
330
0
100
AcDbSymbolTable
 70
     3
  0
LAYER
  5
14
330
1
100
AcDbSymbolTableRecord
100
AcDbLayerTableRecord
  2
0
 70
     0
 62
     7
  6
CONTINUOUS
370
    -3
390
616
  0
LAYER
  5
15
330
1
100
AcDbSymbolTableRecord
100
AcDbLayerTableRecord
  2
DEFAULT_1
 70
     0
 62
     7
  6
CENTER
370
    -3
390
616
  0
LAYER
  5
61F
330
1
100
AcDbSymbolTableRecord
100
AcDbLayerTableRecord
  2
Defpoints
 70
     0
 62
     7
  6
CONTINUOUS
290
     0
370
    -3
390
616
  0
ENDTAB
  0
TABLE
  2
STYLE
  5
2
330
0
100
AcDbSymbolTable
 70
     3
  0
STYLE
  5
1D
330
2
100
AcDbSymbolTableRecord
100
AcDbTextStyleTableRecord
  2
STANDARD
 70
     0
 40
0.0
 41
1.0
 50
0.0
 71
     0
 42
0.2
  3
VERDANA.TTF
  4

1001
ACAD
1000
Verdana
1071
       34
  0
STYLE
  5
1A
330
2
100
AcDbSymbolTableRecord
100
AcDbTextStyleTableRecord
  2
TEXTSTYLE_0
 70
     0
 40
0.0
 41
0.8
 50
0.0
 71
     0
 42
0.2
  3
txt
  4

  0
STYLE
  5
1B
330
2
100
AcDbSymbolTableRecord
100
AcDbTextStyleTableRecord
  2
TEXTSTYLE_1
 70
     0
 40
0.0
 41
0.8
 50
0.0
 71
     0
 42
0.2
  3
txt
  4

  0
ENDTAB
  0
TABLE
  2
VIEW
  5
4
330
0
100
AcDbSymbolTable
 70
     0
  0
ENDTAB
  0
TABLE
  2
UCS
  5
5
330
0
100
AcDbSymbolTable
 70
     0
  0
ENDTAB
  0
TABLE
  2
APPID
  5
7
330
0
100
AcDbSymbolTable
 70
     1
  0
APPID
  5
19
330
7
100
AcDbSymbolTableRecord
100
AcDbRegAppTableRecord
  2
ACAD
 70
     0
  0
ENDTAB
  0
TABLE
  2
DIMSTYLE
  5
8
330
0
100
AcDbSymbolTable
 70
     2
100
AcDbDimStyleTable
  0
DIMSTYLE
105
2D
330
8
100
AcDbSymbolTableRecord
100
AcDbDimStyleTableRecord
  2
STANDARD
 70
     0
 47
0.003
 48
0.003
 71
     1
140
1.5
289
     0
340
1D
  0
DIMSTYLE
105
784
330
8
100
AcDbSymbolTableRecord
100
AcDbDimStyleTableRecord
  2
dimensionali
 70
     0
 41
6.0
 42
5.0
 43
31.958
 44
0.0
 47
0.003
 48
0.003
 71
     1
 73
     0
 74
     0
140
8.0
141
7.568999999999999
147
5.0
340
1D
341
785
342
785
  0
ENDTAB
  0
TABLE
  2
BLOCK_RECORD
  5
28
330
0
100
AcDbSymbolTable
 70
     1
  0
BLOCK_RECORD
  5
26
330
28
100
AcDbSymbolTableRecord
100
AcDbBlockTableRecord
  2
*MODEL_SPACE
340
61B
  0
BLOCK_RECORD
  5
27
330
28
100
AcDbSymbolTableRecord
100
AcDbBlockTableRecord
  2
*PAPER_SPACE
340
61C
  0
BLOCK_RECORD
  5
785
330
28
100
AcDbSymbolTableRecord
100
AcDbBlockTableRecord
  2
_Dot
340
0
  0
ENDTAB
  0
ENDSEC
  0
SECTION
  2
BLOCKS
  0
BLOCK
  5
29
330
26
100
AcDbEntity
  8
0
100
AcDbBlockBegin
  2
*MODEL_SPACE
 70
     0
 71
     0
 10
0.0
 20
0.0
 30
0.0
  3
*MODEL_SPACE
  1

  0
ENDBLK
  5
2A
330
26
100
AcDbEntity
  8
0
100
AcDbBlockEnd
  0
BLOCK
  5
2B
330
27
100
AcDbEntity
 67
     1
  8
0
100
AcDbBlockBegin
  2
*PAPER_SPACE
 70
     0
 71
     0
 10
0.0
 20
0.0
 30
0.0
  3
*PAPER_SPACE
  1

  0
ENDBLK
  5
2C
330
27
100
AcDbEntity
 67
     1
  8
0
100
AcDbBlockEnd
  0
BLOCK
  5
786
330
785
100
AcDbEntity
  8
0
100
AcDbBlockBegin
  2
_Dot
 70
     0
 71
     0
 10
0.0
 20
0.0
 30
0.0
  3
_Dot
  1

  0
LWPOLYLINE
  5
787
330
785
100
AcDbEntity
  8
0
  6
ByBlock
 62
     0
100
AcDbPolyline
 90
        2
 70
     1
 43
0.5
 10
-0.25
 20
0.0
 42
1.0
 10
0.25
 20
0.0
 42
1.0
  0
LINE
  5
788
330
785
100
AcDbEntity
  8
0
  6
ByBlock
 62
     0
370
    -2
100
AcDbLine
 10
-0.5
 20
0.0
 30
0.0
 11
-1.0
 21
0.0
 31
0.0
  0
ENDBLK
  5
789
330
785
100
AcDbEntity
  8
0
100
AcDbBlockEnd
  0
ENDSEC
  0
SECTION
  2
ENTITIES
  0
TEXT
  5
E5
330
26
100
AcDbEntity
  8
0
  6
Continuous
 62
     2
100
AcDbText
 10
98.4898777622
 20
41.38631207849999
 30
0.0
 40
1.8
  1
 
  7
TEXTSTYLE_1
 72
     5
 11
100.8041634764
 21
41.38631207849999
 31
0.0
100
AcDbText
  0
TEXT
  5
11D
330
26
100
AcDbEntity
  8
0
  6
Continuous
 62
     1
100
AcDbText
 10
328.1631333629
 20
32.0853596703
 30
0.0
 40
1.5
  1
 
  7
TEXTSTYLE_0
 72
     5
 11
330.0092872091
 21
32.0853596703
 31
0.0
100
AcDbText
  0
TEXT
  5
11E
330
26
100
AcDbEntity
  8
0
  6
Continuous
 62
     1
100
AcDbText
 10
330.0092872091
 20
32.0853596703
 30
0.0
 40
1.5
  1
 
  7
TEXTSTYLE_0
 72
     5
 11
331.8554410552
 21
32.0853596703
 31
0.0
100
AcDbText
  0
TEXT
  5
120
330
26
100
AcDbEntity
  8
0
  6
Continuous
 62
     1
100
AcDbText
 10
352.836210286
 20
32.0853596703
 30
0.0
 40
1.5
  1
 
  7
TEXTSTYLE_0
 72
     5
 11
354.6823641321
 21
32.0853596703
 31
0.0
100
AcDbText
  0
TEXT
  5
12A
330
26
100
AcDbEntity
  8
0
  6
Continuous
 62
     1
100
AcDbText
 10
401.5862102859999
 20
20.9420904395
 30
0.0
 40
1.5
  1
 
  7
TEXTSTYLE_0
 72
     5
 11
403.4323641321
 21
20.9420904395
 31
0.0
100
AcDbText
  0
LINE
  5
2F32
330
26
100
AcDbEntity
  8
DEFAULT_1
  6
CENTER
100
AcDbLine
 10
943.4123384377762
 20
-80.63657526380835
 30
0.0
 11
943.4123384377762
 21
-171.4820480683171
 31
0.0
  0
LINE
  5
2F33
330
26
100
AcDbEntity
  8
0
  6
Continuous
100
AcDbLine
 10
888.016483626276
 20
-80.32813714295099
 30
0.0
 11
890.0372095683762
 21
-76.82813714295099
 31
0.0
  0
LINE
  5
2F34
330
26
100
AcDbEntity
  8
0
  6
Continuous
100
AcDbLine
 10
884.3504582224761
 20
-82.82813714295099
 30
0.0
 11
884.3504582224761
 21
-105.828137142951
 31
0.0
  0
LINE
  5
2F35
330
26
100
AcDbEntity
  8
0
  6
Continuous
100
AcDbLine
 10
885.3504582224763
 20
-105.8281371429509
 30
0.0
 11
885.3504582224761
 21
-81.82813714295098
 31
0.0
  0
LINE
  5
2F36
330
26
100
AcDbEntity
  8
0
  6
Continuous
100
AcDbLine
 10
885.4184074148761
 20
-81.82813714295098
 30
0.0
 11
885.4184074148761
 21
-105.8281371429509
 31
0.0
  0
LINE
  5
2F37
330
26
100
AcDbEntity
  8
0
  6
Continuous
100
AcDbLine
 10
888.016483626276
 20
-80.32813714295099
 30
0.0
 11
888.016483626276
 21
-105.828137142951
 31
0.0
  0
LINE
  5
2F38
330
26
100
AcDbEntity
  8
0
  6
Continuous
100
AcDbLine
 10
890.0372095683762
 20
-76.82813714295099
 30
0.0
 11
890.0372095683762
 21
-76.85230924125096
 31
0.0
  0
LINE
  5
2F39
330
26
100
AcDbEntity
  8
0
  6
Continuous
100
AcDbLine
 10
890.0372095683762
 20
-90.315016952951
 30
0.0
 11
890.0372095683762
 21
-92.36542939785102
 31
0.0
  0
LINE
  5
2F3A
330
26
100
AcDbEntity
  8
0
  6
Continuous
100
AcDbLine
 10
891.7692603759762
 20
-75.82813714295099
 30
0.0
 11
891.7692603759762
 21
-76.11942559785098
 31
0.0
  0
LINE
  5
2F3B
330
26
100
AcDbEntity
  8
0
  6
Continuous
100
AcDbLine
 10
891.7692603759762
 20
-89.117887045251
 30
0.0
 11
891.7692603759762
 21
-92.82967569555102
 31
0.0
  0
LINE
  5
2F3C
330
26
100
AcDbEntity
  8
0
  6
Continuous
100
AcDbLine
 10
966.4123384377763
 20
-164.890017358251
 30
0.0
 11
943.4123384377762
 21
-164.890017358251
 31
0.0
  0
LINE
  5
2F3D
330
26
100
AcDbEntity
  8
0
  6
Continuous
100
AcDbLine
 10
967.4123384377763
 20
-163.890017358251
 30
0.0
 11
943.4123384377762
 21
-163.890017358251
 31
0.0
  0
LINE
  5
2F3E
330
26
100
AcDbEntity
  8
0
  6
Continuous
100
AcDbLine
 10
943.4123384377762
 20
-163.8220681658509
 30
0.0
 11
967.4123384377763
 21
-163.8220681658509
 31
0.0
  0
LINE
  5
2F3F
330
26
100
AcDbEntity
  8
0
  6
Continuous
100
AcDbLine
 10
943.4123384377762
 20
-161.223991954551
 30
0.0
 11
968.9123384377763
 21
-161.223991954551
 31
0.0
  0
LINE
  5
2F40
330
26
100
AcDbEntity
  8
0
  6
Continuous
100
AcDbLine
 10
956.8750461824761
 20
-159.203266012351
 30
0.0
 11
958.9254586290762
 21
-159.203266012351
 31
0.0
  0
LINE
  5
2F41
330
26
100
AcDbEntity
  8
0
  6
Continuous
100
AcDbLine
 10
972.3881663395761
 20
-159.203266012351
 30
0.0
 11
972.4123384377762
 21
-159.203266012351
 31
0.0
  0
LINE
  5
2F42
330
26
100
AcDbEntity
  8
0
  6
Continuous
100
AcDbLine
 10
907.2142622264761
 20
-75.82813714295099
 30
0.0
 11
907.2142622264761
 21
-75.85314349555097
 31
0.0
  0
LINE
  5
2F43
330
26
100
AcDbEntity
  8
0
  6
Continuous
100
AcDbLine
 10
907.2142622264761
 20
-89.78006647495101
 30
0.0
 11
907.2142622264761
 21
-91.901214163551
 31
0.0
  0
LINE
  5
2F44
330
26
100
AcDbEntity
  8
0
  6
Continuous
100
AcDbLine
 10
909.2968683839762
 20
-79.43531681995103
 30
0.0
 11
909.2968683839762
 21
-105.828137142951
 31
0.0
  0
LINE
  5
2F45
330
26
100
AcDbEntity
  8
0
  6
Continuous
100
AcDbLine
 10
909.3504582224761
 20
-79.63531681995096
 30
0.0
 11
909.3504582224761
 21
-105.828137142951
 31
0.0
  0
LINE
  5
2F46
330
26
100
AcDbEntity
  8
0
  6
Continuous
100
AcDbLine
 10
956.4107998852762
 20
-157.471215204751
 30
0.0
 11
960.1225885354761
 21
-157.471215204751
 31
0.0
  0
LINE
  5
2F47
330
26
100
AcDbEntity
  8
0
  6
Continuous
100
AcDbLine
 10
973.1210499829762
 20
-157.471215204751
 30
0.0
 11
973.4123384377763
 21
-157.471215204751
 31
0.0
  0
LINE
  5
2F48
330
26
100
AcDbEntity
  8
0
  6
Continuous
100
AcDbLine
 10
911.4123384377762
 20
-105.8281371429509
 30
0.0
 11
911.4123384377762
 21
-81.82813714295098
 31
0.0
  0
LINE
  5
2F49
330
26
100
AcDbEntity
  8
0
  6
Continuous
100
AcDbLine
 10
913.1123392007761
 20
-83.528137905851
 30
0.0
 11
913.1123392007761
 21
-105.828137142951
 31
0.0
  0
LINE
  5
2F4A
330
26
100
AcDbEntity
  8
0
  6
Continuous
100
AcDbLine
 10
914.5336587813762
 20
-105.8281371429509
 30
0.0
 11
914.5336587813762
 21
-84.94945748645102
 31
0.0
  0
LINE
  5
2F4B
330
26
100
AcDbEntity
  8
0
  6
Continuous
100
AcDbLine
 10
916.654979124976
 20
-105.828137142951
 30
0.0
 11
916.6549791249762
 21
-85.82813714295099
 31
0.0
  0
LINE
  5
2F4C
330
26
100
AcDbEntity
  8
0
  6
Continuous
100
AcDbLine
 10
957.3392614171762
 20
-142.026213354251
 30
0.0
 11
959.4604091057762
 21
-142.026213354251
 31
0.0
  0
LINE
  5
2F4D
330
26
100
AcDbEntity
  8
0
  6
Continuous
100
AcDbLine
 10
973.3873320851762
 20
-142.026213354251
 30
0.0
 11
973.4123384377763
 21
-142.026213354251
 31
0.0
  0
LINE
  5
2F4E
330
26
100
AcDbEntity
  8
0
  6
Continuous
100
AcDbLine
 10
943.4123384377762
 20
-139.943607196751
 30
0.0
 11
969.8051587608761
 21
-139.943607196751
 31
0.0
  0
LINE
  5
2F4F
330
26
100
AcDbEntity
  8
0
  6
Continuous
100
AcDbLine
 10
943.4123384377762
 20
-139.8900173582509
 30
0.0
 11
969.6051587608762
 21
-139.890017358251
 31
0.0
  0
LINE
  5
2F50
330
26
100
AcDbEntity
  8
0
  6
Continuous
100
AcDbLine
 10
925.2576378994763
 20
-85.82813714295099
 30
0.0
 11
925.2576378994763
 21
-105.8281371429509
 31
0.0
  0
LINE
  5
2F51
330
26
100
AcDbEntity
  8
0
  6
Continuous
100
AcDbLine
 10
926.3631794961761
 20
-105.8281371429509
 30
0.0
 11
926.3631794961761
 21
-102.3743660333509
 31
0.0
  0
LINE
  5
2F52
330
26
100
AcDbEntity
  8
0
  6
Continuous
100
AcDbLine
 10
926.3631794961761
 20
-92.96191849645101
 30
0.0
 11
926.3631794961761
 21
-86.161470476251
 31
0.0
  0
LINE
  5
2F53
330
26
100
AcDbEntity
  8
0
  6
Continuous
100
AcDbLine
 10
943.4123384377762
 20
-137.828137142951
 30
0.0
 11
967.4123384377763
 21
-137.828137142951
 31
0.0
  0
LINE
  5
2F54
330
26
100
AcDbEntity
  8
0
  6
Continuous
100
AcDbLine
 10
943.4123384377762
 20
-136.128136379951
 30
0.0
 11
965.7123376748762
 21
-136.128136379951
 31
0.0
  0
LINE
  5
2F55
330
26
100
AcDbEntity
  8
0
  6
Continuous
100
AcDbLine
 10
979.6104146491762
 20
-135.828137142951
 30
0.0
 11
995.0554164996761
 21
-135.828137142951
 31
0.0
  0
LINE
  5
2F56
330
26
100
AcDbEntity
  8
0
  6
Continuous
100
AcDbLine
 10
979.6104146491762
 20
-135.803130790351
 30
0.0
 11
995.0554164996761
 21
-135.803130790351
 31
0.0
  0
LINE
  5
2F57
330
26
100
AcDbEntity
  8
0
  6
Continuous
100
AcDbLine
 10
979.4868055187762
 20
-135.536848688051
 30
0.0
 11
995.0554166001762
 21
-135.536848688051
 31
0.0
  0
LINE
  5
2F58
330
26
100
AcDbEntity
  8
0
  6
Continuous
100
AcDbLine
 10
943.4123384377762
 20
-134.706816799351
 30
0.0
 11
964.2910180942763
 21
-134.706816799351
 31
0.0
  0
LINE
  5
2F59
330
26
100
AcDbEntity
  8
0
  6
Continuous
100
AcDbLine
 10
931.245000785876
 20
-96.64938358525104
 30
0.0
 11
931.245000785876
 21
-105.828137142951
 31
0.0
  0
LINE
  5
2F5A
330
26
100
AcDbEntity
  8
0
  6
Continuous
100
AcDbLine
 10
933.7746702153763
 20
-91.20949542995101
 30
0.0
 11
933.7746702153763
 21
-90.62189667305096
 31
0.0
  0
LINE
  5
2F5B
330
26
100
AcDbEntity
  8
0
  6
Continuous
100
AcDbLine
 10
953.0500066602762
 20
-91.20949542995101
 30
0.0
 11
952.5910919954762
 21
-91.66841009475097
 31
0.0
  0
LINE
  5
2F5C
330
26
100
AcDbEntity
  8
0
  6
Continuous
100
AcDbLine
 10
943.4123384377762
 20
-132.5854964558509
 30
0.0
 11
963.4123384377762
 21
-132.585496455851
 31
0.0
  0
LINE
  5
2F5D
330
26
100
AcDbEntity
  8
0
  6
Continuous
100
AcDbLine
 10
1001.474218653176
 20
-129.828137142951
 30
0.0
 11
1001.406269460776
 21
-129.828137142951
 31
0.0
  0
LINE
  5
2F5E
330
26
100
AcDbEntity
  8
0
  6
Continuous
100
AcDbLine
 10
977.4742186531762
 20
-129.828137142951
 30
0.0
 11
975.4123384377763
 21
-129.828137142951
 31
0.0
  0
LINE
  5
2F5F
330
26
100
AcDbEntity
  8
0
  6
Continuous
100
AcDbLine
 10
934.2335848800763
 20
-93.66079949095104
 30
0.0
 11
934.2335848836761
 21
-91.66841009475097
 31
0.0
  0
LINE
  5
2F60
330
26
100
AcDbEntity
  8
0
  6
Continuous
100
AcDbLine
 10
975.4123384377763
 20
-81.82813714295098
 30
0.0
 11
972.2910180942763
 21
-84.94945748645102
 31
0.0
  0
LINE
  5
2F61
330
26
100
AcDbEntity
  8
0
  6
Continuous
100
AcDbLine
 10
977.4742186531762
 20
-128.128137142951
 30
0.0
 11
973.7123384377762
 21
-128.128137142951
 31
0.0
  0
LINE
  5
2F62
330
26
100
AcDbEntity
  8
0
  6
Continuous
100
AcDbLine
 10
970.1696977506763
 20
-125.828137142951
 30
0.0
 11
966.4123384377763
 21
-125.828137142951
 31
0.0
  0
LINE
  5
2F63
330
26
100
AcDbEntity
  8
0
  6
Continuous
100
AcDbLine
 10
907.2142622264761
 20
-75.82813714295099
 30
0.0
 11
909.2968683839762
 21
-79.43531681995103
 31
0.0
  0
LINE
  5
2F65
330
26
100
AcDbEntity
  8
0
  6
Continuous
100
AcDbLine
 10
943.4123384377762
 20
-123.835360856551
 30
0.0
 11
959.0731227411762
 21
-123.835360856551
 31
0.0
  0
LINE
  5
2F66
330
26
100
AcDbEntity
  8
0
  6
Continuous
100
AcDbLine
 10
995.0554166012762
 20
-122.538387240651
 30
0.0
 11
979.4868055187762
 21
-122.538387240651
 31
0.0
  0
LINE
  5
2F67
330
26
100
AcDbEntity
  8
0
  6
Continuous
100
AcDbLine
 10
995.0554164996761
 20
-121.8762078109509
 30
0.0
 11
979.6104146491762
 21
-121.8762078109509
 31
0.0
  0
LINE
  5
2F68
330
26
100
AcDbEntity
  8
0
  6
Continuous
100
AcDbLine
 10
979.6104146491762
 20
-119.7550601223509
 30
0.0
 11
995.0554164996761
 21
-119.7550601223509
 31
0.0
  0
LINE
  5
2F69
330
26
100
AcDbEntity
  8
0
  6
Continuous
100
AcDbLine
 10
973.3935836733762
 20
-142.0153852859509
 30
0.0
 11
969.8051587608761
 21
-139.943607196751
 31
0.0
  0
LINE
  5
2F6A
330
26
100
AcDbEntity
  8
0
  6
Continuous
100
AcDbLine
 10
947.2903158136762
 20
-109.113759212751
 30
0.0
 11
946.8492869095761
 21
-111.147293902851
 31
0.0
  0
LINE
  5
2F6B
330
26
100
AcDbEntity
  8
0
  6
Continuous
100
AcDbLine
 10
979.4868055187762
 20
-118.8265985903509
 30
0.0
 11
995.0554166019763
 21
-118.8265985903509
 31
0.0
  0
LINE
  5
2F6C
330
26
100
AcDbEntity
  8
0
  6
Continuous
100
AcDbLine
 10
943.4123384377762
 20
-117.995474794851
 30
0.0
 11
952.5910919954762
 21
-117.995474794851
 31
0.0
  0
LINE
  5
2F6D
330
26
100
AcDbEntity
  8
0
  6
Continuous
100
AcDbLine
 10
955.5796760897763
 20
-115.0068907006509
 30
0.0
 11
957.2565461653763
 21
-115.006890697051
 31
0.0
  0
LINE
  5
2F6E
330
26
100
AcDbEntity
  8
0
  6
Continuous
100
AcDbLine
 10
967.4123384377763
 20
-137.828137142951
 30
0.0
 11
964.2910180942763
 21
-134.706816799351
 31
0.0
  0
LINE
  5
2F6F
330
26
100
AcDbEntity
  8
0
  6
Continuous
100
AcDbLine
 10
914.5336587813762
 20
-84.94945748645102
 30
0.0
 11
911.4123384377762
 21
-81.82813714295098
 31
0.0
  0
LINE
  5
2F70
330
26
100
AcDbEntity
  8
0
  6
Continuous
100
AcDbLine
 10
956.4107998900762
 20
-157.471215204951
 30
0.0
 11
956.8750306471761
 21
-159.203266017351
 31
0.0
  0
LINE
  5
2F71
330
26
100
AcDbEntity
  8
0
  6
Continuous
100
AcDbLine
 10
952.5910919954762
 20
-117.995474794851
 30
0.0
 11
952.5910921810762
 21
-119.647668951951
 31
0.0
  0
LINE
  5
2F72
330
26
100
AcDbEntity
  8
0
  6
Continuous
100
AcDbLine
 10
952.5910919954762
 20
-93.66079949095104
 30
0.0
 11
952.5910919954762
 21
-91.66841009475097
 31
0.0
  0
LINE
  5
2F73
330
26
100
AcDbEntity
  8
0
  6
Continuous
100
AcDbLine
 10
953.0500066602762
 20
-91.20949542995101
 30
0.0
 11
953.0500066602762
 21
-90.62189667305096
 31
0.0
  0
LINE
  5
2F74
330
26
100
AcDbEntity
  8
0
  6
Continuous
100
AcDbLine
 10
979.5995865808762
 20
-75.84689190735099
 30
0.0
 11
977.5278084916763
 21
-79.43531681995103
 31
0.0
  0
LINE
  5
2F75
330
26
100
AcDbEntity
  8
0
  6
Continuous
100
AcDbLine
 10
955.5796760897763
 20
-115.0068907006509
 30
0.0
 11
955.5796760897763
 21
-96.64938358525104
 31
0.0
  0
LINE
  5
2F76
330
26
100
AcDbEntity
  8
0
  6
Continuous
100
AcDbLine
 10
956.4107998852762
 20
-157.471215307051
 30
0.0
 11
956.4107998852762
 21
-141.9026042238509
 31
0.0
  0
LINE
  5
2F77
330
26
100
AcDbEntity
  8
0
  6
Continuous
100
AcDbLine
 10
957.3392614171762
 20
-157.471215204751
 30
0.0
 11
957.3392614171762
 21
-142.026213354251
 31
0.0
  0
LINE
  5
2F78
330
26
100
AcDbEntity
  8
0
  6
Continuous
100
AcDbLine
 10
958.2499853175762
 20
-92.666154394751
 30
0.0
 11
958.2504141858763
 21
-86.82813714295098
 31
0.0
  0
LINE
  5
2F79
330
26
100
AcDbEntity
  8
0
  6
Continuous
100
AcDbLine
 10
995.0554164998761
 20
-92.82967569065102
 30
0.0
 11
996.7874673122763
 21
-92.36544493355098
 31
0.0
  0
LINE
  5
2F7A
330
26
100
AcDbEntity
  8
DEFAULT_1
  6
CENTER
100
AcDbLine
 10
875.8354206496683
 20
-105.828137142951
 30
0.0
 11
1011.565371874708
 21
-105.828137142951
 31
0.0
  0
LINE
  5
2F7B
330
26
100
AcDbEntity
  8
0
  6
Continuous
100
AcDbLine
 10
891.769260375676
 20
-92.82967568905099
 30
0.0
 11
890.0372095617763
 21
-92.36544493415101
 31
0.0
  0
LINE
  5
2F7C
330
26
100
AcDbEntity
  8
0
  6
Continuous
100
AcDbLine
 10
995.0554164999761
 20
-118.826598596851
 30
0.0
 11
996.7874673137762
 21
-119.2908293517509
 31
0.0
  0
LINE
  5
2F7D
330
26
100
AcDbEntity
  8
0
  6
Continuous
100
AcDbLine
 10
933.7746702153763
 20
-91.20949542995101
 30
0.0
 11
934.2335848800763
 21
-91.66841009475097
 31
0.0
  0
LINE
  5
2F7E
330
26
100
AcDbEntity
  8
0
  6
Continuous
100
AcDbLine
 10
959.4604091057762
 20
-142.026213354251
 30
0.0
 11
959.4604091057762
 21
-157.471215204751
 31
0.0
  0
LINE
  5
2F7F
330
26
100
AcDbEntity
  8
0
  6
Continuous
100
AcDbLine
 10
960.1225885354761
 20
-141.9026042238509
 30
0.0
 11
960.1225885354761
 21
-157.471215306451
 31
0.0
  0
LINE
  5
2F80
330
26
100
AcDbEntity
  8
0
  6
Continuous
100
AcDbLine
 10
960.4614973793761
 20
-109.281908252451
 30
0.0
 11
960.4614973793761
 21
-102.3743660333509
 31
0.0
  0
LINE
  5
2F81
330
26
100
AcDbEntity
  8
0
  6
Continuous
100
AcDbLine
 10
960.4614973793761
 20
-92.96191849645101
 30
0.0
 11
960.4614973793761
 21
-86.161470476251
 31
0.0
  0
LINE
  5
2F82
330
26
100
AcDbEntity
  8
0
  6
Continuous
100
AcDbLine
 10
961.5670389761762
 20
-85.82813714295099
 30
0.0
 11
961.5670389761762
 21
-121.614833263251
 31
0.0
  0
LINE
  5
2F83
330
26
100
AcDbEntity
  8
0
  6
Continuous
100
AcDbLine
 10
963.4123384377762
 20
-132.585496455851
 30
0.0
 11
963.4123384377762
 21
-128.828137142951
 31
0.0
  0
LINE
  5
2F84
330
26
100
AcDbEntity
  8
0
  6
Continuous
100
AcDbLine
 10
960.4614399351761
 20
-119.3102028317509
 30
0.0
 11
960.4614973793761
 21
-118.694355789351
 31
0.0
  0
LINE
  5
2F85
330
26
100
AcDbEntity
  8
0
  6
Continuous
100
AcDbLine
 10
975.4123384377763
 20
-129.828137142951
 30
0.0
 11
972.2910180942763
 21
-126.706816799351
 31
0.0
  0
LINE
  5
2F86
330
26
100
AcDbEntity
  8
0
  6
Continuous
100
AcDbLine
 10
965.7123384377761
 20
-139.890017358251
 30
0.0
 11
965.7123384377761
 21
-136.128137142951
 31
0.0
  0
LINE
  5
2F87
330
26
100
AcDbEntity
  8
0
  6
Continuous
100
AcDbLine
 10
967.4123384377763
 20
-163.890017358251
 30
0.0
 11
967.4123384377763
 21
-163.8220681658509
 31
0.0
  0
LINE
  5
2F88
330
26
100
AcDbEntity
  8
0
  6
Continuous
100
AcDbLine
 10
967.4123384377763
 20
-139.890017358251
 30
0.0
 11
967.4123384377763
 21
-137.828137142951
 31
0.0
  0
LINE
  5
2F89
330
26
100
AcDbEntity
  8
0
  6
Continuous
100
AcDbLine
 10
955.5796760897763
 20
-96.64938358525104
 30
0.0
 11
957.2565461821762
 21
-96.64938340405099
 31
0.0
  0
LINE
  5
2F8A
330
26
100
AcDbEntity
  8
0
  6
Continuous
100
AcDbLine
 10
931.245000785876
 20
-96.64938358525104
 30
0.0
 11
929.5681307101762
 21
-96.64938358875099
 31
0.0
  0
LINE
  5
2F8B
330
26
100
AcDbEntity
  8
0
  6
Continuous
100
AcDbLine
 10
979.6104146491762
 20
-135.828137142951
 30
0.0
 11
977.5278084916763
 21
-132.2209574659509
 31
0.0
  0
LINE
  5
2F8C
330
26
100
AcDbEntity
  8
0
  6
Continuous
100
AcDbLine
 10
970.1696977506763
 20
-125.828137142951
 30
0.0
 11
970.1696977506763
 21
-85.82813714295099
 31
0.0
  0
LINE
  5
2F8D
330
26
100
AcDbEntity
  8
0
  6
Continuous
100
AcDbLine
 10
972.2910180942763
 20
-126.706816799351
 30
0.0
 11
972.2910180942763
 21
-84.94945748645102
 31
0.0
  0
LINE
  5
2F8E
330
26
100
AcDbEntity
  8
0
  6
Continuous
100
AcDbLine
 10
973.1210499829762
 20
-157.471215305251
 30
0.0
 11
973.1210499829762
 21
-141.9026042238509
 31
0.0
  0
LINE
  5
2F8F
330
26
100
AcDbEntity
  8
0
  6
Continuous
100
AcDbLine
 10
973.3873320851762
 20
-157.471215204751
 30
0.0
 11
973.3873320851762
 21
-142.026213354251
 31
0.0
  0
LINE
  5
2F90
330
26
100
AcDbEntity
  8
0
  6
Continuous
100
AcDbLine
 10
973.4123384377763
 20
-142.026213354251
 30
0.0
 11
973.4123384377763
 21
-157.471215204751
 31
0.0
  0
LINE
  5
2F91
330
26
100
AcDbEntity
  8
0
  6
Continuous
100
AcDbLine
 10
952.5910919954762
 20
-93.66079949095104
 30
0.0
 11
934.2335848800763
 21
-93.66079949095104
 31
0.0
  0
LINE
  5
2F92
330
26
100
AcDbEntity
  8
0
  6
Continuous
100
AcDbLine
 10
995.0554166019763
 20
-92.82967569555102
 30
0.0
 11
979.4868055187762
 21
-92.82967569555102
 31
0.0
  0
LINE
  5
2F93
330
26
100
AcDbEntity
  8
0
  6
Continuous
100
AcDbLine
 10
907.3378713568764
 20
-92.82967569555102
 30
0.0
 11
891.769260273676
 21
-92.82967569555102
 31
0.0
  0
LINE
  5
2F94
330
26
100
AcDbEntity
  8
0
  6
Continuous
100
AcDbLine
 10
995.0554164996761
 20
-91.901214163551
 30
0.0
 11
979.6104146491762
 21
-91.901214163551
 31
0.0
  0
LINE
  5
2F95
330
26
100
AcDbEntity
  8
0
  6
Continuous
100
AcDbLine
 10
907.2142622264761
 20
-91.901214163551
 30
0.0
 11
891.7692603759762
 21
-91.901214163551
 31
0.0
  0
LINE
  5
2F96
330
26
100
AcDbEntity
  8
0
  6
Continuous
100
AcDbLine
 10
952.5910919954762
 20
-91.66841009475097
 30
0.0
 11
934.2335848800763
 21
-91.66841009475097
 31
0.0
  0
LINE
  5
2F97
330
26
100
AcDbEntity
  8
0
  6
Continuous
100
AcDbLine
 10
933.7746702153763
 20
-91.20949542995101
 30
0.0
 11
953.0500066602762
 21
-91.20949542995101
 31
0.0
  0
LINE
  5
2F98
330
26
100
AcDbEntity
  8
0
  6
Continuous
100
AcDbLine
 10
933.7746702153763
 20
-90.62189667305096
 30
0.0
 11
953.0500066602762
 21
-90.62189667305096
 31
0.0
  0
LINE
  5
2F99
330
26
100
AcDbEntity
  8
0
  6
Continuous
100
AcDbLine
 10
973.7123376748762
 20
-128.128136379951
 30
0.0
 11
973.7123376748762
 21
-83.528137905851
 31
0.0
  0
LINE
  5
2F9A
330
26
100
AcDbEntity
  8
0
  6
Continuous
100
AcDbLine
 10
975.4123384377763
 20
-129.828137142951
 30
0.0
 11
975.4123384377763
 21
-81.82813714295098
 31
0.0
  0
LINE
  5
2F9B
330
26
100
AcDbEntity
  8
0
  6
Continuous
100
AcDbLine
 10
977.4742186531762
 20
-132.020957465951
 30
0.0
 11
977.4742186531762
 21
-79.63531681995096
 31
0.0
  0
LINE
  5
2F9C
330
26
100
AcDbEntity
  8
0
  6
Continuous
100
AcDbLine
 10
977.5278084916763
 20
-132.2209574659509
 30
0.0
 11
977.5278084916763
 21
-79.43531681995103
 31
0.0
  0
LINE
  5
2F9D
330
26
100
AcDbEntity
  8
0
  6
Continuous
100
AcDbLine
 10
891.7692603759762
 20
-89.78006647495101
 30
0.0
 11
907.2142622264761
 21
-89.78006647495101
 31
0.0
  0
LINE
  5
2F9E
330
26
100
AcDbEntity
  8
0
  6
Continuous
100
AcDbLine
 10
979.6104146491762
 20
-89.78006647495101
 30
0.0
 11
995.0554164996761
 21
-89.78006647495101
 31
0.0
  0
LINE
  5
2F9F
330
26
100
AcDbEntity
  8
0
  6
Continuous
100
AcDbLine
 10
891.7692602742762
 20
-89.117887045251
 30
0.0
 11
907.3378713568764
 21
-89.117887045251
 31
0.0
  0
LINE
  5
2FA0
330
26
100
AcDbEntity
  8
0
  6
Continuous
100
AcDbLine
 10
979.4868055187762
 20
-89.117887045251
 30
0.0
 11
995.0554166012762
 21
-89.117887045251
 31
0.0
  0
LINE
  5
2FA1
330
26
100
AcDbEntity
  8
0
  6
Continuous
100
AcDbLine
 10
958.2504141858763
 20
-86.82813714295098
 30
0.0
 11
928.5742626897762
 21
-86.82813714295098
 31
0.0
  0
LINE
  5
2FA2
330
26
100
AcDbEntity
  8
0
  6
Continuous
100
AcDbLine
 10
970.1696977506763
 20
-85.82813714295099
 30
0.0
 11
961.5670389761762
 21
-85.82813714295099
 31
0.0
  0
LINE
  5
2FA3
330
26
100
AcDbEntity
  8
0
  6
Continuous
100
AcDbLine
 10
925.2576378994763
 20
-85.82813714295099
 30
0.0
 11
916.6549791249762
 21
-85.82813714295099
 31
0.0
  0
LINE
  5
2FA4
330
26
100
AcDbEntity
  8
0
  6
Continuous
100
AcDbLine
 10
979.6104146491762
 20
-135.828137142951
 30
0.0
 11
979.6104146491762
 21
-135.803130790351
 31
0.0
  0
LINE
  5
2FA5
330
26
100
AcDbEntity
  8
0
  6
Continuous
100
AcDbLine
 10
979.6104146491762
 20
-121.8762078109509
 30
0.0
 11
979.6104146491762
 21
-119.7550601223509
 31
0.0
  0
LINE
  5
2FA6
330
26
100
AcDbEntity
  8
0
  6
Continuous
100
AcDbLine
 10
979.6104146491762
 20
-91.901214163551
 30
0.0
 11
979.6104146491762
 21
-89.78006647495101
 31
0.0
  0
LINE
  5
2FA7
330
26
100
AcDbEntity
  8
0
  6
Continuous
100
AcDbLine
 10
979.6104146491762
 20
-75.85314349555097
 30
0.0
 11
979.6104146491762
 21
-75.82813714295099
 31
0.0
  0
LINE
  5
2FA8
330
26
100
AcDbEntity
  8
0
  6
Continuous
100
AcDbLine
 10
977.4742186531762
 20
-83.52813714295098
 30
0.0
 11
973.7123384377762
 21
-83.52813714295098
 31
0.0
  0
LINE
  5
2FA9
330
26
100
AcDbEntity
  8
0
  6
Continuous
100
AcDbLine
 10
909.3504582224761
 20
-83.52813714295098
 30
0.0
 11
913.112338437776
 21
-83.52813714295098
 31
0.0
  0
LINE
  5
2FAA
330
26
100
AcDbEntity
  8
0
  6
Continuous
100
AcDbLine
 10
1001.474218653176
 20
-81.82813714295098
 30
0.0
 11
1001.406269460776
 21
-81.82813714295098
 31
0.0
  0
LINE
  5
2FAB
330
26
100
AcDbEntity
  8
0
  6
Continuous
100
AcDbLine
 10
977.4742186531762
 20
-81.82813714295098
 30
0.0
 11
975.4123384377763
 21
-81.82813714295098
 31
0.0
  0
LINE
  5
2FAC
330
26
100
AcDbEntity
  8
0
  6
Continuous
100
AcDbLine
 10
911.4123384377762
 20
-81.82813714295098
 30
0.0
 11
909.3504582224761
 21
-81.82813714295098
 31
0.0
  0
LINE
  5
2FAD
330
26
100
AcDbEntity
  8
0
  6
Continuous
100
AcDbLine
 10
885.3504582224761
 20
-81.82813714295098
 30
0.0
 11
885.4184074148761
 21
-81.82813714295098
 31
0.0
  0
LINE
  5
2FAE
330
26
100
AcDbEntity
  8
0
  6
Continuous
100
AcDbLine
 10
995.0554166000761
 20
-76.11942559785098
 30
0.0
 11
979.4868055187762
 21
-76.11942559785098
 31
0.0
  0
LINE
  5
2FAF
330
26
100
AcDbEntity
  8
0
  6
Continuous
100
AcDbLine
 10
907.3378713568764
 20
-76.11942559785098
 30
0.0
 11
891.7692602754762
 21
-76.11942559785098
 31
0.0
  0
LINE
  5
2FB0
330
26
100
AcDbEntity
  8
0
  6
Continuous
100
AcDbLine
 10
995.0554164996761
 20
-75.85314349555097
 30
0.0
 11
979.6104146491762
 21
-75.85314349555097
 31
0.0
  0
LINE
  5
2FB1
330
26
100
AcDbEntity
  8
0
  6
Continuous
100
AcDbLine
 10
907.2142622264761
 20
-75.85314349555097
 30
0.0
 11
891.7692603759762
 21
-75.85314349555097
 31
0.0
  0
LINE
  5
2FB2
330
26
100
AcDbEntity
  8
0
  6
Continuous
100
AcDbLine
 10
907.2142622264761
 20
-75.82813714295099
 30
0.0
 11
891.7692603759762
 21
-75.82813714295099
 31
0.0
  0
LINE
  5
2FB3
330
26
100
AcDbEntity
  8
0
  6
Continuous
100
AcDbLine
 10
979.6104146491762
 20
-75.82813714295099
 30
0.0
 11
995.0554164996761
 21
-75.82813714295099
 31
0.0
  0
LINE
  5
2FB4
330
26
100
AcDbEntity
  8
0
  6
Continuous
100
AcDbLine
 10
968.9123384377763
 20
-161.223991954551
 30
0.0
 11
972.4123384377762
 21
-159.203266012351
 31
0.0
  0
LINE
  5
2FB5
330
26
100
AcDbEntity
  8
0
  6
Continuous
100
AcDbLine
 10
995.0554164996761
 20
-135.828137142951
 30
0.0
 11
995.0554164996761
 21
-135.536848688051
 31
0.0
  0
LINE
  5
2FB6
330
26
100
AcDbEntity
  8
0
  6
Continuous
100
AcDbLine
 10
995.0554164996761
 20
-122.538387240651
 30
0.0
 11
995.0554164996761
 21
-118.8265985903509
 31
0.0
  0
LINE
  5
2FB7
330
26
100
AcDbEntity
  8
0
  6
Continuous
100
AcDbLine
 10
995.0554164996761
 20
-92.82967569555102
 30
0.0
 11
995.0554164996761
 21
-89.117887045251
 31
0.0
  0
LINE
  5
2FB8
330
26
100
AcDbEntity
  8
0
  6
Continuous
100
AcDbLine
 10
995.0554164996761
 20
-76.11942559785098
 30
0.0
 11
995.0554164996761
 21
-75.82813714295099
 31
0.0
  0
LINE
  5
2FB9
330
26
100
AcDbEntity
  8
0
  6
Continuous
100
AcDbLine
 10
996.7874673071761
 20
-134.828137142951
 30
0.0
 11
996.7874673071761
 21
-134.803965044651
 31
0.0
  0
LINE
  5
2FBA
330
26
100
AcDbEntity
  8
0
  6
Continuous
100
AcDbLine
 10
996.7874673071761
 20
-121.341257332951
 30
0.0
 11
996.7874673071761
 21
-119.2908448880509
 31
0.0
  0
LINE
  5
2FBB
330
26
100
AcDbEntity
  8
0
  6
Continuous
100
AcDbLine
 10
996.7874673071761
 20
-92.36542939835103
 30
0.0
 11
996.7874673071761
 21
-90.31501695165099
 31
0.0
  0
LINE
  5
2FBC
330
26
100
AcDbEntity
  8
0
  6
Continuous
100
AcDbLine
 10
996.7874673071761
 20
-76.85230924115103
 30
0.0
 11
996.7874673071761
 21
-76.82813714295099
 31
0.0
  0
LINE
  5
2FBD
330
26
100
AcDbEntity
  8
0
  6
Continuous
100
AcDbLine
 10
998.8081932493763
 20
-131.328137142951
 30
0.0
 11
996.7874673071761
 21
-134.828137142951
 31
0.0
  0
LINE
  5
2FBE
330
26
100
AcDbEntity
  8
0
  6
Continuous
100
AcDbLine
 10
998.8081932493763
 20
-131.328137142951
 30
0.0
 11
998.8081932493763
 21
-80.32813714295099
 31
0.0
  0
LINE
  5
2FBF
330
26
100
AcDbEntity
  8
0
  6
Continuous
100
AcDbLine
 10
1001.406269460776
 20
-129.828137142951
 30
0.0
 11
1001.406269460776
 21
-81.82813714295098
 31
0.0
  0
LINE
  5
2FC0
330
26
100
AcDbEntity
  8
0
  6
Continuous
100
AcDbLine
 10
1001.474218653176
 20
-81.82813714295098
 30
0.0
 11
1001.474218653176
 21
-129.828137142951
 31
0.0
  0
LINE
  5
2FC1
330
26
100
AcDbEntity
  8
0
  6
Continuous
100
AcDbLine
 10
1002.474218653176
 20
-82.82813714295099
 30
0.0
 11
1002.474218653176
 21
-128.828137142951
 31
0.0
  0
LINE
  5
2FC2
330
26
100
AcDbEntity
  8
0
  6
Continuous
100
AcDbLine
 10
998.8081932493763
 20
-80.32813714295099
 30
0.0
 11
996.7874673071761
 21
-76.82813714295099
 31
0.0
  0
ARC
  5
2FC3
330
26
100
AcDbEntity
  8
0
  6
Continuous
100
AcDbCircle
 10
885.3504582224761
 20
-82.82813714295099
 30
0.0
 40
1.0
100
AcDbArc
 50
90.0
 51
180.0
  0
ARC
  5
2FC4
330
26
100
AcDbEntity
  8
0
  6
Continuous
100
AcDbCircle
 10
885.4184074148761
 20
-78.82813714295099
 30
0.0
 40
3.0
100
AcDbArc
 50
270.0
 51
330.0000000000024
  0
ARC
  5
2FC5
330
26
100
AcDbEntity
  8
0
  6
Continuous
100
AcDbCircle
 10
908.9504582224762
 20
-79.63531681995096
 30
0.0
 40
0.4
100
AcDbArc
 50
0.0
 51
29.99999999730122
  0
ARC
  5
2FC6
330
26
100
AcDbEntity
  8
0
  6
Continuous
100
AcDbCircle
 10
891.7692603759762
 20
-77.82813714295099
 30
0.0
 40
2.0
100
AcDbArc
 50
90.0
 51
150.0000000000023
  0
ARC
  5
2FC7
330
26
100
AcDbEntity
  8
0
  6
Continuous
100
AcDbCircle
 10
966.4123384377763
 20
-163.890017358251
 30
0.0
 40
1.0
100
AcDbArc
 50
270.0
 51
0.0
  0
ARC
  5
2FC8
330
26
100
AcDbEntity
  8
0
  6
Continuous
100
AcDbCircle
 10
970.4123384377762
 20
-163.8220681658509
 30
0.0
 40
3.0
100
AcDbArc
 50
119.9999999999999
 51
180.0
  0
ARC
  5
2FC9
330
26
100
AcDbEntity
  8
0
  6
Continuous
100
AcDbCircle
 10
969.6051587608762
 20
-140.290017358251
 30
0.0
 40
0.4
100
AcDbArc
 50
60.00000000490307
 51
90.0
  0
ARC
  5
2FCA
330
26
100
AcDbEntity
  8
0
  6
Continuous
100
AcDbCircle
 10
971.4123384377762
 20
-157.471215204751
 30
0.0
 40
2.0
100
AcDbArc
 50
300.0000000000001
 51
0.0
  0
ARC
  5
2FCB
330
26
100
AcDbEntity
  8
0
  6
Continuous
100
AcDbCircle
 10
1001.474218653176
 20
-82.82813714295099
 30
0.0
 40
1.0
100
AcDbArc
 50
0.0
 51
90.0
  0
ARC
  5
2FCC
330
26
100
AcDbEntity
  8
0
  6
Continuous
100
AcDbCircle
 10
1001.474218653176
 20
-128.828137142951
 30
0.0
 40
1.0
100
AcDbArc
 50
270.0
 51
0.0
  0
ARC
  5
2FCD
330
26
100
AcDbEntity
  8
0
  6
Continuous
100
AcDbCircle
 10
1001.406269460776
 20
-78.82813714295099
 30
0.0
 40
3.0
100
AcDbArc
 50
209.9999999999976
 51
270.0
  0
ARC
  5
2FCE
330
26
100
AcDbEntity
  8
0
  6
Continuous
100
AcDbCircle
 10
1001.406269460776
 20
-132.828137142951
 30
0.0
 40
3.0
100
AcDbArc
 50
90.0
 51
150.0000000000023
  0
ARC
  5
2FCF
330
26
100
AcDbEntity
  8
0
  6
Continuous
100
AcDbCircle
 10
977.8742186531763
 20
-79.63531681995096
 30
0.0
 40
0.4
100
AcDbArc
 50
150.0000000049028
 51
180.0
  0
ARC
  5
2FD0
330
26
100
AcDbEntity
  8
0
  6
Continuous
100
AcDbCircle
 10
977.8742186531763
 20
-132.020957465951
 30
0.0
 40
0.4
100
AcDbArc
 50
180.0
 51
209.9999999973012
  0
ARC
  5
2FD1
330
26
100
AcDbEntity
  8
0
  6
Continuous
100
AcDbCircle
 10
995.0554164996761
 20
-77.82813714295099
 30
0.0
 40
2.0
100
AcDbArc
 50
29.99999999999765
 51
90.0
  0
ARC
  5
2FD2
330
26
100
AcDbEntity
  8
0
  6
Continuous
100
AcDbCircle
 10
995.0554164996761
 20
-133.828137142951
 30
0.0
 40
2.0
100
AcDbArc
 50
270.0
 51
330.0000000000024
  0
ARC
  5
2FD3
330
26
100
AcDbEntity
  8
0
  6
Continuous
100
AcDbCircle
 10
943.4123384377762
 20
-105.828137142951
 30
0.0
 40
10.999690002
100
AcDbArc
 50
270.0
 51
180.0
  0
CIRCLE
  5
2FD4
330
26
100
AcDbEntity
  8
0
  6
Continuous
100
AcDbCircle
 10
946.2451478556764
 20
-99.781364382351
 30
0.0
 40
0.328409678
  0
ARC
  5
2FD5
330
26
100
AcDbEntity
  8
0
  6
Continuous
100
AcDbCircle
 10
966.4123326547763
 20
-128.828131359851
 30
0.0
 40
2.9999992487
100
AcDbArc
 50
89.99988829670163
 51
180.0001126420002
  0
ARC
  5
2FD6
330
26
100
AcDbEntity
  8
0
  6
Continuous
100
AcDbCircle
 10
966.4123384377763
 20
-132.585496455851
 30
0.0
 40
3.0
100
AcDbArc
 50
180.0
 51
225.0000000000043
  0
ARC
  5
2FD7
330
26
100
AcDbEntity
  8
0
  6
Continuous
100
AcDbCircle
 10
916.6549791249762
 20
-82.82813714295099
 30
0.0
 40
3.0
100
AcDbArc
 50
225.0000000000043
 51
270.0
  0
ARC
  5
2FD8
330
26
100
AcDbEntity
  8
0
  6
Continuous
100
AcDbCircle
 10
970.1696977506763
 20
-128.828137142951
 30
0.0
 40
3.0
100
AcDbArc
 50
44.99999999989838
 51
90.0
  0
ARC
  5
2FD9
330
26
100
AcDbEntity
  8
0
  6
Continuous
100
AcDbCircle
 10
970.1696977506763
 20
-82.82813714295099
 30
0.0
 40
3.0
100
AcDbArc
 50
270.0
 51
315.0000000000054
  0
ARC
  5
2FDA
330
26
100
AcDbEntity
  8
0
  6
Continuous
100
AcDbCircle
 10
958.2504141858763
 20
-82.82813714295099
 30
0.0
 40
4.0
100
AcDbArc
 50
270.0
 51
303.5573097618972
  0
ARC
  5
2FDB
330
26
100
AcDbEntity
  8
0
  6
Continuous
100
AcDbCircle
 10
928.5742626897762
 20
-82.82813714295099
 30
0.0
 40
4.0
100
AcDbArc
 50
236.4426902381033
 51
270.0
  0
ARC
  5
2FDC
330
26
100
AcDbEntity
  8
0
  6
Continuous
100
AcDbCircle
 10
961.5670389761762
 20
-87.82813714295099
 30
0.0
 40
2.0
100
AcDbArc
 50
90.0
 51
123.5573097618967
  0
ARC
  5
2FDD
330
26
100
AcDbEntity
  8
0
  6
Continuous
100
AcDbCircle
 10
925.2576378994763
 20
-87.82813714295099
 30
0.0
 40
2.0
100
AcDbArc
 50
56.44269023810327
 51
90.0
  0
SPLINE
  5
2FDE
330
26
100
AcDbEntity
  8
0
  6
Continuous
100
AcDbSpline
210
0.0
220
0.0
230
1.0
 70
     8
 71
     3
 72
    15
 73
    11
 74
     9
 42
0.0000000001
 43
0.0000000001
 44
0.0000000001
 40
0.0
 40
0.0
 40
0.0
 40
0.0
 40
1.856058265086492
 40
3.581360121084699
 40
5.220082541999654
 40
6.816741460943931
 40
8.415110048513386
 40
10.05834807880441
 40
11.78764770466393
 40
13.64579436847597
 40
13.64579436847597
 40
13.64579436847597
 40
13.64579436847597
 10
891.7692602754762
 20
-76.11942559785098
 30
0.0
 10
891.4896028465749
 20
-76.67184907628548
 30
0.0
 10
890.9499894183372
 20
-77.73777866094964
 30
0.0
 10
890.3659660901477
 20
-79.38226892506657
 30
0.0
 10
890.0036068111388
 20
-81.00031290942538
 30
0.0
 10
889.8818326188776
 20
-82.61303218871456
 30
0.0
 10
890.0019986343572
 20
-84.22740702454269
 30
0.0
 10
890.3640195512219
 20
-85.84906558833633
 30
0.0
 10
890.9488015819817
 20
-87.4970752704545
 30
0.0
 10
891.4893031429031
 20
-88.56483322398093
 30
0.0
 10
891.7692602742762
 20
-89.117887045251
 30
0.0
 11
891.7692602754762
 21
-76.11942559785098
 31
0.0
 11
890.9676031122762
 21
-77.79343219165099
 31
0.0
 11
890.3906418176761
 21
-79.41940333495097
 31
0.0
 11
890.0402535080762
 21
-81.02022787415103
 31
0.0
 11
889.9217940051763
 21
-82.61248634865102
 31
0.0
 11
890.0387072878762
 21
-84.20657336825099
 31
0.0
 11
890.3889536384763
 21
-85.81205109095099
 31
0.0
 11
890.9667954710762
 21
-87.44195170525097
 31
0.0
 11
891.7692602742762
 21
-89.117887045251
 31
0.0
  0
SPLINE
  5
2FDF
330
26
100
AcDbEntity
  8
0
  6
Continuous
100
AcDbSpline
210
0.0
220
0.0
230
1.0
 70
     8
 71
     3
 72
    11
 73
     7
 74
     5
 42
0.0000000001
 43
0.0000000001
 44
0.0000000001
 40
0.0
 40
0.0
 40
0.0
 40
0.0
 40
0.5477020494683047
 40
1.102068671965011
 40
1.650312893888963
 40
2.181019090948153
 40
2.181019090948153
 40
2.181019090948153
 40
2.181019090948153
 10
891.7692603757762
 20
-89.117887047651
 30
0.0
 10
891.5895385221214
 20
-89.15505881238431
 30
0.0
 10
891.2279079151649
 20
-89.22985465701186
 30
0.0
 10
890.7408617897761
 20
-89.49899188588961
 30
0.0
 10
890.3199468127846
 20
-89.85537643858895
 30
0.0
 10
890.1304284579558
 20
-90.1634628770104
 30
0.0
 10
890.0372095633761
 20
-90.31500216855102
 30
0.0
 11
891.7692603757762
 21
-89.117887047651
 31
0.0
 11
891.2390811931761
 21
-89.25531910115102
 31
0.0
 11
890.7494841291762
 21
-89.51535192035099
 31
0.0
 11
890.3382858614762
 21
-89.877964263651
 31
0.0
 11
890.0372095633761
 21
-90.31500216855102
 31
0.0
  0
SPLINE
  5
2FE0
330
26
100
AcDbEntity
  8
0
  6
Continuous
100
AcDbSpline
210
0.0
220
0.0
230
1.0
 70
     8
 71
     3
 72
    16
 73
    12
 74
    10
 42
0.0000000001
 43
0.0000000001
 44
0.0000000001
 40
0.0
 40
0.0
 40
0.0
 40
0.0
 40
1.665086023059145
 40
3.233698854583253
 40
4.738542085381944
 40
6.211854389033482
 40
7.683850364064008
 40
9.182192381920858
 40
10.73305952617457
 40
12.36079910293092
 40
14.09301282041643
 40
14.09301282041643
 40
14.09301282041643
 40
14.09301282041643
 10
890.0372095683762
 20
-76.85230924125096
 30
0.0
 10
889.7860669729914
 20
-77.34766992856999
 30
0.0
 10
889.2983326987344
 20
-78.30969066804273
 30
0.0
 10
888.7482381760906
 20
-79.7942064176771
 30
0.0
 10
888.3715638625815
 20
-81.26532302030434
 30
0.0
 10
888.1821383691043
 20
-82.7406737859979
 30
0.0
 10
888.1819676774794
 20
-84.22583330713873
 30
0.0
 10
888.3712736890507
 20
-85.72490314507809
 30
0.0
 10
888.7481172009007
 20
-87.24052112183679
 30
0.0
 10
889.2984498440294
 20
-88.78574221655553
 30
0.0
 10
889.7859040386297
 20
-89.79480018274541
 30
0.0
 10
890.0372095683762
 20
-90.315016952951
 30
0.0
 11
890.0372095683762
 21
-76.85230924125096
 31
0.0
 11
889.3135665050763
 21
-78.35192658615097
 31
0.0
 11
888.7674504695763
 21
-79.822403886551
 31
0.0
 11
888.3995788497761
 21
-81.28158983105095
 31
0.0
 11
888.2134246054761
 21
-82.74309444665096
 31
0.0
 11
888.2125401234761
 21
-84.21509015595098
 31
0.0
 11
888.3975708275762
 21
-85.70196353355095
 31
0.0
 11
888.7657515953762
 21
-87.20849326155098
 31
0.0
 11
889.3127742499762
 21
-88.74156284415096
 31
0.0
 11
890.0372095683762
 21
-90.315016952951
 31
0.0
  0
SPLINE
  5
2FE1
330
26
100
AcDbEntity
  8
0
  6
Continuous
100
AcDbSpline
210
0.0
220
0.0
230
1.0
 70
     8
 71
     3
 72
    11
 73
     7
 74
     5
 42
0.0000000001
 43
0.0000000001
 44
0.0000000001
 40
0.0
 40
0.0
 40
0.0
 40
0.0
 40
0.530256433737641
 40
1.036409323386118
 40
1.518737043222268
 40
1.985229177832588
 40
1.985229177832588
 40
1.985229177832588
 40
1.985229177832588
 10
891.769260375676
 20
-76.11942559435101
 30
0.0
 10
891.5917414638213
 20
-76.10796193487532
 30
0.0
 10
891.2447730092822
 20
-76.085555712518
 30
0.0
 10
890.7493109026278
 20
-76.22059593665927
 30
0.0
 10
890.3196043293331
 20
-76.46877401273318
 30
0.0
 10
890.1302879350635
 20
-76.72589507635728
 30
0.0
 10
890.0372095614761
 20
-76.85230996245099
 30
0.0
 11
891.769260375676
 21
-76.11942559435101
 31
0.0
 11
891.2390222258762
 21
-76.11502218465103
 31
0.0
 11
890.7495459783763
 21
-76.24387772715102
 31
0.0
 11
890.338418610576
 21
-76.49609651465094
 31
0.0
 11
890.0372095614761
 21
-76.85230996245099
 31
0.0
  0
SPLINE
  5
2FE2
330
26
100
AcDbEntity
  8
0
  6
Continuous
100
AcDbSpline
210
0.0
220
0.0
230
1.0
 70
     8
 71
     3
 72
    12
 73
     8
 74
     0
 42
0.0000000001
 43
0.0000000001
 40
0.0
 40
0.0
 40
0.0
 40
0.0
 40
3.447212312794746
 40
6.755067647050569
 40
9.97471892313097
 40
13.16519238293314
 40
13.1651966693248
 40
13.1651966693248
 40
13.1651966693248
 40
13.1651966693248
 10
891.769260273676
 20
-92.82967569555102
 30
0.0
 10
891.4877673569954
 20
-93.94405015563122
 30
0.0
 10
890.9361611541262
 20
-96.12774938240864
 30
0.0
 10
890.3591464223067
 20
-99.4053099423893
 30
0.0
 10
890.0011390772361
 20
-102.6271059885726
 30
0.0
 10
889.9217939466652
 20
-104.7643681436724
 30
0.0
 10
889.921793894476
 20
-105.8281357137843
 30
0.0
 10
889.921793894476
 20
-105.828137142951
 30
0.0
  0
SPLINE
  5
2FE3
330
26
100
AcDbEntity
  8
0
  6
Continuous
100
AcDbSpline
210
0.0
220
0.0
230
1.0
 70
     8
 71
     3
 72
    12
 73
     8
 74
     0
 42
0.0000000001
 43
0.0000000001
 40
0.0
 40
0.0
 40
0.0
 40
0.0
 40
3.159206423630433
 40
6.214163034845287
 40
9.198647566517751
 40
12.15012254416198
 40
13.62476192015401
 40
13.62476192015401
 40
13.62476192015401
 40
13.62476192015401
 10
890.0372095683762
 20
-92.36542939785102
 30
0.0
 10
889.7846478284723
 20
-93.38798314011933
 30
0.0
 10
889.2878585663375
 20
-95.39934764571694
 30
0.0
 10
888.7427895393603
 20
-98.4188595381155
 30
0.0
 10
888.3691815297156
 20
-101.3939362042084
 30
0.0
 10
888.2130739717087
 20
-103.8608972683298
 30
0.0
 10
888.1897730430571
 20
-105.3365102196119
 30
0.0
 10
888.189773028023
 20
-105.8281371429509
 30
0.0
  0
SPLINE
  5
2FE4
330
26
100
AcDbEntity
  8
0
  6
Continuous
100
AcDbSpline
210
0.0
220
0.0
230
1.0
 70
     8
 71
     3
 72
    11
 73
     7
 74
     0
 42
0.0000000001
 43
0.0000000001
 40
13.1442324026846
 40
13.1442324026846
 40
13.1442324026846
 40
13.1442324026846
 40
16.3612460708653
 40
19.5969637668237
 40
22.88470104663923
 40
26.28846427187208
 40
26.28846427187208
 40
26.28846427187208
 40
26.28846427187208
 10
909.0617830879214
 20
-105.8281371429509
 30
0.0
 10
909.061783123276
 20
-104.7555543570416
 30
0.0
 10
908.9873355795301
 20
-102.604152659698
 30
0.0
 10
908.6519864036649
 20
-99.37267016305157
 30
0.0
 10
908.1143938406226
 20
-96.10478723951088
 30
0.0
 10
907.5996870701017
 20
-93.93392661258531
 30
0.0
 10
907.3378713568764
 20
-92.82967569555102
 30
0.0
  0
SPLINE
  5
2FE5
330
26
100
AcDbEntity
  8
0
  6
Continuous
100
AcDbSpline
210
0.0
220
0.0
230
1.0
 70
     8
 71
     3
 72
    15
 73
    11
 74
     9
 42
0.0000000001
 43
0.0000000001
 44
0.0000000001
 40
0.0
 40
0.0
 40
0.0
 40
0.0
 40
1.820050273820573
 40
3.528213202247378
 40
5.170831148214846
 40
6.782657774254268
 40
8.394525050583173
 40
10.03723893258323
 40
11.74591186553704
 40
13.56630241284222
 40
13.56630241284222
 40
13.56630241284222
 40
13.56630241284222
 10
907.3378713568764
 20
-89.117887045251
 30
0.0
 10
907.5983979866908
 20
-88.56948551288768
 30
0.0
 10
908.1034354068484
 20
-87.50639535848477
 30
0.0
 10
908.6471287794045
 20
-85.86587359490694
 30
0.0
 10
908.9858620311339
 20
-84.24262362104579
 30
0.0
 10
909.0993511627287
 20
-82.61913879836992
 30
0.0
 10
908.9859951624749
 20
-80.99561178141242
 30
0.0
 10
908.6473305510014
 20
-79.37212577024225
 30
0.0
 10
908.1035988577301
 20
-77.73127982698651
 30
0.0
 10
907.5984443232358
 20
-76.66793095694615
 30
0.0
 10
907.3378713568764
 20
-76.11942559785098
 30
0.0
 11
907.3378713568764
 21
-89.117887045251
 31
0.0
 11
908.0837771072761
 21
-87.45770404005098
 31
0.0
 11
908.6218979806762
 21
-85.83651727855101
 31
0.0
 11
908.9507084621761
 21
-84.22714554285096
 31
0.0
 11
909.0617830773762
 21
-82.61915067275101
 31
0.0
 11
908.9508376535761
 21
-81.01110613685103
 31
0.0
 11
908.622119646176
 21
-79.40161759395095
 31
0.0
 11
908.0839014916762
 21
-77.77992575825101
 31
0.0
 11
907.3378713568764
 21
-76.11942559785098
 31
0.0
  0
SPLINE
  5
2FE6
330
26
100
AcDbEntity
  8
0
  6
Continuous
100
AcDbSpline
210
0.0
220
0.0
230
1.0
 70
     8
 71
     3
 72
    10
 73
     6
 74
     4
 42
0.0000000001
 43
0.0000000001
 44
0.0000000001
 40
0.0
 40
0.0
 40
0.0
 40
0.0
 40
0.0406015221202418
 40
0.1383922998937688
 40
0.2937917701718278
 40
0.2937917701718278
 40
0.2937917701718278
 40
0.2937917701718278
 10
907.2142622264761
 20
-75.85314349555097
 30
0.0
 10
907.2186412042265
 20
-75.86595875428536
 30
0.0
 10
907.2335671668606
 20
-75.90964019865908
 30
0.0
 10
907.2777943379505
 20
-75.99729229119286
 30
0.0
 10
907.3150221844715
 20
-76.0729744751072
 30
0.0
 10
907.3378713568764
 20
-76.11942559785098
 30
0.0
 11
907.2142622264761
 21
-75.85314349555097
 31
0.0
 11
907.2279076287761
 21
-75.89138335165102
 31
0.0
 11
907.2689896222762
 21
-75.98012627265098
 31
0.0
 11
907.3378713568764
 21
-76.11942559785098
 31
0.0
  0
SPLINE
  5
2FE7
330
26
100
AcDbEntity
  8
0
  6
Continuous
100
AcDbSpline
210
0.0
220
0.0
230
1.0
 70
     8
 71
     3
 72
    10
 73
     6
 74
     4
 42
0.0000000001
 43
0.0000000001
 44
0.0000000001
 40
0.0
 40
0.0
 40
0.0
 40
0.0
 40
0.1975943166539865
 40
0.4238829327478286
 40
0.6787003533007661
 40
0.6787003533007661
 40
0.6787003533007661
 40
0.6787003533007661
 10
907.3378713568764
 20
-89.117887045251
 30
0.0
 10
907.3126675204067
 20
-89.17892337467205
 30
0.0
 10
907.2585997906252
 20
-89.30985962201601
 30
0.0
 10
907.221617111378
 20
-89.53491136930964
 30
0.0
 10
907.2168088945851
 20
-89.69518021260436
 30
0.0
 10
907.2142622264761
 20
-89.78006647495101
 30
0.0
 11
907.3378713568764
 21
-89.117887045251
 31
0.0
 11
907.2689896222762
 21
-89.30308645295099
 31
0.0
 11
907.2279076287761
 21
-89.52561467045098
 31
0.0
 11
907.2142622264761
 21
-89.78006647495101
 31
0.0
  0
SPLINE
  5
2FE8
330
26
100
AcDbEntity
  8
0
  6
Continuous
100
AcDbSpline
210
0.0
220
0.0
230
1.0
 70
     8
 71
     3
 72
    10
 73
     6
 74
     4
 42
0.0000000001
 43
0.0000000001
 44
0.0000000001
 40
0.0
 40
0.0
 40
0.0
 40
0.0
 40
0.2930095649124339
 40
0.6069800283565412
 40
0.9387090156567474
 40
0.9387090156567474
 40
0.9387090156567474
 40
0.9387090156567474
 10
907.2142622264761
 20
-91.901214163551
 30
0.0
 10
907.2171603194815
 20
-91.99888631200982
 30
0.0
 10
907.2231638251186
 20
-92.20121773917292
 30
0.0
 10
907.2653067227338
 20
-92.51197264377791
 30
0.0
 10
907.3132436791243
 20
-92.72185060317113
 30
0.0
 10
907.3378713568764
 20
-92.82967569555102
 30
0.0
 11
907.2142622264761
 21
-91.901214163551
 31
0.0
 11
907.2279076287761
 21
-92.193905824051
 31
0.0
 11
907.2689896222762
 21
-92.50517696265104
 31
0.0
 11
907.3378713568764
 21
-92.82967569555102
 31
0.0
  0
SPLINE
  5
2FE9
330
26
100
AcDbEntity
  8
0
  6
Continuous
100
AcDbSpline
210
0.0
220
0.0
230
1.0
 70
     8
 71
     3
 72
    11
 73
     7
 74
     0
 42
0.0000000001
 43
0.0000000001
 40
13.16519666932638
 40
13.16519666932638
 40
13.16519666932638
 40
13.16519666932638
 40
16.35567096635943
 40
19.57532230768597
 40
22.88317230609543
 40
26.33039333579834
 40
26.33039333579834
 40
26.33039333579834
 40
26.33039333579834
 10
943.4123384377762
 20
-159.3186816863511
 30
0.0
 10
944.4761048578683
 20
-159.3186816854779
 30
0.0
 10
946.613365895716
 20
-159.2393367872603
 30
0.0
 10
949.8351604988766
 20
-158.8813298500314
 30
0.0
 10
953.1127222529518
 20
-158.3043153034459
 30
0.0
 10
955.2964225956129
 20
-157.752708898015
 30
0.0
 10
956.4107998852762
 20
-157.471215307051
 30
0.0
  0
SPLINE
  5
2FEA
330
26
100
AcDbEntity
  8
0
  6
Continuous
100
AcDbSpline
210
0.0
220
0.0
230
1.0
 70
     8
 71
     3
 72
    12
 73
     8
 74
     0
 42
0.0000000001
 43
0.0000000001
 40
13.62476192006136
 40
13.62476192006136
 40
13.62476192006136
 40
13.62476192006136
 40
15.09869224715414
 40
18.05051167680716
 40
21.03495393608536
 40
24.0901000170474
 40
27.24952362346826
 40
27.24952362346826
 40
27.24952362346826
 40
27.24952362346826
 10
943.4123384377762
 20
-161.0507025527096
 30
0.0
 10
943.9037289727925
 20
-161.0507025677364
 30
0.0
 10
945.3792203994639
 20
-161.0274148515246
 30
0.0
 10
947.8460482544956
 20
-160.8713436928211
 30
0.0
 10
950.8212903580233
 20
-160.4977379601569
 30
0.0
 10
953.8409252756782
 20
-159.9526642589848
 30
0.0
 10
955.852421894489
 20
-159.4558442292129
 30
0.0
 10
956.8750461824761
 20
-159.203266012351
 30
0.0
  0
SPLINE
  5
2FEB
330
26
100
AcDbEntity
  8
0
  6
Continuous
100
AcDbSpline
210
0.0
220
0.0
230
1.0
 70
     8
 71
     3
 72
    12
 73
     8
 74
     0
 42
0.0000000001
 43
0.0000000001
 40
0.0
 40
0.0
 40
0.0
 40
0.0
 40
3.403117075784986
 40
6.689841910083104
 40
9.925336596835383
 40
13.14324392601895
 40
13.14423240277438
 40
13.14423240277438
 40
13.14423240277438
 40
13.14423240277438
 10
956.4107998852762
 20
-141.9026042238509
 30
0.0
 10
955.306759407794
 20
-141.6408351930721
 30
0.0
 10
953.1364384660768
 20
-141.126250066005
 30
0.0
 10
949.8691882358579
 20
-140.5886905774247
 30
0.0
 10
946.6378314952821
 20
-140.2532374634714
 30
0.0
 10
944.4858783137132
 20
-140.1787039394214
 30
0.0
 10
943.4126680052763
 20
-140.1786924929167
 30
0.0
 10
943.4123384377762
 20
-140.1786924929058
 30
0.0
  0
SPLINE
  5
2FEC
330
26
100
AcDbEntity
  8
0
  6
Continuous
100
AcDbSpline
210
0.0
220
0.0
230
1.0
 70
     8
 71
     3
 72
    15
 73
    11
 74
     9
 42
0.0000000001
 43
0.0000000001
 44
0.0000000001
 40
0.0
 40
0.0
 40
0.0
 40
0.0
 40
1.820050273820619
 40
3.528213202247302
 40
5.170831148194683
 40
6.782657774234149
 40
8.394525050556448
 40
10.03723893265416
 40
11.74591186551332
 40
13.56630241290976
 40
13.56630241290976
 40
13.56630241290976
 40
13.56630241290976
 10
973.1210499829762
 20
-141.9026042238509
 30
0.0
 10
972.5726484506124
 20
-141.6420775940398
 30
0.0
 10
971.5095582962081
 20
-141.1370401738882
 30
0.0
 10
969.8690365326461
 20
-140.5933468012906
 30
0.0
 10
968.2457865587572
 20
-140.2546135497169
 30
0.0
 10
966.6223017361007
 20
-140.141124418123
 30
0.0
 10
964.9987747191028
 20
-140.2544804182321
 30
0.0
 10
963.3752887079243
 20
-140.5931450296984
 30
0.0
 10
961.7344427646619
 20
-141.1368767230395
 30
0.0
 10
960.6710938946071
 20
-141.6420312574971
 30
0.0
 10
960.1225885354761
 20
-141.9026042238509
 30
0.0
 11
973.1210499829762
 21
-141.9026042238509
 31
0.0
 11
971.4608669777762
 21
-141.156698473451
 31
0.0
 11
969.8396802162763
 21
-140.618577600051
 31
0.0
 11
968.2303084805764
 21
-140.2897671186509
 31
0.0
 11
966.6223136104763
 21
-140.178692503451
 31
0.0
 11
965.0142690745761
 21
-140.289637927151
 31
0.0
 11
963.4047805315763
 21
-140.618355934551
 31
0.0
 11
961.7830886959762
 21
-141.156574089051
 31
0.0
 11
960.1225885354761
 21
-141.9026042238509
 31
0.0
  0
SPLINE
  5
2FED
330
26
100
AcDbEntity
  8
0
  6
Continuous
100
AcDbSpline
210
0.0
220
0.0
230
1.0
 70
     8
 71
     3
 72
    10
 73
     6
 74
     4
 42
0.0000000001
 43
0.0000000001
 44
0.0000000001
 40
0.0
 40
0.0
 40
0.0
 40
0.0
 40
0.1553994701885709
 40
0.2531902480946673
 40
0.2937917700871412
 40
0.2937917700871412
 40
0.2937917700871412
 40
0.2937917700871412
 10
973.1210499829762
 20
-141.9026042238509
 30
0.0
 10
973.1675011056927
 20
-141.9254533962408
 30
0.0
 10
973.2431832896185
 20
-141.9626812427652
 30
0.0
 10
973.3308353820712
 20
-142.0069084139787
 30
0.0
 10
973.3745168264741
 20
-142.0218343765369
 30
0.0
 10
973.3873320851762
 20
-142.026213354251
 30
0.0
 11
973.1210499829762
 21
-141.9026042238509
 31
0.0
 11
973.2603493080763
 21
-141.971485958451
 31
0.0
 11
973.3490922291762
 21
-142.0125679520509
 31
0.0
 11
973.3873320851762
 21
-142.026213354251
 31
0.0
  0
SPLINE
  5
2FEE
330
26
100
AcDbEntity
  8
0
  6
Continuous
100
AcDbSpline
210
0.0
220
0.0
230
1.0
 70
     8
 71
     3
 72
    10
 73
     6
 74
     4
 42
0.0000000001
 43
0.0000000001
 44
0.0000000001
 40
0.0
 40
0.0
 40
0.0
 40
0.0
 40
0.3317289872024615
 40
0.6456994506594492
 40
0.9387090155672901
 40
0.9387090155672901
 40
0.9387090155672901
 40
0.9387090155672901
 10
956.4107998852762
 20
-141.9026042238509
 30
0.0
 10
956.5186249776242
 20
-141.9272319015894
 30
0.0
 10
956.7285029369896
 20
-141.9751688579611
 30
0.0
 10
957.0392578415433
 20
-142.0173117557653
 30
0.0
 10
957.2415892687156
 20
-142.0233152612967
 30
0.0
 10
957.3392614171762
 20
-142.026213354251
 30
0.0
 11
956.4107998852762
 21
-141.9026042238509
 31
0.0
 11
956.7352986180763
 21
-141.971485958451
 31
0.0
 11
957.0465697566762
 21
-142.0125679520509
 31
0.0
 11
957.3392614171762
 21
-142.026213354251
 31
0.0
  0
SPLINE
  5
2FEF
330
26
100
AcDbEntity
  8
0
  6
Continuous
100
AcDbSpline
210
0.0
220
0.0
230
1.0
 70
     8
 71
     3
 72
    10
 73
     6
 74
     4
 42
0.0000000001
 43
0.0000000001
 44
0.0000000001
 40
0.0
 40
0.0
 40
0.0
 40
0.0
 40
0.2548174205474772
 40
0.4811060366595371
 40
0.6787003533134071
 40
0.6787003533134071
 40
0.6787003533134071
 40
0.6787003533134071
 10
959.4604091057762
 20
-142.026213354251
 30
0.0
 10
959.5452953681257
 20
-142.0236666861974
 30
0.0
 10
959.7055642114334
 20
-142.0188584695091
 30
0.0
 10
959.9306159587002
 20
-141.9818757900721
 30
0.0
 10
960.0615522060532
 20
-141.9278080603102
 30
0.0
 10
960.1225885354761
 20
-141.9026042238509
 30
0.0
 11
959.4604091057762
 21
-142.026213354251
 31
0.0
 11
959.7148609102761
 21
-142.0125679520509
 31
0.0
 11
959.9373891277762
 21
-141.971485958451
 31
0.0
 11
960.1225885354761
 21
-141.9026042238509
 31
0.0
  0
SPLINE
  5
2FF0
330
26
100
AcDbEntity
  8
0
  6
Continuous
100
AcDbSpline
210
0.0
220
0.0
230
1.0
 70
     8
 71
     3
 72
    15
 73
    11
 74
     9
 42
0.0000000001
 43
0.0000000001
 44
0.0000000001
 40
0.0
 40
0.0
 40
0.0
 40
0.0
 40
1.858146313789101
 40
3.587445568166437
 40
5.23068357712234
 40
6.829052957403151
 40
8.425712886439328
 40
10.06443588594834
 40
11.78973789479664
 40
13.64579436672784
 40
13.64579436672784
 40
13.64579436672784
 40
13.64579436672784
 10
960.1225885354761
 20
-157.471215306451
 30
0.0
 10
960.6756422505745
 20
-157.7511723887922
 30
0.0
 10
961.7433999855087
 20
-158.29167384816
 30
0.0
 10
963.3914094125474
 20
-158.8764558461149
 30
0.0
 10
965.013068082373
 20
-159.238476895285
 30
0.0
 10
966.6274435151792
 20
-159.3586430071604
 30
0.0
 10
968.2401635895903
 20
-159.2368686672282
 30
0.0
 10
969.858208104242
 20
-158.8745090807517
 30
0.0
 10
971.5026979604207
 20
-158.2904856727145
 30
0.0
 10
972.5686270446038
 20
-157.7508724734122
 30
0.0
 10
973.1210499829762
 20
-157.471215305251
 30
0.0
 11
960.1225885354761
 21
-157.471215306451
 31
0.0
 11
961.7985235511762
 21
-158.273679976451
 31
0.0
 11
963.4284237953762
 21
-158.8515217412509
 31
0.0
 11
965.0339014757761
 21
-159.2017681856509
 31
0.0
 11
966.6279892823764
 21
-159.318681575251
 31
0.0
 11
968.2202487581761
 21
-159.200221916651
 31
0.0
 11
969.821073824376
 21
-158.849833308751
 31
0.0
 11
971.447045044276
 21
-158.272871772951
 31
0.0
 11
973.1210499829762
 21
-157.471215305251
 31
0.0
  0
SPLINE
  5
2FF1
330
26
100
AcDbEntity
  8
0
  6
Continuous
100
AcDbSpline
210
0.0
220
0.0
230
1.0
 70
     8
 71
     3
 72
    11
 73
     7
 74
     5
 42
0.0000000001
 43
0.0000000001
 44
0.0000000001
 40
0.0
 40
0.0
 40
0.0
 40
0.0
 40
0.5302564313727584
 40
1.036409319988014
 40
1.518737041375482
 40
1.985229180472578
 40
1.985229180472578
 40
1.985229180472578
 40
1.985229180472578
 10
973.1210499863761
 20
-157.471215205151
 30
0.0
 10
973.1325136474272
 20
-157.6487341161527
 30
0.0
 10
973.1549198728903
 20
-157.9957025694348
 30
0.0
 10
973.0198796496794
 20
-158.4911646761274
 30
0.0
 10
972.7717015715164
 20
-158.9208712502137
 30
0.0
 10
972.5145805058066
 20
-159.1101876450713
 30
0.0
 10
972.3881656182761
 20
-159.203266019251
 30
0.0
 11
973.1210499863761
 21
-157.471215205151
 31
0.0
 11
973.1254534002761
 21
-158.001453352551
 31
0.0
 11
972.9965978591762
 21
-158.490929599351
 31
0.0
 11
972.7443790701761
 21
-158.902056968051
 31
0.0
 11
972.3881656182761
 21
-159.203266019251
 31
0.0
  0
SPLINE
  5
2FF2
330
26
100
AcDbEntity
  8
0
  6
Continuous
100
AcDbSpline
210
0.0
220
0.0
230
1.0
 70
     8
 71
     3
 72
    16
 73
    12
 74
    10
 42
0.0000000001
 43
0.0000000001
 44
0.0000000001
 40
0.0
 40
0.0
 40
0.0
 40
0.0
 40
1.732213093600163
 40
3.359952238948246
 40
4.910819306964671
 40
6.409161743427482
 40
7.881158803545367
 40
9.35447179656836
 40
10.85931561048885
 40
12.42792839429734
 40
14.09301281793991
 40
14.09301281793991
 40
14.09301281793991
 40
14.09301281793991
 10
958.9254586290762
 20
-159.203266012351
 30
0.0
 10
959.4456752094737
 20
-159.4545714561091
 30
0.0
 10
960.4547328539993
 20
-159.9420255063842
 30
0.0
 10
961.9999535644441
 20
-160.4923580943053
 30
0.0
 10
963.5155714818073
 20
-160.8692017175602
 30
0.0
 10
965.0146417800841
 20
-161.0585079025394
 30
0.0
 10
966.4998020405988
 20
-161.058337234423
 30
0.0
 10
967.9751535792068
 20
-160.8689115474627
 30
0.0
 10
969.4462705404513
 20
-160.4922369766679
 30
0.0
 10
970.9307858950267
 20
-159.9421424187627
 30
0.0
 10
971.8928061336551
 20
-159.4544083754856
 30
0.0
 10
972.3881663395761
 20
-159.203266012351
 30
0.0
 11
958.9254586290762
 21
-159.203266012351
 31
0.0
 11
960.4989121593762
 21
-159.927701095451
 31
0.0
 11
962.0319813089761
 21
-160.4747236798509
 31
0.0
 11
963.5385109342761
 21
-160.842904546751
 31
0.0
 11
965.0253847135761
 21
-161.027935412651
 31
0.0
 11
966.4973815079761
 21
-161.027050951451
 31
0.0
 11
967.9588867961761
 21
-160.840896531751
 31
0.0
 11
969.418073268176
 21
-160.473024618951
 31
0.0
 11
970.8885504662761
 21
-159.926908445051
 31
0.0
 11
972.3881663395761
 21
-159.203266012351
 31
0.0
  0
SPLINE
  5
2FF3
330
26
100
AcDbEntity
  8
0
  6
Continuous
100
AcDbSpline
210
0.0
220
0.0
230
1.0
 70
     8
 71
     3
 72
    11
 73
     7
 74
     5
 42
0.0000000001
 43
0.0000000001
 44
0.0000000001
 40
0.0
 40
0.0
 40
0.0
 40
0.0
 40
0.5477423644322544
 40
1.101959769670592
 40
1.650083108428161
 40
2.181018975342933
 40
2.181018975342933
 40
2.181018975342933
 40
2.181018975342933
 10
960.1225885330761
 20
-157.4712152050509
 30
0.0
 10
960.0854133713988
 20
-157.6509503466208
 30
0.0
 10
960.0106235883557
 20
-158.0125453373814
 30
0.0
 10
959.7415328648276
 20
-158.4995248652605
 30
0.0
 10
959.3851894607313
 20
-158.9204542120108
 30
0.0
 10
959.0770761980423
 20
-159.1100017996582
 30
0.0
 10
958.9254734116762
 20
-159.203266017451
 30
0.0
 11
960.1225885330761
 21
-157.4712152050509
 31
0.0
 11
959.9851417302762
 21
-158.0014322117509
 31
0.0
 11
959.7251859810763
 21
-158.490901251351
 31
0.0
 11
959.3626842113762
 21
-158.902035853951
 31
0.0
 11
958.9254734116762
 21
-159.203266017451
 31
0.0
  0
SPLINE
  5
2FF4
330
26
100
AcDbEntity
  8
0
  6
Continuous
100
AcDbSpline
210
0.0
220
0.0
230
1.0
 70
     8
 71
     3
 72
    15
 73
    11
 74
     9
 42
0.0000000001
 43
0.0000000001
 44
0.0000000001
 40
0.0
 40
0.0
 40
0.0
 40
0.0
 40
1.856058265086541
 40
3.581360121084699
 40
5.220082541999705
 40
6.816741460936592
 40
8.415110048498683
 40
10.05834807878966
 40
11.78764770464916
 40
13.64579436850442
 40
13.64579436850442
 40
13.64579436850442
 40
13.64579436850442
 10
995.0554166001762
 20
-135.536848688051
 30
0.0
 10
995.3350740290787
 20
-134.9844252096166
 30
0.0
 10
995.8746874573189
 20
-133.9184956249526
 30
0.0
 10
996.4587107854911
 20
-132.2740053608348
 30
0.0
 10
996.8210700645602
 20
-130.655961376481
 30
0.0
 10
996.9428442566025
 20
-129.0432420971875
 30
0.0
 10
996.8226782413433
 20
-127.4288672613543
 30
0.0
 10
996.4606573244122
 20
-125.8072086975686
 30
0.0
 10
995.8758752936899
 20
-124.1591990154242
 30
0.0
 10
995.3353737326917
 20
-123.0914410619172
 30
0.0
 10
995.0554166012762
 20
-122.538387240651
 30
0.0
 11
995.0554166001762
 21
-135.536848688051
 31
0.0
 11
995.8570737633763
 21
-133.862842094251
 31
0.0
 11
996.4340350579762
 21
-132.236870950951
 31
0.0
 11
996.7844233675762
 21
-130.6360464117509
 31
0.0
 11
996.9028828703763
 21
-129.0437879372509
 31
0.0
 11
996.7859695877761
 21
-127.449700917651
 31
0.0
 11
996.4357232371762
 21
-125.844223194951
 31
0.0
 11
995.8578814045764
 21
-124.214322580651
 31
0.0
 11
995.0554166012762
 21
-122.538387240651
 31
0.0
  0
SPLINE
  5
2FF5
330
26
100
AcDbEntity
  8
0
  6
Continuous
100
AcDbSpline
210
0.0
220
0.0
230
1.0
 70
     8
 71
     3
 72
    11
 73
     7
 74
     5
 42
0.0000000001
 43
0.0000000001
 44
0.0000000001
 40
0.0
 40
0.0
 40
0.0
 40
0.0
 40
0.5477020493463894
 40
1.102068671978419
 40
1.650312893836229
 40
2.181019090895489
 40
2.181019090895489
 40
2.181019090895489
 40
2.181019090895489
 10
995.0554164998761
 20
-122.538387238151
 30
0.0
 10
995.2351383535014
 20
-122.5012154734588
 30
0.0
 10
995.5967689604828
 20
-122.4264196288965
 30
0.0
 10
996.0838150857946
 20
-122.157282399912
 30
0.0
 10
996.5047300628996
 20
-121.800897847319
 30
0.0
 10
996.6942484177031
 20
-121.4928114088997
 30
0.0
 10
996.7874673122763
 20
-121.3412721173509
 30
0.0
 11
995.0554164998761
 21
-122.538387238151
 31
0.0
 11
995.5855956823762
 21
-122.4009551847509
 31
0.0
 11
996.0751927464762
 21
-122.140922365451
 31
0.0
 11
996.4863910141762
 21
-121.778310022251
 31
0.0
 11
996.7874673122763
 21
-121.3412721173509
 31
0.0
  0
SPLINE
  5
2FF6
330
26
100
AcDbEntity
  8
0
  6
Continuous
100
AcDbSpline
210
0.0
220
0.0
230
1.0
 70
     8
 71
     3
 72
    16
 73
    12
 74
    10
 42
0.0000000001
 43
0.0000000001
 44
0.0000000001
 40
0.0
 40
0.0
 40
0.0
 40
0.0
 40
1.665086023059244
 40
3.23369885461805
 40
4.73854208551375
 40
6.211854389053446
 40
7.68385036418412
 40
9.182192381941608
 40
10.73305952619537
 40
12.36079910295171
 40
14.09301282047898
 40
14.09301282047898
 40
14.09301282047898
 40
14.09301282047898
 10
996.7874673071761
 20
-134.803965044651
 30
0.0
 10
997.0386099025502
 20
-134.3086043573278
 30
0.0
 10
997.5263441767924
 20
-133.3465836178367
 30
0.0
 10
998.0764386995954
 20
-131.8620678682175
 30
0.0
 10
998.4531130130841
 20
-130.390951265565
 30
0.0
 10
998.642538506388
 20
-128.915600499831
 30
0.0
 10
998.6427091982248
 20
-127.4304409787298
 30
0.0
 10
998.45340318658
 20
-125.9313711407912
 30
0.0
 10
998.0765596747505
 20
-124.4157531640675
 30
0.0
 10
997.5262270316373
 20
-122.8705320693239
 30
0.0
 10
997.0387728369633
 20
-121.8614741031529
 30
0.0
 10
996.7874673071761
 20
-121.341257332951
 30
0.0
 11
996.7874673071761
 21
-134.803965044651
 31
0.0
 11
997.5111103704762
 21
-133.304347699751
 31
0.0
 11
998.0572264060761
 21
-131.833870399351
 31
0.0
 11
998.4250980258762
 21
-130.374684454751
 31
0.0
 11
998.6112522700762
 21
-128.913179839251
 31
0.0
 11
998.6121367521761
 21
-127.4411841298509
 31
0.0
 11
998.4271060480763
 21
-125.954310752351
 31
0.0
 11
998.058925280276
 21
-124.447781024351
 31
0.0
 11
997.511902625676
 21
-122.914711441751
 31
0.0
 11
996.7874673071761
 21
-121.341257332951
 31
0.0
  0
SPLINE
  5
2FF7
330
26
100
AcDbEntity
  8
0
  6
Continuous
100
AcDbSpline
210
0.0
220
0.0
230
1.0
 70
     8
 71
     3
 72
    11
 73
     7
 74
     5
 42
0.0000000001
 43
0.0000000001
 44
0.0000000001
 40
0.0
 40
0.0
 40
0.0
 40
0.0
 40
0.5302564337385843
 40
1.036409323316076
 40
1.518737043237346
 40
1.985229177771209
 40
1.985229177771209
 40
1.985229177771209
 40
1.985229177771209
 10
995.0554164999761
 20
-135.536848691451
 30
0.0
 10
995.2329354118353
 20
-135.5483123509858
 30
0.0
 10
995.5799038663596
 20
-135.5707185734571
 30
0.0
 10
996.0753659729553
 20
-135.4356783490624
 30
0.0
 10
996.5050725462775
 20
-135.1875002731179
 30
0.0
 10
996.6943889405857
 20
-134.9303792095133
 30
0.0
 10
996.7874673141762
 20
-134.803964323451
 30
0.0
 11
995.0554164999761
 21
-135.536848691451
 31
0.0
 11
995.5856546497761
 21
-135.5412521012509
 31
0.0
 11
996.0751308971762
 21
-135.412396558651
 31
0.0
 11
996.4862582650763
 21
-135.160177771151
 31
0.0
 11
996.7874673141762
 21
-134.803964323451
 31
0.0
  0
SPLINE
  5
2FF8
330
26
100
AcDbEntity
  8
0
  6
Continuous
100
AcDbSpline
210
0.0
220
0.0
230
1.0
 70
     8
 71
     3
 72
    15
 73
    11
 74
     9
 42
0.0000000001
 43
0.0000000001
 44
0.0000000001
 40
0.0
 40
0.0
 40
0.0
 40
0.0
 40
3.447212312868612
 40
6.755067647124406
 40
9.974718923116356
 40
13.16519238301837
 40
16.35567096634326
 40
19.57532230766971
 40
22.8831723060617
 40
26.33039333566734
 40
26.33039333566734
 40
26.33039333566734
 40
26.33039333566734
 10
995.0554166019763
 20
-118.8265985903509
 30
0.0
 10
995.3369095186166
 20
-117.7122241302353
 30
0.0
 10
995.8885157214008
 20
-115.5285249034116
 30
0.0
 10
996.4655304532112
 20
-112.2509643434391
 30
0.0
 10
996.8235377984477
 20
-109.0291682972711
 30
0.0
 10
996.9423748953743
 20
-105.8281397268568
 30
0.0
 10
996.8235382400127
 20
-102.6271111060418
 30
0.0
 10
996.4655311448184
 20
-99.40531508186247
 30
0.0
 10
995.8885165984176
 20
-96.12775332779427
 30
0.0
 10
995.3369101929538
 20
-93.9440529851786
 30
0.0
 10
995.0554166019763
 20
-92.82967569555102
 30
0.0
 11
995.0554166019763
 21
-118.8265985903509
 31
0.0
 11
995.8580089270762
 21
-115.474119166151
 31
0.0
 11
996.4354175843762
 21
-112.217048986551
 31
0.0
 11
996.7850545417761
 21
-109.0164383671509
 31
0.0
 11
996.9028829811762
 21
-105.828141430351
 31
0.0
 11
996.7850547928762
 21
-102.6398393573509
 31
0.0
 11
996.4354180677763
 21
-99.43922864685101
 31
0.0
 11
995.8580107104763
 21
-96.18216365585101
 31
0.0
 11
995.0554166019763
 21
-92.82967569555102
 31
0.0
  0
SPLINE
  5
2FF9
330
26
100
AcDbEntity
  8
0
  6
Continuous
100
AcDbSpline
210
0.0
220
0.0
230
1.0
 70
     8
 71
     3
 72
    16
 73
    12
 74
    10
 42
0.0000000001
 43
0.0000000001
 44
0.0000000001
 40
0.0
 40
0.0
 40
0.0
 40
0.0
 40
3.159206423653349
 40
6.214163034966499
 40
9.198647566639057
 40
12.15012254418339
 40
15.09869224726873
 40
18.05051167691556
 40
21.03495393620599
 40
24.09010001715016
 40
27.2495236234966
 40
27.2495236234966
 40
27.2495236234966
 40
27.2495236234966
 10
996.7874673071761
 20
-119.2908448880509
 30
0.0
 10
997.0400290471234
 20
-118.268291145785
 30
0.0
 10
997.53681830935
 20
-116.2569266401673
 30
0.0
 10
998.0818873362796
 20
-113.2374147477163
 30
0.0
 10
998.4554953459208
 20
-110.2623380816274
 30
0.0
 10
998.6426519011943
 20
-107.3047110424335
 30
0.0
 10
998.6426745419991
 20
-104.3521576411467
 30
0.0
 10
998.4555449878383
 20
-101.3944273262164
 30
0.0
 10
998.0819392548926
 20
-98.41918522272712
 30
0.0
 10
997.5368655539912
 20
-95.3995503050526
 30
0.0
 10
997.0400455240977
 20
-93.3880536862998
 30
0.0
 10
996.7874673071761
 20
-92.36542939835103
 30
0.0
 11
996.7874673071761
 21
-119.2908448880509
 31
0.0
 11
997.5119233281761
 21
-116.2158247741509
 31
0.0
 11
998.0587091736762
 21
-113.210199192651
 31
0.0
 11
998.4261232010762
 21
-110.2484168150509
 31
0.0
 11
998.6116145048763
 21
-107.302776389051
 31
0.0
 11
998.6116369378763
 21
-104.354206686051
 31
0.0
 11
998.4261572808762
 21
-101.4082203924509
 31
0.0
 11
998.0587709071762
 21
-98.44647718085099
 31
0.0
 11
997.5119678611763
 21
-95.44066214915097
 31
0.0
 11
996.7874673071761
 21
-92.36542939835103
 31
0.0
  0
SPLINE
  5
2FFA
330
26
100
AcDbEntity
  8
0
  6
Continuous
100
AcDbSpline
210
0.0
220
0.0
230
1.0
 70
     8
 71
     3
 72
    15
 73
    11
 74
     9
 42
0.0000000001
 43
0.0000000001
 44
0.0000000001
 40
0.0
 40
0.0
 40
0.0
 40
0.0
 40
3.40311707570931
 40
6.689841909991044
 40
9.925336596753507
 40
13.14324392593709
 40
16.36124607087322
 40
19.59696376683164
 40
22.88470104653214
 40
26.28846427188439
 40
26.28846427188439
 40
26.28846427188439
 40
26.28846427188439
 10
979.4868055187762
 20
-92.82967569555102
 30
0.0
 10
979.225036487939
 20
-93.93371617299552
 30
0.0
 10
978.7104513607533
 20
-96.10403711465614
 30
0.0
 10
978.1728918724252
 20
-99.37128734488924
 30
0.0
 10
977.8374387582585
 20
-102.6026440854357
 30
0.0
 10
977.7257560462617
 20
-105.8271792259531
 30
0.0
 10
977.8373072643957
 20
-109.0517936907179
 30
0.0
 10
978.1726904720165
 20
-112.2836041228066
 30
0.0
 10
978.7102830348974
 20
-115.5514870463768
 30
0.0
 10
979.2249898055002
 20
-117.7223476732866
 30
0.0
 10
979.4868055187762
 20
-118.8265985903509
 30
0.0
 11
979.4868055187762
 21
-92.82967569555102
 31
0.0
 11
978.7408997682762
 21
-96.15004170585098
 31
0.0
 11
978.2027788949763
 21
-99.39241522875102
 31
0.0
 11
977.8739684134761
 21
-102.611158700251
 31
0.0
 11
977.7628937982763
 21
-105.827148440451
 31
0.0
 11
977.8738392220761
 21
-109.043237512251
 31
0.0
 11
978.2025572294763
 21
-112.262214598151
 31
0.0
 11
978.7407753838762
 21
-115.505598269351
 31
0.0
 11
979.4868055187762
 21
-118.8265985903509
 31
0.0
  0
SPLINE
  5
2FFB
330
26
100
AcDbEntity
  8
0
  6
Continuous
100
AcDbSpline
210
0.0
220
0.0
230
1.0
 70
     8
 71
     3
 72
    15
 73
    11
 74
     9
 42
0.0000000001
 43
0.0000000001
 44
0.0000000001
 40
0.0
 40
0.0
 40
0.0
 40
0.0
 40
1.820050273861654
 40
3.528213202162023
 40
5.170831148227482
 40
6.782657774266938
 40
8.394525050595734
 40
10.03723893259583
 40
11.74591186542333
 40
13.56630241286077
 40
13.56630241286077
 40
13.56630241286077
 40
13.56630241286077
 10
979.4868055187762
 20
-122.538387240651
 30
0.0
 10
979.2262788889129
 20
-123.0867887730081
 30
0.0
 10
978.7212414686842
 20
-124.1498789273493
 30
0.0
 10
978.1775480962467
 20
-125.7904006909749
 30
0.0
 10
977.838814844522
 20
-127.413650664823
 30
0.0
 10
977.725325712925
 20
-129.0371354875317
 30
0.0
 10
977.8386817131716
 20
-130.6606625044915
 30
0.0
 10
978.177346324664
 20
-132.2841485156109
 30
0.0
 10
978.7210780178207
 20
-133.924994458908
 30
0.0
 10
979.22623255237
 20
-134.9883433289276
 30
0.0
 10
979.4868055187762
 20
-135.536848688051
 30
0.0
 11
979.4868055187762
 21
-122.538387240651
 31
0.0
 11
978.7408997682762
 21
-124.198570245851
 31
0.0
 11
978.2027788949763
 21
-125.819757007251
 31
0.0
 11
977.8739684134761
 21
-127.429128743051
 31
0.0
 11
977.7628937982763
 21
-129.037123613151
 31
0.0
 11
977.8738392220761
 21
-130.6451681490509
 31
0.0
 11
978.2025572294763
 21
-132.254656691951
 31
0.0
 11
978.7407753838762
 21
-133.876348527551
 31
0.0
 11
979.4868055187762
 21
-135.536848688051
 31
0.0
  0
SPLINE
  5
2FFC
330
26
100
AcDbEntity
  8
0
  6
Continuous
100
AcDbSpline
210
0.0
220
0.0
230
1.0
 70
     8
 71
     3
 72
    15
 73
    11
 74
     9
 42
0.0000000001
 43
0.0000000001
 44
0.0000000001
 40
0.0
 40
0.0
 40
0.0
 40
0.0
 40
1.820050273770449
 40
3.528213202165769
 40
5.170831148133193
 40
6.78265777417265
 40
8.394525050501589
 40
10.03723893259957
 40
11.7459118654271
 40
13.56630241286448
 40
13.56630241286448
 40
13.56630241286448
 40
13.56630241286448
 10
979.4868055187762
 20
-76.11942559785098
 30
0.0
 10
979.2262788889068
 20
-76.66782713017238
 30
0.0
 10
978.7212414686392
 20
-77.73091728449869
 30
0.0
 10
978.177548096284
 20
-79.37143904811897
 30
0.0
 10
977.8388148445079
 20
-80.99468902195262
 30
0.0
 10
977.7253257129263
 20
-82.61817384463296
 30
0.0
 10
977.8386817131812
 20
-84.24170086162232
 30
0.0
 10
978.1773463246474
 20
-85.86518687278112
 30
0.0
 10
978.721078017822
 20
-87.50603281610765
 30
0.0
 10
979.2262325523707
 20
-88.5693816861275
 30
0.0
 10
979.4868055187762
 20
-89.117887045251
 30
0.0
 11
979.4868055187762
 21
-76.11942559785098
 31
0.0
 11
978.7408997682762
 21
-77.77960860295099
 31
0.0
 11
978.2027788949763
 21
-79.40079536445103
 31
0.0
 11
977.8739684134761
 21
-81.01016710015097
 31
0.0
 11
977.7628937982763
 21
-82.61816197025098
 31
0.0
 11
977.8738392220761
 21
-84.22620650615102
 31
0.0
 11
978.2025572294763
 21
-85.83569504915101
 31
0.0
 11
978.7407753838762
 21
-87.45738688475103
 31
0.0
 11
979.4868055187762
 21
-89.117887045251
 31
0.0
  0
SPLINE
  5
2FFD
330
26
100
AcDbEntity
  8
0
  6
Continuous
100
AcDbSpline
210
0.0
220
0.0
230
1.0
 70
     8
 71
     3
 72
    10
 73
     6
 74
     4
 42
0.0000000001
 43
0.0000000001
 44
0.0000000001
 40
0.0
 40
0.0
 40
0.0
 40
0.0
 40
0.1553994702779582
 40
0.2531902480514374
 40
0.2937917701716792
 40
0.2937917701716792
 40
0.2937917701716792
 40
0.2937917701716792
 10
979.4868055187762
 20
-76.11942559785098
 30
0.0
 10
979.5096546911809
 20
-76.07297447510717
 30
0.0
 10
979.546882537702
 20
-75.99729229119282
 30
0.0
 10
979.5911097087917
 20
-75.90964019865911
 30
0.0
 10
979.6060356714257
 20
-75.86595875428534
 30
0.0
 10
979.6104146491762
 20
-75.85314349555097
 30
0.0
 11
979.4868055187762
 21
-76.11942559785098
 31
0.0
 11
979.5556872533762
 21
-75.98012627265098
 31
0.0
 11
979.5967692468762
 21
-75.89138335165102
 31
0.0
 11
979.6104146491762
 21
-75.85314349555097
 31
0.0
  0
SPLINE
  5
2FFE
330
26
100
AcDbEntity
  8
0
  6
Continuous
100
AcDbSpline
210
0.0
220
0.0
230
1.0
 70
     8
 71
     3
 72
    10
 73
     6
 74
     4
 42
0.0000000001
 43
0.0000000001
 44
0.0000000001
 40
0.0
 40
0.0
 40
0.0
 40
0.0
 40
0.040601522120282
 40
0.1383922999845363
 40
0.2937917701727643
 40
0.2937917701727643
 40
0.2937917701727643
 40
0.2937917701727643
 10
979.6104146491762
 20
-135.803130790351
 30
0.0
 10
979.6060356714245
 20
-135.7903155316172
 30
0.0
 10
979.5911097087768
 20
-135.7466340872167
 30
0.0
 10
979.5468825377585
 20
-135.6589819946489
 30
0.0
 10
979.5096546911943
 20
-135.5832998107551
 30
0.0
 10
979.4868055187762
 20
-135.536848688051
 30
0.0
 11
979.6104146491762
 21
-135.803130790351
 31
0.0
 11
979.5967692468762
 21
-135.7648909342509
 31
0.0
 11
979.5556872533762
 21
-135.6761480131509
 31
0.0
 11
979.4868055187762
 21
-135.536848688051
 31
0.0
  0
SPLINE
  5
2FFF
330
26
100
AcDbEntity
  8
0
  6
Continuous
100
AcDbSpline
210
0.0
220
0.0
230
1.0
 70
     8
 71
     3
 72
    10
 73
     6
 74
     4
 42
0.0000000001
 43
0.0000000001
 44
0.0000000001
 40
0.0
 40
0.0
 40
0.0
 40
0.0
 40
0.1975943166539205
 40
0.4238829328461938
 40
0.6787003532992304
 40
0.6787003532992304
 40
0.6787003532992304
 40
0.6787003532992304
 10
979.4868055187762
 20
-122.538387240651
 30
0.0
 10
979.5120093552466
 20
-122.4773509112301
 30
0.0
 10
979.5660770850427
 20
-122.346414663856
 30
0.0
 10
979.6030597642593
 20
-122.1213629165566
 30
0.0
 10
979.6078679810628
 20
-121.9610940732637
 30
0.0
 10
979.6104146491762
 20
-121.8762078109509
 30
0.0
 11
979.4868055187762
 21
-122.538387240651
 31
0.0
 11
979.5556872533762
 21
-122.353187832951
 31
0.0
 11
979.5967692468762
 21
-122.1306596153509
 31
0.0
 11
979.6104146491762
 21
-121.8762078109509
 31
0.0
  0
SPLINE
  5
3000
330
26
100
AcDbEntity
  8
0
  6
Continuous
100
AcDbSpline
210
0.0
220
0.0
230
1.0
 70
     8
 71
     3
 72
    10
 73
     6
 74
     4
 42
0.0000000001
 43
0.0000000001
 44
0.0000000001
 40
0.0
 40
0.0
 40
0.0
 40
0.0
 40
0.2930095649123345
 40
0.6069800284555266
 40
0.9387090156579885
 40
0.9387090156579885
 40
0.9387090156579885
 40
0.9387090156579885
 10
979.6104146491762
 20
-119.7550601223509
 30
0.0
 10
979.6075165561686
 20
-119.6573879738924
 30
0.0
 10
979.6015130505263
 20
-119.4550565466969
 30
0.0
 10
979.5593701529394
 20
-119.144301642087
 30
0.0
 10
979.5114331965306
 20
-118.9344236826971
 30
0.0
 10
979.4868055187762
 20
-118.8265985903509
 30
0.0
 11
979.6104146491762
 21
-119.7550601223509
 31
0.0
 11
979.5967692468762
 21
-119.462368461851
 31
0.0
 11
979.5556872533762
 21
-119.151097323151
 31
0.0
 11
979.4868055187762
 21
-118.8265985903509
 31
0.0
  0
SPLINE
  5
3001
330
26
100
AcDbEntity
  8
0
  6
Continuous
100
AcDbSpline
210
0.0
220
0.0
230
1.0
 70
     8
 71
     3
 72
    10
 73
     6
 74
     4
 42
0.0000000001
 43
0.0000000001
 44
0.0000000001
 40
0.0
 40
0.0
 40
0.0
 40
0.0
 40
0.331728987300159
 40
0.6456994507442513
 40
0.9387090156566852
 40
0.9387090156566852
 40
0.9387090156566852
 40
0.9387090156566852
 10
979.4868055187762
 20
-92.82967569555102
 30
0.0
 10
979.5114331965283
 20
-92.72185060317115
 30
0.0
 10
979.5593701529182
 20
-92.51197264377791
 30
0.0
 10
979.6015130505336
 20
-92.20121773917293
 30
0.0
 10
979.6075165561707
 20
-91.99888631200982
 30
0.0
 10
979.6104146491762
 20
-91.901214163551
 30
0.0
 11
979.4868055187762
 21
-92.82967569555102
 31
0.0
 11
979.5556872533762
 21
-92.50517696265104
 31
0.0
 11
979.5967692468762
 21
-92.193905824051
 31
0.0
 11
979.6104146491762
 21
-91.901214163551
 31
0.0
  0
SPLINE
  5
3002
330
26
100
AcDbEntity
  8
0
  6
Continuous
100
AcDbSpline
210
0.0
220
0.0
230
1.0
 70
     8
 71
     3
 72
    10
 73
     6
 74
     4
 42
0.0000000001
 43
0.0000000001
 44
0.0000000001
 40
0.0
 40
0.0
 40
0.0
 40
0.0
 40
0.2548174205529374
 40
0.4811060366467589
 40
0.6787003533006661
 40
0.6787003533006661
 40
0.6787003533006661
 40
0.6787003533006661
 10
979.6104146491762
 20
-89.78006647495101
 30
0.0
 10
979.6078679810671
 20
-89.69518021260434
 30
0.0
 10
979.6030597642742
 20
-89.53491136930964
 30
0.0
 10
979.5660770850269
 20
-89.30985962201601
 30
0.0
 10
979.5120093552459
 20
-89.17892337467208
 30
0.0
 10
979.4868055187762
 20
-89.117887045251
 30
0.0
 11
979.6104146491762
 21
-89.78006647495101
 31
0.0
 11
979.5967692468762
 21
-89.52561467045098
 31
0.0
 11
979.5556872533762
 21
-89.30308645295099
 31
0.0
 11
979.4868055187762
 21
-89.117887045251
 31
0.0
  0
SPLINE
  5
3003
330
26
100
AcDbEntity
  8
0
  6
Continuous
100
AcDbSpline
210
0.0
220
0.0
230
1.0
 70
     8
 71
     3
 72
    15
 73
    11
 74
     9
 42
0.0000000001
 43
0.0000000001
 44
0.0000000001
 40
0.0
 40
0.0
 40
0.0
 40
0.0
 40
1.858146313832229
 40
3.587445568115349
 40
5.230683577169036
 40
6.82905295744228
 40
8.42571288647868
 40
10.06443588586883
 40
11.78973789484474
 40
13.64579436668561
 40
13.64579436668561
 40
13.64579436668561
 40
13.64579436668561
 10
995.0554166012762
 20
-89.117887045251
 30
0.0
 10
995.3353736836555
 20
-88.56483333015518
 30
0.0
 10
995.8758751430764
 20
-87.49707559526597
 30
0.0
 10
996.4606571410614
 20
-85.84906616822043
 30
0.0
 10
996.8226781902324
 20
-84.22740749839032
 30
0.0
 10
996.9428443019594
 20
-82.61303206554159
 30
0.0
 10
996.8210699620372
 20
-81.00031199118382
 30
0.0
 10
996.458710375697
 20
-79.38226747649412
 30
0.0
 10
995.874686967549
 20
-77.73777762037761
 30
0.0
 10
995.3350737682297
 20
-76.67184853619214
 30
0.0
 10
995.0554166000761
 20
-76.11942559785098
 30
0.0
 11
995.0554166012762
 21
-89.117887045251
 31
0.0
 11
995.8578812713763
 21
-87.44195202955098
 31
0.0
 11
996.4357230361761
 21
-85.81205178545099
 31
0.0
 11
996.7859694805762
 21
-84.20657410495095
 31
0.0
 11
996.9028828700762
 21
-82.61248629835097
 31
0.0
 11
996.7844232114762
 21
-81.02022682255097
 31
0.0
 11
996.4340346036761
 21
-79.41940175645095
 31
0.0
 11
995.8570730677761
 21
-77.79343053645096
 31
0.0
 11
995.0554166000761
 21
-76.11942559785098
 31
0.0
  0
SPLINE
  5
3004
330
26
100
AcDbEntity
  8
0
  6
Continuous
100
AcDbSpline
210
0.0
220
0.0
230
1.0
 70
     8
 71
     3
 72
    11
 73
     7
 74
     5
 42
0.0000000001
 43
0.0000000001
 44
0.0000000001
 40
0.0
 40
0.0
 40
0.0
 40
0.0
 40
0.5302564314727141
 40
1.036409319991467
 40
1.518737041378714
 40
1.985229180540419
 40
1.985229180540419
 40
1.985229180540419
 40
1.985229180540419
 10
995.0554164999761
 20
-76.11942559435101
 30
0.0
 10
995.2329354110118
 20
-76.10796193329364
 30
0.0
 10
995.5799038642963
 20
-76.08555570782256
 30
0.0
 10
996.075365970985
 20
-76.22059593106461
 30
0.0
 10
996.5050725450402
 20
-76.46877400923627
 30
0.0
 10
996.6943889399597
 20
-76.72589507492292
 30
0.0
 10
996.7874673141762
 20
-76.85230996245099
 30
0.0
 11
995.0554164999761
 21
-76.11942559435101
 31
0.0
 11
995.5856546474761
 21
-76.11502218045098
 31
0.0
 11
996.0751308941763
 21
-76.24387772155102
 31
0.0
 11
996.4862582628761
 21
-76.49609651055096
 31
0.0
 11
996.7874673141762
 21
-76.85230996245099
 31
0.0
  0
SPLINE
  5
3005
330
26
100
AcDbEntity
  8
0
  6
Continuous
100
AcDbSpline
210
0.0
220
0.0
230
1.0
 70
     8
 71
     3
 72
    16
 73
    12
 74
    10
 42
0.0000000001
 43
0.0000000001
 44
0.0000000001
 40
0.0
 40
0.0
 40
0.0
 40
0.0
 40
1.732213093600088
 40
3.359952238948383
 40
4.910819306891314
 40
6.409161743441089
 40
7.881158803558932
 40
9.354471796569309
 40
10.85931561048982
 40
12.42792839433306
 40
14.09301281797567
 40
14.09301281797567
 40
14.09301281797567
 40
14.09301281797567
 10
996.7874673071761
 20
-90.31501695165099
 30
0.0
 10
997.0387727509393
 20
-89.79480037125467
 30
0.0
 10
997.5262268012243
 20
-88.78574272673126
 30
0.0
 10
998.0765593890671
 20
-87.24052201629411
 30
0.0
 10
998.4534030125758
 20
-85.72490409898281
 30
0.0
 10
998.6427091973221
 20
-84.22583380066317
 30
0.0
 10
998.6425385292284
 20
-82.74067354013843
 30
0.0
 10
998.453112842412
 20
-81.26532200151394
 30
0.0
 10
998.0764382716104
 20
-79.7942050402545
 30
0.0
 10
997.5263437135634
 20
-78.3096896857225
 30
0.0
 10
997.0386096703007
 20
-77.34766944707602
 30
0.0
 10
996.7874673071761
 20
-76.85230924115103
 30
0.0
 11
996.7874673071761
 21
-90.31501695165099
 31
0.0
 11
997.5119023902761
 21
-88.74156342135098
 31
0.0
 11
998.0589249746763
 21
-87.20849427175097
 31
0.0
 11
998.4271058416762
 21
-85.70196464655101
 31
0.0
 11
998.612136707476
 21
-84.21509086715099
 31
0.0
 11
998.6112522462763
 21
-82.74309407275096
 31
0.0
 11
998.4250978266761
 21
-81.28158878455099
 31
0.0
 11
998.0572259138762
 21
-79.82240231255099
 31
0.0
 11
997.5111097398763
 21
-78.35192511445096
 31
0.0
 11
996.7874673071761
 21
-76.85230924115103
 31
0.0
  0
SPLINE
  5
3006
330
26
100
AcDbEntity
  8
0
  6
Continuous
100
AcDbSpline
210
0.0
220
0.0
230
1.0
 70
     8
 71
     3
 72
    11
 73
     7
 74
     5
 42
0.0000000001
 43
0.0000000001
 44
0.0000000001
 40
0.0
 40
0.0
 40
0.0
 40
0.0
 40
0.5477423644073064
 40
1.101959769645471
 40
1.650083108478034
 40
2.181018975336186
 40
2.181018975336186
 40
2.181018975336186
 40
2.181018975336186
 10
995.0554164998761
 20
-89.11788704775096
 30
0.0
 10
995.2351516414497
 20
-89.15506220938528
 30
0.0
 10
995.5967466322264
 20
-89.22985199234363
 30
0.0
 10
996.0837261600834
 20
-89.49894271594189
 30
0.0
 10
996.5046555069414
 20
-89.85528611993155
 30
0.0
 10
996.6942030945257
 20
-90.16339938267636
 30
0.0
 10
996.7874673122763
 20
-90.31500216905101
 30
0.0
 11
995.0554164998761
 21
-89.11788704775096
 31
0.0
 11
995.5856335065762
 21
-89.255333850451
 31
0.0
 11
996.075102546176
 21
-89.515289599651
 31
0.0
 11
996.4862371488761
 21
-89.87779136935102
 31
0.0
 11
996.7874673122763
 21
-90.31500216905101
 31
0.0
  0
SPLINE
  5
3007
330
26
100
AcDbEntity
  8
0
  6
Continuous
100
AcDbSpline
210
0.0
220
0.0
230
1.0
 70
     8
 71
     3
 72
    11
 73
     7
 74
     5
 42
0.0000000001
 43
0.0000000001
 44
0.0000000001
 40
0.0
 40
0.0
 40
0.0
 40
0.0
 40
0.1010135618363836
 40
0.2020255336832179
 40
0.3030373571293065
 40
0.4040507087220464
 40
0.4040507087220464
 40
0.4040507087220464
 40
0.4040507087220464
 10
950.2358861336761
 20
-101.290002371951
 30
0.0
 10
950.2201676338716
 20
-101.2583472704678
 30
0.0
 10
950.1887308816773
 20
-101.195037565764
 30
0.0
 10
950.2392233980484
 20
-101.0927997653758
 30
0.0
 10
950.3446505598587
 20
-101.0493579178905
 30
0.0
 10
950.4056819138538
 20
-101.0850167581546
 30
0.0
 10
950.4361978216762
 20
-101.1028463131509
 30
0.0
 11
950.2358861336761
 21
-101.290002371951
 31
0.0
 11
950.2050055240761
 21
-101.193824788151
 31
0.0
 11
950.2483791723761
 21
-101.102598996351
 31
0.0
 11
950.3423366723762
 21
-101.065512925251
 31
0.0
 11
950.4361978216762
 21
-101.1028463131509
 31
0.0
  0
SPLINE
  5
3008
330
26
100
AcDbEntity
  8
0
  6
Continuous
100
AcDbSpline
210
0.0
220
0.0
230
1.0
 70
     8
 71
     3
 72
     9
 73
     5
 74
     3
 42
0.0000000001
 43
0.0000000001
 44
0.0000000001
 40
0.0
 40
0.0
 40
0.0
 40
0.0
 40
2.293945445258478
 40
4.587890824559912
 40
4.587890824559912
 40
4.587890824559912
 40
4.587890824559912
 10
950.4361978216762
 20
-101.1028463131509
 30
0.0
 10
950.9511379333727
 20
-101.6889830289756
 30
0.0
 10
951.98101814196
 20
-102.861256443772
 30
0.0
 10
952.2621347605179
 20
-104.3961348254466
 30
0.0
 10
952.4026930677761
 20
-105.163574005251
 30
0.0
 11
950.4361978216762
 21
-101.1028463131509
 31
0.0
 11
951.7938272538764
 21
-102.951907704951
 31
0.0
 11
952.4026930677761
 21
-105.163574005251
 31
0.0
  0
SPLINE
  5
3009
330
26
100
AcDbEntity
  8
0
  6
Continuous
100
AcDbSpline
210
0.0
220
0.0
230
1.0
 70
     8
 71
     3
 72
    18
 73
    14
 74
    12
 42
0.0000000001
 43
0.0000000001
 44
0.0000000001
 40
0.0
 40
0.0
 40
0.0
 40
0.0
 40
0.0399291135071396
 40
0.079918634606969
 40
0.1602806135807723
 40
0.2407244686993101
 40
0.3208728017760533
 40
0.4822081742479745
 40
0.645457020580352
 40
0.8085390886178238
 40
0.9707720216468012
 40
1.130473659709191
 40
1.290145592920177
 40
1.290145592920177
 40
1.290145592920177
 40
1.290145592920177
 10
952.4026930677761
 20
-105.163574005251
 30
0.0
 10
952.4034123638219
 20
-105.1768707992624
 30
0.0
 10
952.4048520441152
 20
-105.2034845036174
 30
0.0
 10
952.4020706105019
 20
-105.2569584575947
 30
0.0
 10
952.3870543545536
 20
-105.322739564106
 30
0.0
 10
952.3543614920019
 20
-105.3965977091042
 30
0.0
 10
952.2925759162833
 20
-105.4851930944234
 30
0.0
 10
952.1810969078788
 20
-105.568063267319
 30
0.0
 10
952.0193657119002
 20
-105.6097599505292
 30
0.0
 10
951.8541853894536
 20
-105.580303165833
 30
0.0
 10
951.7149433655582
 20
-105.491335348036
 30
0.0
 10
951.6200548605133
 20
-105.3536214846295
 30
0.0
 10
951.6087438934121
 20
-105.2463917362403
 30
0.0
 10
951.6030889358763
 20
-105.192781848751
 30
0.0
 11
952.4026930677761
 21
-105.163574005251
 31
0.0
 11
952.4041453861762
 21
-105.203476697851
 31
0.0
 11
952.4020081132762
 21
-105.243409063951
 31
0.0
 11
952.3846148235762
 21
-105.321866193251
 31
0.0
 11
952.352055030076
 21
-105.395426193751
 31
0.0
 11
952.3059360501761
 21
-105.460976136451
 31
0.0
 11
952.1771167956762
 21
-105.558108531051
 31
0.0
 11
952.0187836176763
 21
-105.597867688151
 31
0.0
 11
951.8580682826762
 21
-105.570184805151
 31
0.0
 11
951.7215796276762
 21
-105.482490041251
 31
0.0
 11
951.6329548082763
 21
-105.349635780551
 31
0.0
 11
951.6030889358763
 21
-105.192781848751
 31
0.0
  0
SPLINE
  5
300A
330
26
100
AcDbEntity
  8
0
  6
Continuous
100
AcDbSpline
210
0.0
220
0.0
230
1.0
 70
     8
 71
     3
 72
     9
 73
     5
 74
     3
 42
0.0000000001
 43
0.0000000001
 44
0.0000000001
 40
0.0
 40
0.0
 40
0.0
 40
0.0
 40
2.099774506344778
 40
4.199549034259551
 40
4.199549034259551
 40
4.199549034259551
 40
4.199549034259551
 10
951.6030889358763
 20
-105.192781848751
 30
0.0
 10
951.5478433613998
 20
-104.4818466580543
 30
0.0
 10
951.4373522118794
 20
-103.0599762693577
 30
0.0
 10
950.6363748277819
 20
-101.8799936731068
 30
0.0
 10
950.2358861336761
 20
-101.290002371951
 30
0.0
 11
951.6030889358763
 21
-105.192781848751
 31
0.0
 11
951.2647306555761
 21
-103.120448224151
 31
0.0
 11
950.2358861336761
 21
-101.290002371951
 31
0.0
  0
SPLINE
  5
300B
330
26
100
AcDbEntity
  8
0
  6
Continuous
100
AcDbSpline
210
0.0
220
0.0
230
1.0
 70
     8
 71
     3
 72
    15
 73
    11
 74
     9
 42
0.0000000001
 43
0.0000000001
 44
0.0000000001
 40
0.0
 40
0.0
 40
0.0
 40
0.0
 40
0.3890681942034525
 40
0.8130068210687163
 40
1.261850964124812
 40
1.525417037495775
 40
1.792928191828631
 40
4.308203670900928
 40
6.721128272164945
 40
7.596849517644703
 40
7.596849517644703
 40
7.596849517644703
 40
7.596849517644703
 10
951.5849027817764
 20
-106.7691268902509
 30
0.0
 10
951.5667540622058
 20
-106.9054115760502
 30
0.0
 10
951.5288300349419
 20
-107.1901955311843
 30
0.0
 10
951.0710477128719
 20
-107.3838128329367
 30
0.0
 10
950.6759288536995
 20
-107.1786939994135
 30
0.0
 10
950.5958230233204
 20
-106.8478389196124
 30
0.0
 10
950.572087570945
 20
-105.8379517330088
 30
0.0
 10
950.5425875686232
 20
-104.0849752915968
 30
0.0
 10
949.8844754875711
 20
-102.2358089539405
 30
0.0
 10
949.3873311565787
 20
-101.2596275854572
 30
0.0
 10
949.2549484455763
 20
-100.9996838871509
 30
0.0
 11
951.5849027817764
 21
-106.7691268902509
 31
0.0
 11
951.4715944415761
 21
-107.141330167751
 31
0.0
 11
951.0831878090762
 21
-107.3112249798509
 31
0.0
 11
950.6867168198763
 21
-107.100816283551
 31
0.0
 11
950.6058192399761
 21
-106.849972394651
 31
0.0
 11
950.5896552308763
 21
-106.582950031351
 31
0.0
 11
950.4037289127762
 21
-104.074555696351
 31
0.0
 11
949.6432868013762
 21
-101.784592175551
 31
0.0
 11
949.2549484455763
 21
-100.9996838871509
 31
0.0
  0
SPLINE
  5
300C
330
26
100
AcDbEntity
  8
0
  6
Continuous
100
AcDbSpline
210
0.0
220
0.0
230
1.0
 70
     8
 71
     3
 72
    11
 73
     7
 74
     5
 42
0.0000000001
 43
0.0000000001
 44
0.0000000001
 40
0.0
 40
0.0
 40
0.0
 40
0.0
 40
0.0848384952167277
 40
0.1696754701876941
 40
0.2545123713723844
 40
0.3393510447419795
 40
0.3393510447419795
 40
0.3393510447419795
 40
0.3393510447419795
 10
949.2549484455763
 20
-100.9996838871509
 30
0.0
 10
949.2468438334038
 20
-100.9711006835506
 30
0.0
 10
949.2306347542881
 20
-100.9139347885408
 30
0.0
 10
949.2888539060093
 20
-100.8376099476406
 30
0.0
 10
949.3831319149047
 20
-100.8195207885493
 30
0.0
 10
949.4270715801092
 20
-100.8595223059512
 30
0.0
 10
949.4490416421763
 20
-100.879523273551
 30
0.0
 11
949.2549484455763
 21
-100.9996838871509
 31
0.0
 11
949.2443903490762
 21
-100.915504929751
 31
0.0
 11
949.2948636898761
 21
-100.847315823651
 31
0.0
 11
949.3784032218762
 21
-100.832535891451
 31
0.0
 11
949.4490416421763
 21
-100.879523273551
 31
0.0
  0
SPLINE
  5
300D
330
26
100
AcDbEntity
  8
0
  6
Continuous
100
AcDbSpline
210
0.0
220
0.0
230
1.0
 70
     8
 71
     3
 72
     9
 73
     5
 74
     3
 42
0.0000000001
 43
0.0000000001
 44
0.0000000001
 40
0.0
 40
0.0
 40
0.0
 40
0.0
 40
3.158231882797316
 40
6.316463775457306
 40
6.316463775457306
 40
6.316463775457306
 40
6.316463775457306
 10
949.4490416421763
 20
-100.879523273551
 30
0.0
 10
949.9942637930571
 20
-101.7924941846471
 30
0.0
 10
951.0847080965216
 20
-103.6184360096904
 30
0.0
 10
951.4181712198514
 20
-105.7188965956375
 30
0.0
 10
951.5849027817764
 20
-106.7691268902509
 30
0.0
 11
949.4490416421763
 21
-100.879523273551
 31
0.0
 11
950.8954628003762
 21
-103.687065696851
 31
0.0
 11
951.5849027817764
 21
-106.7691268902509
 31
0.0
  0
SPLINE
  5
300E
330
26
100
AcDbEntity
  8
0
  6
Continuous
100
AcDbSpline
210
0.0
220
0.0
230
1.0
 70
     8
 71
     3
 72
    11
 73
     7
 74
     5
 42
0.0000000001
 43
0.0000000001
 44
0.0000000001
 40
0.0
 40
0.0
 40
0.0
 40
0.0
 40
0.3600644446719205
 40
0.7200322214626446
 40
1.080000255465553
 40
1.43997542073191
 40
1.43997542073191
 40
1.43997542073191
 40
1.43997542073191
 10
948.3187428300762
 20
-98.76154029685097
 30
0.0
 10
948.3743140271921
 20
-98.86825662937571
 30
0.0
 10
948.4854415020116
 20
-99.08166064388244
 30
0.0
 10
948.7168343210408
 20
-99.36050494709949
 30
0.0
 10
948.9866185972589
 20
-99.60143638591828
 30
0.0
 10
949.1198731198945
 20
-99.80232177712911
 30
0.0
 10
949.1865010411761
 20
-99.90276546765097
 30
0.0
 11
948.3187428300762
 21
-98.76154029685097
 31
0.0
 11
948.4962446354762
 21
-99.074812564051
 31
0.0
 11
948.7232359825762
 21
-99.35418995875104
 31
0.0
 11
948.9749664719761
 21
-99.61150056135104
 31
0.0
 11
949.1865010411761
 21
-99.90276546765097
 31
0.0
  0
SPLINE
  5
300F
330
26
100
AcDbEntity
  8
0
  6
Continuous
100
AcDbSpline
210
0.0
220
0.0
230
1.0
 70
     8
 71
     3
 72
    17
 73
    13
 74
    11
 42
0.0000000001
 43
0.0000000001
 44
0.0000000001
 40
0.0
 40
0.0
 40
0.0
 40
0.0
 40
0.1276090459443453
 40
0.2552169562664114
 40
0.3173865857879101
 40
0.3793003666985386
 40
0.4419402744505745
 40
0.5050211279471585
 40
0.629691355843478
 40
0.7540030504161741
 40
0.8802884847898964
 40
1.006077213115578
 40
1.006077213115578
 40
1.006077213115578
 40
1.006077213115578
 10
949.1865010411761
 20
-99.90276546765097
 30
0.0
 10
949.2030977792433
 20
-99.94210636797308
 30
0.0
 10
949.2362911076799
 20
-100.0207878185136
 30
0.0
 10
949.2449251062706
 20
-100.1287915902338
 30
0.0
 10
949.2286411913952
 20
-100.2116644920853
 30
0.0
 10
949.2019547047697
 20
-100.2685756485568
 30
0.0
 10
949.1636845650634
 20
-100.3185594703437
 30
0.0
 10
949.1016010837629
 20
-100.3748010477333
 30
0.0
 10
949.0077739451579
 20
-100.4248055536041
 30
0.0
 10
948.881781698004
 20
-100.4421971417359
 30
0.0
 10
948.7558192958634
 20
-100.422343889164
 30
0.0
 10
948.6797736330913
 20
-100.3858517938913
 30
0.0
 10
948.6418257247763
 20
-100.367641699651
 30
0.0
 11
949.1865010411761
 21
-99.90276546765097
 31
0.0
 11
949.2297285579761
 21
-100.022829827051
 31
0.0
 11
949.2388196937764
 21
-100.150113486751
 31
0.0
 11
949.2261881089762
 21
-100.210986353451
 31
0.0
 11
949.2001798560762
 21
-100.267172535451
 31
0.0
 11
949.1624017215762
 21
-100.317138229651
 31
0.0
 11
949.1157545559763
 21
-100.3596027562509
 31
0.0
 11
949.0054767526762
 21
-100.4177531803509
 31
0.0
 11
948.8825107763762
 21
-100.435995057451
 31
0.0
 11
948.7577398214762
 21
-100.4164958331509
 31
0.0
 11
948.6418257247763
 21
-100.367641699651
 31
0.0
  0
SPLINE
  5
3010
330
26
100
AcDbEntity
  8
0
  6
Continuous
100
AcDbSpline
210
0.0
220
0.0
230
1.0
 70
     8
 71
     3
 72
     9
 73
     5
 74
     3
 42
0.0000000001
 43
0.0000000001
 44
0.0000000001
 40
0.0
 40
0.0
 40
0.0
 40
0.0
 40
0.1742804973604173
 40
0.6970414213091464
 40
0.6970414213091464
 40
0.6970414213091464
 40
0.6970414213091464
 10
948.6418257247763
 20
-100.367641699651
 30
0.0
 10
948.5929405912887
 20
-100.3358075044441
 30
0.0
 10
948.3974226564461
 20
-100.2084854402467
 30
0.0
 10
948.2586634888353
 20
-100.017719330097
 30
0.0
 10
948.1545981227762
 20
-99.87465025995095
 30
0.0
 11
948.6418257247763
 21
-100.367641699651
 31
0.0
 11
948.4987185673762
 21
-100.2681729444509
 31
0.0
 11
948.1545981227762
 21
-99.87465025995095
 31
0.0
  0
SPLINE
  5
3011
330
26
100
AcDbEntity
  8
0
  6
Continuous
100
AcDbSpline
210
0.0
220
0.0
230
1.0
 70
     8
 71
     3
 72
    14
 73
    10
 74
     8
 42
0.0000000001
 43
0.0000000001
 44
0.0000000001
 40
0.0
 40
0.0
 40
0.0
 40
0.0
 40
0.4248448291089607
 40
0.6383067240848368
 40
0.8543818512103178
 40
1.066982497314244
 40
1.282086364218227
 40
1.506323809305973
 40
1.726994364850156
 40
1.726994364850156
 40
1.726994364850156
 40
1.726994364850156
 10
948.1545981227762
 20
-99.87465025995095
 30
0.0
 10
948.048168738912
 20
-99.77797957926616
 30
0.0
 10
947.8882642591916
 20
-99.63273703122252
 30
0.0
 10
947.6134487235568
 20
-99.54250245583069
 30
0.0
 10
947.3980246731123
 20
-99.52568891827019
 30
0.0
 10
947.1837583621006
 20
-99.5824573878551
 30
0.0
 10
947.0182245056342
 20
-99.73205948726358
 30
0.0
 10
946.9027268502093
 20
-99.92301750854807
 30
0.0
 10
946.8664655565697
 20
-100.0675156377071
 30
0.0
 10
946.8484802656762
 20
-100.139185471451
 30
0.0
 11
948.1545981227762
 21
-99.87465025995095
 31
0.0
 11
947.8151936159761
 21
-99.61911609475102
 31
0.0
 11
947.6128226692763
 21
-99.55120453065103
 31
0.0
 11
947.3971481108762
 21
-99.538053659151
 31
0.0
 11
947.1929312670764
 21
-99.59716808575098
 31
0.0
 11
947.0288546767763
 21
-99.73626713705096
 31
0.0
 11
946.9126687282763
 21
-99.92805675395096
 31
0.0
 11
946.8484802656762
 21
-100.139185471451
 31
0.0
  0
SPLINE
  5
3012
330
26
100
AcDbEntity
  8
0
  6
Continuous
100
AcDbSpline
210
0.0
220
0.0
230
1.0
 70
     8
 71
     3
 72
     9
 73
     5
 74
     3
 42
0.0000000001
 43
0.0000000001
 44
0.0000000001
 40
0.0
 40
0.0
 40
0.0
 40
0.0
 40
0.3471176591172269
 40
0.6956751104228742
 40
0.6956751104228742
 40
0.6956751104228742
 40
0.6956751104228742
 10
946.8484802656762
 20
-100.139185471451
 30
0.0
 10
946.836994876724
 20
-100.2549500062543
 30
0.0
 10
946.8139764591425
 20
-100.4869592498553
 30
0.0
 10
946.8558500209959
 20
-100.7163228288393
 30
0.0
 10
946.8768301333762
 20
-100.831241967551
 30
0.0
 11
946.8484802656762
 21
-100.139185471451
 31
0.0
 11
946.830180011876
 21
-100.485820394651
 31
0.0
 11
946.8768301333762
 21
-100.831241967551
 31
0.0
  0
SPLINE
  5
3013
330
26
100
AcDbEntity
  8
0
  6
Continuous
100
AcDbSpline
210
0.0
220
0.0
230
1.0
 70
    24
 71
     3
 72
     8
 73
     4
 74
     2
 42
0.0000000001
 43
0.0000000001
 44
0.0000000001
 40
0.0
 40
0.0
 40
0.0
 40
0.0
 40
1.041039879996454
 40
1.041039879996454
 40
1.041039879996454
 40
1.041039879996454
 10
946.8768301333762
 20
-100.831241967551
 30
0.0
 10
946.9267393934763
 20
-101.1746474006843
 30
0.0
 10
946.9766486535764
 20
-101.5180528338177
 30
0.0
 10
947.0265579136762
 20
-101.861458266951
 30
0.0
 11
946.8768301333762
 21
-100.831241967551
 31
0.0
 11
947.0265579136762
 21
-101.861458266951
 31
0.0
  0
SPLINE
  5
3014
330
26
100
AcDbEntity
  8
0
  6
Continuous
100
AcDbSpline
210
0.0
220
0.0
230
1.0
 70
     8
 71
     3
 72
     9
 73
     5
 74
     3
 42
0.0000000001
 43
0.0000000001
 44
0.0000000001
 40
0.0
 40
0.0
 40
0.0
 40
0.0
 40
0.3455620669911876
 40
0.6911347873332513
 40
0.6911347873332513
 40
0.6911347873332513
 40
0.6911347873332513
 10
947.0265579136762
 20
-101.861458266951
 30
0.0
 10
947.0543463434354
 20
-101.9733581139018
 30
0.0
 10
947.1099240596452
 20
-102.1971612575697
 30
0.0
 10
947.138784989909
 20
-102.4259488886911
 30
0.0
 10
947.1532156774763
 20
-102.540344467551
 30
0.0
 11
947.0265579136762
 21
-101.861458266951
 31
0.0
 11
947.1032442123762
 21
-102.198403891251
 31
0.0
 11
947.1532156774763
 21
-102.540344467551
 31
0.0
  0
SPLINE
  5
3015
330
26
100
AcDbEntity
  8
0
  6
Continuous
100
AcDbSpline
210
0.0
220
0.0
230
1.0
 70
     8
 71
     3
 72
    11
 73
     7
 74
     5
 42
0.0000000001
 43
0.0000000001
 44
0.0000000001
 40
0.0
 40
0.0
 40
0.0
 40
0.0
 40
0.1730341426648847
 40
0.346020324668417
 40
0.5221181370244091
 40
0.6980545872059483
 40
0.6980545872059483
 40
0.6980545872059483
 40
0.6980545872059483
 10
947.1532156774763
 20
-102.540344467551
 30
0.0
 10
947.145512338764
 20
-102.598118498784
 30
0.0
 10
947.1301077965087
 20
-102.7136505477587
 30
0.0
 10
947.0363853791523
 20
-102.8649207013836
 30
0.0
 10
946.9183044097442
 20
-102.9942300510083
 30
0.0
 10
946.8281531011941
 20
-103.0696005263748
 30
0.0
 10
946.783098108276
 20
-103.107268490251
 30
0.0
 11
947.1532156774763
 21
-102.540344467551
 31
0.0
 11
947.1184255311762
 21
-102.709845087751
 31
0.0
 11
947.0330518768761
 21
-102.8602962702509
 31
0.0
 11
946.9155215502763
 21
-102.991433838651
 31
0.0
 11
946.783098108276
 21
-103.107268490251
 31
0.0
  0
SPLINE
  5
3016
330
26
100
AcDbEntity
  8
0
  6
Continuous
100
AcDbSpline
210
0.0
220
0.0
230
1.0
 70
     8
 71
     3
 72
    14
 73
    10
 74
     8
 42
0.0000000001
 43
0.0000000001
 44
0.0000000001
 40
0.0
 40
0.0
 40
0.0
 40
0.0
 40
0.4333885284493584
 40
0.6500573050053118
 40
0.8668227705893231
 40
1.084009393117525
 40
1.302012114513429
 40
1.519146320594197
 40
1.734879723193525
 40
1.734879723193525
 40
1.734879723193525
 40
1.734879723193525
 10
946.783098108276
 20
-103.107268490251
 30
0.0
 10
946.6707131754876
 20
-103.1981455483755
 30
0.0
 10
946.5021423856861
 20
-103.3344557910637
 30
0.0
 10
946.2640765849328
 20
-103.4985266294783
 30
0.0
 10
946.0779236735091
 20
-103.6101511977066
 30
0.0
 10
945.8825527884853
 20
-103.706057732435
 30
0.0
 10
945.6808010379209
 20
-103.7868899344163
 30
0.0
 10
945.4793934308326
 20
-103.869065971946
 30
0.0
 10
945.3564990480995
 20
-103.9451661738063
 30
0.0
 10
945.2952507060762
 20
-103.9830931407509
 30
0.0
 11
946.783098108276
 21
-103.107268490251
 31
0.0
 11
946.4415153428763
 21
-103.374002123251
 31
0.0
 11
946.2628603922763
 21
-103.4965899177509
 31
0.0
 11
946.0765766265764
 21
-103.607430459551
 31
0.0
 11
945.8817554683761
 21
-103.703423924551
 31
0.0
 11
945.6805147503764
 21
-103.787253274751
 31
0.0
 11
945.4817412992762
 21
-103.874639650051
 31
0.0
 11
945.2952507060762
 21
-103.9830931407509
 31
0.0
  0
SPLINE
  5
3017
330
26
100
AcDbEntity
  8
0
  6
Continuous
100
AcDbSpline
210
0.0
220
0.0
230
1.0
 70
     8
 71
     3
 72
     9
 73
     5
 74
     3
 42
0.0000000001
 43
0.0000000001
 44
0.0000000001
 40
0.0
 40
0.0
 40
0.0
 40
0.0
 40
0.3347850975810927
 40
0.6699669612215415
 40
0.6699669612215415
 40
0.6699669612215415
 40
0.6699669612215415
 10
945.2952507060762
 20
-103.9830931407509
 30
0.0
 10
945.2088620552322
 20
-104.0581976121096
 30
0.0
 10
945.0359823711956
 20
-104.2084955638819
 30
0.0
 10
944.9797619264235
 20
-104.4305762357189
 30
0.0
 10
944.9516350566762
 20
-104.541682331651
 30
0.0
 11
945.2952507060762
 21
-103.9830931407509
 31
0.0
 11
945.0652150297763
 21
-104.2263309856509
 31
0.0
 11
944.9516350566762
 21
-104.541682331651
 31
0.0
  0
SPLINE
  5
3018
330
26
100
AcDbEntity
  8
0
  6
Continuous
100
AcDbSpline
210
0.0
220
0.0
230
1.0
 70
     8
 71
     3
 72
    22
 73
    18
 74
    16
 42
0.0000000001
 43
0.0000000001
 44
0.0000000001
 40
0.0
 40
0.0
 40
0.0
 40
0.0
 40
0.215391873950859
 40
0.3239533546956983
 40
0.4317467440840471
 40
0.5402177205509696
 40
0.6506549332090054
 40
0.7043837155807993
 40
0.7567725182019114
 40
0.8633479617542818
 40
0.9767680547068284
 40
1.09193795374337
 40
1.202810864330026
 40
1.310335424123217
 40
1.416902955133283
 40
1.52480286288304
 40
1.741696880037677
 40
1.741696880037677
 40
1.741696880037677
 40
1.741696880037677
 10
944.9516350566762
 20
-104.541682331651
 30
0.0
 10
944.9439441037406
 20
-104.6148966661508
 30
0.0
 10
944.9323767685448
 20
-104.7250123768225
 30
0.0
 10
944.9923682877179
 20
-104.8589258998952
 30
0.0
 10
945.0497445751868
 20
-104.9503866981877
 30
0.0
 10
945.1097861734274
 20
-105.0413389796207
 30
0.0
 10
945.147681846424
 20
-105.1249278120132
 30
0.0
 10
945.162195079773
 20
-105.196075378671
 30
0.0
 10
945.1606044808581
 20
-105.2676070004647
 30
0.0
 10
945.1283532603906
 20
-105.3547901469164
 30
0.0
 10
945.0632787264049
 20
-105.4462486190757
 30
0.0
 10
944.9850105487956
 20
-105.528296179856
 30
0.0
 10
944.9006424195194
 20
-105.6010499812374
 30
0.0
 10
944.8100551325907
 20
-105.6610086894926
 30
0.0
 10
944.7127167960834
 20
-105.7073393192118
 30
0.0
 10
944.5747095678159
 20
-105.7483677969703
 30
0.0
 10
944.4729622597067
 20
-105.7853706580135
 30
0.0
 10
944.4050164617761
 20
-105.810080785151
 30
0.0
 11
944.9516350566762
 21
-104.541682331651
 31
0.0
 11
944.9535750610762
 21
-104.7570654687509
 31
0.0
 11
944.9945279203761
 21
-104.857606298351
 31
0.0
 11
945.0500087248761
 21
-104.950025425851
 31
0.0
 11
945.1070177317763
 21
-105.0423072001509
 31
0.0
 11
945.1502166743763
 21
-105.143944935751
 31
0.0
 11
945.1602582920762
 21
-105.196727015751
 31
0.0
 11
945.1590945411762
 21
-105.249102891151
 31
0.0
 11
945.1252525725763
 21
-105.350162508851
 31
0.0
 11
945.0615695518764
 21
-105.444016599651
 31
0.0
 11
944.9827076175761
 21
-105.527950507951
 31
0.0
 11
944.8983414674761
 21
-105.599889058251
 31
0.0
 11
944.8085171108761
 21
-105.6589916463509
 31
0.0
 11
944.7121858271762
 21
-105.704564910951
 31
0.0
 11
944.6098194718761
 21
-105.738675311051
 31
0.0
 11
944.4050164617761
 21
-105.810080785151
 31
0.0
  0
SPLINE
  5
3019
330
26
100
AcDbEntity
  8
0
  6
Continuous
100
AcDbSpline
210
0.0
220
0.0
230
1.0
 70
     8
 71
     3
 72
     9
 73
     5
 74
     3
 42
0.0000000001
 43
0.0000000001
 44
0.0000000001
 40
0.0
 40
0.0
 40
0.0
 40
0.0
 40
0.3302378139973016
 40
0.6603372002067818
 40
0.6603372002067818
 40
0.6603372002067818
 40
0.6603372002067818
 10
944.4050164617761
 20
-105.810080785151
 30
0.0
 10
944.3192019482779
 20
-105.8809322000343
 30
0.0
 10
944.147608892672
 20
-106.0226053305835
 30
0.0
 10
944.0439915211035
 20
-106.2195275405587
 30
0.0
 10
943.9921936960761
 20
-106.317968004951
 30
0.0
 11
944.4050164617761
 21
-105.810080785151
 31
0.0
 11
944.1645739679763
 21
-106.036453091251
 31
0.0
 11
943.9921936960761
 21
-106.317968004951
 31
0.0
  0
SPLINE
  5
301A
330
26
100
AcDbEntity
  8
0
  6
Continuous
100
AcDbSpline
210
0.0
220
0.0
230
1.0
 70
     8
 71
     3
 72
    21
 73
    17
 74
    15
 42
0.0000000001
 43
0.0000000001
 44
0.0000000001
 40
0.0
 40
0.0
 40
0.0
 40
0.0
 40
0.1067971599346232
 40
0.2144463481756858
 40
0.3160802795676826
 40
0.4173719650708417
 40
0.5212018555557961
 40
0.6234478686903717
 40
0.7262914171223072
 40
0.8293433441596929
 40
0.9316776559090053
 40
1.034028580439573
 40
1.238924571010149
 40
1.34128328016744
 40
1.443751504895665
 40
1.648824739658347
 40
1.648824739658347
 40
1.648824739658347
 40
1.648824739658347
 10
943.9921936960761
 20
-106.317968004951
 30
0.0
 10
943.9745400254676
 20
-106.3489410092043
 30
0.0
 10
943.9390918431728
 20
-106.4111341205027
 30
0.0
 10
943.9032431461835
 20
-106.5107878656857
 30
0.0
 10
943.8954383132104
 20
-106.6171353735601
 30
0.0
 10
943.9403181106774
 20
-106.7132273861222
 30
0.0
 10
944.0151889786437
 20
-106.7856052898964
 30
0.0
 10
944.1099362481994
 20
-106.8307816004002
 30
0.0
 10
944.2133882603805
 20
-106.842516630015
 30
0.0
 10
944.3159966916137
 20
-106.8318887219981
 30
0.0
 10
944.4160564960846
 20
-106.80915203276
 30
0.0
 10
944.5504595370921
 20
-106.7846345652234
 30
0.0
 10
944.6866324154516
 20
-106.7730342624585
 30
0.0
 10
944.8221545994463
 20
-106.7558436429407
 30
0.0
 10
944.956371096214
 20
-106.7295475603052
 30
0.0
 10
945.0548674546608
 20
-106.7009057426186
 30
0.0
 10
945.1205462963764
 20
-106.6818069511509
 30
0.0
 11
943.9921936960761
 21
-106.317968004951
 31
0.0
 11
943.9419922353764
 21
-106.412230652451
 31
0.0
 11
943.9074494651762
 21
-106.514187235151
 31
0.0
 11
943.9041562152761
 21
-106.615767796851
 31
0.0
 11
943.9448127517762
 21
-106.708541993651
 31
0.0
 11
944.018876745176
 21
-106.781309919551
 31
0.0
 11
944.1112324270761
 21
-106.825181040151
 31
0.0
 11
944.2131727694761
 21
-106.838781115351
 31
0.0
 11
944.3158349165763
 21
-106.829826607051
 31
0.0
 11
944.4162046090761
 21
-106.809870751051
 31
0.0
 11
944.5169562878762
 21
-106.791848238151
 31
0.0
 11
944.7204908041763
 21
-106.768267151951
 31
0.0
 11
944.8219481209761
 21
-106.754712882951
 31
0.0
 11
944.9225297328762
 21
-106.735140544651
 31
0.0
 11
945.1205462963764
 21
-106.6818069511509
 31
0.0
  0
SPLINE
  5
301B
330
26
100
AcDbEntity
  8
0
  6
Continuous
100
AcDbSpline
210
0.0
220
0.0
230
1.0
 70
    24
 71
     3
 72
     8
 73
     4
 74
     2
 42
0.0000000001
 43
0.0000000001
 44
0.0000000001
 40
0.0
 40
0.0
 40
0.0
 40
0.0
 40
0.3469178471295291
 40
0.3469178471295291
 40
0.3469178471295291
 40
0.3469178471295291
 10
945.1205462963764
 20
-106.6818069511509
 30
0.0
 10
945.2339457671764
 20
-106.6591573672509
 30
0.0
 10
945.3473452379764
 20
-106.636507783351
 30
0.0
 10
945.4607447087763
 20
-106.613858199451
 30
0.0
 11
945.1205462963764
 21
-106.6818069511509
 31
0.0
 11
945.4607447087763
 21
-106.613858199451
 31
0.0
  0
SPLINE
  5
301C
330
26
100
AcDbEntity
  8
0
  6
Continuous
100
AcDbSpline
210
0.0
220
0.0
230
1.0
 70
     8
 71
     3
 72
    14
 73
    10
 74
     8
 42
0.0000000001
 43
0.0000000001
 44
0.0000000001
 40
0.0
 40
0.0
 40
0.0
 40
0.0
 40
0.3843221059334074
 40
0.5766428766496681
 40
0.7683065895589044
 40
0.9601481996598137
 40
1.154929323413847
 40
1.34949067275291
 40
1.540711257085206
 40
1.540711257085206
 40
1.540711257085206
 40
1.540711257085206
 10
945.4607447087763
 20
-106.613858199451
 30
0.0
 10
945.5871504121627
 20
-106.5921889206934
 30
0.0
 10
945.7768114993091
 20
-106.5596759971723
 30
0.0
 10
946.0326256005528
 20
-106.5440876174941
 30
0.0
 10
946.2241855152626
 20
-106.5330364195535
 30
0.0
 10
946.4167330221588
 20
-106.5217398750375
 30
0.0
 10
946.6099683425864
 20
-106.5147771495862
 30
0.0
 10
946.8051546327961
 20
-106.5193665918649
 30
0.0
 10
946.9282577557324
 20
-106.5587181910495
 30
0.0
 10
946.9892762976762
 20
-106.578223603651
 30
0.0
 11
945.4607447087763
 21
-106.613858199451
 31
0.0
 11
945.8409999008763
 21
-106.558095577651
 31
0.0
 11
946.0328165718761
 21
-106.5441799901509
 31
0.0
 11
946.2241543451762
 21
-106.533007015851
 31
0.0
 11
946.415708907476
 21
-106.5225163996509
 31
0.0
 11
946.6104035353762
 21
-106.5167122599509
 31
0.0
 11
946.8045997587763
 21
-106.5286263471509
 31
0.0
 11
946.9892762976762
 21
-106.578223603651
 31
0.0
  0
SPLINE
  5
301D
330
26
100
AcDbEntity
  8
0
  6
Continuous
100
AcDbSpline
210
0.0
220
0.0
230
1.0
 70
     8
 71
     3
 72
    14
 73
    10
 74
     8
 42
0.0000000001
 43
0.0000000001
 44
0.0000000001
 40
0.0
 40
0.0
 40
0.0
 40
0.0
 40
0.3454078796316975
 40
0.6908651095141238
 40
1.036338004583903
 40
1.381776479085127
 40
1.726299327269318
 40
2.073507051664448
 40
2.764425210293192
 40
2.764425210293192
 40
2.764425210293192
 40
2.764425210293192
 10
946.9892762976762
 20
-106.578223603651
 30
0.0
 10
947.089094800773
 20
-106.6392572705559
 30
0.0
 10
947.2887460685644
 20
-106.7613333245685
 30
0.0
 10
947.4595480208637
 20
-107.075742601221
 30
0.0
 10
947.5464548987561
 20
-107.4103677626464
 30
0.0
 10
947.5685560817767
 20
-107.7581443889188
 30
0.0
 10
947.5111008951143
 20
-108.1008116520592
 30
0.0
 10
947.3916556981906
 20
-108.5458973397015
 30
0.0
 10
947.3308107719986
 20
-108.8868441832716
 30
0.0
 10
947.2903158136762
 20
-109.113759212751
 30
0.0
 11
946.9892762976762
 21
-106.578223603651
 31
0.0
 11
947.2672879378762
 21
-106.783201971351
 31
0.0
 11
947.4455623615764
 21
-107.079105549451
 31
0.0
 11
947.5356591002762
 21
-107.412623313451
 31
0.0
 11
947.5553033872762
 21
-107.757502773051
 31
0.0
 11
947.5059315342761
 21
-108.0984696527509
 31
0.0
 11
947.4245741686761
 21
-108.4360110323509
 31
0.0
 11
947.2903158136762
 21
-109.113759212751
 31
0.0
  0
SPLINE
  5
301E
330
26
100
AcDbEntity
  8
0
  6
Continuous
100
AcDbSpline
210
0.0
220
0.0
230
1.0
 70
     8
 71
     3
 72
    21
 73
    17
 74
    15
 42
0.0000000001
 43
0.0000000001
 44
0.0000000001
 40
0.0
 40
0.0
 40
0.0
 40
0.0
 40
0.2585020563655055
 40
0.3885099965187563
 40
0.5191818112247976
 40
0.6487507249117022
 40
0.7778859500780322
 40
0.9082386180317488
 40
1.038781548690911
 40
1.168301512079156
 40
1.297843023259155
 40
1.427730638177586
 40
1.557542359588434
 40
1.686937011199287
 40
1.816156105433929
 40
2.075088664606304
 40
2.075088664606304
 40
2.075088664606304
 40
2.075088664606304
 10
946.8492869095761
 20
-111.147293902851
 30
0.0
 10
946.8309484498957
 20
-111.2315766652826
 30
0.0
 10
946.8033870640921
 20
-111.3582475947108
 30
0.0
 10
946.785942881956
 20
-111.5306790961038
 30
0.0
 10
946.785392741378
 20
-111.6610170190796
 30
0.0
 10
946.8037667133957
 20
-111.7902618662222
 30
0.0
 10
946.8490931739684
 20
-111.9128429520886
 30
0.0
 10
946.9173961822336
 20
-112.024216431699
 30
0.0
 10
947.0015709224856
 20
-112.1239940339322
 30
0.0
 10
947.0973846782292
 20
-112.2120678277413
 30
0.0
 10
947.200877145935
 20
-112.2903623999815
 30
0.0
 10
947.3087834118865
 20
-112.3624753154979
 30
0.0
 10
947.4197868046937
 20
-112.4297040996886
 30
0.0
 10
947.5351810502484
 20
-112.4886745577624
 30
0.0
 10
947.6957778578769
 20
-112.5529369188863
 30
0.0
 10
947.8227266587801
 20
-112.5796021964604
 30
0.0
 10
947.9074130889761
 20
-112.597390368951
 30
0.0
 11
946.8492869095761
 21
-111.147293902851
 31
0.0
 11
946.800694295176
 21
-111.401187721151
 31
0.0
 11
946.7880523140761
 21
-111.530579547851
 31
0.0
 11
946.7885798357761
 21
-111.661250297751
 31
0.0
 11
946.8082852535763
 21
-111.789312001251
 31
0.0
 11
946.8527184449763
 21
-111.910562147151
 31
0.0
 11
946.919999332676
 21
-112.022209360251
 31
0.0
 11
947.0037784772761
 21
-112.122321855351
 31
0.0
 11
947.0986846081762
 21
-112.210459516051
 31
0.0
 11
947.2015056413761
 21
-112.289255697751
 31
0.0
 11
947.3093283421762
 21
-112.361678468351
 31
0.0
 11
947.4206726014763
 21
-112.4284133088509
 31
0.0
 11
947.5360892236762
 21
-112.486910994151
 31
0.0
 11
947.6562480148762
 21
-112.5344445529509
 31
0.0
 11
947.9074130889761
 21
-112.597390368951
 31
0.0
  0
SPLINE
  5
301F
330
26
100
AcDbEntity
  8
0
  6
Continuous
100
AcDbSpline
210
0.0
220
0.0
230
1.0
 70
     8
 71
     3
 72
    10
 73
     6
 74
     4
 42
0.0000000001
 43
0.0000000001
 44
0.0000000001
 40
0.0
 40
0.0
 40
0.0
 40
0.0
 40
0.0870346470993405
 40
0.1745247344492424
 40
0.3492111028898869
 40
0.3492111028898869
 40
0.3492111028898869
 40
0.3492111028898869
 10
947.9074130889761
 20
-112.597390368951
 30
0.0
 10
947.9358771060952
 20
-112.6030595967948
 30
0.0
 10
947.9929540885911
 20
-112.6144277187664
 30
0.0
 10
948.1036584839706
 20
-112.6524363449288
 30
0.0
 10
948.1777712511673
 20
-112.6994970501739
 30
0.0
 10
948.2271520779761
 20
-112.730853274251
 30
0.0
 11
947.9074130889761
 21
-112.597390368951
 31
0.0
 11
947.9923698200762
 21
-112.616294961951
 31
0.0
 11
948.0750138437761
 21
-112.645008734451
 31
0.0
 11
948.2271520779761
 21
-112.730853274251
 31
0.0
  0
SPLINE
  5
3020
330
26
100
AcDbEntity
  8
0
  6
Continuous
100
AcDbSpline
210
0.0
220
0.0
230
1.0
 70
     8
 71
     3
 72
    13
 73
     9
 74
     7
 42
0.0000000001
 43
0.0000000001
 44
0.0000000001
 40
0.0
 40
0.0
 40
0.0
 40
0.0
 40
0.0710365867746006
 40
0.143432520911937
 40
0.1821725802254049
 40
0.2220312178762084
 40
0.2594055417641193
 40
0.294266185063076
 40
0.294266185063076
 40
0.294266185063076
 40
0.294266185063076
 10
948.2271520779761
 20
-112.730853274251
 30
0.0
 10
948.2460664598843
 20
-112.7451434557951
 30
0.0
 10
948.2842571669796
 20
-112.7739972740347
 30
0.0
 10
948.3270600075657
 20
-112.817326004313
 30
0.0
 10
948.3592710978078
 20
-112.8561621926972
 30
0.0
 10
948.381243412558
 20
-112.8876450719114
 30
0.0
 10
948.3982357615009
 20
-112.9225683458949
 30
0.0
 10
948.3949700797602
 20
-112.9469245387494
 30
0.0
 10
948.3933940595761
 20
-112.958678853651
 30
0.0
 11
948.2271520779761
 21
-112.730853274251
 31
0.0
 11
948.2827938650762
 21
-112.7750142093509
 31
0.0
 11
948.3339475676762
 21
-112.8262437905509
 31
0.0
 11
948.3585767794762
 21
-112.856146869351
 31
0.0
 11
948.3809350947764
 21
-112.889144092451
 31
0.0
 11
948.3948112045762
 21
-112.9238470269509
 31
0.0
 11
948.3933940595761
 21
-112.958678853651
 31
0.0
  0
SPLINE
  5
3021
330
26
100
AcDbEntity
  8
0
  6
Continuous
100
AcDbSpline
210
0.0
220
0.0
230
1.0
 70
     8
 71
     3
 72
    13
 73
     9
 74
     7
 42
0.0000000001
 43
0.0000000001
 44
0.0000000001
 40
0.0
 40
0.0
 40
0.0
 40
0.0
 40
0.0389548944101509
 40
0.0836071560588081
 40
0.1326169815516043
 40
0.1786631375710011
 40
0.2617600168722748
 40
0.342932903426557
 40
0.342932903426557
 40
0.342932903426557
 40
0.342932903426557
 10
948.3933940595761
 20
-112.958678853651
 30
0.0
 10
948.3871119100786
 20
-112.9705903362807
 30
0.0
 10
948.37362881222
 20
-112.9961554212899
 30
0.0
 10
948.3284270061579
 20
-113.0099695200785
 30
0.0
 10
948.2832137097566
 20
-113.0173248299579
 30
0.0
 10
948.2236961644423
 20
-113.0218839809959
 30
0.0
 10
948.1535290664517
 20
-113.0197713625069
 30
0.0
 10
948.0991974202609
 20
-113.0127283540989
 30
0.0
 10
948.0723497740761
 20
-113.0092480951509
 30
0.0
 11
948.3933940595761
 21
-112.958678853651
 31
0.0
 11
948.3712882493762
 21
-112.9907540302509
 31
0.0
 11
948.3302787908762
 21
-113.008418932851
 31
0.0
 11
948.2819904063763
 21
-113.016797173551
 31
0.0
 11
948.2360815764762
 21
-113.020350738151
 31
0.0
 11
948.153008258876
 21
-113.018372038451
 31
0.0
 11
948.0723497740761
 21
-113.0092480951509
 31
0.0
  0
SPLINE
  5
3022
330
26
100
AcDbEntity
  8
0
  6
Continuous
100
AcDbSpline
210
0.0
220
0.0
230
1.0
 70
     8
 71
     3
 72
     9
 73
     5
 74
     3
 42
0.0000000001
 43
0.0000000001
 44
0.0000000001
 40
0.0
 40
0.0
 40
0.0
 40
0.0
 40
0.173467922202019
 40
0.3469771971117353
 40
0.3469771971117353
 40
0.3469771971117353
 40
0.3469771971117353
 10
948.0723497740761
 20
-113.0092480951509
 30
0.0
 10
948.0150956119221
 20
-113.0010485866739
 30
0.0
 10
947.9005736388973
 20
-112.9846476150538
 30
0.0
 10
947.7872993154908
 20
-112.9611273279004
 30
0.0
 10
947.7306554037762
 20
-112.949365782751
 30
0.0
 11
948.0723497740761
 21
-113.0092480951509
 31
0.0
 11
947.9008991256762
 21
-112.982870165051
 31
0.0
 11
947.7306554037762
 21
-112.949365782751
 31
0.0
  0
SPLINE
  5
3023
330
26
100
AcDbEntity
  8
0
  6
Continuous
100
AcDbSpline
210
0.0
220
0.0
230
1.0
 70
     8
 71
     3
 72
     9
 73
     5
 74
     3
 42
0.0000000001
 43
0.0000000001
 44
0.0000000001
 40
0.0
 40
0.0
 40
0.0
 40
0.0
 40
0.3470043748146517
 40
0.6940049083627777
 40
0.6940049083627777
 40
0.6940049083627777
 40
0.6940049083627777
 10
947.7306554037762
 20
-112.949365782751
 30
0.0
 10
947.6173766955837
 20
-112.9258007252547
 30
0.0
 10
947.390820533171
 20
-112.8786708711224
 30
0.0
 10
947.1616277570529
 20
-112.8467398702962
 30
0.0
 10
947.0470320032761
 20
-112.830774458251
 30
0.0
 11
947.7306554037762
 21
-112.949365782751
 31
0.0
 11
947.3901601184762
 21
-112.882470365651
 31
0.0
 11
947.0470320032761
 21
-112.830774458251
 31
0.0
  0
SPLINE
  5
3024
330
26
100
AcDbEntity
  8
0
  6
Continuous
100
AcDbSpline
210
0.0
220
0.0
230
1.0
 70
     8
 71
     3
 72
     9
 73
     5
 74
     3
 42
0.0000000001
 43
0.0000000001
 44
0.0000000001
 40
0.0
 40
0.0
 40
0.0
 40
0.0
 40
0.3454712489173042
 40
0.6909600996693565
 40
0.6909600996693565
 40
0.6909600996693565
 40
0.6909600996693565
 10
947.0470320032761
 20
-112.830774458251
 30
0.0
 10
946.9313633465703
 20
-112.8232994774542
 30
0.0
 10
946.7000201398155
 20
-112.8083491350086
 30
0.0
 10
946.4749494895071
 20
-112.8639048454863
 30
0.0
 10
946.3624112975763
 20
-112.891683408351
 30
0.0
 11
947.0470320032761
 21
-112.830774458251
 31
0.0
 11
946.7015940923761
 21
-112.825975131051
 31
0.0
 11
946.3624112975763
 21
-112.891683408351
 31
0.0
  0
SPLINE
  5
3025
330
26
100
AcDbEntity
  8
0
  6
Continuous
100
AcDbSpline
210
0.0
220
0.0
230
1.0
 70
     8
 71
     3
 72
    23
 73
    19
 74
    17
 42
0.0000000001
 43
0.0000000001
 44
0.0000000001
 40
0.0
 40
0.0
 40
0.0
 40
0.0
 40
0.134645974181151
 40
0.2682873103536826
 40
0.3331705722619931
 40
0.3981845216874039
 40
0.4642935308470572
 40
0.5307761019897048
 40
0.6619731585370408
 40
0.7924659010256792
 40
1.053725381772258
 40
1.183927333405041
 40
1.314613738434561
 40
1.445423504693333
 40
1.576190419008583
 40
1.706591128356883
 40
1.837071906272034
 40
2.098764468567893
 40
2.098764468567893
 40
2.098764468567893
 40
2.098764468567893
 10
946.3624112975763
 20
-112.891683408351
 30
0.0
 10
946.3181142178319
 20
-112.8992247948398
 30
0.0
 10
946.2298505734609
 20
-112.9142512990461
 30
0.0
 10
946.1170665506695
 20
-112.9064655969577
 30
0.0
 10
946.0337056057364
 20
-112.8766833688131
 30
0.0
 10
945.9788954507233
 20
-112.8399211380761
 30
0.0
 10
945.9332740200387
 20
-112.7917843373834
 30
0.0
 10
945.8856832498916
 20
-112.7173074094663
 30
0.0
 10
945.8531983515584
 20
-112.6103838682447
 30
0.0
 10
945.855875497391
 20
-112.4340283306678
 30
0.0
 10
945.9113854086837
 20
-112.2674233491981
 30
0.0
 10
945.9389878492956
 20
-112.0954249699179
 30
0.0
 10
945.9529497876662
 20
-111.9656102477393
 30
0.0
 10
945.9706482143653
 20
-111.8360012507754
 30
0.0
 10
945.9956317008192
 20
-111.7077248868693
 30
0.0
 10
946.016352174405
 20
-111.5788041334174
 30
0.0
 10
946.0258060539609
 20
-111.4040550300616
 30
0.0
 10
946.002240341572
 20
-111.2748354278572
 30
0.0
 10
945.9865152245761
 20
-111.188608738451
 30
0.0
 11
946.3624112975763
 21
-112.891683408351
 31
0.0
 11
946.2288761962763
 21
-112.908943625151
 31
0.0
 11
946.0957882408761
 21
-112.896794433351
 31
0.0
 11
946.0349356823762
 21
-112.874282130051
 31
0.0
 11
945.9807735846762
 21
-112.838319916651
 31
0.0
 11
945.9350234534763
 21
-112.790598573551
 31
0.0
 11
945.8991791443762
 21
-112.7346064511509
 31
0.0
 11
945.8599762551761
 21
-112.609403411551
 31
0.0
 11
945.8596062772762
 21
-112.478911193551
 31
0.0
 11
945.9159972453763
 21
-112.223810086151
 31
0.0
 11
945.9378433715762
 21
-112.095453960551
 31
0.0
 11
945.9535641682762
 21
-111.965716560351
 31
0.0
 11
945.9718680745762
 21
-111.836193736251
 31
0.0
 11
945.994945863676
 21
-111.707479317751
 31
0.0
 11
946.0140786964762
 21
-111.578489861951
 31
0.0
 11
946.0200382679763
 21
-111.448145253651
 31
0.0
 11
945.9865152245761
 21
-111.188608738451
 31
0.0
  0
SPLINE
  5
3026
330
26
100
AcDbEntity
  8
0
  6
Continuous
100
AcDbSpline
210
0.0
220
0.0
230
1.0
 70
     8
 71
     3
 72
    10
 73
     6
 74
     4
 42
0.0000000001
 43
0.0000000001
 44
0.0000000001
 40
0.0
 40
0.0
 40
0.0
 40
0.0
 40
1.241134952801673
 40
2.091691992358949
 40
2.470089287749635
 40
2.470089287749635
 40
2.470089287749635
 40
2.470089287749635
 10
945.9865152245761
 20
-111.188608738451
 30
0.0
 10
945.8652449361545
 20
-110.7897419767185
 30
0.0
 10
945.6608674100601
 20
-110.1175294911618
 30
0.0
 10
945.7749036486028
 20
-109.2651692953426
 30
0.0
 10
945.9834813701746
 20
-108.9110030911648
 30
0.0
 10
946.0477028334763
 20
-108.801954666851
 30
0.0
 11
945.9865152245761
 21
-111.188608738451
 31
0.0
 11
945.7286611376762
 21
-109.9745546865509
 31
0.0
 11
945.8694334863762
 21
-109.135727872851
 31
0.0
 11
946.0477028334763
 21
-108.801954666851
 31
0.0
  0
SPLINE
  5
3027
330
26
100
AcDbEntity
  8
0
  6
Continuous
100
AcDbSpline
210
0.0
220
0.0
230
1.0
 70
     8
 71
     3
 72
    13
 73
     9
 74
     7
 42
0.0000000001
 43
0.0000000001
 44
0.0000000001
 40
0.0
 40
0.0
 40
0.0
 40
0.0
 40
0.0869781661417776
 40
0.174983933418403
 40
0.221853585671241
 40
0.2705291168771648
 40
0.3164766601353206
 40
0.3591864518556776
 40
0.3591864518556776
 40
0.3591864518556776
 40
0.3591864518556776
 10
946.0477028334763
 20
-108.801954666851
 30
0.0
 10
946.062715851339
 20
-108.7771557495419
 30
0.0
 10
946.0929192579482
 20
-108.7272649288018
 30
0.0
 10
946.125296766762
 20
-108.6604296251885
 30
0.0
 10
946.1423318433324
 20
-108.6013501974909
 30
0.0
 10
946.1491845916639
 20
-108.5549530706718
 30
0.0
 10
946.1476324872391
 20
-108.5072797268589
 30
0.0
 10
946.1298400772855
 20
-108.482901359509
 30
0.0
 10
946.1212687602763
 20
-108.471157322851
 30
0.0
 11
946.0477028334763
 21
-108.801954666851
 31
0.0
 11
946.091589023676
 21
-108.726860035251
 31
0.0
 11
946.1282491579763
 21
-108.646853475351
 31
0.0
 11
946.1411439399763
 21
-108.601792528851
 31
0.0
 11
946.1478210186763
 21
-108.553577137551
 31
0.0
 11
946.1430860984762
 21
-108.5078742135509
 31
0.0
 11
946.1212687602763
 21
-108.471157322851
 31
0.0
  0
SPLINE
  5
3028
330
26
100
AcDbEntity
  8
0
  6
Continuous
100
AcDbSpline
210
0.0
220
0.0
230
1.0
 70
     8
 71
     3
 72
    28
 73
    24
 74
    22
 42
0.0000000001
 43
0.0000000001
 44
0.0000000001
 40
0.0
 40
0.0
 40
0.0
 40
0.0
 40
0.1069947516885342
 40
0.2141854776939086
 40
0.4279423707792203
 40
0.6418948339878148
 40
0.8558210641050693
 40
0.9629554212865101
 40
1.070131687288005
 40
1.284593448814881
 40
1.498597693985256
 40
1.712688999035074
 40
1.925149857423946
 40
2.142931317545313
 40
2.25270740488766
 40
2.359366612081483
 40
2.465124684954545
 40
2.572915542829317
 40
2.68013947154616
 40
2.787449846004945
 40
3.002643040579668
 40
3.217400074845564
 40
3.431485070674748
 40
3.431485070674748
 40
3.431485070674748
 40
3.431485070674748
 10
946.1212687602763
 20
-108.471157322851
 30
0.0
 10
946.0896722039845
 20
-108.4533697235653
 30
0.0
 10
946.026421218342
 20
-108.4177619447732
 30
0.0
 10
945.8802654164067
 20
-108.4168521222618
 30
0.0
 10
945.7041197585816
 20
-108.4415987839221
 30
0.0
 10
945.5004866882346
 20
-108.5147466789753
 30
0.0
 10
945.3501222028418
 20
-108.6113697123862
 30
0.0
 10
945.2265207980021
 20
-108.6828798555581
 30
0.0
 10
945.096975059984
 20
-108.743637385027
 30
0.0
 10
944.9277323544181
 20
-108.8022623858212
 30
0.0
 10
944.7183594358398
 20
-108.8484649126982
 30
0.0
 10
944.5073411856765
 20
-108.882238546859
 30
0.0
 10
944.2930905318513
 20
-108.8987588046711
 30
0.0
 10
944.1132480665914
 20
-108.9081912061095
 30
0.0
 10
943.9697953162238
 20
-108.9288763925349
 30
0.0
 10
943.8664704695152
 20
-108.9615856370553
 30
0.0
 10
943.7767073194789
 20
-109.0224499144675
 30
0.0
 10
943.7090953083259
 20
-109.107125354949
 30
0.0
 10
943.6647311287767
 20
-109.2059353735366
 30
0.0
 10
943.631869664683
 20
-109.3459615907555
 30
0.0
 10
943.6303019304836
 20
-109.5274391605607
 30
0.0
 10
943.6786300895254
 20
-109.7378249149757
 30
0.0
 10
943.7290432104301
 20
-109.8716497467333
 30
0.0
 10
943.7542102696762
 20
-109.938457304151
 30
0.0
 11
946.1212687602763
 21
-108.471157322851
 31
0.0
 11
946.0240085927763
 21
-108.4265665535509
 31
0.0
 11
945.9170988000763
 21
-108.4188110415509
 31
0.0
 11
945.7054597178762
 21
-108.448826174851
 31
0.0
 11
945.504363694676
 21
-108.521874418951
 31
0.0
 11
945.3190280197761
 21
-108.628715981751
 31
0.0
 11
945.2258097116763
 21
-108.681518609751
 31
0.0
 11
945.1288954796762
 21
-108.7272830460509
 31
0.0
 11
944.9265271177764
 21
-108.798282294351
 31
0.0
 11
944.7180041258761
 21
-108.846406911751
 31
0.0
 11
944.5064725187762
 21
-108.879413973051
 31
0.0
 11
944.2948056633763
 21
-108.897764958651
 31
0.0
 11
944.0776640146761
 21
-108.914446348651
 31
0.0
 11
943.9693045148763
 21
-108.932024976451
 31
0.0
 11
943.8683432390762
 21
-108.9664198491509
 31
0.0
 11
943.7809198433761
 21
-109.025933879951
 31
0.0
 11
943.7129281441762
 21
-109.109575961951
 31
0.0
 11
943.6680210151761
 21
-109.206942900151
 31
0.0
 11
943.6427458252763
 21
-109.311234228851
 31
0.0
 11
943.6386971431762
 21
-109.526389333751
 31
0.0
 11
943.6832530610761
 21
-109.736473492951
 31
0.0
 11
943.7542102696762
 21
-109.938457304151
 31
0.0
  0
SPLINE
  5
3029
330
26
100
AcDbEntity
  8
0
  6
Continuous
100
AcDbSpline
210
0.0
220
0.0
230
1.0
 70
    24
 71
     3
 72
     8
 73
     4
 74
     2
 42
0.0000000001
 43
0.0000000001
 44
0.0000000001
 40
0.0
 40
0.0
 40
0.0
 40
0.0
 40
0.9080242580120241
 40
0.9080242580120241
 40
0.9080242580120241
 40
0.9080242580120241
 10
943.7542102696762
 20
-109.938457304151
 30
0.0
 10
943.8386062467428
 20
-110.2291277790177
 30
0.0
 10
943.9230022238094
 20
-110.5197982538843
 30
0.0
 10
944.0073982008762
 20
-110.810468728751
 30
0.0
 11
943.7542102696762
 21
-109.938457304151
 31
0.0
 11
944.0073982008762
 21
-110.810468728751
 31
0.0
  0
SPLINE
  5
302A
330
26
100
AcDbEntity
  8
0
  6
Continuous
100
AcDbSpline
210
0.0
220
0.0
230
1.0
 70
    24
 71
     3
 72
     8
 73
     4
 74
     2
 42
0.0000000001
 43
0.0000000001
 44
0.0000000001
 40
0.0
 40
0.0
 40
0.0
 40
0.0
 40
0.7218640600091393
 40
0.7218640600091393
 40
0.7218640600091393
 40
0.7218640600091393
 10
944.0073982008762
 20
-110.810468728751
 30
0.0
 10
944.0526289261763
 20
-111.0468007349843
 30
0.0
 10
944.0978596514764
 20
-111.2831327412177
 30
0.0
 10
944.1430903767761
 20
-111.519464747451
 30
0.0
 11
944.0073982008762
 21
-110.810468728751
 31
0.0
 11
944.1430903767761
 21
-111.519464747451
 31
0.0
  0
SPLINE
  5
302B
330
26
100
AcDbEntity
  8
0
  6
Continuous
100
AcDbSpline
210
0.0
220
0.0
230
1.0
 70
     8
 71
     3
 72
    17
 73
    13
 74
    11
 42
0.0000000001
 43
0.0000000001
 44
0.0000000001
 40
0.0
 40
0.0
 40
0.0
 40
0.0
 40
0.4489361004716689
 40
0.6737886890587317
 40
0.8984770302147951
 40
1.1240193383314
 40
1.239994698751913
 40
1.353698208718574
 40
1.464443142494871
 40
1.576876643277572
 40
1.692437945347355
 40
1.807171317185943
 40
1.807171317185943
 40
1.807171317185943
 40
1.807171317185943
 10
944.1430903767761
 20
-111.519464747451
 30
0.0
 10
944.1839147169346
 20
-111.6642371468435
 30
0.0
 10
944.245186195455
 20
-111.8815197514193
 30
0.0
 10
944.2542229518672
 20
-112.1824606208766
 30
0.0
 10
944.2334235397029
 20
-112.4067536145567
 30
0.0
 10
944.1969324499472
 20
-112.5925645746377
 30
0.0
 10
944.1484934626078
 20
-112.736701851945
 30
0.0
 10
944.0958294923833
 20
-112.8380136864703
 30
0.0
 10
944.0197245664677
 20
-112.9230199658052
 30
0.0
 10
943.9202103934622
 20
-112.979357649454
 30
0.0
 10
943.8105394646018
 20
-113.014045610039
 30
0.0
 10
943.7340646510222
 20
-113.0222576753535
 30
0.0
 10
943.6959647111761
 20
-113.026348946451
 30
0.0
 11
944.1430903767761
 21
-111.519464747451
 31
0.0
 11
944.2413712094761
 21
-111.957510978151
 31
0.0
 11
944.2496282867763
 21
-112.182211906651
 31
0.0
 11
944.2296779528762
 21
-112.406012788751
 31
0.0
 11
944.1836211818763
 21
-112.626802522651
 31
0.0
 11
944.1454235857761
 21
-112.736306987751
 31
0.0
 11
944.0912701009761
 21
-112.836286426951
 31
0.0
 11
944.0163764504761
 21
-112.917866948351
 31
0.0
 11
943.9196756987763
 21
-112.975227707751
 31
0.0
 11
943.8095740422762
 21
-113.010328131851
 31
0.0
 11
943.6959647111761
 21
-113.026348946451
 31
0.0
  0
SPLINE
  5
302C
330
26
100
AcDbEntity
  8
0
  6
Continuous
100
AcDbSpline
210
0.0
220
0.0
230
1.0
 70
     8
 71
     3
 72
     8
 73
     4
 74
     0
 42
0.0000000001
 43
0.0000000001
 40
0.0
 40
0.0
 40
0.0
 40
0.0
 40
0.2855401677217327
 40
0.2855401677217327
 40
0.2855401677217327
 40
0.2855401677217327
 10
943.6959647111761
 20
-113.026348946451
 30
0.0
 10
943.6007421367564
 20
-113.0243128491255
 30
0.0
 10
943.505519562337
 20
-113.0222767518
 30
0.0
 10
943.4105065475339
 20
-113.0172811561858
 30
0.0
  0
SPLINE
  5
302D
330
26
100
AcDbEntity
  8
0
  6
Continuous
100
AcDbSpline
210
0.0
220
0.0
230
1.0
 70
     8
 71
     3
 72
    11
 73
     7
 74
     5
 42
0.0000000001
 43
0.0000000001
 44
0.0000000001
 40
0.0
 40
0.0
 40
0.0
 40
0.0
 40
0.3878308863671525
 40
0.7813826433714994
 40
1.170405823022205
 40
1.559919621298265
 40
1.559919621298265
 40
1.559919621298265
 40
1.559919621298265
 10
941.7953546749764
 20
-105.573987105551
 30
0.0
 10
941.8037068414067
 20
-105.4444201709836
 30
0.0
 10
941.820534376584
 20
-105.1833750676031
 30
0.0
 10
941.7464756236711
 20
-104.79825151671
 30
0.0
 10
941.7078244009861
 20
-104.4088934220382
 30
0.0
 10
941.7153040017472
 20
-104.149211992016
 30
0.0
 10
941.7190461588762
 20
-104.019289453951
 30
0.0
 11
941.7953546749764
 21
-105.573987105551
 31
0.0
 11
941.8040852830764
 21
-105.186254500651
 31
0.0
 11
941.7521858387763
 21
-104.796139859651
 31
0.0
 11
941.7161183664761
 21
-104.408792248651
 31
0.0
 11
941.7190461588762
 21
-104.019289453951
 31
0.0
  0
SPLINE
  5
302E
330
26
100
AcDbEntity
  8
0
  6
Continuous
100
AcDbSpline
210
0.0
220
0.0
230
1.0
 70
     8
 71
     3
 72
    11
 73
     7
 74
     5
 42
0.0000000001
 43
0.0000000001
 44
0.0000000001
 40
0.0
 40
0.0
 40
0.0
 40
0.0
 40
0.7211258205533415
 40
1.442237220528849
 40
2.163361315372528
 40
2.88448499224257
 40
2.88448499224257
 40
2.88448499224257
 40
2.88448499224257
 10
941.7190461588762
 20
-104.019289453951
 30
0.0
 10
941.7330283595836
 20
-103.7791038027021
 30
0.0
 10
941.7609924813918
 20
-103.2987373032716
 30
0.0
 10
941.6786721437027
 20
-102.5766489060914
 30
0.0
 10
941.4482369962103
 20
-101.8899244418427
 30
0.0
 10
941.3889245251912
 20
-101.4116585562466
 30
0.0
 10
941.3592682982763
 20
-101.172525682751
 30
0.0
 11
941.7190461588762
 21
-104.019289453951
 31
0.0
 11
941.7402812948764
 21
-103.2984763588509
 31
0.0
 11
941.6539873137763
 21
-102.582546893051
 31
0.0
 11
941.4718149271761
 21
-101.884812572751
 31
0.0
 11
941.3592682982763
 21
-101.172525682751
 31
0.0
  0
SPLINE
  5
302F
330
26
100
AcDbEntity
  8
0
  6
Continuous
100
AcDbSpline
210
0.0
220
0.0
230
1.0
 70
     8
 71
     3
 72
    15
 73
    11
 74
     9
 42
0.0000000001
 43
0.0000000001
 44
0.0000000001
 40
0.0
 40
0.0
 40
0.0
 40
0.0
 40
0.7420146924628547
 40
1.214581619558034
 40
1.789756484428377
 40
3.67401968493092
 40
4.541650766575616
 40
5.328676197673747
 40
6.756177783491431
 40
7.666261252314174
 40
7.666261252314174
 40
7.666261252314174
 40
7.666261252314174
 10
941.3592682982763
 20
-101.172525682751
 30
0.0
 10
941.3141910914194
 20
-100.9263473870584
 30
0.0
 10
941.2404055620143
 20
-100.523385510266
 30
0.0
 10
941.4952080971319
 20
-99.9208180670372
 30
0.0
 10
942.500297776671
 20
-99.64468938087487
 30
0.0
 10
943.5117980929948
 20
-99.32441446101183
 30
0.0
 10
944.6213456791083
 20
-98.82747076079605
 30
0.0
 10
945.2440421046404
 20
-97.98759938683784
 30
0.0
 10
945.9250306970948
 20
-97.2032338675607
 30
0.0
 10
946.5138680150063
 20
-96.69094511729774
 30
0.0
 10
946.7431179016761
 20
-96.491497605451
 30
0.0
 11
941.3592682982763
 21
-101.172525682751
 31
0.0
 11
941.316112237976
 21
-100.431767045751
 31
0.0
 11
941.5233209653761
 21
-100.0070506181509
 31
0.0
 11
942.0463268809763
 21
-99.76769536455102
 31
0.0
 11
943.8331402277762
 21
-99.169576753851
 31
0.0
 11
944.5958934307762
 21
-98.756065877151
 31
0.0
 11
945.1190953632762
 21
-98.16812985425101
 31
0.0
 11
946.0673996315765
 21
-97.10113416905097
 31
0.0
 11
946.7431179016761
 21
-96.491497605451
 31
0.0
  0
SPLINE
  5
3030
330
26
100
AcDbEntity
  8
0
  6
Continuous
100
AcDbSpline
210
0.0
220
0.0
230
1.0
 70
     8
 71
     3
 72
    14
 73
    10
 74
     8
 42
0.0000000001
 43
0.0000000001
 44
0.0000000001
 40
0.0
 40
0.0
 40
0.0
 40
0.0
 40
0.1971906304884931
 40
0.3944503656908021
 40
0.5903299888288903
 40
0.7870697249906415
 40
0.9831665530150814
 40
1.179458802824353
 40
1.569060756367693
 40
1.569060756367693
 40
1.569060756367693
 40
1.569060756367693
 10
946.7431179016761
 20
-96.491497605451
 30
0.0
 10
946.8000004096978
 20
-96.45826980359391
 30
0.0
 10
946.9137853600017
 20
-96.39180255532173
 30
0.0
 10
947.1045101831332
 20
-96.33434315414472
 30
0.0
 10
947.3037419449454
 20
-96.33004753569159
 30
0.0
 10
947.4954069687067
 20
-96.38491525925991
 30
0.0
 10
947.6625383935027
 20
-96.49205571975166
 30
0.0
 10
947.8424180618749
 20
-96.68619680202056
 30
0.0
 10
947.9093168045048
 20
-96.87253365857677
 30
0.0
 10
947.9538024482762
 20
-96.99644204155101
 30
0.0
 11
946.7431179016761
 21
-96.491497605451
 31
0.0
 11
946.9171779169762
 21
-96.39883015795101
 31
0.0
 11
947.1064078985762
 21
-96.34312183545103
 31
0.0
 11
947.3022605831761
 21
-96.33987334415099
 31
0.0
 11
947.491490603676
 21
-96.393711278051
 31
0.0
 11
947.6572238347761
 21
-96.49852760345097
 31
0.0
 11
947.7903330142761
 21
-96.64279330855102
 31
0.0
 11
947.9538024482762
 21
-96.99644204155101
 31
0.0
  0
SPLINE
  5
3031
330
26
100
AcDbEntity
  8
0
  6
Continuous
100
AcDbSpline
210
0.0
220
0.0
230
1.0
 70
     8
 71
     3
 72
    10
 73
     6
 74
     4
 42
0.0000000001
 43
0.0000000001
 44
0.0000000001
 40
0.0
 40
0.0
 40
0.0
 40
0.0
 40
0.9018566394311895
 40
1.352842493960334
 40
1.80411367003871
 40
1.80411367003871
 40
1.80411367003871
 40
1.80411367003871
 10
947.9538024482762
 20
-96.99644204155101
 30
0.0
 10
948.0061005618699
 20
-97.29235336839028
 30
0.0
 10
948.0845510686692
 20
-97.7362392365975
 30
0.0
 10
948.1854595160719
 20
-98.32995797934967
 30
0.0
 10
948.2743056934395
 20
-98.61764919873318
 30
0.0
 10
948.3187428300762
 20
-98.76154029685097
 30
0.0
 11
947.9538024482762
 21
-96.99644204155101
 31
0.0
 11
948.1094601167763
 21
-97.884764104951
 31
0.0
 11
948.1950326787762
 21
-98.32755703355099
 31
0.0
 11
948.3187428300762
 21
-98.76154029685097
 31
0.0
  0
SPLINE
  5
3032
330
26
100
AcDbEntity
  8
0
  6
Continuous
100
AcDbSpline
210
0.0
220
0.0
230
1.0
 70
     8
 71
     3
 72
    14
 73
    10
 74
     8
 42
0.0000000001
 43
0.0000000001
 44
0.0000000001
 40
0.0
 40
0.0
 40
0.0
 40
0.0
 40
0.4129907242345755
 40
1.428278794770402
 40
1.692293298290331
 40
1.994205433652003
 40
3.830035915135
 40
4.15891408208021
 40
4.290350896678833
 40
4.290350896678833
 40
4.290350896678833
 40
4.290350896678833
 10
942.7963557976761
 20
-102.174799307851
 30
0.0
 10
942.7477218671661
 20
-102.0481160353981
 30
0.0
 10
942.5795272623532
 20
-101.6099971598906
 30
0.0
 10
942.4245795825973
 20
-100.9849318383026
 30
0.0
 10
942.7307658935639
 20
-100.5320246604696
 30
0.0
 10
943.4247700113286
 20
-100.1136652917816
 30
0.0
 10
944.0442287560372
 20
-99.63082067525048
 30
0.0
 10
944.8493816647506
 20
-99.38763500864479
 30
0.0
 10
944.9820805712158
 20
-99.47247174737612
 30
0.0
 10
945.0199709772762
 20
-99.49669574865101
 30
0.0
 11
942.7963557976761
 21
-102.174799307851
 31
0.0
 11
942.6535826911763
 21
-101.787272304451
 31
0.0
 11
942.5855954975762
 21
-100.774263120051
 31
0.0
 11
942.7351673234761
 21
-100.5567041005509
 31
0.0
 11
942.9799212203761
 21
-100.379937397151
 31
0.0
 11
944.5776202696761
 21
-99.47570772245103
 31
0.0
 11
944.9039587988762
 21
-99.43491540635102
 31
0.0
 11
945.0199709772762
 21
-99.49669574865101
 31
0.0
  0
SPLINE
  5
3033
330
26
100
AcDbEntity
  8
0
  6
Continuous
100
AcDbSpline
210
0.0
220
0.0
230
1.0
 70
     8
 71
     3
 72
    18
 73
    14
 74
    12
 42
0.0000000001
 43
0.0000000001
 44
0.0000000001
 40
0.0
 40
0.0
 40
0.0
 40
0.0
 40
0.090032407347971
 40
0.1635718011169259
 40
0.2329054063829015
 40
0.3560354509023995
 40
1.27486922994519
 40
2.229042303967878
 40
3.18920346556203
 40
3.365708486014721
 40
3.615046362615372
 40
4.002632999339574
 40
4.2925168716322
 40
4.2925168716322
 40
4.2925168716322
 40
4.2925168716322
 10
945.0199709772762
 20
-99.49669574865101
 30
0.0
 10
945.0324486917371
 20
-99.52575462905028
 30
0.0
 10
945.0551183313514
 20
-99.57854910101176
 30
0.0
 10
945.0052850503514
 20
-99.65661141214393
 30
0.0
 10
944.9115161523928
 20
-99.65901086778145
 30
0.0
 10
944.5497472712654
 20
-99.70229564146914
 30
0.0
 10
943.8996731963905
 20
-99.99507473803587
 30
0.0
 10
943.3626341786425
 20
-100.8110548437982
 30
0.0
 10
943.2813703775942
 20
-101.5579625556051
 30
0.0
 10
943.4498821389788
 20
-101.9897910691253
 30
0.0
 10
943.4110147566655
 20
-102.2847960952616
 30
0.0
 10
943.0194459567725
 20
-102.4398852739988
 30
0.0
 10
942.8632084841775
 20
-102.2542367382716
 30
0.0
 10
942.7963557976761
 20
-102.174799307851
 30
0.0
 11
945.0199709772762
 21
-99.49669574865101
 31
0.0
 11
945.0399331860763
 21
-99.58448723225104
 31
0.0
 11
944.999140869876
 21
-99.64567570645102
 31
0.0
 11
944.9311536763762
 21
-99.65927314515102
 31
0.0
 11
944.8087767278762
 21
-99.67287058385104
 31
0.0
 11
943.9725342467762
 21
-100.053598867951
 31
0.0
 11
943.4354354173761
 21
-100.842250313551
 31
0.0
 11
943.381045662576
 21
-101.800869743151
 31
0.0
 11
943.4286366980762
 21
-101.970837727151
 31
0.0
 11
943.381045662576
 21
-102.215591624051
 31
0.0
 11
943.0207135365762
 21
-102.358364730551
 31
0.0
 11
942.7963557976761
 21
-102.174799307851
 31
0.0
  0
SPLINE
  5
3034
330
26
100
AcDbEntity
  8
0
  6
Continuous
100
AcDbSpline
210
0.0
220
0.0
230
1.0
 70
     8
 71
     3
 72
    11
 73
     7
 74
     5
 42
0.0000000001
 43
0.0000000001
 44
0.0000000001
 40
0.0
 40
0.0
 40
0.0
 40
0.0
 40
0.093528569067109
 40
0.1870563009160012
 40
0.2805843017376726
 40
0.3741131172398183
 40
0.3741131172398183
 40
0.3741131172398183
 40
0.3741131172398183
 10
946.333577443576
 20
-101.650601542751
 30
0.0
 10
946.3329970658333
 20
-101.6181592111703
 30
0.0
 10
946.3318363155427
 20
-101.5532748384155
 30
0.0
 10
946.2539431694968
 20
-101.4854608557187
 30
0.0
 10
946.1509571638492
 20
-101.477739413309
 30
0.0
 10
946.1039932842471
 20
-101.5225240868541
 30
0.0
 10
946.0805112421763
 20
-101.544916521151
 30
0.0
 11
946.333577443576
 21
-101.650601542751
 31
0.0
 11
946.3191441863761
 21
-101.558193348751
 31
0.0
 11
946.2497611384762
 21
-101.495476291351
 31
0.0
 11
946.1563808213762
 21
-101.490222405551
 31
0.0
 11
946.0805112421763
 21
-101.544916521151
 31
0.0
  0
SPLINE
  5
3035
330
26
100
AcDbEntity
  8
0
  6
Continuous
100
AcDbSpline
210
0.0
220
0.0
230
1.0
 70
     8
 71
     3
 72
     9
 73
     5
 74
     3
 42
0.0000000001
 43
0.0000000001
 44
0.0000000001
 40
0.0
 40
0.0
 40
0.0
 40
0.0
 40
0.9444512604615526
 40
1.888902543377195
 40
1.888902543377195
 40
1.888902543377195
 40
1.888902543377195
 10
946.0805112421763
 20
-101.544916521151
 30
0.0
 10
945.8654232562874
 20
-101.7877324679376
 30
0.0
 10
945.4352472793964
 20
-102.2733643672839
 30
0.0
 10
944.7978344110418
 20
-102.3941722673166
 30
0.0
 10
944.4791279730761
 20
-102.454576218051
 30
0.0
 11
946.0805112421763
 21
-101.544916521151
 31
0.0
 11
945.3834380628761
 21
-102.182158363851
 31
0.0
 11
944.4791279730761
 21
-102.454576218051
 31
0.0
  0
SPLINE
  5
3036
330
26
100
AcDbEntity
  8
0
  6
Continuous
100
AcDbSpline
210
0.0
220
0.0
230
1.0
 70
     8
 71
     3
 72
    11
 73
     7
 74
     5
 42
0.0000000001
 43
0.0000000001
 44
0.0000000001
 40
0.0
 40
0.0
 40
0.0
 40
0.0
 40
0.1133348161120135
 40
0.2266682088060215
 40
0.3400014427304908
 40
0.4533361567788494
 40
0.4533361567788494
 40
0.4533361567788494
 40
0.4533361567788494
 10
944.4791279730761
 20
-102.454576218051
 30
0.0
 10
944.4412139892731
 20
-102.465695081264
 30
0.0
 10
944.3653864978448
 20
-102.4879326680436
 30
0.0
 10
944.3160073246194
 20
-102.6046585414501
 30
0.0
 10
944.3519815255772
 20
-102.726188519641
 30
0.0
 10
944.4248386231265
 20
-102.7567867309797
 30
0.0
 10
944.4612674097762
 20
-102.772085936551
 30
0.0
 11
944.4791279730761
 21
-102.454576218051
 31
0.0
 11
944.3761131459762
 21
-102.5018279475509
 31
0.0
 11
944.3302328227762
 21
-102.6054592837509
 31
0.0
 11
944.3641997733761
 21
-102.713582677051
 31
0.0
 11
944.4612674097762
 21
-102.772085936551
 31
0.0
  0
SPLINE
  5
3037
330
26
100
AcDbEntity
  8
0
  6
Continuous
100
AcDbSpline
210
0.0
220
0.0
230
1.0
 70
     8
 71
     3
 72
    11
 73
     7
 74
     5
 42
0.0000000001
 43
0.0000000001
 44
0.0000000001
 40
0.0
 40
0.0
 40
0.0
 40
0.0
 40
0.8525021021318698
 40
1.594761192320509
 40
2.012715939712007
 40
2.435950700210516
 40
2.435950700210516
 40
2.435950700210516
 40
2.435950700210516
 10
944.4612674097762
 20
-102.772085936551
 30
0.0
 10
944.747220983315
 20
-102.7862304588804
 30
0.0
 10
945.282149472928
 20
-102.8126903763849
 30
0.0
 10
945.9307567475023
 20
-102.5122461268529
 30
0.0
 10
946.2348305995815
 20
-102.0626526149544
 30
0.0
 10
946.3005243791001
 20
-101.7885254510602
 30
0.0
 10
946.333577443576
 20
-101.650601542751
 30
0.0
 11
944.4612674097762
 21
-102.772085936551
 31
0.0
 11
945.3131245901762
 21
-102.738932077951
 31
0.0
 11
945.9734270456761
 21
-102.399890451851
 31
0.0
 11
946.2101559927761
 21
-102.055440779951
 31
0.0
 11
946.333577443576
 21
-101.650601542751
 31
0.0
  0
SPLINE
  5
3038
330
26
100
AcDbEntity
  8
0
  6
Continuous
100
AcDbSpline
210
0.0
220
0.0
230
1.0
 70
     8
 71
     3
 72
    14
 73
    10
 74
     8
 42
0.0000000001
 43
0.0000000001
 44
0.0000000001
 40
0.0
 40
0.0
 40
0.0
 40
0.0
 40
0.6697525382836057
 40
1.339804408559641
 40
2.009180696641604
 40
2.677737543876131
 40
3.347019986885296
 40
4.01700481978493
 40
4.686212193057878
 40
4.686212193057878
 40
4.686212193057878
 40
4.686212193057878
 10
952.5910919954762
 20
-117.995474794851
 30
0.0
 10
952.8148055330075
 20
-117.9810233085036
 30
0.0
 10
953.2623325921912
 20
-117.9521138770171
 30
0.0
 10
953.9001058590106
 20
-117.7212406188043
 30
0.0
 10
954.4717109192857
 20
-117.3647555876494
 30
0.0
 10
954.949382732779
 20
-116.8869737930398
 30
0.0
 10
955.3057030994594
 20
-116.3153308936964
 30
0.0
 10
955.5363765211459
 20
-115.6777427725884
 30
0.0
 10
955.565248487379
 20
-115.230421494777
 30
0.0
 10
955.5796760897763
 20
-115.0068907006509
 30
0.0
 11
952.5910919954762
 21
-117.995474794851
 31
0.0
 11
953.2566766946761
 21
-117.920872712251
 31
0.0
 11
953.8893381430762
 21
-117.700171555551
 31
0.0
 11
954.4563084728761
 21
-117.344349605451
 31
0.0
 11
954.9289933697762
 21
-116.871552348451
 31
0.0
 11
955.2846355867762
 21
-116.304580036951
 31
0.0
 11
955.5051959542763
 21
-115.671940486651
 31
0.0
 11
955.5796760897763
 21
-115.0068907006509
 31
0.0
  0
SPLINE
  5
3039
330
26
100
AcDbEntity
  8
0
  6
Continuous
100
AcDbSpline
210
0.0
220
0.0
230
1.0
 70
     8
 71
     3
 72
    10
 73
     6
 74
     4
 42
0.0000000001
 43
0.0000000001
 44
0.0000000001
 40
0.0
 40
0.0
 40
0.0
 40
0.0
 40
0.9631579750846632
 40
1.925385159789378
 40
2.888616546013156
 40
2.888616546013156
 40
2.888616546013156
 40
2.888616546013156
 10
955.001087904876
 20
-119.360413848151
 30
0.0
 10
955.2729120232161
 20
-119.1883444210102
 30
0.0
 10
955.8162975706166
 20
-118.8443718536426
 30
0.0
 10
956.4980499897697
 20
-118.1476350355907
 30
0.0
 10
956.8301375197203
 20
-117.5968767341213
 30
0.0
 10
956.996267882976
 20
-117.321353962451
 30
0.0
 11
955.001087904876
 21
-119.360413848151
 31
0.0
 11
955.794296571676
 21
-118.814068448351
 31
0.0
 11
956.4672582226762
 21
-118.126315752051
 31
0.0
 11
956.996267882976
 21
-117.321353962451
 31
0.0
  0
SPLINE
  5
303A
330
26
100
AcDbEntity
  8
0
  6
Continuous
100
AcDbSpline
210
0.0
220
0.0
230
1.0
 70
     8
 71
     3
 72
    14
 73
    10
 74
     8
 42
0.0000000001
 43
0.0000000001
 44
0.0000000001
 40
0.0
 40
0.0
 40
0.0
 40
0.0
 40
0.669752538294875
 40
1.339804408570799
 40
2.009180696652918
 40
2.677737543745941
 40
3.347019986839858
 40
4.017004819772206
 40
4.686212193045213
 40
4.686212193045213
 40
4.686212193045213
 40
4.686212193045213
 10
955.5796760897763
 20
-96.64938358525104
 30
0.0
 10
955.5652246033872
 20
-96.42567004772073
 30
0.0
 10
955.536315171817
 20
-95.97814298854274
 30
0.0
 10
955.3054419136367
 20
-95.34036972171481
 30
0.0
 10
954.9489568824972
 20
-94.76876466148616
 30
0.0
 10
954.4711750879196
 20
-94.2910928479768
 30
0.0
 10
953.8995321885154
 20
-93.93477248142291
 30
0.0
 10
953.261944067438
 20
-93.70409905954804
 30
0.0
 10
952.8146227896068
 20
-93.67522709333692
 30
0.0
 10
952.5910919954762
 20
-93.66079949095104
 30
0.0
 11
955.5796760897763
 21
-96.64938358525104
 31
0.0
 11
955.5050740070763
 21
-95.98379888605098
 31
0.0
 11
955.2843728503763
 21
-95.35113743765101
 31
0.0
 11
954.9285509002762
 21
-94.78416710785098
 31
0.0
 11
954.4557536433762
 21
-94.31148221105099
 31
0.0
 11
953.8887813317762
 21
-93.95583999405095
 31
0.0
 11
953.2561417814763
 21
-93.73527962645098
 31
0.0
 11
952.5910919954762
 21
-93.66079949095104
 31
0.0
  0
SPLINE
  5
303B
330
26
100
AcDbEntity
  8
0
  6
Continuous
100
AcDbSpline
210
0.0
220
0.0
230
1.0
 70
     8
 71
     3
 72
    12
 73
     8
 74
     6
 42
0.0000000001
 43
0.0000000001
 44
0.0000000001
 40
0.0
 40
0.0
 40
0.0
 40
0.0
 40
1.079592600933353
 40
2.158342752456663
 40
3.23808710898658
 40
4.318140126554806
 40
5.399444664810878
 40
5.399444664810878
 40
5.399444664810878
 40
5.399444664810878
 10
956.9962892680761
 20
-94.33498384865101
 30
0.0
 10
956.8082333977184
 20
-94.02657491198893
 30
0.0
 10
956.4322684045416
 20
-93.40999770252864
 30
0.0
 10
955.6328388012407
 20
-92.66495531988356
 30
0.0
 10
954.7053348798604
 20
-92.10326541935319
 30
0.0
 10
953.6737098607381
 20
-91.73972519040598
 30
0.0
 10
952.9521038977158
 20
-91.69219096810149
 30
0.0
 10
952.5910919954762
 20
-91.66841009475097
 30
0.0
 11
956.9962892680761
 21
-94.33498384865101
 31
0.0
 11
956.392867589076
 21
-93.43977300125096
 31
0.0
 11
955.6117824220761
 21
-92.69572471565095
 31
0.0
 11
954.6882040868765
 21
-92.13639392425102
 31
0.0
 11
953.6657035373762
 21
-91.788533108651
 31
0.0
 11
952.5910919954762
 21
-91.66841009475097
 31
0.0
  0
SPLINE
  5
303C
330
26
100
AcDbEntity
  8
0
  6
Continuous
100
AcDbSpline
210
0.0
220
0.0
230
1.0
 70
     8
 71
     3
 72
    12
 73
     8
 74
     6
 42
0.0000000001
 43
0.0000000001
 44
0.0000000001
 40
0.0
 40
0.0
 40
0.0
 40
0.0
 40
1.081289372613303
 40
2.161291992610039
 40
3.241017927043457
 40
4.319734124362144
 40
5.399387605953262
 40
5.399387605953262
 40
5.399387605953262
 40
5.399387605953262
 10
934.2335848800763
 20
-91.66841009475097
 30
0.0
 10
933.8725780297798
 20
-91.6921901790007
 30
0.0
 10
933.1509939334366
 20
-91.7397220487983
 30
0.0
 10
932.1193937390592
 20
-92.10324369204628
 30
0.0
 10
931.1919105482022
 20
-92.66490176914508
 30
0.0
 10
930.3924666303799
 20
-93.4099310669405
 30
0.0
 10
930.0164811817151
 20
-94.02650637457295
 30
0.0
 10
929.8284068204761
 20
-94.33492790405101
 30
0.0
 11
934.2335848800763
 21
-91.66841009475097
 31
0.0
 11
933.1589882005761
 21
-91.78852955085097
 31
0.0
 11
932.1365325169763
 21
-92.13636576845101
 31
0.0
 11
931.2129616800762
 21
-92.69567337855096
 31
0.0
 11
930.4318860022762
 21
-93.43968239725098
 31
0.0
 11
929.8284068204761
 21
-94.33492790405101
 31
0.0
  0
SPLINE
  5
303D
330
26
100
AcDbEntity
  8
0
  6
Continuous
100
AcDbSpline
210
0.0
220
0.0
230
1.0
 70
     8
 71
     3
 72
    14
 73
    10
 74
     8
 42
0.0000000001
 43
0.0000000001
 44
0.0000000001
 40
0.0
 40
0.0
 40
0.0
 40
0.0
 40
0.6697525382948497
 40
1.339804408476433
 40
2.0091806965583
 40
2.677737543722186
 40
3.347019986816127
 40
4.017004819715697
 40
4.68621219298863
 40
4.68621219298863
 40
4.68621219298863
 40
4.68621219298863
 10
934.2335848800763
 20
-93.66079949095104
 30
0.0
 10
934.009871342545
 20
-93.67525097733639
 30
0.0
 10
933.5623442833964
 20
-93.70416040889663
 30
0.0
 10
932.9245710166115
 20
-93.93503366711114
 30
0.0
 10
932.3529659564075
 20
-94.29151869825914
 30
0.0
 10
931.8752941428065
 20
-94.76930049277411
 30
0.0
 10
931.5189737762253
 20
-95.34094339219497
 30
0.0
 10
931.288300354501
 20
-95.97853151330952
 30
0.0
 10
931.2594283882714
 20
-96.42585279112359
 30
0.0
 10
931.245000785876
 20
-96.64938358525104
 30
0.0
 11
934.2335848800763
 21
-93.66079949095104
 31
0.0
 11
933.5680001808762
 21
-93.73540157365098
 31
0.0
 11
932.9353387325762
 21
-93.95610273035101
 31
0.0
 11
932.3683684027764
 21
-94.311924680451
 31
0.0
 11
931.8956835058762
 21
-94.78472193735099
 31
0.0
 11
931.5400412888761
 21
-95.35169424895101
 31
0.0
 11
931.3194809213761
 21
-95.98433379925098
 31
0.0
 11
931.245000785876
 21
-96.64938358525104
 31
0.0
  0
SPLINE
  5
303E
330
26
100
AcDbEntity
  8
0
  6
Continuous
100
AcDbSpline
210
0.0
220
0.0
230
1.0
 70
     8
 71
     3
 72
    13
 73
     9
 74
     7
 42
0.0000000001
 43
0.0000000001
 44
0.0000000001
 40
0.0
 40
0.0
 40
0.0
 40
0.0
 40
0.1646306784772528
 40
0.6459162724012075
 40
1.459971543202347
 40
2.656559176606178
 40
4.290807627169817
 40
6.420970055647957
 40
6.420970055647957
 40
6.420970055647957
 40
6.420970055647957
 10
966.4123384377763
 20
-125.828137142951
 30
0.0
 10
966.3709284310551
 20
-125.7921276343508
 30
0.0
 10
966.2084593370273
 20
-125.6508469946716
 30
0.0
 10
965.8412224764529
 20
-125.3315159749682
 30
0.0
 10
965.2144145475266
 20
-124.786466127934
 30
0.0
 10
964.2975930091129
 20
-123.989236383505
 30
0.0
 10
963.0497332193086
 20
-122.9041291309553
 30
0.0
 10
962.1028503750456
 20
-122.0807549633123
 30
0.0
 10
961.5670389761762
 20
-121.614833263251
 30
0.0
 11
966.4123384377763
 21
-125.828137142951
 31
0.0
 11
966.2881082391762
 21
-125.720108822351
 31
0.0
 11
965.9249266699761
 21
-125.4043003824509
 31
0.0
 11
965.3106346808764
 21
-124.8701362353509
 31
0.0
 11
964.4076815109761
 21
-124.084962663851
 31
0.0
 11
963.1744714033761
 21
-123.012600398251
 31
0.0
 11
961.5670389761762
 21
-121.614833263251
 31
0.0
  0
SPLINE
  5
303F
330
26
100
AcDbEntity
  8
0
  6
Continuous
100
AcDbSpline
210
0.0
220
0.0
230
1.0
 70
     8
 71
     3
 72
    13
 73
     9
 74
     7
 42
0.0000000001
 43
0.0000000001
 44
0.0000000001
 40
0.0
 40
0.0
 40
0.0
 40
0.0
 40
0.1646306402879898
 40
0.6459158446703627
 40
1.459970213289688
 40
2.65655837105315
 40
4.290807981750516
 40
6.420970055577377
 40
6.420970055577377
 40
6.420970055577377
 40
6.420970055577377
 10
963.4123384377762
 20
-128.828137142951
 30
0.0
 10
963.3763289300332
 20
-128.7867271523541
 30
0.0
 10
963.2350483545014
 20
-128.6242581914889
 30
0.0
 10
962.9157173340371
 20
-128.257021919039
 30
0.0
 10
962.370666510583
 20
-127.6302151781393
 30
0.0
 10
961.5734372934959
 20
-126.7133928355996
 30
0.0
 10
960.4883314514723
 20
-125.4655312318085
 30
0.0
 10
959.6649565156564
 20
-124.5186486997164
 30
0.0
 10
959.1990345581761
 20
-123.982837681351
 30
0.0
 11
963.4123384377762
 21
-128.828137142951
 31
0.0
 11
963.3043101132761
 21
-128.703906998351
 31
0.0
 11
962.9885016494764
 21
-128.340725966151
 31
0.0
 11
962.4543373201763
 21
-127.726435331051
 31
0.0
 11
961.6691637055762
 21
-126.823481503751
 31
0.0
 11
960.5968018624762
 21
-125.590269491351
 31
0.0
 11
959.1990345581761
 21
-123.982837681351
 31
0.0
  0
SPLINE
  5
3040
330
26
100
AcDbEntity
  8
0
  6
Continuous
100
AcDbSpline
210
0.0
220
0.0
230
1.0
 70
     8
 71
     3
 72
     9
 73
     5
 74
     3
 42
0.0000000001
 43
0.0000000001
 44
0.0000000001
 40
0.0
 40
0.0
 40
0.0
 40
0.0
 40
0.069588588075185
 40
0.1400117365456384
 40
0.1400117365456384
 40
0.1400117365456384
 40
0.1400117365456384
 10
961.5670389761762
 20
-121.614833263251
 30
0.0
 10
961.5573696427775
 20
-121.5937484086035
 30
0.0
 10
961.5379150138244
 20
-121.5513258333556
 30
0.0
 10
961.5187560980303
 20
-121.5087688875819
 30
0.0
 10
961.5091195403762
 20
-121.487363581251
 30
0.0
 11
961.5670389761762
 21
-121.614833263251
 31
0.0
 11
961.538104025576
 21
-121.551545505951
 31
0.0
 11
961.5091195403762
 21
-121.487363581251
 31
0.0
  0
SPLINE
  5
3041
330
26
100
AcDbEntity
  8
0
  6
Continuous
100
AcDbSpline
210
0.0
220
0.0
230
1.0
 70
     8
 71
     3
 72
    12
 73
     8
 74
     6
 42
0.0000000001
 43
0.0000000001
 44
0.0000000001
 40
0.0
 40
0.0
 40
0.0
 40
0.0
 40
0.6673062109497857
 40
1.365455553917667
 40
2.0743723937602
 40
2.772521739583786
 40
3.439827957101371
 40
3.439827957101371
 40
3.439827957101371
 40
3.439827957101371
 10
961.5670389761762
 20
-121.614833259251
 30
0.0
 10
961.3632179371516
 20
-121.7052551072468
 30
0.0
 10
960.9461551776949
 20
-121.890278133431
 30
0.0
 10
960.3860733793315
 20
-122.3048404583464
 30
0.0
 10
959.8890418192497
 20
-122.8018720424394
 30
0.0
 10
959.4744795198917
 20
-123.3619538637703
 30
0.0
 10
959.2894565138795
 20
-123.7790166356539
 30
0.0
 10
959.1990346754762
 20
-123.982837681351
 30
0.0
 11
961.5670389761762
 21
-121.614833259251
 31
0.0
 11
960.9671327567761
 21
-121.9070833355509
 31
0.0
 11
960.4007255110762
 21
-122.315244256151
 31
0.0
 11
959.8994456184762
 21
-122.816524173051
 31
0.0
 11
959.4912847240761
 21
-123.3829314411509
 31
0.0
 11
959.1990346754762
 21
-123.982837681351
 31
0.0
  0
SPLINE
  5
3042
330
26
100
AcDbEntity
  8
0
  6
Continuous
100
AcDbSpline
210
0.0
220
0.0
230
1.0
 70
     8
 71
     3
 72
     9
 73
     5
 74
     3
 42
0.0000000001
 43
0.0000000001
 44
0.0000000001
 40
0.0
 40
0.0
 40
0.0
 40
0.0
 40
0.0963810755175696
 40
0.1939174112544632
 40
0.1939174112544632
 40
0.1939174112544632
 40
0.1939174112544632
 10
959.1990345581761
 20
-123.982837681351
 30
0.0
 10
959.1780088724415
 20
-123.9585458663955
 30
0.0
 10
959.1357054791082
 20
-123.9096710655535
 30
0.0
 10
959.0940663420091
 20
-123.8602291094685
 30
0.0
 10
959.0731227411762
 20
-123.835360856551
 30
0.0
 11
959.1990345581761
 21
-123.982837681351
 31
0.0
 11
959.1361215922761
 21
-123.9098221320509
 31
0.0
 11
959.0731227411762
 21
-123.835360856551
 31
0.0
  0
SPLINE
  5
3043
330
26
100
AcDbEntity
  8
0
  6
Continuous
100
AcDbSpline
210
0.0
220
0.0
230
1.0
 70
     8
 71
     3
 72
    11
 73
     7
 74
     5
 42
0.0000000001
 43
0.0000000001
 44
0.0000000001
 40
0.0
 40
0.0
 40
0.0
 40
0.0
 40
0.6376125832552669
 40
1.259016747988837
 40
1.854643657161748
 40
2.41643794073358
 40
2.41643794073358
 40
2.41643794073358
 40
2.41643794073358
 10
961.5091195403762
 20
-121.487363581251
 30
0.0
 10
961.4214194546302
 20
-121.2937597106253
 30
0.0
 10
961.2482486614963
 20
-120.9114734728776
 30
0.0
 10
960.983647102654
 20
-120.3527237357401
 30
0.0
 10
960.7235441777627
 20
-119.819838742607
 30
0.0
 10
960.5470886902122
 20
-119.476738408801
 30
0.0
 10
960.4614399351761
 20
-119.3102028317509
 30
0.0
 11
961.5091195403762
 21
-121.487363581251
 31
0.0
 11
961.2443642744761
 21
-120.907316638751
 31
0.0
 11
960.978842486776
 21
-120.3454969913509
 31
0.0
 11
960.7166862761761
 21
-119.810664740851
 31
0.0
 11
960.4614399351761
 21
-119.3102028317509
 31
0.0
  0
SPLINE
  5
3044
330
26
100
AcDbEntity
  8
0
  6
Continuous
100
AcDbSpline
210
0.0
220
0.0
230
1.0
 70
     8
 71
     3
 72
    12
 73
     8
 74
     6
 42
0.0000000001
 43
0.0000000001
 44
0.0000000001
 40
0.0
 40
0.0
 40
0.0
 40
0.0
 40
0.6725336020447067
 40
1.378163357937544
 40
2.095361487966371
 40
2.801032922791616
 40
3.47364451159608
 40
3.47364451159608
 40
3.47364451159608
 40
3.47364451159608
 10
961.5091193120761
 20
-121.487369757151
 30
0.0
 10
961.3023091854798
 20
-121.575280642966
 30
0.0
 10
960.8785115675476
 20
-121.7554286106298
 30
0.0
 10
960.3059122376025
 20
-122.1646585925088
 30
0.0
 10
959.7942634968576
 20
-122.6578148130672
 30
0.0
 10
959.364216025381
 20
-123.2149977351868
 30
0.0
 10
959.1685602816206
 20
-123.6319065110263
 30
0.0
 10
959.0730789338763
 20
-123.835360859151
 30
0.0
 11
961.5091193120761
 21
-121.487369757151
 31
0.0
 11
960.8999258916762
 21
-121.772299261451
 31
0.0
 11
960.3205832308763
 21
-122.175133512451
 31
0.0
 11
959.804200992376
 21
-122.672850843351
 31
0.0
 11
959.3802906563763
 21
-123.237007028251
 31
0.0
 11
959.0730789338763
 21
-123.835360859151
 31
0.0
  0
SPLINE
  5
3045
330
26
100
AcDbEntity
  8
0
  6
Continuous
100
AcDbSpline
210
0.0
220
0.0
230
1.0
 70
     8
 71
     3
 72
    11
 73
     7
 74
     5
 42
0.0000000001
 43
0.0000000001
 44
0.0000000001
 40
0.0
 40
0.0
 40
0.0
 40
0.0
 40
0.662240033616898
 40
1.310642921215405
 40
1.935050859320189
 40
2.527479362565774
 40
2.527479362565774
 40
2.527479362565774
 40
2.527479362565774
 10
959.0731227411762
 20
-123.835360856551
 30
0.0
 10
958.8843591281836
 20
-123.7208873781748
 30
0.0
 10
958.5107760154253
 20
-123.4943322826134
 30
0.0
 10
957.9704790935134
 20
-123.1418926818081
 30
0.0
 10
957.4566344528394
 20
-122.7915808634566
 30
0.0
 10
957.1320683727436
 20
-122.548235945028
 30
0.0
 10
956.9740502607762
 20
-122.429761135351
 30
0.0
 11
959.0731227411762
 21
-123.835360856551
 31
0.0
 11
958.5087800961762
 21
-123.488836339151
 31
0.0
 11
957.9650118251761
 21
-123.1356474773509
 31
0.0
 11
957.4506298376761
 21
-122.781675099751
 31
0.0
 11
956.9740502607762
 21
-122.429761135351
 31
0.0
  0
SPLINE
  5
3046
330
26
100
AcDbEntity
  8
0
  6
Continuous
100
AcDbSpline
210
0.0
220
0.0
230
1.0
 70
     8
 71
     3
 72
     9
 73
     5
 74
     3
 42
0.0000000001
 43
0.0000000001
 44
0.0000000001
 40
0.0
 40
0.0
 40
0.0
 40
0.0
 40
0.6381760248297422
 40
1.288336582234321
 40
1.288336582234321
 40
1.288336582234321
 40
1.288336582234321
 10
960.461439931776
 20
-119.310289536151
 30
0.0
 10
960.2750584179821
 20
-119.2067261439088
 30
0.0
 10
959.8987952662333
 20
-118.9976545059678
 30
0.0
 10
959.4905760531958
 20
-118.8610476526522
 30
0.0
 10
959.2845677516762
 20
-118.792108844951
 30
0.0
 11
960.461439931776
 21
-119.310289536151
 31
0.0
 11
959.8944543166762
 21
-119.017380077551
 31
0.0
 11
959.2845677516762
 21
-118.792108844951
 31
0.0
  0
SPLINE
  5
3047
330
26
100
AcDbEntity
  8
0
  6
Continuous
100
AcDbSpline
210
0.0
220
0.0
230
1.0
 70
     8
 71
     3
 72
    14
 73
    10
 74
     8
 42
0.0000000001
 43
0.0000000001
 44
0.0000000001
 40
0.0
 40
0.0
 40
0.0
 40
0.0
 40
0.541720296580575
 40
1.201663771129984
 40
1.937616346702749
 40
2.702227728254687
 40
3.4462312037584
 40
4.121737217222426
 40
4.685472202644486
 40
4.685472202644486
 40
4.685472202644486
 40
4.685472202644486
 10
960.4614965062763
 20
-119.310324992751
 30
0.0
 10
960.3158044575469
 20
-119.4170467014826
 30
0.0
 10
959.9926250274887
 20
-119.6537806983171
 30
0.0
 10
959.4918131575541
 20
-120.0619946179461
 30
0.0
 10
958.9435725439242
 20
-120.528984821441
 30
0.0
 10
958.3858841216702
 20
-121.027916579648
 30
0.0
 10
957.8550382809258
 20
-121.5261708475417
 30
0.0
 10
957.3826438440999
 20
-121.9889341752415
 30
0.0
 10
957.1018045708573
 20
-122.2919283724754
 30
0.0
 10
956.9740498211762
 20
-122.4297614731509
 30
0.0
 11
960.4614965062763
 21
-119.310324992751
 31
0.0
 11
960.0269785514761
 21
-119.633829284351
 31
0.0
 11
959.5129294114762
 21
-120.047687800351
 31
0.0
 11
958.9527557562763
 21
-120.525004958551
 31
0.0
 11
958.3828617712761
 21
-121.034761185251
 31
0.0
 11
957.8402833756763
 21
-121.543828819451
 31
0.0
 11
957.3602813286761
 21
-122.019124947251
 31
0.0
 11
956.9740498211762
 21
-122.4297614731509
 31
0.0
  0
SPLINE
  5
3048
330
26
100
AcDbEntity
  8
0
  6
Continuous
100
AcDbSpline
210
0.0
220
0.0
230
1.0
 70
     8
 71
     3
 72
     9
 73
     5
 74
     3
 42
0.0000000001
 43
0.0000000001
 44
0.0000000001
 40
0.0
 40
0.0
 40
0.0
 40
0.0
 40
0.126296220912322
 40
0.2578187648777474
 40
0.2578187648777474
 40
0.2578187648777474
 40
0.2578187648777474
 10
956.9740502607762
 20
-122.429761135351
 30
0.0
 10
956.9398427040119
 20
-122.4051131815296
 30
0.0
 10
956.8700120315601
 20
-122.354797305369
 30
0.0
 10
956.7934604033949
 20
-122.3154402835665
 30
0.0
 10
956.7544086885762
 20
-122.2953628635509
 30
0.0
 11
956.9740502607762
 21
-122.429761135351
 31
0.0
 11
956.8698147823761
 21
-122.358447038151
 31
0.0
 11
956.7544086885762
 21
-122.2953628635509
 31
0.0
  0
SPLINE
  5
3049
330
26
100
AcDbEntity
  8
0
  6
Continuous
100
AcDbSpline
210
0.0
220
0.0
230
1.0
 70
     8
 71
     3
 72
    14
 73
    10
 74
     8
 42
0.0000000001
 43
0.0000000001
 44
0.0000000001
 40
0.0
 40
0.0
 40
0.0
 40
0.0
 40
0.6394661151181529
 40
1.225221731850017
 40
1.765827439924264
 40
2.270490788771314
 40
2.749825794750227
 40
3.211103917643589
 40
3.656782491670953
 40
3.656782491670953
 40
3.656782491670953
 40
3.656782491670953
 10
930.6028860576761
 20
-92.76762955615101
 30
0.0
 10
930.7433915628396
 20
-92.60687675742101
 30
0.0
 10
931.0126011336066
 20
-92.29887322478142
 30
0.0
 10
931.472653770503
 20
-91.92730426362687
 30
0.0
 10
931.9368440019168
 20
-91.64180681933324
 30
0.0
 10
932.4032299746737
 20
-91.43576262768806
 30
0.0
 10
932.8664776701996
 20
-91.2998633868734
 30
0.0
 10
933.323495105114
 20
-91.22146749320794
 30
0.0
 10
933.6260129356961
 20
-91.21344009426304
 30
0.0
 10
933.7746702153763
 20
-91.20949542995101
 30
0.0
 11
930.6028860576761
 21
-92.76762955615101
 31
0.0
 11
931.0380221384761
 21
-92.29904284745101
 31
0.0
 11
931.491748701876
 21
-91.928581178451
 31
0.0
 11
931.9530302900762
 21
-91.64667014995098
 31
0.0
 11
932.4147618682761
 21
-91.442981550951
 31
0.0
 11
932.8744988781762
 21
-91.307320467051
 31
0.0
 11
933.3295489202764
 21
-91.23177600435099
 31
0.0
 11
933.7746702153763
 21
-91.20949542995101
 31
0.0
  0
SPLINE
  5
304A
330
26
100
AcDbEntity
  8
0
  6
Continuous
100
AcDbSpline
210
0.0
220
0.0
230
1.0
 70
     8
 71
     3
 72
    11
 73
     7
 74
     5
 42
0.0000000001
 43
0.0000000001
 44
0.0000000001
 40
0.0
 40
0.0
 40
0.0
 40
0.0
 40
0.4349210197199922
 40
0.9268116334165261
 40
1.486800761330925
 40
2.110173643587627
 40
2.110173643587627
 40
2.110173643587627
 40
2.110173643587627
 10
930.6028798140761
 20
-92.76762284945096
 30
0.0
 10
930.4717936238615
 20
-92.83282536353647
 30
0.0
 10
930.1924504774905
 20
-92.97177116252624
 30
0.0
 10
929.6856366290418
 20
-92.99091935275465
 30
0.0
 10
929.1320289283112
 20
-92.89957880574505
 30
0.0
 10
928.7667072745028
 20
-92.74695116395101
 30
0.0
 10
928.5742626883761
 20
-92.666549788751
 30
0.0
 11
930.6028798140761
 21
-92.76762284945096
 31
0.0
 11
930.2015650289764
 21
-92.93526155815096
 31
0.0
 11
929.7112450155761
 21
-92.97453827265099
 31
0.0
 11
929.1587378091762
 21
-92.88330445075098
 31
0.0
 11
928.5742626883761
 21
-92.666549788751
 31
0.0
  0
SPLINE
  5
304B
330
26
100
AcDbEntity
  8
0
  6
Continuous
100
AcDbSpline
210
0.0
220
0.0
230
1.0
 70
     8
 71
     3
 72
    14
 73
    10
 74
     8
 42
0.0000000001
 43
0.0000000001
 44
0.0000000001
 40
0.0
 40
0.0
 40
0.0
 40
0.0
 40
0.9585565468688809
 40
1.857702754925362
 40
2.704646108707455
 40
3.506782800049407
 40
4.274616626991866
 40
5.014599367264489
 40
5.726489539648533
 40
5.726489539648533
 40
5.726489539648533
 40
5.726489539648533
 10
928.5731286308761
 20
-92.667496898151
 30
0.0
 10
928.8122786510921
 20
-92.45488917880542
 30
0.0
 10
929.2757564217534
 20
-92.04285094565492
 30
0.0
 10
930.0413265812388
 20
-91.55989525806214
 30
0.0
 10
930.8067424807061
 20
-91.18848316606153
 30
0.0
 10
931.5685351775067
 20
-90.92075455697641
 30
0.0
 10
932.3188727712687
 20
-90.74339486452379
 30
0.0
 10
933.0531836590401
 20
-90.64010894631207
 30
0.0
 10
933.5372970979062
 20
-90.62788861294538
 30
0.0
 10
933.7746702153763
 20
-90.62189667305096
 30
0.0
 11
928.5731286308761
 21
-92.667496898151
 31
0.0
 11
929.3071814660761
 21
-92.05105785925098
 31
0.0
 11
930.0641198929762
 21
-91.56576606935096
 31
0.0
 11
930.8266476445762
 21
-91.19716808705095
 31
0.0
 11
931.5832961976761
 21
-90.93088583325095
 31
0.0
 11
932.3302602893762
 21
-90.75308416985104
 31
0.0
 11
933.0634675842761
 21
-90.653176619551
 31
0.0
 11
933.7746702153763
 21
-90.62189667305096
 31
0.0
  0
SPLINE
  5
304C
330
26
100
AcDbEntity
  8
0
  6
Continuous
100
AcDbSpline
210
0.0
220
0.0
230
1.0
 70
     8
 71
     3
 72
    10
 73
     6
 74
     4
 42
0.0000000001
 43
0.0000000001
 44
0.0000000001
 40
0.0
 40
0.0
 40
0.0
 40
0.0
 40
0.2023514759492757
 40
0.4000967762162456
 40
0.5846165887502204
 40
0.5846165887502204
 40
0.5846165887502204
 40
0.5846165887502204
 10
930.2869530729763
 20
-93.258434047751
 30
0.0
 10
930.3188323888235
 20
-93.19897729405197
 30
0.0
 10
930.3818653439259
 20
-93.08141721514637
 30
0.0
 10
930.4874061412775
 20
-92.91722509030514
 30
0.0
 10
930.565290963712
 20
-92.81633116885131
 30
0.0
 10
930.6028860576761
 20
-92.76762955615101
 30
0.0
 11
930.2869530729763
 21
-93.258434047751
 31
0.0
 11
930.3849433861763
 21
-93.08139162815098
 31
0.0
 11
930.4921685436761
 21
-92.91524118615098
 31
0.0
 11
930.6028860576761
 21
-92.76762955615101
 31
0.0
  0
SPLINE
  5
304D
330
26
100
AcDbEntity
  8
0
  6
Continuous
100
AcDbSpline
210
0.0
220
0.0
230
1.0
 70
     8
 71
     3
 72
    13
 73
     9
 74
     7
 42
0.0000000001
 43
0.0000000001
 44
0.0000000001
 40
0.0
 40
0.0
 40
0.0
 40
0.0
 40
0.617642491785346
 40
1.274662411849066
 40
1.978114713024575
 40
2.722623371562541
 40
3.493534574710499
 40
4.270902608222031
 40
4.270902608222031
 40
4.270902608222031
 40
4.270902608222031
 10
930.2869536127762
 20
-93.25843450805098
 30
0.0
 10
930.1236778558002
 20
-93.38657944259643
 30
0.0
 10
929.7867167934521
 20
-93.65103911547575
 30
0.0
 10
929.1384970205792
 20
-93.83498656464437
 30
0.0
 10
928.4327341834903
 20
-93.86292131098861
 30
0.0
 10
927.7017665656882
 20
-93.71792651765881
 30
0.0
 10
926.9873564015916
 20
-93.42602851704984
 30
0.0
 10
926.5718109639367
 20
-93.11705642531341
 30
0.0
 10
926.3631717649762
 20
-92.96192612215098
 30
0.0
 11
930.2869536127762
 21
-93.25843450805098
 31
0.0
 11
929.7781691156762
 21
-93.608606727351
 31
0.0
 11
929.1513055139764
 21
-93.80537359505098
 31
0.0
 11
928.448498993676
 21
-93.83550887425101
 31
0.0
 11
927.7169904143761
 21
-93.69698688665096
 31
0.0
 11
927.0059499021764
 21
-93.39911867225101
 31
0.0
 11
926.3631717649762
 21
-92.96192612215098
 31
0.0
  0
SPLINE
  5
304E
330
26
100
AcDbEntity
  8
0
  6
Continuous
100
AcDbSpline
210
0.0
220
0.0
230
1.0
 70
     8
 71
     3
 72
    10
 73
     6
 74
     4
 42
0.0000000001
 43
0.0000000001
 44
0.0000000001
 40
0.0
 40
0.0
 40
0.0
 40
0.0
 40
0.7039663211334474
 40
1.459650550955109
 40
2.233271193615253
 40
2.233271193615253
 40
2.233271193615253
 40
2.233271193615253
 10
926.3631794961761
 20
-92.96191849645101
 30
0.0
 10
926.5976605959256
 20
-92.9512810496139
 30
0.0
 10
927.0838492901335
 20
-92.92922466045098
 30
0.0
 10
927.8230068846332
 20
-92.83072282536166
 30
0.0
 10
928.3211408487355
 20
-92.72188242197785
 30
0.0
 10
928.5731290064761
 20
-92.666823954351
 30
0.0
 11
926.3631794961761
 21
-92.96191849645101
 31
0.0
 11
927.0659062956761
 21
-92.92016174185096
 31
0.0
 11
927.8151101358762
 21
-92.821408205051
 31
0.0
 11
928.5731290064761
 21
-92.666823954351
 31
0.0
  0
SPLINE
  5
304F
330
26
100
AcDbEntity
  8
0
  6
Continuous
100
AcDbSpline
210
0.0
220
0.0
230
1.0
 70
     8
 71
     3
 72
    11
 73
     7
 74
     5
 42
0.0000000001
 43
0.0000000001
 44
0.0000000001
 40
0.0
 40
0.0
 40
0.0
 40
0.0
 40
0.349222892744803
 40
0.6587755975425975
 40
0.9317308556687006
 40
1.171062615640198
 40
1.171062615640198
 40
1.171062615640198
 40
1.171062615640198
 10
929.8284068204761
 20
-94.33492790405101
 30
0.0
 10
929.8672776130184
 20
-94.22517742352986
 30
0.0
 10
929.9406036466667
 20
-94.01814363540203
 30
0.0
 10
930.0607846101802
 20
-93.73162566219494
 30
0.0
 10
930.1745537642347
 20
-93.48236647219261
 30
0.0
 10
930.2511626893861
 20
-93.32973900023499
 30
0.0
 10
930.2869530729763
 20
-93.258434047751
 30
0.0
 11
929.8284068204761
 21
-94.33492790405101
 31
0.0
 11
929.9482922736761
 21
-94.00692774105094
 31
0.0
 11
930.0670589882761
 21
-93.72106528365099
 31
0.0
 11
930.1808242271762
 21
-93.47294828835101
 31
0.0
 11
930.2869530729763
 21
-93.258434047751
 31
0.0
  0
SPLINE
  5
3050
330
26
100
AcDbEntity
  8
0
  6
Continuous
100
AcDbSpline
210
0.0
220
0.0
230
1.0
 70
     8
 71
     3
 72
    14
 73
    10
 74
     8
 42
0.0000000001
 43
0.0000000001
 44
0.0000000001
 40
0.0
 40
0.0
 40
0.0
 40
0.0
 40
0.4534780356558057
 40
0.9505182608030133
 40
1.501326408591217
 40
2.10413997949803
 40
2.748361374165856
 40
3.417661328457514
 40
4.092652321156421
 40
4.092652321156421
 40
4.092652321156421
 40
4.092652321156421
 10
929.8283898855761
 20
-94.33498334405101
 30
0.0
 10
929.7272859247288
 20
-94.4489987773201
 30
0.0
 10
929.5153657136737
 20
-94.68798224027637
 30
0.0
 10
929.0566868812161
 20
-94.91343301423679
 30
0.0
 10
928.5205728788014
 20
-95.04589077555524
 30
0.0
 10
927.9177053548542
 20
-95.07166124517383
 30
0.0
 10
927.2820377991421
 20
-94.99204216833954
 30
0.0
 10
926.6387629838409
 20
-94.81784133212678
 30
0.0
 10
926.2339003270118
 20
-94.62405081862377
 30
0.0
 10
926.0306120081762
 20
-94.52674535705103
 30
0.0
 11
929.8283898855761
 21
-94.33498334405101
 31
0.0
 11
929.5072155997762
 21
-94.65512301195099
 31
0.0
 11
929.0685702147762
 21
-94.88887333095101
 31
0.0
 11
928.5346914302763
 21
-95.024383696351
 31
0.0
 11
927.9326448943762
 21
-95.05478385885101
 31
0.0
 11
927.2929520821762
 21
-94.97853222695098
 31
0.0
 11
926.6480429787762
 21
-94.79949402665102
 31
0.0
 11
926.0306120081762
 21
-94.52674535705103
 31
0.0
  0
SPLINE
  5
3051
330
26
100
AcDbEntity
  8
0
  6
Continuous
100
AcDbSpline
210
0.0
220
0.0
230
1.0
 70
     8
 71
     3
 72
    11
 73
     7
 74
     5
 42
0.0000000001
 43
0.0000000001
 44
0.0000000001
 40
0.0
 40
0.0
 40
0.0
 40
0.0
 40
0.4739737181935335
 40
0.8951771395848494
 40
1.269049294719812
 40
1.600057784061546
 40
1.600057784061546
 40
1.600057784061546
 40
1.600057784061546
 10
926.030612610576
 20
-94.526744538451
 30
0.0
 10
926.0589215507822
 20
-94.37130287134163
 30
0.0
 10
926.1123876294823
 20
-94.0777257770977
 30
0.0
 10
926.1994945164829
 20
-93.66373485215206
 30
0.0
 10
926.2819935951237
 20
-93.29753985718645
 30
0.0
 10
926.3372373160858
 20
-93.06916310012628
 30
0.0
 10
926.3631794961761
 20
-92.96191849645101
 30
0.0
 11
926.030612610576
 21
-94.526744538451
 31
0.0
 11
926.1177761288761
 21
-94.06085441555103
 31
0.0
 11
926.2037747554762
 21
-93.64852377345096
 31
0.0
 11
926.2861474465763
 21
-93.28383880235099
 31
0.0
 11
926.3631794961761
 21
-92.96191849645101
 31
0.0
  0
SPLINE
  5
3052
330
26
100
AcDbEntity
  8
0
  6
Continuous
100
AcDbSpline
210
0.0
220
0.0
230
1.0
 70
     8
 71
     3
 72
    12
 73
     8
 74
     6
 42
0.0000000001
 43
0.0000000001
 44
0.0000000001
 40
0.0
 40
0.0
 40
0.0
 40
0.0
 40
0.4773563863688095
 40
0.9796426309938606
 40
1.47531974006472
 40
1.941373982424645
 40
2.357779242671185
 40
2.357779242671185
 40
2.357779242671185
 40
2.357779242671185
 10
929.5681139859762
 20
-96.64938359215103
 30
0.0
 10
929.550046750937
 20
-96.49120408879529
 30
0.0
 10
929.5129687225001
 20
-96.16658418370622
 30
0.0
 10
929.5138220413803
 20
-95.67348296534999
 30
0.0
 10
929.5667862401549
 20
-95.18773701793178
 30
0.0
 10
929.6673861126783
 20
-94.73752370161056
 30
0.0
 10
929.7767764751511
 20
-94.46407153227941
 30
0.0
 10
929.828394393276
 20
-94.33503793765101
 30
0.0
 11
929.5681139859762
 21
-96.64938359215103
 31
0.0
 11
929.5228505490763
 21
-96.17417801465103
 31
0.0
 11
929.5228254921763
 21
-95.67189177065097
 31
0.0
 11
929.5772643389762
 21
-95.179213165051
 31
0.0
 11
929.6835544407763
 21
-94.72544122775099
 31
0.0
 11
929.828394393276
 21
-94.33503793765101
 31
0.0
  0
SPLINE
  5
3053
330
26
100
AcDbEntity
  8
0
  6
Continuous
100
AcDbSpline
210
0.0
220
0.0
230
1.0
 70
     8
 71
     3
 72
    13
 73
     9
 74
     7
 42
0.0000000001
 43
0.0000000001
 44
0.0000000001
 40
0.0
 40
0.0
 40
0.0
 40
0.0
 40
0.4971158702391003
 40
1.087673496855421
 40
1.74623331954976
 40
2.441672018035653
 40
3.140093200037005
 40
3.807383236972365
 40
3.807383236972365
 40
3.807383236972365
 40
3.807383236972365
 10
929.5681139859762
 20
-96.64938359215103
 30
0.0
 10
929.4304500054285
 20
-96.74206562149345
 30
0.0
 10
929.1292456543356
 20
-96.94485091358652
 30
0.0
 10
928.5963071640655
 20
-97.18446445410237
 30
0.0
 10
927.9865691072781
 20
-97.40505147881495
 30
0.0
 10
927.3253371833282
 20
-97.58323323573707
 30
0.0
 10
926.6506295525765
 20
-97.71807224192361
 30
0.0
 10
926.1972163589267
 20
-97.76153790826076
 30
0.0
 10
925.9756774987764
 20
-97.78277534535096
 30
0.0
 11
929.5681139859762
 21
-96.64938359215103
 31
0.0
 11
929.1486994679763
 21
-96.91624619825097
 31
0.0
 11
928.6147244856762
 21
-97.16849414895103
 31
0.0
 11
927.9953749202761
 21
-97.39234042635098
 31
0.0
 11
927.3245030262762
 21
-97.575550374751
 31
0.0
 11
926.6387771452762
 21
-97.70811041245099
 31
0.0
 11
925.9756774987764
 21
-97.78277534535096
 31
0.0
  0
SPLINE
  5
3054
330
26
100
AcDbEntity
  8
0
  6
Continuous
100
AcDbSpline
210
0.0
220
0.0
230
1.0
 70
     8
 71
     3
 72
    12
 73
     8
 74
     6
 42
0.0000000001
 43
0.0000000001
 44
0.0000000001
 40
0.0
 40
0.0
 40
0.0
 40
0.0
 40
0.6376053340670079
 40
1.328337691616609
 40
2.023193942342677
 40
2.681483359127082
 40
3.266821196737443
 40
3.266821196737443
 40
3.266821196737443
 40
3.266821196737443
 10
925.9757162100761
 20
-97.78325103415102
 30
0.0
 10
925.9557761978631
 20
-97.5716293189704
 30
0.0
 10
925.9142347169834
 20
-97.13075298745365
 30
0.0
 10
925.8870367569543
 20
-96.45648724638937
 30
0.0
 10
925.8950672214312
 20
-95.77504693132332
 30
0.0
 10
925.9383809386393
 20
-95.12959972694344
 30
0.0
 10
926.001094995589
 20
-94.71968094492854
 30
0.0
 10
926.030612610576
 20
-94.526744538451
 30
0.0
 11
925.9757162100761
 21
-97.78325103415102
 31
0.0
 11
925.9213531445762
 21
-97.14796746035098
 31
0.0
 11
925.8930740785762
 21
-96.45781422795096
 31
0.0
 11
925.9017817091763
 21
-95.76301253945098
 31
0.0
 11
925.9497969909762
 21
-95.106476562551
 31
0.0
 11
926.030612610576
 21
-94.526744538451
 31
0.0
  0
SPLINE
  5
3055
330
26
100
AcDbEntity
  8
0
  6
Continuous
100
AcDbSpline
210
0.0
220
0.0
230
1.0
 70
     8
 71
     3
 72
     9
 73
     5
 74
     3
 42
0.0000000001
 43
0.0000000001
 44
0.0000000001
 40
0.0
 40
0.0
 40
0.0
 40
0.0
 40
2.775689210642799
 40
5.300463607556297
 40
5.300463607556297
 40
5.300463607556297
 40
5.300463607556297
 10
929.9555972280762
 20
-101.9353273330509
 30
0.0
 10
929.9033632394476
 20
-101.0114949476386
 30
0.0
 10
929.8036170737953
 20
-99.24734213125544
 30
0.0
 10
929.6441092224397
 20
-97.48760208237525
 30
0.0
 10
929.5681307101762
 20
-96.64938358875099
 30
0.0
 11
929.9555972280762
 21
-101.9353273330509
 31
0.0
 11
929.7825068529762
 21
-99.16504028725103
 31
0.0
 11
929.5681307101762
 21
-96.64938358875099
 31
0.0
  0
SPLINE
  5
3056
330
26
100
AcDbEntity
  8
0
  6
Continuous
100
AcDbSpline
210
0.0
220
0.0
230
1.0
 70
     8
 71
     3
 72
    12
 73
     8
 74
     6
 42
0.0000000001
 43
0.0000000001
 44
0.0000000001
 40
0.0
 40
0.0
 40
0.0
 40
0.0
 40
0.6563574751328735
 40
1.39645003947984
 40
2.171375299206264
 40
2.929822583720338
 40
3.621618810736608
 40
3.621618810736608
 40
3.621618810736608
 40
3.621618810736608
 10
929.9554402599763
 20
-101.9353274464509
 30
0.0
 10
929.7403925176741
 20
-101.9756987406868
 30
0.0
 10
929.2828622241905
 20
-102.0615917145091
 30
0.0
 10
928.5664259472981
 20
-102.1658097827257
 30
0.0
 10
927.8141898840609
 20
-102.2577205910728
 30
0.0
 10
927.0759070933366
 20
-102.3307880908981
 30
0.0
 10
926.5933600293947
 20
-102.3602928313499
 30
0.0
 10
926.3631750738761
 20
-102.3743672043509
 30
0.0
 11
929.9554402599763
 21
-101.9353274464509
 31
0.0
 11
929.3095851028761
 21
-102.052272951751
 31
0.0
 11
928.5775824046762
 21
-102.161401562251
 31
0.0
 11
927.8083809878763
 21
-102.255414000551
 31
0.0
 11
927.0534171402761
 21
-102.328021659951
 31
0.0
 11
926.3631750738761
 21
-102.3743672043509
 31
0.0
  0
SPLINE
  5
3057
330
26
100
AcDbEntity
  8
0
  6
Continuous
100
AcDbSpline
210
0.0
220
0.0
230
1.0
 70
     8
 71
     3
 72
     9
 73
     5
 74
     3
 42
0.0000000001
 43
0.0000000001
 44
0.0000000001
 40
0.0
 40
0.0
 40
0.0
 40
0.0
 40
2.426872677303412
 40
4.607855642772533
 40
4.607855642772533
 40
4.607855642772533
 40
4.607855642772533
 10
926.3631794961761
 20
-102.3743660333509
 30
0.0
 10
926.3112096842715
 20
-101.5669809886967
 30
0.0
 10
926.2125356197944
 20
-100.0340148101687
 30
0.0
 10
926.0517968371601
 20
-98.50633162835311
 30
0.0
 10
925.9757162100761
 20
-97.78325103415102
 30
0.0
 11
926.3631794961761
 21
-102.3743660333509
 31
0.0
 11
926.1900537120762
 21
-99.95367636825097
 31
0.0
 11
925.9757162100761
 21
-97.78325103415102
 31
0.0
  0
SPLINE
  5
3058
330
26
100
AcDbEntity
  8
0
  6
Continuous
100
AcDbSpline
210
0.0
220
0.0
230
1.0
 70
     8
 71
     3
 72
    11
 73
     7
 74
     0
 42
0.0000000001
 43
0.0000000001
 40
3.894727468823109
 40
3.894727468823109
 40
3.894727468823109
 40
3.894727468823109
 40
4.402895260395082
 40
5.435816575257661
 40
6.558574236035667
 40
7.789455423732001
 40
7.789455423732001
 40
7.789455423732001
 40
7.789455423732001
 10
930.0660853964117
 20
-105.828137142951
 30
0.0
 10
930.0660850990803
 20
-105.6587455661603
 30
0.0
 10
930.0637667874676
 20
-105.1450421162424
 30
0.0
 10
930.0476351673001
 20
-104.257199220585
 30
0.0
 10
930.0100341083721
 20
-103.1289336843017
 30
0.0
 10
929.974290199854
 20
-102.3451974379587
 30
0.0
 10
929.9555972280762
 20
-101.9353273330509
 30
0.0
  0
SPLINE
  5
3059
330
26
100
AcDbEntity
  8
0
  6
Continuous
100
AcDbSpline
210
0.0
220
0.0
230
1.0
 70
     8
 71
     3
 72
    11
 73
     7
 74
     0
 42
0.0000000001
 43
0.0000000001
 40
3.658298582438106
 40
3.658298582438106
 40
3.658298582438106
 40
3.658298582438106
 40
4.100129931083179
 40
5.019132160475676
 40
6.076455529191656
 40
7.31663073681376
 40
7.31663073681376
 40
7.31663073681376
 40
7.31663073681376
 10
927.4678289785583
 20
-105.828137142951
 30
0.0
 10
927.4678149612805
 20
-105.6805852984656
 30
0.0
 10
927.4443299417773
 20
-105.226112960677
 30
0.0
 10
927.2749013958764
 20
-104.4333993242975
 30
0.0
 10
926.8904293234747
 20
-103.4295289984093
 30
0.0
 10
926.5480134305551
 20
-102.7442664337778
 30
0.0
 10
926.3631794961761
 20
-102.3743660333509
 30
0.0
  0
SPLINE
  5
305A
330
26
100
AcDbEntity
  8
0
  6
Continuous
100
AcDbSpline
210
0.0
220
0.0
230
1.0
 70
     8
 71
     3
 72
    11
 73
     7
 74
     0
 42
0.0000000001
 43
0.0000000001
 40
0.0
 40
0.0
 40
0.0
 40
0.0
 40
3.001957973911862
 40
6.143857216870046
 40
9.197302676624169
 40
9.198556128958371
 40
9.198556128958371
 40
9.198556128958371
 40
9.198556128958371
 10
952.5910921810762
 20
-119.647668951951
 30
0.0
 10
951.5951788571433
 20
-119.5500625418859
 30
0.0
 10
949.5569260515424
 20
-119.3502996364415
 30
0.0
 10
946.49675919699
 20
-119.1512357376289
 30
0.0
 10
944.4310678651351
 20
-119.1058344445914
 30
0.0
 10
943.4127562874763
 20
-119.1058253285027
 30
0.0
 10
943.4123384377762
 20
-119.1058253285289
 30
0.0
  0
SPLINE
  5
305B
330
26
100
AcDbEntity
  8
0
  6
Continuous
100
AcDbSpline
210
0.0
220
0.0
230
1.0
 70
     8
 71
     3
 72
    12
 73
     8
 74
     6
 42
0.0000000001
 43
0.0000000001
 44
0.0000000001
 40
0.0
 40
0.0
 40
0.0
 40
0.0
 40
0.5763678587981027
 40
1.261744314182668
 40
2.018426064715871
 40
2.801452694100918
 40
3.563400064559752
 40
3.563400064559752
 40
3.563400064559752
 40
3.563400064559752
 10
952.5910921839763
 20
-119.6476807858509
 30
0.0
 10
952.4829049691766
 20
-119.8068326730832
 30
0.0
 10
952.2460690647146
 20
-120.1552368835913
 30
0.0
 10
951.9723265131693
 20
-120.7731686540211
 30
0.0
 10
951.7291516278519
 20
-121.4738713603455
 30
0.0
 10
951.5382304600668
 20
-122.2187736093874
 30
0.0
 10
951.4663736444884
 20
-122.7290196968408
 30
0.0
 10
951.4309354353763
 20
-122.9806619022509
 30
0.0
 11
952.5910921839763
 21
-119.6476807858509
 31
0.0
 11
952.2802433715762
 21
-120.1330393383509
 31
0.0
 11
951.9905751485762
 21
-120.754194074451
 31
0.0
 11
951.7418252059762
 21
-121.468820366751
 31
0.0
 11
951.5509431214761
 21
-122.228224562251
 31
0.0
 11
951.4309354353763
 21
-122.9806619022509
 31
0.0
  0
SPLINE
  5
305C
330
26
100
AcDbEntity
  8
0
  6
Continuous
100
AcDbSpline
210
0.0
220
0.0
230
1.0
 70
     8
 71
     3
 72
    11
 73
     7
 74
     0
 42
0.0000000001
 43
0.0000000001
 40
0.0
 40
0.0
 40
0.0
 40
0.0
 40
2.609927768411798
 40
5.360118629685984
 40
8.053293595417513
 40
8.054380908293966
 40
8.054380908293966
 40
8.054380908293966
 40
8.054380908293966
 10
951.4311500471762
 20
-122.980690286651
 30
0.0
 10
950.569736911903
 20
-122.8584677013702
 30
0.0
 10
948.8006164595606
 20
-122.6074540280186
 30
0.0
 10
946.1260326029995
 20
-122.3595633281679
 30
0.0
 10
944.3109300321307
 20
-122.303367178848
 30
0.0
 10
943.4127009325761
 20
-122.3033559947965
 30
0.0
 10
943.4123384377762
 20
-122.3033559948104
 30
0.0
  0
SPLINE
  5
305D
330
26
100
AcDbEntity
  8
0
  6
Continuous
100
AcDbSpline
210
0.0
220
0.0
230
1.0
 70
     8
 71
     3
 72
    11
 73
     7
 74
     5
 42
0.0000000001
 43
0.0000000001
 44
0.0000000001
 40
0.0
 40
0.0
 40
0.0
 40
0.0
 40
0.5605359220208637
 40
1.168004425228193
 40
1.810787507539131
 40
2.460325832450573
 40
2.460325832450573
 40
2.460325832450573
 40
2.460325832450573
 10
955.0008757462762
 20
-119.3604594899509
 30
0.0
 10
954.8277936684908
 20
-119.4320196480729
 30
0.0
 10
954.4671376875998
 20
-119.5811315570032
 30
0.0
 10
953.869778756537
 20
-119.690646821068
 30
0.0
 10
953.2350011589765
 20
-119.7230127278319
 30
0.0
 10
952.80645648258
 20
-119.6728830787389
 30
0.0
 10
952.5910640966763
 20
-119.647687234951
 30
0.0
 11
955.0008757462762
 21
-119.3604594899509
 31
0.0
 11
954.4759509538762
 21
-119.5570669216509
 31
0.0
 11
953.880176781276
 21
-119.675688663551
 31
0.0
 11
953.2380645989762
 21
-119.705049117351
 31
0.0
 11
952.5910640966763
 21
-119.647687234951
 31
0.0
  0
SPLINE
  5
305E
330
26
100
AcDbEntity
  8
0
  6
Continuous
100
AcDbSpline
210
0.0
220
0.0
230
1.0
 70
     8
 71
     3
 72
    13
 73
     9
 74
     7
 42
0.0000000001
 43
0.0000000001
 44
0.0000000001
 40
0.0
 40
0.0
 40
0.0
 40
0.0
 40
0.4901846631007869
 40
1.037160555197567
 40
1.652157586068103
 40
2.329184580052457
 40
3.050514949418583
 40
3.791568288813759
 40
3.791568288813759
 40
3.791568288813759
 40
3.791568288813759
 10
955.0008757462762
 20
-119.3604594899509
 30
0.0
 10
954.8821455435507
 20
-119.475034545319
 30
0.0
 10
954.6309294361388
 20
-119.7174589559189
 30
0.0
 10
954.4230040413664
 20
-120.2422496755987
 30
0.0
 10
954.3278524630698
 20
-120.8501117240595
 30
0.0
 10
954.3635223602782
 20
-121.5244896645733
 30
0.0
 10
954.5138134550449
 20
-122.2259110898117
 30
0.0
 10
954.7076225507012
 20
-122.6742965234671
 30
0.0
 10
954.8058340369761
 20
-122.9015128969509
 30
0.0
 11
955.0008757462762
 21
-119.3604594899509
 31
0.0
 11
954.6716435118763
 21
-119.723622180451
 31
0.0
 11
954.4506462338762
 21
-120.223964892651
 31
0.0
 11
954.3513946557762
 21
-120.830900204051
 31
0.0
 11
954.3799568996762
 21
-121.507324441351
 31
0.0
 11
954.5345874889763
 21
-122.211885923851
 31
0.0
 11
954.8058340369761
 21
-122.9015128969509
 31
0.0
  0
SPLINE
  5
305F
330
26
100
AcDbEntity
  8
0
  6
Continuous
100
AcDbSpline
210
0.0
220
0.0
230
1.0
 70
     8
 71
     3
 72
    11
 73
     7
 74
     5
 42
0.0000000001
 43
0.0000000001
 44
0.0000000001
 40
0.0
 40
0.0
 40
0.0
 40
0.0
 40
0.7766421123322885
 40
1.628691802332544
 40
2.520565515341992
 40
3.393969256321195
 40
3.393969256321195
 40
3.393969256321195
 40
3.393969256321195
 10
954.8058497352762
 20
-122.901503937651
 30
0.0
 10
954.551783522852
 20
-122.9526265592071
 30
0.0
 10
954.0189826988246
 20
-123.0598355211215
 30
0.0
 10
953.1779025455245
 20
-123.1081688551184
 30
0.0
 10
952.3045875421516
 20
-123.0885785252374
 30
0.0
 10
951.7202579458788
 20
-123.0164013044764
 30
0.0
 10
951.4311500471762
 20
-122.980690286651
 30
0.0
 11
954.8058497352762
 21
-122.901503937651
 31
0.0
 11
954.041224298176
 21
-123.0375954935509
 31
0.0
 11
953.1911997780762
 21
-123.096306561151
 31
0.0
 11
952.2996205554761
 21
-123.0733891052509
 31
0.0
 11
951.4311500471762
 21
-122.980690286651
 31
0.0
  0
SPLINE
  5
3060
330
26
100
AcDbEntity
  8
0
  6
Continuous
100
AcDbSpline
210
0.0
220
0.0
230
1.0
 70
     8
 71
     3
 72
    10
 73
     6
 74
     4
 42
0.0000000001
 43
0.0000000001
 44
0.0000000001
 40
0.0
 40
0.0
 40
0.0
 40
0.0
 40
0.491729416753092
 40
1.005208657315512
 40
1.532187283294398
 40
1.532187283294398
 40
1.532187283294398
 40
1.532187283294398
 10
956.3723371875763
 20
-118.682234523351
 30
0.0
 10
956.2317697493452
 20
-118.766587981668
 30
0.0
 10
955.944417394508
 20
-118.939025960129
 30
0.0
 10
955.4872492922391
 20
-119.1685185548615
 30
0.0
 10
955.1645373722956
 20
-119.2958978575689
 30
0.0
 10
955.001087904876
 20
-119.360413848151
 30
0.0
 11
956.3723371875763
 21
-118.682234523351
 31
0.0
 11
955.9476249986763
 21
-118.930059816451
 31
0.0
 11
955.4882901969763
 21
-119.1595646539509
 31
0.0
 11
955.001087904876
 21
-119.360413848151
 31
0.0
  0
SPLINE
  5
3061
330
26
100
AcDbEntity
  8
0
  6
Continuous
100
AcDbSpline
210
0.0
220
0.0
230
1.0
 70
     8
 71
     3
 72
    13
 73
     9
 74
     7
 42
0.0000000001
 43
0.0000000001
 44
0.0000000001
 40
0.0
 40
0.0
 40
0.0
 40
0.0
 40
0.5714484247312297
 40
1.17489830568385
 40
1.815707033256374
 40
2.491624631600173
 40
3.193247662097372
 40
3.906843086178808
 40
3.906843086178808
 40
3.906843086178808
 40
3.906843086178808
 10
956.3723407600761
 20
-118.682224554651
 30
0.0
 10
956.2666218465449
 20
-118.8422316180081
 30
0.0
 10
956.0492636966035
 20
-119.1712062367135
 30
0.0
 10
955.9101831614408
 20
-119.771806229336
 30
0.0
 10
955.9073462729423
 20
-120.415802124724
 30
0.0
 10
956.0548065672282
 20
-121.0769482301364
 30
0.0
 10
956.3303987446474
 20
-121.7237638105277
 30
0.0
 10
956.6122095720664
 20
-122.1037969619915
 30
0.0
 10
956.7543070102761
 20
-122.295421030351
 30
0.0
 11
956.3723407600761
 21
-118.682224554651
 31
0.0
 11
956.0853137722761
 21
-119.1763589598509
 31
0.0
 11
955.9350301739762
 21
-119.7607959529509
 31
0.0
 11
955.9306434200761
 21
-120.401589665251
 31
0.0
 11
956.0724067414762
 21
-121.062473740151
 31
0.0
 11
956.3522440676761
 21
-121.7058755957509
 31
0.0
 11
956.7543070102761
 21
-122.295421030351
 31
0.0
  0
SPLINE
  5
3062
330
26
100
AcDbEntity
  8
0
  6
Continuous
100
AcDbSpline
210
0.0
220
0.0
230
1.0
 70
     8
 71
     3
 72
     9
 73
     5
 74
     3
 42
0.0000000001
 43
0.0000000001
 44
0.0000000001
 40
0.0
 40
0.0
 40
0.0
 40
0.0
 40
0.9958298695510988
 40
2.041682310233141
 40
2.041682310233141
 40
2.041682310233141
 40
2.041682310233141
 10
956.7544086885762
 20
-122.2953628635509
 30
0.0
 10
956.4423391888347
 20
-122.409086433505
 30
0.0
 10
955.8025243001002
 20
-122.6422461409323
 30
0.0
 10
955.1434571179553
 20
-122.8136845537935
 30
0.0
 10
954.8058497352762
 20
-122.901503937651
 30
0.0
 11
956.7544086885762
 21
-122.2953628635509
 31
0.0
 11
955.8136200737763
 21
-122.6218500935509
 31
0.0
 11
954.8058497352762
 21
-122.901503937651
 31
0.0
  0
SPLINE
  5
3063
330
26
100
AcDbEntity
  8
0
  6
Continuous
100
AcDbSpline
210
0.0
220
0.0
230
1.0
 70
     8
 71
     3
 72
    14
 73
    10
 74
     8
 42
0.0000000001
 43
0.0000000001
 44
0.0000000001
 40
0.0
 40
0.0
 40
0.0
 40
0.0
 40
0.5655112748898067
 40
1.20356593545342
 40
1.883411929825279
 40
2.571566647737719
 40
3.234019877193742
 40
3.838408672635881
 40
4.356297787563696
 40
4.356297787563696
 40
4.356297787563696
 40
4.356297787563696
 10
959.2853428410762
 20
-118.792285032051
 30
0.0
 10
959.145258601965
 20
-118.9185665703482
 30
0.0
 10
958.8471202167998
 20
-119.1873289532038
 30
0.0
 10
958.4245211564806
 20
-119.6528070710694
 30
0.0
 10
958.0017937052397
 20
-120.1711084735136
 30
0.0
 10
957.6048377227382
 20
-120.7199574575985
 30
0.0
 10
957.2553255997846
 20
-121.2700919329917
 30
0.0
 10
956.9641268097464
 20
-121.7901436217839
 30
0.0
 10
956.8205584277023
 20
-122.1358777241634
 30
0.0
 10
956.7543070102761
 20
-122.295421030351
 30
0.0
 11
959.2853428410762
 21
-118.792285032051
 31
0.0
 11
958.8712900111763
 21
-119.177464543551
 31
0.0
 11
958.4381160831762
 21
-119.6459451706509
 31
0.0
 11
958.0086883306763
 21
-120.172995814751
 31
0.0
 11
957.6056762833761
 21
-120.7307934532509
 31
0.0
 11
957.2503550110761
 21
-121.2898919013509
 31
0.0
 11
956.961482014376
 21
-121.8207762652509
 31
0.0
 11
956.7543070102761
 21
-122.295421030351
 31
0.0
  0
SPLINE
  5
3064
330
26
100
AcDbEntity
  8
0
  6
Continuous
100
AcDbSpline
210
0.0
220
0.0
230
1.0
 70
     8
 71
     3
 72
     9
 73
     5
 74
     3
 42
0.0000000001
 43
0.0000000001
 44
0.0000000001
 40
0.0
 40
0.0
 40
0.0
 40
0.0
 40
0.1700181351059882
 40
0.3291116393911971
 40
0.3291116393911971
 40
0.3291116393911971
 40
0.3291116393911971
 10
956.5377238026762
 20
-118.397840238151
 30
0.0
 10
956.5112394767809
 20
-118.4479753260011
 30
0.0
 10
956.4599725933504
 20
-118.5450240375581
 30
0.0
 10
956.4008953131606
 20
-118.6375211537927
 30
0.0
 10
956.3723371875763
 20
-118.682234523351
 30
0.0
 11
956.5377238026762
 21
-118.397840238151
 31
0.0
 11
956.4561864439761
 21
-118.547030805551
 31
0.0
 11
956.3723371875763
 21
-118.682234523351
 31
0.0
  0
SPLINE
  5
3065
330
26
100
AcDbEntity
  8
0
  6
Continuous
100
AcDbSpline
210
0.0
220
0.0
230
1.0
 70
     8
 71
     3
 72
    13
 73
     9
 74
     7
 42
0.0000000001
 43
0.0000000001
 44
0.0000000001
 40
0.0
 40
0.0
 40
0.0
 40
0.0
 40
0.6176421659591708
 40
1.274661464487847
 40
1.978113339772169
 40
2.72262204746602
 40
3.49353370353464
 40
4.270902182782041
 40
4.270902182782041
 40
4.270902182782041
 40
4.270902182782041
 10
956.5377233867762
 20
-118.397839883551
 30
0.0
 10
956.7009989999842
 20
-118.2696949378718
 30
0.0
 10
957.0379596929502
 20
-118.0052352990572
 30
0.0
 10
957.6861790025192
 20
-117.8212878654563
 30
0.0
 10
958.391941505715
 20
-117.7933531215642
 30
0.0
 10
959.1229091484098
 20
-117.9383479343123
 30
0.0
 10
959.8373196042653
 20
-118.2302460435768
 30
0.0
 10
960.2528653392147
 20
-118.5392182344861
 30
0.0
 10
960.4615046859763
 20
-118.694348586351
 30
0.0
 11
956.5377233867762
 21
-118.397839883551
 31
0.0
 11
957.0465074725762
 21
-118.047667641351
 31
0.0
 11
957.6733704448761
 21
-117.850900843851
 31
0.0
 11
958.3761765379763
 21
-117.820765543251
 31
0.0
 11
959.1076851674761
 21
-117.959287529951
 31
0.0
 11
959.8187261105763
 21
-118.257155887951
 31
0.0
 11
960.4615046859763
 21
-118.694348586351
 31
0.0
  0
SPLINE
  5
3066
330
26
100
AcDbEntity
  8
0
  6
Continuous
100
AcDbSpline
210
0.0
220
0.0
230
1.0
 70
     8
 71
     3
 72
     9
 73
     5
 74
     3
 42
0.0000000001
 43
0.0000000001
 44
0.0000000001
 40
0.0
 40
0.0
 40
0.0
 40
0.0
 40
0.5868839405148457
 40
1.181539719232544
 40
1.181539719232544
 40
1.181539719232544
 40
1.181539719232544
 10
960.4614973793761
 20
-118.694355789351
 30
0.0
 10
960.2658868076735
 20
-118.7015384016494
 30
0.0
 10
959.872075282066
 20
-118.7159987423275
 30
0.0
 10
959.4812604853248
 20
-118.7666278028044
 30
0.0
 10
959.2845677516762
 20
-118.792108844951
 30
0.0
 11
960.4614973793761
 21
-118.694355789351
 31
0.0
 11
959.8754050230762
 21
-118.724827243551
 31
0.0
 11
959.2845677516762
 21
-118.792108844951
 31
0.0
  0
SPLINE
  5
3067
330
26
100
AcDbEntity
  8
0
  6
Continuous
100
AcDbSpline
210
0.0
220
0.0
230
1.0
 70
     8
 71
     3
 72
    12
 73
     8
 74
     6
 42
0.0000000001
 43
0.0000000001
 44
0.0000000001
 40
0.0
 40
0.0
 40
0.0
 40
0.0
 40
0.5208373426965361
 40
1.085928840423044
 40
1.704437869297328
 40
2.372625428500611
 40
3.077226303616195
 40
3.077226303616195
 40
3.077226303616195
 40
3.077226303616195
 10
956.3723407600761
 20
-118.682224554651
 30
0.0
 10
956.5195912731931
 20
-118.5876235667495
 30
0.0
 10
956.8266037814227
 20
-118.3903835981964
 30
0.0
 10
957.3978674274972
 20
-118.2859643201625
 30
0.0
 10
958.0166464770371
 20
-118.3140441462886
 30
0.0
 10
958.6667255597374
 20
-118.4776459352465
 30
0.0
 10
959.0755226230682
 20
-118.6855669595418
 30
0.0
 10
959.2853428410762
 20
-118.792285032051
 30
0.0
 11
956.3723407600761
 21
-118.682224554651
 31
0.0
 11
956.8271930463762
 21
-118.428490569551
 31
0.0
 11
957.3796913014762
 21
-118.309856346351
 31
0.0
 11
957.9977593043761
 21
-118.333209345951
 31
0.0
 11
958.6455123212763
 21
-118.497193013951
 31
0.0
 11
959.2853428410762
 21
-118.792285032051
 31
0.0
  0
SPLINE
  5
3068
330
26
100
AcDbEntity
  8
0
  6
Continuous
100
AcDbSpline
210
0.0
220
0.0
230
1.0
 70
     8
 71
     3
 72
     9
 73
     5
 74
     3
 42
0.0000000001
 43
0.0000000001
 44
0.0000000001
 40
0.0
 40
0.0
 40
0.0
 40
0.0
 40
0.5954117563269842
 40
1.170864225850691
 40
1.170864225850691
 40
1.170864225850691
 40
1.170864225850691
 10
956.996267882976
 20
-117.321353962451
 30
0.0
 10
956.9285107351275
 20
-117.5080808146516
 30
0.0
 10
956.7952677824679
 20
-117.875275094785
 30
0.0
 10
956.6225906080929
 20
-118.2256427192053
 30
0.0
 10
956.5377238026762
 20
-118.397840238151
 30
0.0
 11
956.996267882976
 21
-117.321353962451
 31
0.0
 11
956.7827989089763
 21
-117.877183213851
 31
0.0
 11
956.5377238026762
 21
-118.397840238151
 31
0.0
  0
SPLINE
  5
3069
330
26
100
AcDbEntity
  8
0
  6
Continuous
100
AcDbSpline
210
0.0
220
0.0
230
1.0
 70
     8
 71
     3
 72
    14
 73
    10
 74
     8
 42
0.0000000001
 43
0.0000000001
 44
0.0000000001
 40
0.0
 40
0.0
 40
0.0
 40
0.0
 40
0.4534795523843582
 40
0.9505212886868344
 40
1.501331024019003
 40
2.104146285642332
 40
2.748369463452012
 40
3.417671273759745
 40
4.092664194469676
 40
4.092664194469676
 40
4.092664194469676
 40
4.092664194469676
 10
956.9962814177761
 20
-117.321288018751
 30
0.0
 10
957.0973852162326
 20
-117.2072717467994
 30
0.0
 10
957.3093050531797
 20
-116.9682865639464
 30
0.0
 10
957.7679847404447
 20
-116.7428337506558
 30
0.0
 10
958.3041001356263
 20
-116.6103747874092
 30
0.0
 10
958.9069694119717
 20
-116.5846041555129
 30
0.0
 10
959.5426386673191
 20
-116.6642242856945
 30
0.0
 10
960.1859148932484
 20
-116.8384273579885
 30
0.0
 10
960.5907777701232
 20
-117.0322203812512
 30
0.0
 10
960.7940662078762
 20
-117.129527107051
 30
0.0
 11
956.9962814177761
 21
-117.321288018751
 31
0.0
 11
957.3174554377763
 21
-117.0011459357509
 31
0.0
 11
957.7561014815763
 21
-116.767393639751
 31
0.0
 11
958.2899815978763
 21
-116.631882068451
 31
0.0
 11
958.8920298178761
 21
-116.601481732251
 31
0.0
 11
959.5317243030763
 21
-116.6777343940509
 31
0.0
 11
960.1766346932761
 21
-116.8567748975509
 31
0.0
 11
960.7940662078762
 21
-117.129527107051
 31
0.0
  0
SPLINE
  5
306A
330
26
100
AcDbEntity
  8
0
  6
Continuous
100
AcDbSpline
210
0.0
220
0.0
230
1.0
 70
     8
 71
     3
 72
     9
 73
     5
 74
     3
 42
0.0000000001
 43
0.0000000001
 44
0.0000000001
 40
0.0
 40
0.0
 40
0.0
 40
0.0
 40
0.808552873989243
 40
1.600002512579775
 40
1.600002512579775
 40
1.600002512579775
 40
1.600002512579775
 10
960.7940642650761
 20
-117.129529747451
 30
0.0
 10
960.7446832181421
 20
-117.3945342261423
 30
0.0
 10
960.6469656764575
 20
-117.9189375711692
 30
0.0
 10
960.5228779997758
 20
-118.4377316004722
 30
0.0
 10
960.4614973793761
 20
-118.694355789351
 30
0.0
 11
960.7940642650761
 21
-117.129529747451
 31
0.0
 11
960.6391868953762
 21
-117.923110713951
 31
0.0
 11
960.4614973793761
 21
-118.694355789351
 31
0.0
  0
SPLINE
  5
306B
330
26
100
AcDbEntity
  8
0
  6
Continuous
100
AcDbSpline
210
0.0
220
0.0
230
1.0
 70
     8
 71
     3
 72
    11
 73
     7
 74
     5
 42
0.0000000001
 43
0.0000000001
 44
0.0000000001
 40
0.0
 40
0.0
 40
0.0
 40
0.0
 40
0.5969841113152496
 40
1.216305038455854
 40
1.811812457369895
 40
2.357080447655767
 40
2.357080447655767
 40
2.357080447655767
 40
2.357080447655767
 10
957.2565590810762
 20
-115.006890692751
 30
0.0
 10
957.2781254921883
 20
-115.2049695802564
 30
0.0
 10
957.322065245358
 20
-115.6085386942714
 30
0.0
 10
957.2961900353796
 20
-116.2137520198845
 30
0.0
 10
957.1993398567979
 20
-116.7958444553336
 30
0.0
 10
957.0619493607638
 20
-117.1513230259491
 30
0.0
 10
956.9962794321762
 20
-117.321234723051
 30
0.0
 11
957.2565590810762
 21
-115.006890692751
 31
0.0
 11
957.3064885394762
 21
-115.601783185851
 31
0.0
 11
957.2829857874763
 21
-116.220657996651
 31
0.0
 11
957.1762414417761
 21
-116.806520378651
 31
0.0
 11
956.9962794321762
 21
-117.321234723051
 31
0.0
  0
SPLINE
  5
306C
330
26
100
AcDbEntity
  8
0
  6
Continuous
100
AcDbSpline
210
0.0
220
0.0
230
1.0
 70
     8
 71
     3
 72
    13
 73
     9
 74
     7
 42
0.0000000001
 43
0.0000000001
 44
0.0000000001
 40
0.0
 40
0.0
 40
0.0
 40
0.0
 40
0.4971160008822542
 40
1.087674128448728
 40
1.746234566555207
 40
2.441673816885424
 40
3.140095363796925
 40
3.807385504396725
 40
3.807385504396725
 40
3.807385504396725
 40
3.807385504396725
 10
957.2565590810762
 20
-115.006890692751
 30
0.0
 10
957.3942234037838
 20
-114.9142091054793
 30
0.0
 10
957.6954285992588
 20
-114.7114247161615
 30
0.0
 10
958.2283676962343
 20
-114.4718116453894
 30
0.0
 10
958.8381063580897
 20
-114.2512246556726
 30
0.0
 10
959.4993387137263
 20
-114.0730425858621
 30
0.0
 10
960.1740465956074
 20
-113.9382031045956
 30
0.0
 10
960.6274599168009
 20
-113.8947371325995
 30
0.0
 10
960.8489987976762
 20
-113.873499550151
 30
0.0
 11
957.2565590810762
 21
-115.006890692751
 31
0.0
 11
957.6759745147763
 21
-114.740029282451
 31
0.0
 11
958.2099503083762
 21
-114.487781876351
 31
0.0
 11
958.8293005430761
 21
-114.263935640251
 31
0.0
 11
959.5001729292762
 21
-114.080725399451
 31
0.0
 11
960.1858990953763
 21
-113.948164913951
 31
0.0
 11
960.8489987976762
 21
-113.873499550151
 31
0.0
  0
SPLINE
  5
306D
330
26
100
AcDbEntity
  8
0
  6
Continuous
100
AcDbSpline
210
0.0
220
0.0
230
1.0
 70
     8
 71
     3
 72
    11
 73
     7
 74
     5
 42
0.0000000001
 43
0.0000000001
 44
0.0000000001
 40
0.0
 40
0.0
 40
0.0
 40
0.0
 40
0.8004874360318131
 40
1.659832785857515
 40
2.50025992639971
 40
3.266468296128586
 40
3.266468296128586
 40
3.266468296128586
 40
3.266468296128586
 10
960.8489716413762
 20
-113.873129458751
 30
0.0
 10
960.8733881857008
 20
-114.1389163862498
 30
0.0
 10
960.9240165640649
 20
-114.6900329140765
 30
0.0
 10
960.9408336240285
 20
-115.5238142192501
 30
0.0
 10
960.9088336229274
 20
-116.3464645859544
 30
0.0
 10
960.8311241168915
 20
-116.8766723699223
 30
0.0
 10
960.7940642650761
 20
-117.129529747451
 30
0.0
 11
960.8489716413762
 21
-113.873129458751
 31
0.0
 11
960.913042536576
 21
-114.6710486624509
 31
0.0
 11
960.9324009337761
 21
-115.530175942151
 31
0.0
 11
960.8923116161761
 21
-116.369646385451
 31
0.0
 11
960.7940642650761
 21
-117.129529747451
 31
0.0
  0
SPLINE
  5
306E
330
26
100
AcDbEntity
  8
0
  6
Continuous
100
AcDbSpline
210
0.0
220
0.0
230
1.0
 70
     8
 71
     3
 72
     9
 73
     5
 74
     3
 42
0.0000000001
 43
0.0000000001
 44
0.0000000001
 40
0.0
 40
0.0
 40
0.0
 40
0.0
 40
2.775159823515792
 40
5.300463642369519
 40
5.300463642369519
 40
5.300463642369519
 40
5.300463642369519
 10
956.8690796475761
 20
-109.720946952851
 30
0.0
 10
956.9213019795225
 20
-110.6446032267809
 30
0.0
 10
957.0210449094457
 20
-112.4087562159265
 30
0.0
 10
957.1805520569527
 20
-114.1684963849801
 30
0.0
 10
957.2565461653763
 20
-115.006890697051
 30
0.0
 11
956.8690796475761
 21
-109.720946952851
 31
0.0
 11
957.0421294957762
 21
-112.4907061113509
 31
0.0
 11
957.2565461653763
 21
-115.006890697051
 31
0.0
  0
SPLINE
  5
306F
330
26
100
AcDbEntity
  8
0
  6
Continuous
100
AcDbSpline
210
0.0
220
0.0
230
1.0
 70
     8
 71
     3
 72
    12
 73
     8
 74
     6
 42
0.0000000001
 43
0.0000000001
 44
0.0000000001
 40
0.0
 40
0.0
 40
0.0
 40
0.0
 40
0.6563575380611082
 40
1.396450101448856
 40
2.171375334234951
 40
2.929822607979556
 40
3.621618880637689
 40
3.621618880637689
 40
3.621618880637689
 40
3.621618880637689
 10
956.8692364338762
 20
-109.7209468397509
 30
0.0
 10
957.0842842006726
 20
-109.6805755626512
 30
0.0
 10
957.5418145227081
 20
-109.5946826297111
 30
0.0
 10
958.2582508135058
 20
-109.4904645798774
 30
0.0
 10
959.0104868645733
 20
-109.398553777905
 30
0.0
 10
959.7487696561584
 20
-109.3254862636029
 30
0.0
 10
960.231316729989
 20
-109.2959814953864
 30
0.0
 10
960.4615016998762
 20
-109.2819071085509
 30
0.0
 11
956.8692364338762
 21
-109.7209468397509
 31
0.0
 11
957.5150916630761
 21
-109.604001379451
 31
0.0
 11
958.2470943643762
 21
-109.494872796251
 31
0.0
 11
959.0162957549763
 21
-109.400860365651
 31
0.0
 11
959.7712595902763
 21
-109.328252690851
 31
0.0
 11
960.4615016998762
 21
-109.2819071085509
 31
0.0
  0
SPLINE
  5
3070
330
26
100
AcDbEntity
  8
0
  6
Continuous
100
AcDbSpline
210
0.0
220
0.0
230
1.0
 70
     8
 71
     3
 72
     9
 73
     5
 74
     3
 42
0.0000000001
 43
0.0000000001
 44
0.0000000001
 40
0.0
 40
0.0
 40
0.0
 40
0.0
 40
2.426416256840292
 40
4.607962453065657
 40
4.607962453065657
 40
4.607962453065657
 40
4.607962453065657
 10
960.4614973793761
 20
-109.281908252451
 30
0.0
 10
960.5134558508485
 20
-110.089141536976
 30
0.0
 10
960.6121292276812
 20
-111.6221434097874
 30
0.0
 10
960.7728714854754
 20
-113.1498620904436
 30
0.0
 10
960.8489716413762
 20
-113.873129458751
 30
0.0
 11
960.4614973793761
 21
-109.281908252451
 31
0.0
 11
960.6345830234761
 21
-111.702143202051
 31
0.0
 11
960.8489716413762
 21
-113.873129458751
 31
0.0
  0
SPLINE
  5
3071
330
26
100
AcDbEntity
  8
0
  6
Continuous
100
AcDbSpline
210
0.0
220
0.0
230
1.0
 70
     8
 71
     3
 72
    15
 73
    11
 74
     9
 42
0.0000000001
 43
0.0000000001
 44
0.0000000001
 40
0.0
 40
0.0
 40
0.0
 40
0.0
 40
1.063676651384406
 40
2.050702736145428
 40
2.985769285915716
 40
3.894544541704165
 40
4.802473963052912
 40
5.735476938315183
 40
6.721874177626453
 40
7.789468588264847
 40
7.789468588264847
 40
7.789468588264847
 40
7.789468588264847
 10
956.8690796475761
 20
-101.9353273330509
 30
0.0
 10
956.8528591740692
 20
-102.2895164026404
 30
0.0
 10
956.8215871052892
 20
-102.9723710024613
 30
0.0
 10
956.785923663504
 20
-103.9670098909252
 30
0.0
 10
956.7636318688662
 20
-104.9103988869672
 30
0.0
 10
956.7561085801971
 20
-105.8276654541342
 30
0.0
 10
956.7636127823412
 20
-106.7442441928266
 30
0.0
 10
956.7858430303611
 20
-107.6864547438992
 30
0.0
 10
956.8214814685127
 20
-108.6815033137681
 30
0.0
 10
956.8528008876963
 20
-109.365453239809
 30
0.0
 10
956.8690796475761
 20
-109.720946952851
 30
0.0
 11
956.8690796475761
 21
-101.9353273330509
 31
0.0
 11
956.8222416341761
 21
-102.997972249851
 31
0.0
 11
956.7873658943764
 21
-103.9843819896509
 31
0.0
 11
956.7658624913761
 21
-104.919201253551
 31
0.0
 11
956.7585897754763
 21
-105.827947407951
 31
0.0
 11
956.7658430593763
 21
-106.735847856251
 31
0.0
 11
956.7872684071762
 21
-107.668604794751
 31
0.0
 11
956.8220838970763
 21
-108.6543874256509
 31
0.0
 11
956.8690796475761
 21
-109.720946952851
 31
0.0
  0
SPLINE
  5
3072
330
26
100
AcDbEntity
  8
0
  6
Continuous
100
AcDbSpline
210
0.0
220
0.0
230
1.0
 70
     8
 71
     3
 72
    12
 73
     8
 74
     6
 42
0.0000000001
 43
0.0000000001
 44
0.0000000001
 40
0.0
 40
0.0
 40
0.0
 40
0.0
 40
0.6563981604948296
 40
1.396528540877813
 40
2.171484383825537
 40
2.929950910240677
 40
3.621751599183423
 40
3.621751599183423
 40
3.621751599183423
 40
3.621751599183423
 10
956.8690846182763
 20
-101.935327332851
 30
0.0
 10
957.0841458882809
 20
-101.9757000986849
 30
0.0
 10
957.541702322279
 20
-102.0615957077138
 30
0.0
 10
958.2581755001323
 20
-102.165812922788
 30
0.0
 10
959.0104413271079
 20
-102.257720990665
 30
0.0
 10
959.74874264623
 20
-102.3307847311866
 30
0.0
 10
960.2312976651413
 20
-102.3602886733224
 30
0.0
 10
960.4614841376763
 20
-102.374362526251
 30
0.0
 11
956.8690846182763
 21
-101.935327332851
 31
0.0
 11
957.5149804429761
 21
-102.052276589951
 31
0.0
 11
958.2470214041761
 21
-102.161405005551
 31
0.0
 11
959.0162539570762
 21
-102.255414782051
 31
0.0
 11
959.7712374579762
 21
-102.328019086751
 31
0.0
 11
960.4614841376763
 21
-102.374362526251
 31
0.0
  0
SPLINE
  5
3073
330
26
100
AcDbEntity
  8
0
  6
Continuous
100
AcDbSpline
210
0.0
220
0.0
230
1.0
 70
     8
 71
     3
 72
    15
 73
    11
 74
     9
 42
0.0000000001
 43
0.0000000001
 44
0.0000000001
 40
0.0
 40
0.0
 40
0.0
 40
0.0
 40
1.07676391008582
 40
2.019145686691535
 40
2.864913360536401
 40
3.658770433069787
 40
4.45187462651307
 40
5.295665913154386
 40
6.237231210656811
 40
7.317917427531978
 40
7.317917427531978
 40
7.317917427531978
 40
7.317917427531978
 10
960.4614973793761
 20
-102.3743660333509
 30
0.0
 10
960.3008940424554
 20
-102.6954189254695
 30
0.0
 10
959.9997309629965
 20
-103.2974567131861
 30
0.0
 10
959.6378258291359
 20
-104.1828226457378
 30
0.0
 10
959.4100014727426
 20
-105.0158965471082
 30
0.0
 10
959.3307868696403
 20
-105.8276987124306
 30
0.0
 10
959.4097806792111
 20
-106.6388492665268
 30
0.0
 10
959.6369684690219
 20
-107.4708581697574
 30
0.0
 10
959.9986922179222
 20
-108.3567133291775
 30
0.0
 10
960.3003123339772
 20
-108.959682836377
 30
0.0
 10
960.4614973793761
 20
-109.281908252451
 30
0.0
 11
960.4614973793761
 21
-102.3743660333509
 31
0.0
 11
959.9927969339763
 21
-103.3437681225509
 31
0.0
 11
959.644537530476
 21
-104.219438608951
 31
0.0
 11
959.4297098674763
 21
-105.0374679686509
 31
0.0
 11
959.3565986613763
 21
-105.827951240551
 31
0.0
 11
959.4295037067761
 21
-106.617697475751
 31
0.0
 11
959.6435476721763
 21
-107.433889191151
 31
0.0
 11
959.9911907351763
 21
-108.308926053351
 31
0.0
 11
960.4614973793761
 21
-109.281908252451
 31
0.0
  0
SPLINE
  5
3074
330
26
100
AcDbEntity
  8
0
  6
Continuous
100
AcDbSpline
210
0.0
220
0.0
230
1.0
 70
     8
 71
     3
 72
     9
 73
     5
 74
     3
 42
0.0000000001
 43
0.0000000001
 44
0.0000000001
 40
0.0
 40
0.0
 40
0.0
 40
0.0
 40
2.524816693951753
 40
5.300463787079231
 40
5.300463787079231
 40
5.300463787079231
 40
5.300463787079231
 10
957.2565461821762
 20
-96.64938340405099
 30
0.0
 10
957.1805666092968
 20
-97.48761595947779
 30
0.0
 10
957.0210591980974
 20
-99.24735610846921
 30
0.0
 10
956.9213129073564
 20
-101.0115089721359
 30
0.0
 10
956.8690796475761
 20
-101.9353273330509
 30
0.0
 11
957.2565461821762
 21
-96.64938340405099
 31
0.0
 11
957.0421671826762
 21
-99.16508230945101
 31
0.0
 11
956.8690796475761
 21
-101.9353273330509
 31
0.0
  0
SPLINE
  5
3075
330
26
100
AcDbEntity
  8
0
  6
Continuous
100
AcDbSpline
210
0.0
220
0.0
230
1.0
 70
     8
 71
     3
 72
    13
 73
     9
 74
     7
 42
0.0000000001
 43
0.0000000001
 44
0.0000000001
 40
0.0
 40
0.0
 40
0.0
 40
0.0
 40
0.4971221514094709
 40
1.087696744592619
 40
1.746278020650295
 40
2.441737093759413
 40
3.140172490517492
 40
3.807466051072849
 40
3.807466051072849
 40
3.807466051072849
 40
3.807466051072849
 10
957.2565608206762
 20
-96.64938339995103
 30
0.0
 10
957.3942229592283
 20
-96.74207167972736
 30
0.0
 10
957.6954259121291
 20
-96.94487241972416
 30
0.0
 10
958.228357213824
 20
-97.18453548985863
 30
0.0
 10
958.8380903677902
 20
-97.40519322444449
 30
0.0
 10
959.4993171881529
 20
-97.58346430775946
 30
0.0
 10
960.174017202198
 20
-97.71840400162924
 30
0.0
 10
960.627428873378
 20
-97.76194631842881
 30
0.0
 10
960.8489652820763
 20
-97.78322104315102
 30
0.0
 11
957.2565608206762
 21
-96.64938339995103
 31
0.0
 11
957.6759687642762
 21
-96.91626803845099
 31
0.0
 11
958.2099393761762
 21
-97.16856495825095
 31
0.0
 11
958.8292856601761
 21
-97.39248342035104
 31
0.0
 11
959.5001539566762
 21
-97.57578385985096
 31
0.0
 11
960.1858743951763
 21
-97.70844690545096
 31
0.0
 11
960.8489652820763
 21
-97.78322104315102
 31
0.0
  0
SPLINE
  5
3076
330
26
100
AcDbEntity
  8
0
  6
Continuous
100
AcDbSpline
210
0.0
220
0.0
230
1.0
 70
     8
 71
     3
 72
     9
 73
     5
 74
     3
 42
0.0000000001
 43
0.0000000001
 44
0.0000000001
 40
0.0
 40
0.0
 40
0.0
 40
0.0
 40
2.181220030953478
 40
4.608006584954299
 40
4.608006584954299
 40
4.608006584954299
 40
4.608006584954299
 10
960.8489761808762
 20
-97.78310090465097
 30
0.0
 10
960.7728867855467
 20
-98.50626005412411
 30
0.0
 10
960.6121416842965
 20
-100.0339931922091
 30
0.0
 10
960.5134650160069
 20
-101.5670096221466
 30
0.0
 10
960.4614973793761
 20
-102.3743660333509
 30
0.0
 11
960.8489761808762
 21
-97.78310090465097
 31
0.0
 11
960.6346153182763
 21
-99.95376215045098
 31
0.0
 11
960.4614973793761
 21
-102.3743660333509
 31
0.0
  0
SPLINE
  5
3077
330
26
100
AcDbEntity
  8
0
  6
Continuous
100
AcDbSpline
210
0.0
220
0.0
230
1.0
 70
     8
 71
     3
 72
    12
 73
     8
 74
     6
 42
0.0000000001
 43
0.0000000001
 44
0.0000000001
 40
0.0
 40
0.0
 40
0.0
 40
0.0
 40
0.4273506454839046
 40
0.9017926347055582
 40
1.400155084291791
 40
1.896918512889926
 40
2.357684528986917
 40
2.357684528986917
 40
2.357684528986917
 40
2.357684528986917
 10
956.9963372798762
 20
-94.33513243235097
 30
0.0
 10
957.049166536417
 20
-94.46762450785253
 30
0.0
 10
957.1606465001157
 20
-94.74720844929911
 30
0.0
 10
957.2609718242028
 20
-95.20509714972519
 30
0.0
 10
957.3116826183644
 20
-95.69293931600294
 30
0.0
 10
957.3106414162364
 20
-96.1795008064851
 30
0.0
 10
957.2741345557829
 20
-96.49674882754715
 30
0.0
 10
957.2565673459761
 20
-96.649409518651
 30
0.0
 11
956.9963372798762
 21
-94.33513243235097
 31
0.0
 11
957.1443007562762
 21
-94.73605060835097
 31
0.0
 11
957.2506627788762
 21
-95.19841661195096
 31
0.0
 11
957.3029469206762
 21
-95.69402885925103
 31
0.0
 11
957.3009741494761
 21
-96.19078837065104
 31
0.0
 11
957.2565673459761
 21
-96.649409518651
 31
0.0
  0
SPLINE
  5
3078
330
26
100
AcDbEntity
  8
0
  6
Continuous
100
AcDbSpline
210
0.0
220
0.0
230
1.0
 70
     8
 71
     3
 72
    14
 73
    10
 74
     8
 42
0.0000000001
 43
0.0000000001
 44
0.0000000001
 40
0.0
 40
0.0
 40
0.0
 40
0.0
 40
0.4534843783142143
 40
0.9505223982399585
 40
1.501321873056671
 40
2.104123056170382
 40
2.748330904404404
 40
3.417618196982246
 40
4.092598810087811
 40
4.092598810087811
 40
4.092598810087811
 40
4.092598810087811
 10
956.9963372798762
 20
-94.33513243235097
 30
0.0
 10
957.0974471972576
 20
-94.4491453830716
 30
0.0
 10
957.3093778518753
 20
-94.68812134019768
 30
0.0
 10
957.7680627355702
 20
-94.91355583423966
 30
0.0
 10
958.3041747832317
 20
-95.04599046816932
 30
0.0
 10
958.9070318888191
 20
-95.07173405346823
 30
0.0
 10
959.5426830483525
 20
-94.9920872323153
 30
0.0
 10
960.185937813585
 20
-94.81785975812413
 30
0.0
 10
960.5907853232486
 20
-94.62405551295996
 30
0.0
 10
960.7940663947761
 20
-94.526742984951
 30
0.0
 11
956.9963372798762
 21
-94.33513243235097
 31
0.0
 11
957.3175287617761
 21
-94.655263832451
 31
0.0
 11
957.7561807507761
 21
-94.88899706885097
 31
0.0
 11
958.2900565061761
 21
-95.02448411345097
 31
0.0
 11
958.892091993176
 21
-95.054857436551
 31
0.0
 11
959.531767863576
 21
-94.97857813035103
 31
0.0
 11
960.1766565997762
 21
-94.79951390185101
 31
0.0
 11
960.7940663947761
 21
-94.526742984951
 31
0.0
  0
SPLINE
  5
3079
330
26
100
AcDbEntity
  8
0
  6
Continuous
100
AcDbSpline
210
0.0
220
0.0
230
1.0
 70
     8
 71
     3
 72
    12
 73
     8
 74
     6
 42
0.0000000001
 43
0.0000000001
 44
0.0000000001
 40
0.0
 40
0.0
 40
0.0
 40
0.0
 40
0.6010463057808441
 40
1.271141542062444
 40
1.969937001517514
 40
2.651496100457659
 40
3.26666671977522
 40
3.26666671977522
 40
3.26666671977522
 40
3.26666671977522
 10
960.7940656614761
 20
-94.52674198825098
 30
0.0
 10
960.8242682060891
 20
-94.7248761941901
 30
0.0
 10
960.8881430003673
 20
-95.14390650458454
 30
0.0
 10
960.9306812920137
 20
-95.79994688334931
 30
0.0
 10
960.9371145693749
 20
-96.48359141341334
 30
0.0
 10
960.9090029489503
 20
-97.14856828345242
 30
0.0
 10
960.8682903173747
 20
-97.57893449603211
 30
0.0
 10
960.8489761808762
 20
-97.78310090465097
 30
0.0
 11
960.7940656614761
 21
-94.52674198825098
 31
0.0
 11
960.8765292389762
 21
-95.12210441575097
 31
0.0
 11
960.9240074771761
 21
-95.79051554865102
 31
0.0
 11
960.9310751834762
 21
-96.48927526535103
 31
0.0
 11
960.9018671503764
 21
-97.17020822545102
 31
0.0
 11
960.8489761808762
 21
-97.78310090465097
 31
0.0
  0
SPLINE
  5
307A
330
26
100
AcDbEntity
  8
0
  6
Continuous
100
AcDbSpline
210
0.0
220
0.0
230
1.0
 70
     8
 71
     3
 72
     9
 73
     5
 74
     3
 42
0.0000000001
 43
0.0000000001
 44
0.0000000001
 40
0.0
 40
0.0
 40
0.0
 40
0.0
 40
0.5763807891759151
 40
1.170931339632896
 40
1.170931339632896
 40
1.170931339632896
 40
1.170931339632896
 10
956.5377238026762
 20
-93.258434047751
 30
0.0
 10
956.6227232891205
 20
-93.43091181169856
 30
0.0
 10
956.7954017759811
 20
-93.78130450865986
 30
0.0
 10
956.9286376146238
 20
-94.14852463985582
 30
0.0
 10
956.9962892680761
 20
-94.33498384865101
 30
0.0
 11
956.5377238026762
 21
-93.258434047751
 31
0.0
 11
956.7831652484763
 21
-93.77994465245104
 31
0.0
 11
956.9962892680761
 21
-94.33498384865101
 31
0.0
  0
SPLINE
  5
307B
330
26
100
AcDbEntity
  8
0
  6
Continuous
100
AcDbSpline
210
0.0
220
0.0
230
1.0
 70
     8
 71
     3
 72
    13
 73
     9
 74
     7
 42
0.0000000001
 43
0.0000000001
 44
0.0000000001
 40
0.0
 40
0.0
 40
0.0
 40
0.0
 40
0.6176384524740713
 40
1.274655499195717
 40
1.978106393347361
 40
2.722614929042253
 40
3.493526803739945
 40
4.270895653812006
 40
4.270895653812006
 40
4.270895653812006
 40
4.270895653812006
 10
956.5377253228762
 20
-93.25843275125099
 30
0.0
 10
956.7009998714841
 20
-93.38657706334944
 30
0.0
 10
957.0379588163621
 20
-93.65103574698972
 30
0.0
 10
957.6861762359717
 20
-93.83498164175897
 30
0.0
 10
958.3919375349536
 20
-93.86291563519254
 30
0.0
 10
959.1229048475909
 20
-93.71792103201722
 30
0.0
 10
959.837315827579
 20
-93.42602421746858
 30
0.0
 10
960.2528629674374
 20
-93.11705363731826
 30
0.0
 10
960.4615030396762
 20
-92.96192407925099
 30
0.0
 11
956.5377253228762
 21
-93.25843275125099
 31
0.0
 11
957.0465061742762
 21
-93.60860314295098
 31
0.0
 11
957.673367170676
 21
-93.80536871635098
 31
0.0
 11
958.3761723078762
 21
-93.83550340745101
 31
0.0
 11
959.1076808079762
 21
-93.696981661851
 31
0.0
 11
959.8187225253761
 21
-93.399114586351
 31
0.0
 11
960.4615030396762
 21
-92.96192407925099
 31
0.0
  0
SPLINE
  5
307C
330
26
100
AcDbEntity
  8
0
  6
Continuous
100
AcDbSpline
210
0.0
220
0.0
230
1.0
 70
     8
 71
     3
 72
     9
 73
     5
 74
     3
 42
0.0000000001
 43
0.0000000001
 44
0.0000000001
 40
0.0
 40
0.0
 40
0.0
 40
0.0
 40
0.7927397439265354
 40
1.600000338844813
 40
1.600000338844813
 40
1.600000338844813
 40
1.600000338844813
 10
960.4614973793761
 20
-92.96191849645101
 30
0.0
 10
960.5229752183039
 20
-93.21896177260041
 30
0.0
 10
960.6470570041229
 20
-93.73775666346811
 30
0.0
 10
960.7447671851337
 20
-94.26216046585225
 30
0.0
 10
960.7940656614761
 20
-94.52674198825098
 30
0.0
 11
960.4614973793761
 21
-92.96191849645101
 31
0.0
 11
960.6394571200763
 21
-93.73442521635099
 31
0.0
 11
960.7940656614761
 21
-94.52674198825098
 31
0.0
  0
SPLINE
  5
307D
330
26
100
AcDbEntity
  8
0
  6
Continuous
100
AcDbSpline
210
0.0
220
0.0
230
1.0
 70
     8
 71
     3
 72
    10
 73
     6
 74
     4
 42
0.0000000001
 43
0.0000000001
 44
0.0000000001
 40
0.0
 40
0.0
 40
0.0
 40
0.0
 40
0.1847534553431012
 40
0.3826849622370466
 40
0.5846163094988717
 40
0.5846163094988717
 40
0.5846163094988717
 40
0.5846163094988717
 10
956.2217908179761
 20
-92.76762955615101
 30
0.0
 10
956.2594307458637
 20
-92.81639498704948
 30
0.0
 10
956.3373953736722
 20
-92.91740417817496
 30
0.0
 10
956.4429218723581
 20
-93.08160574082766
 30
0.0
 10
956.5059131247615
 20
-93.19909951417299
 30
0.0
 10
956.5377238026762
 20
-93.258434047751
 30
0.0
 11
956.2217908179761
 21
-92.76762955615101
 31
0.0
 11
956.3326390315763
 21
-92.91543521505099
 31
0.0
 11
956.4399490393762
 21
-93.081752513151
 31
0.0
 11
956.5377238026762
 21
-93.258434047751
 31
0.0
  0
SPLINE
  5
307E
330
26
100
AcDbEntity
  8
0
  6
Continuous
100
AcDbSpline
210
0.0
220
0.0
230
1.0
 70
     8
 71
     3
 72
    11
 73
     7
 74
     5
 42
0.0000000001
 43
0.0000000001
 44
0.0000000001
 40
0.0
 40
0.0
 40
0.0
 40
0.0
 40
0.4349282702679612
 40
0.9268223331297265
 40
1.486811306368242
 40
2.110181373522564
 40
2.110181373522564
 40
2.110181373522564
 40
2.110181373522564
 10
956.221790006576
 20
-92.76763042775099
 30
0.0
 10
956.3528787534455
 20
-92.83283318924748
 30
0.0
 10
956.6322259160147
 20
-92.97177880319769
 30
0.0
 10
957.1390430507353
 20
-92.99092728166633
 30
0.0
 10
957.6926509695488
 20
-92.89958541224632
 30
0.0
 10
958.0579708826328
 20
-92.74695615907965
 30
0.0
 10
958.2504141656762
 20
-92.66655409635096
 30
0.0
 11
956.221790006576
 21
-92.76763042775099
 31
0.0
 11
956.623112420676
 21
-92.93526968395099
 31
0.0
 11
957.1134359365763
 21
-92.97454587055097
 31
0.0
 11
957.6659427603763
 21
-92.88331068105099
 31
0.0
 11
958.2504141656762
 21
-92.66655409635096
 31
0.0
  0
SPLINE
  5
307F
330
26
100
AcDbEntity
  8
0
  6
Continuous
100
AcDbSpline
210
0.0
220
0.0
230
1.0
 70
     8
 71
     3
 72
    10
 73
     6
 74
     4
 42
0.0000000001
 43
0.0000000001
 44
0.0000000001
 40
0.0
 40
0.0
 40
0.0
 40
0.0
 40
0.7757458378548303
 40
1.531417788425387
 40
2.234781788886144
 40
2.234781788886144
 40
2.234781788886144
 40
2.234781788886144
 10
958.2499852637761
 20
-92.66640929385095
 30
0.0
 10
958.5027625099237
 20
-92.72112033087475
 30
0.0
 10
959.001775914018
 20
-92.82912665360686
 30
0.0
 10
959.7412188247644
 20
-92.92906847423228
 30
0.0
 10
960.2272123178784
 20
-92.95123336716813
 30
0.0
 10
960.4614973793761
 20
-92.96191849645101
 30
0.0
 11
958.2499852637761
 21
-92.66640929385095
 31
0.0
 11
959.0102930445763
 21
-92.82040177225098
 31
0.0
 11
959.7593925496763
 21
-92.91985039385099
 31
0.0
 11
960.4614973793761
 21
-92.96191849645101
 31
0.0
  0
SPLINE
  5
3080
330
26
100
AcDbEntity
  8
0
  6
Continuous
100
AcDbSpline
210
0.0
220
0.0
230
1.0
 70
     8
 71
     3
 72
    14
 73
    10
 74
     8
 42
0.0000000001
 43
0.0000000001
 44
0.0000000001
 40
0.0
 40
0.0
 40
0.0
 40
0.0
 40
0.4477028353195567
 40
0.909322026818649
 40
1.387724286430285
 40
1.890726820320661
 40
2.429825006220918
 40
3.016687559482019
 40
3.656782255366361
 40
3.656782255366361
 40
3.656782255366361
 40
3.656782255366361
 10
953.0500066602762
 20
-91.20949542995101
 30
0.0
 10
953.1993401601459
 20
-91.21347771365984
 30
0.0
 10
953.5026490294692
 20
-91.22156606603963
 30
0.0
 10
953.9600974425597
 20
-91.30031261008013
 30
0.0
 10
954.4225505930565
 20
-91.43622672280046
 30
0.0
 10
954.8876402264425
 20
-91.64178717281706
 30
0.0
 10
955.3513056816323
 20
-91.92680401879215
 30
0.0
 10
955.8115344211334
 20
-92.2982960911683
 30
0.0
 10
956.0811396999017
 20
-92.60672462667854
 30
0.0
 10
956.2217908179761
 20
-92.76762955615101
 30
0.0
 11
953.0500066602762
 21
-91.20949542995101
 31
0.0
 11
953.4971440411762
 21
-91.23198968155099
 31
0.0
 11
953.9524876548762
 21
-91.30784791395099
 31
0.0
 11
954.4112629041762
 21
-91.44347236835097
 31
0.0
 11
954.8714423688762
 21
-91.64656448875097
 31
0.0
 11
955.3315046803762
 21
-91.927579654851
 31
0.0
 11
955.7861922580762
 21
-92.29861450915098
 31
0.0
 11
956.2217908179761
 21
-92.76762955615101
 31
0.0
  0
SPLINE
  5
3081
330
26
100
AcDbEntity
  8
0
  6
Continuous
100
AcDbSpline
210
0.0
220
0.0
230
1.0
 70
     8
 71
     3
 72
    14
 73
    10
 74
     8
 42
0.0000000001
 43
0.0000000001
 44
0.0000000001
 40
0.0
 40
0.0
 40
0.0
 40
0.0
 40
0.7151470045345205
 40
1.455675276667437
 40
2.221946019448924
 40
3.021348022791224
 40
3.865966641625624
 40
4.766850400628997
 40
5.724421263745632
 40
5.724421263745632
 40
5.724421263745632
 40
5.724421263745632
 10
953.0500066602762
 20
-90.62189667305096
 30
0.0
 10
953.288466935433
 20
-90.62793808633126
 30
0.0
 10
953.7738506744572
 20
-90.64023532856601
 30
0.0
 10
954.5088559475466
 20
-90.74398995103077
 30
0.0
 10
955.2579036594565
 20
-90.92133493009048
 30
0.0
 10
956.0175608916009
 20
-91.18844018404985
 30
0.0
 10
956.7820371452085
 20
-91.55921675829588
 30
0.0
 10
957.5473231672347
 20
-92.04166617150989
 30
0.0
 10
958.0110496952568
 20
-92.4538012999121
 30
0.0
 10
958.2499853175762
 20
-92.666154394751
 30
0.0
 11
953.0500066602762
 21
-90.62189667305096
 31
0.0
 11
953.7644568486761
 21
-90.653458776751
 31
0.0
 11
954.4981582385763
 21
-90.75378022155097
 31
0.0
 11
955.2435331242762
 21
-90.93150790935101
 31
0.0
 11
955.9975657416762
 21
-91.19698554465101
 31
0.0
 11
956.7580739810763
 21
-91.56441965995099
 31
0.0
 11
957.5166033468763
 21
-92.050449235651
 31
0.0
 11
958.2499853175762
 21
-92.666154394751
 31
0.0
  0
LINE
  5
3082
330
26
100
AcDbEntity
  8
0
  6
Continuous
100
AcDbLine
 10
928.5742626897762
 20
-86.82813714295098
 30
0.0
 11
928.5742626897762
 21
-90.80830287035099
 31
0.0
  0
LINE
  5
3083
330
26
100
AcDbEntity
  8
0
  6
Continuous
100
AcDbLine
 10
928.5742626897762
 20
-90.80830287035099
 30
0.0
 11
928.5731286308761
 21
-92.667496898151
 31
0.0
  0
LINE
  5
3084
330
26
100
AcDbEntity
  8
0
  6
Continuous
100
AcDbLine
 10
891.7692603759762
 20
-91.901214163551
 30
0.0
 11
891.2515198950762
 21
-91.93286349375103
 31
0.0
  0
LINE
  5
3085
330
26
100
AcDbEntity
  8
0
  6
Continuous
100
AcDbLine
 10
891.2515198950762
 20
-91.93286349375103
 30
0.0
 11
890.7690509377761
 21
-92.02566048605097
 31
0.0
  0
LINE
  5
3086
330
26
100
AcDbEntity
  8
0
  6
Continuous
100
AcDbLine
 10
890.7690509377761
 20
-92.02566048605097
 30
0.0
 11
890.3548137231762
 21
-92.17326268925105
 31
0.0
  0
LINE
  5
3087
330
26
100
AcDbEntity
  8
0
  6
Continuous
100
AcDbLine
 10
890.3548137231762
 20
-92.17326268925105
 30
0.0
 11
890.0372095683762
 21
-92.36544492955102
 31
0.0
  0
LINE
  5
3088
330
26
100
AcDbEntity
  8
0
  6
Continuous
100
AcDbLine
 10
891.7692603759762
 20
-89.78006647495101
 30
0.0
 11
891.2516222857762
 21
-89.81652145805099
 31
0.0
  0
LINE
  5
3089
330
26
100
AcDbEntity
  8
0
  6
Continuous
100
AcDbLine
 10
891.2516222857762
 20
-89.81652145805099
 30
0.0
 11
890.7692603759763
 21
-89.92340206075096
 31
0.0
  0
LINE
  5
308A
330
26
100
AcDbEntity
  8
0
  6
Continuous
100
AcDbLine
 10
890.7692603759763
 20
-89.92340206075096
 30
0.0
 11
890.3550468135765
 21
-90.09342454655096
 31
0.0
  0
LINE
  5
308B
330
26
100
AcDbEntity
  8
0
  6
Continuous
100
AcDbLine
 10
890.3550468135765
 20
-90.09342454655096
 30
0.0
 11
890.0372095683762
 21
-90.31500216385098
 31
0.0
  0
LINE
  5
308C
330
26
100
AcDbEntity
  8
0
  6
Continuous
100
AcDbLine
 10
891.7692603759762
 20
-75.85314349555097
 30
0.0
 11
891.2515198950762
 21
-75.921262455251
 31
0.0
  0
LINE
  5
308D
330
26
100
AcDbEntity
  8
0
  6
Continuous
100
AcDbLine
 10
891.2515198950762
 20
-75.921262455251
 30
0.0
 11
890.7690509377761
 21
-76.12099017195101
 31
0.0
  0
LINE
  5
308E
330
26
100
AcDbEntity
  8
0
  6
Continuous
100
AcDbLine
 10
890.7690509377761
 20
-76.12099017195101
 30
0.0
 11
890.3548137231762
 21
-76.43867459815101
 31
0.0
  0
LINE
  5
308F
330
26
100
AcDbEntity
  8
0
  6
Continuous
100
AcDbLine
 10
890.3548137231762
 20
-76.43867459815101
 30
0.0
 11
890.0372095683762
 21
-76.852309950451
 31
0.0
  0
LINE
  5
3090
330
26
100
AcDbEntity
  8
0
  6
Continuous
100
AcDbLine
 10
959.4604091057762
 20
-157.471215204751
 30
0.0
 11
959.4239394762763
 21
-157.988955685651
 31
0.0
  0
LINE
  5
3091
330
26
100
AcDbEntity
  8
0
  6
Continuous
100
AcDbLine
 10
959.4239394762763
 20
-157.988955685651
 30
0.0
 11
959.317008751876
 21
-158.471424643051
 31
0.0
  0
LINE
  5
3092
330
26
100
AcDbEntity
  8
0
  6
Continuous
100
AcDbLine
 10
959.317008751876
 20
-158.471424643051
 30
0.0
 11
959.1469265288763
 21
-158.885661857551
 31
0.0
  0
LINE
  5
3093
330
26
100
AcDbEntity
  8
0
  6
Continuous
100
AcDbLine
 10
959.1469265288763
 20
-158.885661857551
 30
0.0
 11
958.9254734168761
 21
-159.203266012351
 31
0.0
  0
LINE
  5
3094
330
26
100
AcDbEntity
  8
0
  6
Continuous
100
AcDbLine
 10
957.3392614171762
 20
-157.471215204751
 30
0.0
 11
957.3076248576763
 21
-157.988853294951
 31
0.0
  0
LINE
  5
3095
330
26
100
AcDbEntity
  8
0
  6
Continuous
100
AcDbLine
 10
957.3076248576763
 20
-157.988853294951
 30
0.0
 11
957.2148711583761
 21
-158.471215204751
 31
0.0
  0
LINE
  5
3096
330
26
100
AcDbEntity
  8
0
  6
Continuous
100
AcDbLine
 10
957.2148711583761
 20
-158.471215204751
 30
0.0
 11
957.0673213305763
 21
-158.885428767151
 31
0.0
  0
LINE
  5
3097
330
26
100
AcDbEntity
  8
0
  6
Continuous
100
AcDbLine
 10
957.0673213305763
 20
-158.885428767151
 30
0.0
 11
956.8750306511761
 21
-159.203266012351
 31
0.0
  0
LINE
  5
3098
330
26
100
AcDbEntity
  8
0
  6
Continuous
100
AcDbLine
 10
973.3873320851762
 20
-157.471215204751
 30
0.0
 11
973.3192131254762
 21
-157.988955685651
 31
0.0
  0
LINE
  5
3099
330
26
100
AcDbEntity
  8
0
  6
Continuous
100
AcDbLine
 10
973.3192131254762
 20
-157.988955685651
 30
0.0
 11
973.1194854088762
 21
-158.471424643051
 31
0.0
  0
LINE
  5
309A
330
26
100
AcDbEntity
  8
0
  6
Continuous
100
AcDbLine
 10
973.1194854088762
 20
-158.471424643051
 30
0.0
 11
972.8018009825762
 21
-158.885661857551
 31
0.0
  0
LINE
  5
309B
330
26
100
AcDbEntity
  8
0
  6
Continuous
100
AcDbLine
 10
972.8018009825762
 20
-158.885661857551
 30
0.0
 11
972.3881656302763
 21
-159.203266012351
 31
0.0
  0
LINE
  5
309C
330
26
100
AcDbEntity
  8
0
  6
Continuous
100
AcDbLine
 10
995.0554164996761
 20
-135.803130790351
 30
0.0
 11
995.5731569804761
 21
-135.735011830551
 31
0.0
  0
LINE
  5
309D
330
26
100
AcDbEntity
  8
0
  6
Continuous
100
AcDbLine
 10
995.5731569804761
 20
-135.735011830551
 30
0.0
 11
996.055625937876
 21
-135.5352841139509
 31
0.0
  0
LINE
  5
309E
330
26
100
AcDbEntity
  8
0
  6
Continuous
100
AcDbLine
 10
996.055625937876
 20
-135.5352841139509
 30
0.0
 11
996.4698631524761
 21
-135.217599687751
 31
0.0
  0
LINE
  5
309F
330
26
100
AcDbEntity
  8
0
  6
Continuous
100
AcDbLine
 10
996.4698631524761
 20
-135.217599687751
 30
0.0
 11
996.7874673071761
 21
-134.803964335451
 31
0.0
  0
LINE
  5
30A0
330
26
100
AcDbEntity
  8
0
  6
Continuous
100
AcDbLine
 10
995.0554164996761
 20
-121.8762078109509
 30
0.0
 11
995.5730545898761
 21
-121.839752827751
 31
0.0
  0
LINE
  5
30A1
330
26
100
AcDbEntity
  8
0
  6
Continuous
100
AcDbLine
 10
995.5730545898761
 20
-121.839752827751
 30
0.0
 11
996.0554164996761
 21
-121.732872225051
 31
0.0
  0
LINE
  5
30A2
330
26
100
AcDbEntity
  8
0
  6
Continuous
100
AcDbLine
 10
996.0554164996761
 20
-121.732872225051
 30
0.0
 11
996.4696300619761
 21
-121.562849739351
 31
0.0
  0
LINE
  5
30A3
330
26
100
AcDbEntity
  8
0
  6
Continuous
100
AcDbLine
 10
996.4696300619761
 20
-121.562849739351
 30
0.0
 11
996.7874673071761
 21
-121.341272122051
 31
0.0
  0
LINE
  5
30A4
330
26
100
AcDbEntity
  8
0
  6
Continuous
100
AcDbLine
 10
995.0554164996761
 20
-119.7550601223509
 30
0.0
 11
995.5731569804761
 21
-119.7234107921509
 31
0.0
  0
LINE
  5
30A5
330
26
100
AcDbEntity
  8
0
  6
Continuous
100
AcDbLine
 10
995.5731569804761
 20
-119.7234107921509
 30
0.0
 11
996.055625937876
 21
-119.630613799851
 31
0.0
  0
LINE
  5
30A6
330
26
100
AcDbEntity
  8
0
  6
Continuous
100
AcDbLine
 10
996.055625937876
 20
-119.630613799851
 30
0.0
 11
996.4698631524761
 21
-119.4830115966509
 31
0.0
  0
LINE
  5
30A7
330
26
100
AcDbEntity
  8
0
  6
Continuous
100
AcDbLine
 10
996.4698631524761
 20
-119.4830115966509
 30
0.0
 11
996.7874673071761
 21
-119.290829356351
 31
0.0
  0
LINE
  5
30A8
330
26
100
AcDbEntity
  8
0
  6
Continuous
100
AcDbLine
 10
995.0554164996761
 20
-89.78006647495101
 30
0.0
 11
995.5731569804761
 21
-89.81653610455101
 31
0.0
  0
LINE
  5
30A9
330
26
100
AcDbEntity
  8
0
  6
Continuous
100
AcDbLine
 10
995.5731569804761
 20
-89.81653610455101
 30
0.0
 11
996.055625937876
 21
-89.92346682885102
 31
0.0
  0
LINE
  5
30AA
330
26
100
AcDbEntity
  8
0
  6
Continuous
100
AcDbLine
 10
996.055625937876
 20
-89.92346682885102
 30
0.0
 11
996.4698631524761
 21
-90.09354905185103
 31
0.0
  0
LINE
  5
30AB
330
26
100
AcDbEntity
  8
0
  6
Continuous
100
AcDbLine
 10
996.4698631524761
 20
-90.09354905185103
 30
0.0
 11
996.7874673071761
 21
-90.31500216385098
 31
0.0
  0
LINE
  5
30AC
330
26
100
AcDbEntity
  8
0
  6
Continuous
100
AcDbLine
 10
995.0554164996761
 20
-91.901214163551
 30
0.0
 11
995.5730545898761
 21
-91.932850723051
 31
0.0
  0
LINE
  5
30AD
330
26
100
AcDbEntity
  8
0
  6
Continuous
100
AcDbLine
 10
995.5730545898761
 20
-91.932850723051
 30
0.0
 11
996.0554164996761
 21
-92.02560442245101
 31
0.0
  0
LINE
  5
30AE
330
26
100
AcDbEntity
  8
0
  6
Continuous
100
AcDbLine
 10
996.0554164996761
 20
-92.02560442245101
 30
0.0
 11
996.4696300619761
 21
-92.17315425015102
 31
0.0
  0
LINE
  5
30AF
330
26
100
AcDbEntity
  8
0
  6
Continuous
100
AcDbLine
 10
996.4696300619761
 20
-92.17315425015102
 30
0.0
 11
996.7874673071761
 21
-92.36544492955102
 31
0.0
  0
LINE
  5
30B0
330
26
100
AcDbEntity
  8
0
  6
Continuous
100
AcDbLine
 10
995.0554164996761
 20
-75.85314349555097
 30
0.0
 11
995.5731569804761
 21
-75.921262455251
 31
0.0
  0
LINE
  5
30B1
330
26
100
AcDbEntity
  8
0
  6
Continuous
100
AcDbLine
 10
995.5731569804761
 20
-75.921262455251
 30
0.0
 11
996.055625937876
 21
-76.12099017195101
 31
0.0
  0
LINE
  5
30B2
330
26
100
AcDbEntity
  8
0
  6
Continuous
100
AcDbLine
 10
996.055625937876
 20
-76.12099017195101
 30
0.0
 11
996.4698631524761
 21
-76.43867459815101
 31
0.0
  0
LINE
  5
30B3
330
26
100
AcDbEntity
  8
0
  6
Continuous
100
AcDbLine
 10
996.4698631524761
 20
-76.43867459815101
 30
0.0
 11
996.7874673071761
 21
-76.852309950451
 31
0.0
  0
LINE
  5
30B4
330
26
100
AcDbEntity
  8
0
  6
Continuous
100
AcDbLine
 10
884.3504582224761
 20
-128.828137142951
 30
0.0
 11
884.3504582224761
 21
-105.828137142951
 31
0.0
  0
LINE
  5
30B5
330
26
100
AcDbEntity
  8
0
  6
Continuous
100
AcDbLine
 10
885.3504582224761
 20
-121.828137142951
 30
0.0
 11
885.3504582224761
 21
-105.828137142951
 31
0.0
  0
LINE
  5
30B6
330
26
100
AcDbEntity
  8
0
  6
Continuous
100
AcDbLine
 10
887.7731079532761
 20
-121.828137142951
 30
0.0
 11
887.7731079532761
 21
-105.828137142951
 31
0.0
  0
LINE
  5
30B7
330
26
100
AcDbEntity
  8
0
  6
Continuous
100
AcDbLine
 10
888.6391333570761
 20
-122.328137142951
 30
0.0
 11
888.6391333570761
 21
-105.828137142951
 31
0.0
  0
LINE
  5
30B8
330
26
100
AcDbEntity
  8
0
  6
Continuous
100
AcDbLine
 10
888.8123384377761
 20
-122.628137142951
 30
0.0
 11
888.8123384377761
 21
-105.828137142951
 31
0.0
  0
LINE
  5
30B9
330
26
100
AcDbEntity
  8
0
  6
Continuous
100
AcDbLine
 10
889.412338437776
 20
-121.828137142951
 30
0.0
 11
889.412338437776
 21
-105.828137142951
 31
0.0
  0
LINE
  5
30BA
330
26
100
AcDbEntity
  8
0
  6
Continuous
100
AcDbLine
 10
891.814559837576
 20
-123.4325799424509
 30
0.0
 11
891.814559837576
 21
-127.828137142951
 31
0.0
  0
LINE
  5
30BB
330
26
100
AcDbEntity
  8
0
  6
Continuous
100
AcDbLine
 10
892.680585241376
 20
-123.6646307500509
 30
0.0
 11
892.680585241376
 21
-128.328137142951
 31
0.0
  0
LINE
  5
30BC
330
26
100
AcDbEntity
  8
0
  6
Continuous
100
AcDbLine
 10
893.3504582224761
 20
-129.828137142951
 30
0.0
 11
893.3504582224761
 21
-128.328137142951
 31
0.0
  0
LINE
  5
30BD
330
26
100
AcDbEntity
  8
0
  6
Continuous
100
AcDbLine
 10
888.016483626176
 20
-131.328137142951
 30
0.0
 11
890.0372095683761
 21
-134.828137142951
 31
0.0
  0
LINE
  5
30BE
330
26
100
AcDbEntity
  8
0
  6
Continuous
100
AcDbLine
 10
896.412338437776
 20
-126.4281371429509
 30
0.0
 11
896.412338437776
 21
-124.9714818005509
 31
0.0
  0
LINE
  5
30BF
330
26
100
AcDbEntity
  8
0
  6
Continuous
100
AcDbLine
 10
897.8123384377761
 20
-121.828137142951
 30
0.0
 11
897.8123384377761
 21
-105.828137142951
 31
0.0
  0
LINE
  5
30C0
330
26
100
AcDbEntity
  8
0
  6
Continuous
100
AcDbLine
 10
898.412338437776
 20
-127.5624517179509
 30
0.0
 11
898.4123384377763
 21
-105.828137142951
 31
0.0
  0
LINE
  5
30C1
330
26
100
AcDbEntity
  8
0
  6
Continuous
100
AcDbLine
 10
899.4123384377759
 20
-125.828137142951
 30
0.0
 11
899.4123384377759
 21
-105.828137142951
 31
0.0
  0
LINE
  5
30C2
330
26
100
AcDbEntity
  8
0
  6
Continuous
100
AcDbLine
 10
899.5623384377761
 20
-105.828137142951
 30
0.0
 11
899.5623384377761
 21
-123.778137142951
 31
0.0
  0
LINE
  5
30C3
330
26
100
AcDbEntity
  8
0
  6
Continuous
100
AcDbLine
 10
943.4123384377762
 20
-164.890017358251
 30
0.0
 11
920.4123384377762
 21
-164.890017358251
 31
0.0
  0
LINE
  5
30C4
330
26
100
AcDbEntity
  8
0
  6
Continuous
100
AcDbLine
 10
917.9123384377762
 20
-161.223991954451
 30
0.0
 11
914.412338437776
 21
-159.203266012351
 31
0.0
  0
LINE
  5
30C5
330
26
100
AcDbEntity
  8
0
  6
Continuous
100
AcDbLine
 10
920.6823069569759
 20
-164.890017358251
 30
0.0
 11
919.3817097449759
 21
-163.589420146251
 31
0.0
  0
LINE
  5
30C6
330
26
100
AcDbEntity
  8
0
  6
Continuous
100
AcDbLine
 10
915.7922450855762
 20
-159.999955486851
 30
0.0
 11
913.4349035048761
 21
-157.642613906251
 31
0.0
  0
LINE
  5
30C7
330
26
100
AcDbEntity
  8
0
  6
Continuous
100
AcDbLine
 10
891.597861674476
 20
-135.805572075751
 30
0.0
 11
889.2405200938759
 21
-133.448230495151
 31
0.0
  0
LINE
  5
30C8
330
26
100
AcDbEntity
  8
0
  6
Continuous
100
AcDbLine
 10
885.6510554344762
 20
-129.858765835751
 30
0.0
 11
884.3504582224761
 21
-128.558168623751
 31
0.0
  0
LINE
  5
30C9
330
26
100
AcDbEntity
  8
0
  6
Continuous
100
AcDbLine
 10
923.3848111822761
 20
-164.890017358251
 30
0.0
 11
913.412338437776
 21
-154.917544613751
 31
0.0
  0
LINE
  5
30CA
330
26
100
AcDbEntity
  8
0
  6
Continuous
100
AcDbLine
 10
894.3229309669758
 20
-135.828137142951
 30
0.0
 11
884.3504582224761
 21
-125.855664398451
 31
0.0
  0
LINE
  5
30CB
330
26
100
AcDbEntity
  8
0
  6
Continuous
100
AcDbLine
 10
926.0873154076762
 20
-164.890017358251
 30
0.0
 11
913.412338437776
 21
-152.215040388451
 31
0.0
  0
LINE
  5
30CC
330
26
100
AcDbEntity
  8
0
  6
Continuous
100
AcDbLine
 10
897.025435192276
 20
-135.828137142951
 30
0.0
 11
884.3504582224761
 21
-123.153160173051
 31
0.0
  0
LINE
  5
30CD
330
26
100
AcDbEntity
  8
0
  6
Continuous
100
AcDbLine
 10
888.6391333570761
 20
-122.328137142951
 30
0.0
 11
891.814559837576
 21
-127.828137142951
 31
0.0
  0
LINE
  5
30CE
330
26
100
AcDbEntity
  8
0
  6
Continuous
100
AcDbLine
 10
903.662338437776
 20
-105.828137142951
 30
0.0
 11
903.662338437776
 21
-123.778137142951
 31
0.0
  0
LINE
  5
30CF
330
26
100
AcDbEntity
  8
0
  6
Continuous
100
AcDbLine
 10
903.8123384377763
 20
-105.828137142951
 30
0.0
 11
903.8123384377763
 21
-125.828137142951
 31
0.0
  0
LINE
  5
30D0
330
26
100
AcDbEntity
  8
0
  6
Continuous
100
AcDbLine
 10
884.3504582224761
 20
-122.828137142951
 30
0.0
 11
885.3504582224761
 21
-121.828137142951
 31
0.0
  0
LINE
  5
30D1
330
26
100
AcDbEntity
  8
0
  6
Continuous
100
AcDbLine
 10
943.4123384377762
 20
-163.890017358251
 30
0.0
 11
927.4123384377762
 21
-163.890017358251
 31
0.0
  0
LINE
  5
30D2
330
26
100
AcDbEntity
  8
0
  6
Continuous
100
AcDbLine
 10
943.4123384377762
 20
-161.467367627451
 30
0.0
 11
927.4123384377762
 21
-161.467367627451
 31
0.0
  0
LINE
  5
30D3
330
26
100
AcDbEntity
  8
0
  6
Continuous
100
AcDbLine
 10
943.4123384377762
 20
-160.601342223651
 30
0.0
 11
926.9123384377762
 21
-160.601342223651
 31
0.0
  0
LINE
  5
30D4
330
26
100
AcDbEntity
  8
0
  6
Continuous
100
AcDbLine
 10
943.4123384377762
 20
-160.4281371429509
 30
0.0
 11
926.6123384377761
 21
-160.4281371429509
 31
0.0
  0
LINE
  5
30D5
330
26
100
AcDbEntity
  8
0
  6
Continuous
100
AcDbLine
 10
943.4123384377762
 20
-159.828137142951
 30
0.0
 11
927.4123384377762
 21
-159.828137142951
 31
0.0
  0
LINE
  5
30D6
330
26
100
AcDbEntity
  8
0
  6
Continuous
100
AcDbLine
 10
926.9123384377762
 20
-160.601342223651
 30
0.0
 11
921.4123384377762
 21
-157.425915743151
 31
0.0
  0
LINE
  5
30D7
330
26
100
AcDbEntity
  8
0
  6
Continuous
100
AcDbLine
 10
927.4123384377762
 20
-163.512536163051
 30
0.0
 11
913.412338437776
 21
-149.512536163051
 31
0.0
  0
LINE
  5
30D8
330
26
100
AcDbEntity
  8
0
  6
Continuous
100
AcDbLine
 10
899.7279394175761
 20
-135.828137142951
 30
0.0
 11
885.7279394175762
 21
-121.828137142951
 31
0.0
  0
LINE
  5
30D9
330
26
100
AcDbEntity
  8
0
  6
Continuous
100
AcDbLine
 10
920.9123384377763
 20
-154.310031937751
 30
0.0
 11
913.412338437776
 21
-146.8100319377509
 31
0.0
  0
LINE
  5
30DA
330
26
100
AcDbEntity
  8
0
  6
Continuous
100
AcDbLine
 10
902.430443642976
 20
-135.828137142951
 30
0.0
 11
894.9304436429761
 21
-128.328137142951
 31
0.0
  0
LINE
  5
30DB
330
26
100
AcDbEntity
  8
0
  6
Continuous
100
AcDbLine
 10
904.8123384377761
 20
-124.828137142951
 30
0.0
 11
904.8123384377761
 21
-105.828137142951
 31
0.0
  0
LINE
  5
30DC
330
26
100
AcDbEntity
  8
0
  6
Continuous
100
AcDbLine
 10
905.8123384377761
 20
-121.828137142951
 30
0.0
 11
905.8123384377761
 21
-105.828137142951
 31
0.0
  0
LINE
  5
30DD
330
26
100
AcDbEntity
  8
0
  6
Continuous
100
AcDbLine
 10
908.233300934876
 20
-130.2109798553509
 30
0.0
 11
908.233300934876
 21
-129.828137142951
 31
0.0
  0
LINE
  5
30DE
330
26
100
AcDbEntity
  8
0
  6
Continuous
100
AcDbLine
 10
908.5161436473761
 20
-130.328137142951
 30
0.0
 11
908.5161436473761
 21
-129.828137142951
 31
0.0
  0
LINE
  5
30DF
330
26
100
AcDbEntity
  8
0
  6
Continuous
100
AcDbLine
 10
908.7504582224759
 20
-129.828137142951
 30
0.0
 11
908.7504582224759
 21
-130.328137142951
 31
0.0
  0
LINE
  5
30E0
330
26
100
AcDbEntity
  8
0
  6
Continuous
100
AcDbLine
 10
909.3504582224761
 20
-132.0209574659509
 30
0.0
 11
909.3504582224761
 21
-129.828137142951
 31
0.0
  0
LINE
  5
30E1
330
26
100
AcDbEntity
  8
0
  6
Continuous
100
AcDbLine
 10
889.076449078276
 20
-122.698905375751
 30
0.0
 11
889.9472173110762
 21
-121.828137142951
 31
0.0
  0
LINE
  5
30E2
330
26
100
AcDbEntity
  8
0
  6
Continuous
100
AcDbLine
 10
890.1421480200761
 20
-122.984458546551
 30
0.0
 11
891.2984694237762
 21
-121.828137142951
 31
0.0
  0
LINE
  5
30E3
330
26
100
AcDbEntity
  8
0
  6
Continuous
100
AcDbLine
 10
891.207846961876
 20
-123.270011717451
 30
0.0
 11
892.6497215364761
 21
-121.828137142951
 31
0.0
  0
LINE
  5
30E4
330
26
100
AcDbEntity
  8
0
  6
Continuous
100
AcDbLine
 10
892.273545903776
 20
-123.5555648882509
 30
0.0
 11
894.0009736490761
 21
-121.828137142951
 31
0.0
  0
LINE
  5
30E5
330
26
100
AcDbEntity
  8
0
  6
Continuous
100
AcDbLine
 10
921.4123384377762
 20
-157.425915743151
 30
0.0
 11
925.807895638176
 21
-157.425915743151
 31
0.0
  0
LINE
  5
30E6
330
26
100
AcDbEntity
  8
0
  6
Continuous
100
AcDbLine
 10
920.9123384377763
 20
-156.559890339351
 30
0.0
 11
925.575844830676
 21
-156.559890339351
 31
0.0
  0
LINE
  5
30E7
330
26
100
AcDbEntity
  8
0
  6
Continuous
100
AcDbLine
 10
920.9123384377763
 20
-155.890017358251
 30
0.0
 11
919.4123384377762
 21
-155.890017358251
 31
0.0
  0
LINE
  5
30E8
330
26
100
AcDbEntity
  8
0
  6
Continuous
100
AcDbLine
 10
920.9123384377763
 20
-151.607527712451
 30
0.0
 11
913.412338437776
 21
-144.1075277124509
 31
0.0
  0
LINE
  5
30E9
330
26
100
AcDbEntity
  8
0
  6
Continuous
100
AcDbLine
 10
905.132947868276
 20
-135.828137142951
 30
0.0
 11
897.632947868276
 21
-128.328137142951
 31
0.0
  0
LINE
  5
30EA
330
26
100
AcDbEntity
  8
0
  6
Continuous
100
AcDbLine
 10
921.3951811502761
 20
-150.7109798553509
 30
0.0
 11
919.5294957252761
 21
-148.8452944304509
 31
0.0
  0
LINE
  5
30EB
330
26
100
AcDbEntity
  8
0
  6
Continuous
100
AcDbLine
 10
900.395181150276
 20
-129.7109798553509
 30
0.0
 11
898.529495725276
 21
-127.8452944304509
 31
0.0
  0
LINE
  5
30EC
330
26
100
AcDbEntity
  8
0
  6
Continuous
100
AcDbLine
 10
919.4123384377762
 20
-147.405023487051
 30
0.0
 11
913.806157032976
 21
-141.798842082351
 31
0.0
  0
LINE
  5
30ED
330
26
100
AcDbEntity
  8
0
  6
Continuous
100
AcDbLine
 10
907.4416334983762
 20
-135.4343185476509
 30
0.0
 11
901.8354520936762
 21
-129.828137142951
 31
0.0
  0
LINE
  5
30EE
330
26
100
AcDbEntity
  8
0
  6
Continuous
100
AcDbLine
 10
919.4123384377762
 20
-144.702519261751
 30
0.0
 11
915.5194760580762
 21
-140.809656881951
 31
0.0
  0
LINE
  5
30EF
330
26
100
AcDbEntity
  8
0
  6
Continuous
100
AcDbLine
 10
908.4308186986762
 20
-133.720999522651
 30
0.0
 11
904.5379563189759
 21
-129.828137142951
 31
0.0
  0
LINE
  5
30F0
330
26
100
AcDbEntity
  8
0
  6
Continuous
100
AcDbLine
 10
913.412338437776
 20
-142.026213354251
 30
0.0
 11
913.412338437776
 21
-157.471215204751
 31
0.0
  0
LINE
  5
30F1
330
26
100
AcDbEntity
  8
0
  6
Continuous
100
AcDbLine
 10
893.339244845576
 20
-123.8411180591509
 30
0.0
 11
895.3522257617761
 21
-121.828137142951
 31
0.0
  0
LINE
  5
30F2
330
26
100
AcDbEntity
  8
0
  6
Continuous
100
AcDbLine
 10
894.4049437873761
 20
-124.1266712299509
 30
0.0
 11
896.7034778744759
 21
-121.828137142951
 31
0.0
  0
LINE
  5
30F3
330
26
100
AcDbEntity
  8
0
  6
Continuous
100
AcDbLine
 10
895.4706427292761
 20
-124.4122244007509
 30
0.0
 11
897.9660085223761
 21
-121.9168586076509
 31
0.0
  0
LINE
  5
30F4
330
26
100
AcDbEntity
  8
0
  6
Continuous
100
AcDbLine
 10
896.391125061576
 20
-124.8429941811509
 30
0.0
 11
898.412338437776
 21
-122.821780804951
 31
0.0
  0
LINE
  5
30F5
330
26
100
AcDbEntity
  8
0
  6
Continuous
100
AcDbLine
 10
896.412338437776
 20
-126.1730329175509
 30
0.0
 11
898.412338437776
 21
-124.173032917551
 31
0.0
  0
LINE
  5
30F6
330
26
100
AcDbEntity
  8
0
  6
Continuous
100
AcDbLine
 10
899.868793618576
 20
-122.7211187816509
 30
0.0
 11
900.554100350676
 21
-122.035812049551
 31
0.0
  0
LINE
  5
30F7
330
26
100
AcDbEntity
  8
0
  6
Continuous
100
AcDbLine
 10
924.268993780076
 20
-152.828137142951
 30
0.0
 11
922.8123384377759
 21
-152.828137142951
 31
0.0
  0
LINE
  5
30F8
330
26
100
AcDbEntity
  8
0
  6
Continuous
100
AcDbLine
 10
943.4123384377762
 20
-151.4281371429509
 30
0.0
 11
927.4123384377762
 21
-151.4281371429509
 31
0.0
  0
LINE
  5
30F9
330
26
100
AcDbEntity
  8
0
  6
Continuous
100
AcDbLine
 10
921.6780238627761
 20
-150.828137142951
 30
0.0
 11
943.4123384377762
 21
-150.828137142951
 31
0.0
  0
LINE
  5
30FA
330
26
100
AcDbEntity
  8
0
  6
Continuous
100
AcDbLine
 10
943.4123384377762
 20
-149.828137142951
 30
0.0
 11
923.4123384377763
 21
-149.828137142951
 31
0.0
  0
LINE
  5
30FB
330
26
100
AcDbEntity
  8
0
  6
Continuous
100
AcDbLine
 10
925.462338437776
 20
-149.6781371429509
 30
0.0
 11
943.4123384377762
 21
-149.6781371429509
 31
0.0
  0
LINE
  5
30FC
330
26
100
AcDbEntity
  8
0
  6
Continuous
100
AcDbLine
 10
919.4123384377762
 20
-142.000015036351
 30
0.0
 11
917.302340759676
 21
-139.890017358251
 31
0.0
  0
LINE
  5
30FD
330
26
100
AcDbEntity
  8
0
  6
Continuous
100
AcDbLine
 10
909.3504582224761
 20
-131.938134821051
 30
0.0
 11
907.2404605442761
 21
-129.828137142951
 31
0.0
  0
LINE
  5
30FE
330
26
100
AcDbEntity
  8
0
  6
Continuous
100
AcDbLine
 10
907.8504582224759
 20
-129.828137142951
 30
0.0
 11
908.233300934876
 21
-130.2109798553509
 31
0.0
  0
LINE
  5
30FF
330
26
100
AcDbEntity
  8
0
  6
Continuous
100
AcDbLine
 10
919.4123384377762
 20
-141.390017358251
 30
0.0
 11
919.029495725276
 21
-141.007174645751
 31
0.0
  0
LINE
  5
3100
330
26
100
AcDbEntity
  8
0
  6
Continuous
100
AcDbLine
 10
927.4123384377762
 20
-151.4281371429509
 30
0.0
 11
927.0659282762761
 21
-150.828137142951
 31
0.0
  0
LINE
  5
3101
330
26
100
AcDbEntity
  8
0
  6
Continuous
100
AcDbLine
 10
918.9123384377763
 20
-140.724331933351
 30
0.0
 11
918.9123384377763
 21
-140.4900173582509
 31
0.0
  0
LINE
  5
3102
330
26
100
AcDbEntity
  8
0
  6
Continuous
100
AcDbLine
 10
919.4123384377762
 20
-148.562451717951
 30
0.0
 11
919.4123384377762
 21
-155.890017358251
 31
0.0
  0
LINE
  5
3103
330
26
100
AcDbEntity
  8
0
  6
Continuous
100
AcDbLine
 10
919.4123384377762
 20
-163.890017358251
 30
0.0
 11
919.4123384377762
 21
-163.8220681658509
 31
0.0
  0
LINE
  5
3104
330
26
100
AcDbEntity
  8
0
  6
Continuous
100
AcDbLine
 10
919.4123384377762
 20
-148.562451717951
 30
0.0
 11
919.4123384377762
 21
-137.828137142951
 31
0.0
  0
LINE
  5
3105
330
26
100
AcDbEntity
  8
0
  6
Continuous
100
AcDbLine
 10
899.636358633076
 20
-123.291366795351
 30
0.0
 11
901.1425450393761
 21
-121.785180389051
 31
0.0
  0
LINE
  5
3106
330
26
100
AcDbEntity
  8
0
  6
Continuous
100
AcDbLine
 10
899.5772852458761
 20
-123.688253210651
 30
0.0
 11
901.527044789776
 21
-121.738493666851
 31
0.0
  0
LINE
  5
3107
330
26
100
AcDbEntity
  8
0
  6
Continuous
100
AcDbLine
 10
899.5774491523761
 20
-124.025902332351
 30
0.0
 11
901.8467514490762
 21
-121.756600035651
 31
0.0
  0
LINE
  5
3108
330
26
100
AcDbEntity
  8
0
  6
Continuous
100
AcDbLine
 10
897.1084863250762
 20
-126.828137142951
 30
0.0
 11
898.412338437776
 21
-125.524285030251
 31
0.0
  0
LINE
  5
3109
330
26
100
AcDbEntity
  8
0
  6
Continuous
100
AcDbLine
 10
899.6442481190761
 20
-124.2969163937509
 30
0.0
 11
902.139565998776
 21
-121.801598514151
 31
0.0
  0
LINE
  5
310A
330
26
100
AcDbEntity
  8
0
  6
Continuous
100
AcDbLine
 10
899.7225210779761
 20
-124.5564564630509
 30
0.0
 11
902.3844911639764
 21
-121.8944863770509
 31
0.0
  0
LINE
  5
310B
330
26
100
AcDbEntity
  8
0
  6
Continuous
100
AcDbLine
 10
899.8387941936762
 20
-124.777996375551
 30
0.0
 11
902.617567800376
 21
-121.999222768851
 31
0.0
  0
LINE
  5
310C
330
26
100
AcDbEntity
  8
0
  6
Continuous
100
AcDbLine
 10
899.9659550569761
 20
-124.9886485404509
 30
0.0
 11
902.8174275819761
 21
-122.137176015451
 31
0.0
  0
LINE
  5
310D
330
26
100
AcDbEntity
  8
0
  6
Continuous
100
AcDbLine
 10
900.124644609276
 20
-125.167772016351
 30
0.0
 11
903.007904785276
 21
-122.284511840351
 31
0.0
  0
LINE
  5
310E
330
26
100
AcDbEntity
  8
0
  6
Continuous
100
AcDbLine
 10
900.2912203680763
 20
-125.3390092856509
 30
0.0
 11
903.1665943374759
 21
-122.463635316251
 31
0.0
  0
LINE
  5
310F
330
26
100
AcDbEntity
  8
0
  6
Continuous
100
AcDbLine
 10
900.4910801496762
 20
-125.476962532251
 30
0.0
 11
903.318380132976
 21
-122.6496625489509
 31
0.0
  0
LINE
  5
3110
330
26
100
AcDbEntity
  8
0
  6
Continuous
100
AcDbLine
 10
900.697994003176
 20
-125.607861706851
 30
0.0
 11
903.4346532485761
 21
-122.871202461451
 31
0.0
  0
LINE
  5
3111
330
26
100
AcDbEntity
  8
0
  6
Continuous
100
AcDbLine
 10
900.9429191684764
 20
-125.700749569751
 30
0.0
 11
903.5416485062762
 21
-123.102020232051
 31
0.0
  0
LINE
  5
3112
330
26
100
AcDbEntity
  8
0
  6
Continuous
100
AcDbLine
 10
901.203042186076
 20
-125.778439580351
 30
0.0
 11
903.608447472976
 21
-123.373034293451
 31
0.0
  0
LINE
  5
3113
330
26
100
AcDbEntity
  8
0
  6
Continuous
100
AcDbLine
 10
901.5042785032759
 20
-125.8150162913509
 30
0.0
 11
903.6473916296761
 21
-123.671903164951
 31
0.0
  0
LINE
  5
3114
330
26
100
AcDbEntity
  8
0
  6
Continuous
100
AcDbLine
 10
901.858909872476
 20
-125.798197950351
 30
0.0
 11
903.6473916296761
 21
-124.0097161930509
 31
0.0
  0
LINE
  5
3115
330
26
100
AcDbEntity
  8
0
  6
Continuous
100
AcDbLine
 10
902.3017554090762
 20
-125.6931654418509
 30
0.0
 11
903.5419696242763
 21
-124.4529512266509
 31
0.0
  0
LINE
  5
3116
330
26
100
AcDbEntity
  8
0
  6
Continuous
100
AcDbLine
 10
900.2391708323761
 20
-129.554969537451
 30
0.0
 11
903.994921553676
 21
-125.799218816251
 31
0.0
  0
LINE
  5
3117
330
26
100
AcDbEntity
  8
0
  6
Continuous
100
AcDbLine
 10
904.7834201234761
 20
-125.010720246451
 30
0.0
 11
907.9660032269762
 21
-121.828137142951
 31
0.0
  0
LINE
  5
3118
330
26
100
AcDbEntity
  8
0
  6
Continuous
100
AcDbLine
 10
888.8123384377761
 20
-122.174547304451
 30
0.0
 11
889.412338437776
 21
-121.828137142951
 31
0.0
  0
LINE
  5
3119
330
26
100
AcDbEntity
  8
0
  6
Continuous
100
AcDbLine
 10
925.462338437776
 20
-145.578137142951
 30
0.0
 11
943.4123384377762
 21
-145.578137142951
 31
0.0
  0
LINE
  5
311A
330
26
100
AcDbEntity
  8
0
  6
Continuous
100
AcDbLine
 10
923.4123384377763
 20
-145.4281371429509
 30
0.0
 11
943.4123384377762
 21
-145.4281371429509
 31
0.0
  0
LINE
  5
311B
330
26
100
AcDbEntity
  8
0
  6
Continuous
100
AcDbLine
 10
943.4123384377762
 20
-144.4281371429509
 30
0.0
 11
924.4123384377763
 21
-144.4281371429509
 31
0.0
  0
LINE
  5
311C
330
26
100
AcDbEntity
  8
0
  6
Continuous
100
AcDbLine
 10
897.8123384377761
 20
-121.828137142951
 30
0.0
 11
898.412338437776
 21
-122.174547304451
 31
0.0
  0
LINE
  5
311D
330
26
100
AcDbEntity
  8
0
  6
Continuous
100
AcDbLine
 10
924.6553641106762
 20
-153.124609524851
 30
0.0
 11
926.6123384377761
 21
-160.4281371429509
 31
0.0
  0
LINE
  5
311E
330
26
100
AcDbEntity
  8
0
  6
Continuous
100
AcDbLine
 10
920.9123384377763
 20
-156.559890339351
 30
0.0
 11
920.9123384377763
 21
-150.228137142951
 31
0.0
  0
LINE
  5
311F
330
26
100
AcDbEntity
  8
0
  6
Continuous
100
AcDbLine
 10
921.112338437776
 20
-150.4281371429509
 30
0.0
 11
921.112338437776
 21
-136.128137142951
 31
0.0
  0
LINE
  5
3120
330
26
100
AcDbEntity
  8
0
  6
Continuous
100
AcDbLine
 10
922.4123384377762
 20
-150.828137142951
 30
0.0
 11
922.4123384377762
 21
-152.4281371429509
 31
0.0
  0
LINE
  5
3121
330
26
100
AcDbEntity
  8
0
  6
Continuous
100
AcDbLine
 10
923.4123384377763
 20
-145.4281371429509
 30
0.0
 11
923.4123384377763
 21
-149.828137142951
 31
0.0
  0
LINE
  5
3122
330
26
100
AcDbEntity
  8
0
  6
Continuous
100
AcDbLine
 10
923.4123384377763
 20
-132.5854964558509
 30
0.0
 11
923.4123384377763
 21
-128.828137142951
 31
0.0
  0
LINE
  5
3123
330
26
100
AcDbEntity
  8
0
  6
Continuous
100
AcDbLine
 10
907.214262226476
 20
-135.828137142951
 30
0.0
 11
909.296868383976
 21
-132.2209574659509
 31
0.0
  0
LINE
  5
3124
330
26
100
AcDbEntity
  8
0
  6
Continuous
100
AcDbLine
 10
905.3710116775759
 20
-129.828137142951
 30
0.0
 11
913.3710116775759
 21
-121.828137142951
 31
0.0
  0
LINE
  5
3125
330
26
100
AcDbEntity
  8
0
  6
Continuous
100
AcDbLine
 10
943.4123384377762
 20
-143.4281371429509
 30
0.0
 11
927.4123384377762
 21
-143.4281371429509
 31
0.0
  0
LINE
  5
3126
330
26
100
AcDbEntity
  8
0
  6
Continuous
100
AcDbLine
 10
919.4123384377762
 20
-141.007174645751
 30
0.0
 11
919.029495725276
 21
-141.007174645751
 31
0.0
  0
LINE
  5
3127
330
26
100
AcDbEntity
  8
0
  6
Continuous
100
AcDbLine
 10
919.4123384377762
 20
-140.724331933351
 30
0.0
 11
918.9123384377763
 21
-140.724331933351
 31
0.0
  0
LINE
  5
3128
330
26
100
AcDbEntity
  8
0
  6
Continuous
100
AcDbLine
 10
918.9123384377763
 20
-140.4900173582509
 30
0.0
 11
919.4123384377762
 21
-140.4900173582509
 31
0.0
  0
LINE
  5
3129
330
26
100
AcDbEntity
  8
0
  6
Continuous
100
AcDbLine
 10
919.4123384377762
 20
-139.890017358251
 30
0.0
 11
917.219518114776
 21
-139.890017358251
 31
0.0
  0
LINE
  5
312A
330
26
100
AcDbEntity
  8
0
  6
Continuous
100
AcDbLine
 10
924.4123384377763
 20
-121.828137142951
 30
0.0
 11
924.4123384377763
 21
-105.828137142951
 31
0.0
  0
LINE
  5
312B
330
26
100
AcDbEntity
  8
0
  6
Continuous
100
AcDbLine
 10
924.8123384377759
 20
-121.328137142951
 30
0.0
 11
924.8123384377759
 21
-105.828137142951
 31
0.0
  0
LINE
  5
312C
330
26
100
AcDbEntity
  8
0
  6
Continuous
100
AcDbLine
 10
927.4123384377762
 20
-124.828137142951
 30
0.0
 11
927.4123384377762
 21
-143.4281371429509
 31
0.0
  0
LINE
  5
312D
330
26
100
AcDbEntity
  8
0
  6
Continuous
100
AcDbLine
 10
927.4123384377762
 20
-163.890017358251
 30
0.0
 11
927.4123384377762
 21
-161.467367627451
 31
0.0
  0
LINE
  5
312E
330
26
100
AcDbEntity
  8
0
  6
Continuous
100
AcDbLine
 10
927.4123384377762
 20
-159.828137142951
 30
0.0
 11
927.4123384377762
 21
-151.4281371429509
 31
0.0
  0
LINE
  5
312F
330
26
100
AcDbEntity
  8
0
  6
Continuous
100
AcDbLine
 10
927.9123384377763
 20
-121.328137142951
 30
0.0
 11
927.9123384377763
 21
-124.4281371429509
 31
0.0
  0
LINE
  5
3130
330
26
100
AcDbEntity
  8
0
  6
Continuous
100
AcDbLine
 10
910.776020128276
 20
-129.828137142951
 30
0.0
 11
918.776020128276
 21
-121.828137142951
 31
0.0
  0
LINE
  5
3131
330
26
100
AcDbEntity
  8
0
  6
Continuous
100
AcDbLine
 10
914.533658781376
 20
-126.706816799351
 30
0.0
 11
911.412338437776
 21
-129.828137142951
 31
0.0
  0
LINE
  5
3132
330
26
100
AcDbEntity
  8
0
  6
Continuous
100
AcDbLine
 10
907.214262226476
 20
-135.828137142951
 30
0.0
 11
891.7692603759761
 21
-135.828137142951
 31
0.0
  0
LINE
  5
3133
330
26
100
AcDbEntity
  8
0
  6
Continuous
100
AcDbLine
 10
896.115866055876
 20
-124.5851114700509
 30
0.0
 11
888.8123384377761
 21
-122.628137142951
 31
0.0
  0
LINE
  5
3134
330
26
100
AcDbEntity
  8
0
  6
Continuous
100
AcDbLine
 10
920.1810285789761
 20
-125.828137142951
 30
0.0
 11
924.181028578976
 21
-121.828137142951
 31
0.0
  0
LINE
  5
3135
330
26
100
AcDbEntity
  8
0
  6
Continuous
100
AcDbLine
 10
924.460274822476
 20
-121.5488908994509
 30
0.0
 11
924.6330923556762
 21
-121.376073366251
 31
0.0
  0
LINE
  5
3136
330
26
100
AcDbEntity
  8
0
  6
Continuous
100
AcDbLine
 10
908.5161436473761
 20
-130.328137142951
 30
0.0
 11
908.7504582224759
 21
-130.328137142951
 31
0.0
  0
LINE
  5
3137
330
26
100
AcDbEntity
  8
0
  6
Continuous
100
AcDbLine
 10
911.412338437776
 20
-129.828137142951
 30
0.0
 11
900.6780238627762
 21
-129.828137142951
 31
0.0
  0
LINE
  5
3138
330
26
100
AcDbEntity
  8
0
  6
Continuous
100
AcDbLine
 10
900.6780238627762
 20
-129.828137142951
 30
0.0
 11
893.3504582224761
 21
-129.828137142951
 31
0.0
  0
LINE
  5
3139
330
26
100
AcDbEntity
  8
0
  6
Continuous
100
AcDbLine
 10
885.3504582224761
 20
-129.828137142951
 30
0.0
 11
885.4184074148761
 21
-129.828137142951
 31
0.0
  0
LINE
  5
313A
330
26
100
AcDbEntity
  8
0
  6
Continuous
100
AcDbLine
 10
923.311948990076
 20
-128.102225182451
 30
0.0
 11
927.9123384377763
 21
-123.501835734751
 31
0.0
  0
LINE
  5
313B
330
26
100
AcDbEntity
  8
0
  6
Continuous
100
AcDbLine
 10
923.2267981397761
 20
-133.592384483451
 30
0.0
 11
927.4123384377762
 21
-129.4068441854509
 31
0.0
  0
LINE
  5
313C
330
26
100
AcDbEntity
  8
0
  6
Continuous
100
AcDbLine
 10
919.4123384377762
 20
-137.828137142951
 30
0.0
 11
922.533658781376
 21
-134.706816799351
 31
0.0
  0
LINE
  5
313D
330
26
100
AcDbEntity
  8
0
  6
Continuous
100
AcDbLine
 10
892.680585241376
 20
-128.328137142951
 30
0.0
 11
899.0123384377762
 21
-128.328137142951
 31
0.0
  0
LINE
  5
313E
330
26
100
AcDbEntity
  8
0
  6
Continuous
100
AcDbLine
 10
898.8123384377761
 20
-128.128137142951
 30
0.0
 11
913.112338437776
 21
-128.128137142951
 31
0.0
  0
LINE
  5
313F
330
26
100
AcDbEntity
  8
0
  6
Continuous
100
AcDbLine
 10
898.412338437776
 20
-126.828137142951
 30
0.0
 11
896.8123384377761
 21
-126.828137142951
 31
0.0
  0
LINE
  5
3140
330
26
100
AcDbEntity
  8
0
  6
Continuous
100
AcDbLine
 10
920.4123384377762
 20
-125.828137142951
 30
0.0
 11
916.6549791248762
 21
-125.828137142951
 31
0.0
  0
LINE
  5
3141
330
26
100
AcDbEntity
  8
0
  6
Continuous
100
AcDbLine
 10
903.8123384377763
 20
-125.828137142951
 30
0.0
 11
899.4123384377759
 21
-125.828137142951
 31
0.0
  0
LINE
  5
3142
330
26
100
AcDbEntity
  8
0
  6
Continuous
100
AcDbLine
 10
943.4123384377762
 20
-124.828137142951
 30
0.0
 11
927.4123384377762
 21
-124.828137142951
 31
0.0
  0
LINE
  5
3144
330
26
100
AcDbEntity
  8
0
  6
Continuous
100
AcDbLine
 10
919.4123384377762
 20
-142.811852636151
 30
0.0
 11
927.4123384377762
 21
-134.811852636151
 31
0.0
  0
LINE
  5
3145
330
26
100
AcDbEntity
  8
0
  6
Continuous
100
AcDbLine
 10
943.4123384377762
 20
-124.4281371429509
 30
0.0
 11
927.9123384377763
 21
-124.4281371429509
 31
0.0
  0
LINE
  5
3146
330
26
100
AcDbEntity
  8
0
  6
Continuous
100
AcDbLine
 10
924.4123384377763
 20
-121.828137142951
 30
0.0
 11
905.8123384377761
 21
-121.828137142951
 31
0.0
  0
LINE
  5
3147
330
26
100
AcDbEntity
  8
0
  6
Continuous
100
AcDbLine
 10
885.3504582224761
 20
-121.828137142951
 30
0.0
 11
887.7731079532761
 21
-121.828137142951
 31
0.0
  0
LINE
  5
3148
330
26
100
AcDbEntity
  8
0
  6
Continuous
100
AcDbLine
 10
889.412338437776
 20
-121.828137142951
 30
0.0
 11
897.8123384377761
 21
-121.828137142951
 31
0.0
  0
LINE
  5
3149
330
26
100
AcDbEntity
  8
0
  6
Continuous
100
AcDbLine
 10
927.9123384377763
 20
-121.328137142951
 30
0.0
 11
924.8123384377759
 21
-121.328137142951
 31
0.0
  0
LINE
  5
314A
330
26
100
AcDbEntity
  8
0
  6
Continuous
100
AcDbLine
 10
919.4123384377762
 20
-148.216861086851
 30
0.0
 11
927.4123384377762
 21
-140.216861086851
 31
0.0
  0
LINE
  5
314B
330
26
100
AcDbEntity
  8
0
  6
Continuous
100
AcDbLine
 10
923.6110320110761
 20
-146.770699403351
 30
0.0
 11
924.5985583718762
 21
-145.783173042651
 31
0.0
  0
LINE
  5
314C
330
26
100
AcDbEntity
  8
0
  6
Continuous
100
AcDbLine
 10
923.4566920347761
 20
-147.2628524079509
 30
0.0
 11
925.0974211981761
 21
-145.6221232445509
 31
0.0
  0
LINE
  5
314D
330
26
100
AcDbEntity
  8
0
  6
Continuous
100
AcDbLine
 10
923.4141663246759
 20
-147.643191146151
 30
0.0
 11
925.4642735197762
 21
-145.5930839510509
 31
0.0
  0
LINE
  5
314E
330
26
100
AcDbEntity
  8
0
  6
Continuous
100
AcDbLine
 10
923.4507430357762
 20
-147.944427463251
 30
0.0
 11
925.7837663988762
 21
-145.611404100051
 31
0.0
  0
LINE
  5
314F
330
26
100
AcDbEntity
  8
0
  6
Continuous
100
AcDbLine
 10
913.412338437776
 20
-142.026213354251
 30
0.0
 11
917.0195181147759
 21
-139.943607196751
 31
0.0
  0
LINE
  5
3150
330
26
100
AcDbEntity
  8
0
  6
Continuous
100
AcDbLine
 10
927.0659282762761
 20
-160.4281371429509
 30
0.0
 11
927.4123384377762
 21
-159.828137142951
 31
0.0
  0
LINE
  5
3151
330
26
100
AcDbEntity
  8
0
  6
Continuous
100
AcDbLine
 10
923.5110471242761
 20
-148.221936402951
 30
0.0
 11
926.0547804603762
 21
-145.6782030668509
 31
0.0
  0
LINE
  5
3152
330
26
100
AcDbEntity
  8
0
  6
Continuous
100
AcDbLine
 10
923.6039349871761
 20
-148.466861568151
 30
0.0
 11
926.3008732460761
 21
-145.769923309251
 31
0.0
  0
LINE
  5
3153
330
26
100
AcDbEntity
  8
0
  6
Continuous
100
AcDbLine
 10
923.7209203414762
 20
-148.6876892420509
 30
0.0
 11
926.522413158576
 21
-145.886196424951
 31
0.0
  0
LINE
  5
3154
330
26
100
AcDbEntity
  8
0
  6
Continuous
100
AcDbLine
 10
923.8588735880762
 20
-148.887549023651
 30
0.0
 11
926.7215363559762
 21
-146.024886255651
 31
0.0
  0
LINE
  5
3155
330
26
100
AcDbEntity
  8
0
  6
Continuous
100
AcDbLine
 10
922.2060708323761
 20
-150.828137142951
 30
0.0
 11
923.4123384377763
 21
-149.6218695374509
 31
0.0
  0
LINE
  5
3156
330
26
100
AcDbEntity
  8
0
  6
Continuous
100
AcDbLine
 10
924.0173996558762
 20
-149.066835983951
 30
0.0
 11
926.9006598318761
 21
-146.183575807951
 31
0.0
  0
LINE
  5
3157
330
26
100
AcDbEntity
  8
0
  6
Continuous
100
AcDbLine
 10
922.4123384377762
 20
-150.9817131994509
 30
0.0
 11
922.565914494376
 21
-150.828137142951
 31
0.0
  0
LINE
  5
3158
330
26
100
AcDbEntity
  8
0
  6
Continuous
100
AcDbLine
 10
924.1965231317761
 20
-149.225525536151
 30
0.0
 11
927.0607068582762
 21
-146.361341809751
 31
0.0
  0
LINE
  5
3159
330
26
100
AcDbEntity
  8
0
  6
Continuous
100
AcDbLine
 10
924.3940793319762
 20
-149.365782364251
 30
0.0
 11
927.1986601048761
 21
-146.561201591351
 31
0.0
  0
LINE
  5
315A
330
26
100
AcDbEntity
  8
0
  6
Continuous
100
AcDbLine
 10
924.6156192444759
 20
-149.482055479851
 30
0.0
 11
927.317310316976
 21
-146.780364407351
 31
0.0
  0
LINE
  5
315B
330
26
100
AcDbEntity
  8
0
  6
Continuous
100
AcDbLine
 10
924.8598842985762
 20
-149.575603453951
 30
0.0
 11
927.4101981798763
 21
-147.025289572651
 31
0.0
  0
LINE
  5
315C
330
26
100
AcDbEntity
  8
0
  6
Continuous
100
AcDbLine
 10
922.4123384377762
 20
-152.332965312151
 30
0.0
 11
923.917166606976
 21
-150.828137142951
 31
0.0
  0
LINE
  5
315D
330
26
100
AcDbEntity
  8
0
  6
Continuous
100
AcDbLine
 10
925.1308983600761
 20
-149.642402420651
 30
0.0
 11
927.4725825803761
 21
-147.300718200251
 31
0.0
  0
LINE
  5
315E
330
26
100
AcDbEntity
  8
0
  6
Continuous
100
AcDbLine
 10
925.447923473976
 20
-149.663190334851
 30
0.0
 11
927.509159291476
 21
-147.601954517351
 31
0.0
  0
LINE
  5
315F
330
26
100
AcDbEntity
  8
0
  6
Continuous
100
AcDbLine
 10
925.8106936135758
 20
-149.638233223451
 30
0.0
 11
927.4697095959758
 21
-147.9792172410509
 31
0.0
  0
LINE
  5
3160
330
26
100
AcDbEntity
  8
0
  6
Continuous
100
AcDbLine
 10
926.299853888576
 20
-149.486885976651
 30
0.0
 11
927.3212695034761
 21
-148.465470361751
 31
0.0
  0
LINE
  5
3161
330
26
100
AcDbEntity
  8
0
  6
Continuous
100
AcDbLine
 10
923.268418719676
 20
-152.828137142951
 30
0.0
 11
925.2684187196759
 21
-150.828137142951
 31
0.0
  0
LINE
  5
3162
330
26
100
AcDbEntity
  8
0
  6
Continuous
100
AcDbLine
 10
924.5243540052761
 20
-152.923453970051
 30
0.0
 11
926.6196708323759
 21
-150.828137142951
 31
0.0
  0
LINE
  5
3163
330
26
100
AcDbEntity
  8
0
  6
Continuous
100
AcDbLine
 10
924.8707224180762
 20
-153.928337669951
 30
0.0
 11
927.397179315376
 21
-151.401880772651
 31
0.0
  0
LINE
  5
3164
330
26
100
AcDbEntity
  8
0
  6
Continuous
100
AcDbLine
 10
925.1562755888762
 20
-154.9940366117509
 30
0.0
 11
927.4123384377762
 21
-152.7379737628509
 31
0.0
  0
LINE
  5
3165
330
26
100
AcDbEntity
  8
0
  6
Continuous
100
AcDbLine
 10
925.4418287596761
 20
-156.059735553551
 30
0.0
 11
927.4123384377762
 21
-154.089225875551
 31
0.0
  0
LINE
  5
3166
330
26
100
AcDbEntity
  8
0
  6
Continuous
100
AcDbLine
 10
925.727381930576
 20
-157.125434495451
 30
0.0
 11
927.4123384377762
 21
-155.4404779881509
 31
0.0
  0
LINE
  5
3167
330
26
100
AcDbEntity
  8
0
  6
Continuous
100
AcDbLine
 10
926.0129351013761
 20
-158.191133437251
 30
0.0
 11
927.4123384377762
 21
-156.791730100851
 31
0.0
  0
LINE
  5
3168
330
26
100
AcDbEntity
  8
0
  6
Continuous
100
AcDbLine
 10
926.2984882721761
 20
-159.256832379051
 30
0.0
 11
927.4123384377762
 21
-158.142982213551
 31
0.0
  0
LINE
  5
316A
330
26
100
AcDbEntity
  8
0
  6
Continuous
100
AcDbLine
 10
926.584041443076
 20
-160.322531320951
 30
0.0
 11
927.4123384377762
 21
-159.4942343261509
 31
0.0
  0
LINE
  5
316B
330
26
100
AcDbEntity
  8
0
  6
Continuous
100
AcDbLine
 10
926.4123384377763
 20
-164.890017358251
 30
0.0
 11
927.4123384377762
 21
-163.890017358251
 31
0.0
  0
CIRCLE
  5
316C
330
26
100
AcDbEntity
  8
0
  6
Continuous
100
AcDbCircle
 10
901.6123384377761
 20
-123.778137142951
 30
0.0
 40
2.049999999999999
  0
CIRCLE
  5
316D
330
26
100
AcDbEntity
  8
0
  6
Continuous
100
AcDbCircle
 10
925.462338437776
 20
-147.628137142951
 30
0.0
 40
2.049999999999999
  0
ARC
  5
316E
330
26
100
AcDbEntity
  8
0
  6
Continuous
100
AcDbCircle
 10
924.268993780076
 20
-153.228137142951
 30
0.0
 40
0.4
100
AcDbArc
 50
14.99999999590102
 51
89.99999999910109
  0
ARC
  5
316F
330
26
100
AcDbEntity
  8
0
  6
Continuous
100
AcDbCircle
 10
922.8123384377759
 20
-152.4281371429509
 30
0.0
 40
0.4
100
AcDbArc
 50
180.0
 51
270.0
  0
ARC
  5
3170
330
26
100
AcDbEntity
  8
0
  6
Continuous
100
AcDbCircle
 10
896.0123384377762
 20
-124.9714818005509
 30
0.0
 40
0.4
100
AcDbArc
 50
0.0
 51
74.99999999899445
  0
ARC
  5
3171
330
26
100
AcDbEntity
  8
0
  6
Continuous
100
AcDbCircle
 10
896.8123384377761
 20
-126.4281371429509
 30
0.0
 40
0.4
100
AcDbArc
 50
180.0
 51
270.0
  0
ARC
  5
3172
330
26
100
AcDbEntity
  8
0
  6
Continuous
100
AcDbCircle
 10
917.219518114776
 20
-140.290017358251
 30
0.0
 40
0.4
100
AcDbArc
 50
90.0
 51
119.999999996103
  0
ARC
  5
3173
330
26
100
AcDbEntity
  8
0
  6
Continuous
100
AcDbCircle
 10
918.3123384377759
 20
-140.4900173582509
 30
0.0
 40
0.6
100
AcDbArc
 50
0.0
 51
89.99999999980459
  0
ARC
  5
3174
330
26
100
AcDbEntity
  8
0
  6
Continuous
100
AcDbCircle
 10
920.4123384377762
 20
-163.890017358251
 30
0.0
 40
1.0
100
AcDbArc
 50
180.0
 51
269.9999999995961
  0
ARC
  5
3175
330
26
100
AcDbEntity
  8
0
  6
Continuous
100
AcDbCircle
 10
915.4123384377763
 20
-157.471215204751
 30
0.0
 40
2.0
100
AcDbArc
 50
180.0
 51
240.0
  0
ARC
  5
3176
330
26
100
AcDbEntity
  8
0
  6
Continuous
100
AcDbCircle
 10
916.4123384377763
 20
-163.8220681658509
 30
0.0
 40
3.0
100
AcDbArc
 50
0.0
 51
60.00000000000007
  0
ARC
  5
3177
330
26
100
AcDbEntity
  8
0
  6
Continuous
100
AcDbCircle
 10
926.4123384377763
 20
-161.467367627451
 30
0.0
 40
1.0
100
AcDbArc
 50
0.0
 51
60.00000000000007
  0
ARC
  5
3178
330
26
100
AcDbEntity
  8
0
  6
Continuous
100
AcDbCircle
 10
921.9123384377763
 20
-156.559890339351
 30
0.0
 40
1.0
100
AcDbArc
 50
180.0
 51
240.0000000047989
  0
ARC
  5
3179
330
26
100
AcDbEntity
  8
0
  6
Continuous
100
AcDbCircle
 10
919.3123384377759
 20
-140.724331933351
 30
0.0
 40
0.4
100
AcDbArc
 50
179.9999999999006
 51
225.000000010496
  0
ARC
  5
317A
330
26
100
AcDbEntity
  8
0
  6
Continuous
100
AcDbCircle
 10
908.7504582224759
 20
-130.9281371429509
 30
0.0
 40
0.6
100
AcDbArc
 50
0.0000000002002986
 51
90.0
  0
ARC
  5
317B
330
26
100
AcDbEntity
  8
0
  6
Continuous
100
AcDbCircle
 10
885.3504582224761
 20
-128.828137142951
 30
0.0
 40
1.0
100
AcDbArc
 50
180.0000000004006
 51
270.0
  0
ARC
  5
317C
330
26
100
AcDbEntity
  8
0
  6
Continuous
100
AcDbCircle
 10
908.5161436473761
 20
-129.9281371429509
 30
0.0
 40
0.4
100
AcDbArc
 50
224.9999999933971
 51
270.0000000001042
  0
ARC
  5
317D
330
26
100
AcDbEntity
  8
0
  6
Continuous
100
AcDbCircle
 10
892.680585241376
 20
-127.328137142951
 30
0.0
 40
1.0
100
AcDbArc
 50
209.999999995402
 51
270.0
  0
ARC
  5
317E
330
26
100
AcDbEntity
  8
0
  6
Continuous
100
AcDbCircle
 10
887.7731079532761
 20
-122.828137142951
 30
0.0
 40
1.0
100
AcDbArc
 50
29.99999999999765
 51
90.0
  0
ARC
  5
317F
330
26
100
AcDbEntity
  8
0
  6
Continuous
100
AcDbCircle
 10
885.4184074148761
 20
-132.828137142951
 30
0.0
 40
3.0
100
AcDbArc
 50
29.99999999999765
 51
90.0
  0
ARC
  5
3180
330
26
100
AcDbEntity
  8
0
  6
Continuous
100
AcDbCircle
 10
891.7692603759761
 20
-133.828137142951
 30
0.0
 40
2.0
100
AcDbArc
 50
209.9999999999976
 51
270.0
  0
ARC
  5
3181
330
26
100
AcDbEntity
  8
0
  6
Continuous
100
AcDbCircle
 10
908.950458222476
 20
-132.0209574659509
 30
0.0
 40
0.4
100
AcDbArc
 50
330.0000000016002
 51
0.0
  0
ARC
  5
3182
330
26
100
AcDbEntity
  8
0
  6
Continuous
100
AcDbCircle
 10
927.5123384377762
 20
-124.4281371429509
 30
0.0
 40
0.4
100
AcDbArc
 50
270.0000000073996
 51
0.0
  0
ARC
  5
3183
330
26
100
AcDbEntity
  8
0
  6
Continuous
100
AcDbCircle
 10
926.4123384377763
 20
-143.4281371429509
 30
0.0
 40
1.0
100
AcDbArc
 50
270.0
 51
0.0
  0
ARC
  5
3184
330
26
100
AcDbEntity
  8
0
  6
Continuous
100
AcDbCircle
 10
922.4123384377762
 20
-149.828137142951
 30
0.0
 40
1.0
100
AcDbArc
 50
270.0000000001042
 51
0.0
  0
ARC
  5
3185
330
26
100
AcDbEntity
  8
0
  6
Continuous
100
AcDbCircle
 10
924.4123384377763
 20
-145.4281371429509
 30
0.0
 40
1.0
100
AcDbArc
 50
90.00000000019539
 51
180.0
  0
ARC
  5
3186
330
26
100
AcDbEntity
  8
0
  6
Continuous
100
AcDbCircle
 10
924.8123384377759
 20
-121.728137142951
 30
0.0
 40
0.4
100
AcDbArc
 50
90.0
 51
179.9999999926003
  0
ARC
  5
3187
330
26
100
AcDbEntity
  8
0
  6
Continuous
100
AcDbCircle
 10
899.4123384377759
 20
-126.828137142951
 30
0.0
 40
1.0
100
AcDbArc
 50
90.0
 51
179.9999999999006
  0
ARC
  5
3188
330
26
100
AcDbEntity
  8
0
  6
Continuous
100
AcDbCircle
 10
905.8123384377761
 20
-122.828137142951
 30
0.0
 40
1.0
100
AcDbArc
 50
90.0
 51
180.0
  0
ARC
  5
3189
330
26
100
AcDbEntity
  8
0
  6
Continuous
100
AcDbCircle
 10
903.8123384377763
 20
-124.828137142951
 30
0.0
 40
1.0
100
AcDbArc
 50
270.0
 51
0.0
  0
ARC
  5
318A
330
26
100
AcDbEntity
  8
0
  6
Continuous
100
AcDbCircle
 10
921.6780238627761
 20
-150.4281371429509
 30
0.0
 40
0.4
100
AcDbArc
 50
224.9999999973967
 51
269.9999999998046
  0
ARC
  5
318B
330
26
100
AcDbEntity
  8
0
  6
Continuous
100
AcDbCircle
 10
898.8123384377761
 20
-127.5624517179509
 30
0.0
 40
0.4
100
AcDbArc
 50
180.0
 51
224.999999997501
  0
ARC
  5
318C
330
26
100
AcDbEntity
  8
0
  6
Continuous
100
AcDbCircle
 10
900.6780238627762
 20
-129.4281371429509
 30
0.0
 40
0.4
100
AcDbArc
 50
224.9999999933021
 51
270.0000000001042
  0
ARC
  5
318D
330
26
100
AcDbEntity
  8
0
  6
Continuous
100
AcDbCircle
 10
916.6549791248762
 20
-128.828137142951
 30
0.0
 40
3.0
100
AcDbArc
 50
90.0
 51
134.9999999999957
  0
ARC
  5
318E
330
26
100
AcDbEntity
  8
0
  6
Continuous
100
AcDbCircle
 10
920.4123384377762
 20
-132.5854964558509
 30
0.0
 40
3.0
100
AcDbArc
 50
314.9999999996986
 51
0.0
  0
ARC
  5
318F
330
26
100
AcDbEntity
  8
0
  6
Continuous
100
AcDbCircle
 10
920.4123446391761
 20
-128.8281309415509
 30
0.0
 40
2.9999991911
100
AcDbArc
 50
359.9998805566015
 51
90.00011907239826
  0
ARC
  5
3190
330
26
100
AcDbEntity
  8
0
  6
Continuous
100
AcDbCircle
 10
919.8123384377758
 20
-148.562451717951
 30
0.0
 40
0.4
100
AcDbArc
 50
180.0
 51
225.0000000036009
  0
SPLINE
  5
3191
330
26
100
AcDbEntity
  8
0
  6
Continuous
100
AcDbSpline
210
0.0
220
1.0
230
0.0
 70
     8
 71
     3
 72
    11
 73
     7
 74
     5
 42
0.0000000001
 43
0.0000000001
 44
0.0000000001
 40
0.0
 40
0.0
 40
0.0
 40
0.0
 40
3.281837640578157
 40
6.997908186839606
 40
10.71397873310615
 40
14.43004927934142
 40
14.43004927934142
 40
14.43004927934142
 40
14.43004927934142
 10
925.3925143339762
 20
-155.890017358251
 30
-13.4734950899
 10
924.7737144982898
 20
-155.890017358251
 30
-12.56873864694402
 10
923.4542389756055
 20
-155.890017358251
 30
-10.6395138611188
 10
922.0471213594568
 20
-155.890017358251
 30
-7.334910107829765
 10
921.0889487174584
 20
-155.890017358251
 30
-3.721339895010152
 10
920.9712085310036
 20
-155.890017358251
 30
-1.240446631666571
 10
920.9123384377763
 20
-155.890017358251
 30
0.0
 11
925.3925143339762
 21
-155.890017358251
 31
-13.4734950899
 11
923.6241790356762
 21
-155.890017358251
 31
-10.7088163433
 11
922.1314504994762
 21
-155.890017358251
 31
-7.3057380571
 11
921.2192091111759
 21
-155.890017358251
 31
-3.7033782813
 11
920.9123384377763
 21
-155.890017358251
 31
0.0
  0
SPLINE
  5
3192
330
26
100
AcDbEntity
  8
0
  6
Continuous
100
AcDbSpline
210
1.0
220
3.520000000000000E-14
230
1.500000000000000E-15
 70
     8
 71
     3
 72
    11
 73
     7
 74
     5
 42
0.0000000001
 43
0.0000000001
 44
0.0000000001
 40
0.0
 40
0.0
 40
0.0
 40
0.0
 40
3.716070546243556
 40
7.432141092510047
 40
11.14821163873131
 40
14.4300492793095
 40
14.4300492793095
 40
14.4300492793095
 40
14.4300492793095
 10
893.3504582224761
 20
-128.328137142951
 30
0.0
 10
893.3504582224762
 20
-128.2692670496841
 30
-1.240446631666939
 10
893.3504582224759
 20
-128.1515268631499
 30
-3.721339895008474
 10
893.3504582224761
 20
-127.1933542211512
 30
-7.334910107804259
 10
893.3504582224759
 20
-125.786236605138
 30
-10.63951386114093
 10
893.3504582224757
 20
-124.4667610824451
 30
-12.56873864694754
 10
893.3504582224761
 20
-123.8479612467509
 30
-13.4734950899
 11
893.3504582224761
 21
-128.328137142951
 31
0.0
 11
893.3504582224761
 21
-128.021266469451
 31
-3.7033782813
 11
893.3504582224761
 21
-127.109025081151
 31
-7.3057380571
 11
893.3504582224761
 21
-125.616296545051
 31
-10.7088163433
 11
893.3504582224761
 21
-123.8479612467509
 31
-13.4734950899
  0
SPLINE
  5
3193
330
26
100
AcDbEntity
  8
0
  6
Continuous
100
AcDbSpline
 70
     0
 71
     3
 72
    18
 73
    14
 74
    12
 42
0.0000000001
 43
0.0000000001
 44
0.0000000001
 40
0.0
 40
0.0
 40
0.0
 40
0.0
 40
0.1563005066427047
 40
0.6274253334204454
 40
1.421278610160556
 40
2.576279424223796
 40
4.136612183653081
 40
6.094962660685932
 40
8.451442676977113
 40
11.25217166062065
 40
14.52576127641485
 40
18.21284680580995
 40
21.92031021678289
 40
21.92031021678289
 40
21.92031021678289
 40
21.92031021678289
 10
927.9123384377763
 20
-121.328137142951
 30
0.0
 10
927.9491788204741
 20
-121.2912967602155
 30
0.0
 10
928.0970643897152
 20
-121.1434111908234
 30
0.0
 10
928.4320629708444
 20
-120.8084126098195
 30
0.0
 10
929.0024574718752
 20
-120.2380181088831
 30
0.0
 10
929.8295807446004
 20
-119.4108948361084
 30
0.0
 10
930.931178639712
 20
-118.3092969410535
 30
0.0
 10
932.3159678984715
 20
-116.9245076820798
 30
0.0
 10
933.9931213512865
 20
-115.2473542294946
 30
0.0
 10
935.9802796419347
 20
-113.2601959388094
 30
0.0
 10
938.2810646596423
 20
-110.9594109209171
 30
0.0
 10
940.7955690316483
 20
-108.4449065491232
 30
0.0
 10
942.5384809314837
 20
-106.7019946492584
 30
0.0
 10
943.4123384377762
 20
-105.828137142951
 30
0.0
 11
927.9123384377763
 21
-121.328137142951
 31
0.0
 11
928.0228595858762
 21
-121.217615994751
 31
0.0
 11
928.3559951456759
 21
-120.884480434951
 31
0.0
 11
928.917334180976
 21
-120.3231413997509
 31
0.0
 11
929.7340430888763
 21
-119.506432491851
 31
0.0
 11
930.8373649639761
 21
-118.4031106167509
 31
0.0
 11
932.2221278661759
 21
-117.018347714451
 31
0.0
 11
933.8884108654761
 21
-115.352064715251
 31
0.0
 11
935.8688253220762
 21
-113.371650258651
 31
0.0
 11
938.183602738176
 21
-111.0568728424509
 31
0.0
 11
940.7907659188762
 21
-108.449709661851
 31
0.0
 11
943.4123384377762
 21
-105.828137142951
 31
0.0
  0
LEADER
  5
3C1A
330
26
100
AcDbEntity
  8
0
  6
Continuous
100
AcDbLeader
  3
dimensionali
 76
     3
 10
4742.343203675238
 20
155.8380403142116
 30
0.0
 10
4757.902017335047
 20
136.8901693944412
 30
0.0
 10
4783.479369618905
 20
136.7947445882755
 30
0.0
  0
TEXT
  5
3C1B
330
26
100
AcDbEntity
  8
0
100
AcDbText
 10
4784.238716156438
 20
235.8641573906574
 30
0.0
 40
8.0
  1
Ex'
100
AcDbText
  0
ENDSEC
  0
SECTION
  2
OBJECTS
  0
DICTIONARY
  5
593
330
0
100
AcDbDictionary
281
     1
  3
ACAD_COLOR
350
618
  3
ACAD_GROUP
350
594
  3
ACAD_LAYOUT
350
619
  3
ACAD_MATERIAL
350
617
  3
ACAD_MLINESTYLE
350
595
  3
ACAD_PLOTSETTINGS
350
61A
  3
ACAD_PLOTSTYLENAME
350
615
  3
AcadDim
350
3268
  3
ACDBHEADERROUNDTRIPXREC
350
5F06
  3
AcDbVariableDictionary
350
5EFE
  0
DICTIONARY
  5
618
102
{ACAD_REACTORS
330
593
102
}
330
593
100
AcDbDictionary
281
     1
  0
DICTIONARY
  5
594
102
{ACAD_REACTORS
330
593
102
}
330
593
100
AcDbDictionary
281
     1
  0
DICTIONARY
  5
619
102
{ACAD_REACTORS
330
593
102
}
330
593
100
AcDbDictionary
281
     1
  3
Layout1
350
61C
  3
Model
350
61B
  0
DICTIONARY
  5
617
102
{ACAD_REACTORS
330
593
102
}
330
593
100
AcDbDictionary
281
     1
  0
DICTIONARY
  5
595
102
{ACAD_REACTORS
330
593
102
}
330
593
100
AcDbDictionary
281
     1
  3
STANDARD
350
596
  0
DICTIONARY
  5
61A
102
{ACAD_REACTORS
330
593
102
}
330
593
100
AcDbDictionary
281
     1
  0
ACDBDICTIONARYWDFLT
  5
615
102
{ACAD_REACTORS
330
593
102
}
330
593
100
AcDbDictionary
281
     1
  3
Normal
350
616
100
AcDbDictionaryWithDefault
340
616
  0
XRECORD
  5
3268
102
{ACAD_REACTORS
330
593
102
}
330
593
100
AcDbXrecord
280
     1
 90
   990106
  3

 60
     0
 61
     0
 62
     1
 63
     3
 64
     0
 65
     0
 66
     0
 67
     3
 68
     1
 69
     0
 70
     0
 71
     0
 72
     0
 40
25.0445657995416
170
     0
  0
DICTIONARY
  5
5F06
102
{ACAD_REACTORS
330
593
102
}
330
593
100
AcDbDictionary
281
     1
  3
COLORDICT
350
5F07
  3
MATERIALDICT
350
5F08
  0
DICTIONARY
  5
5EFE
102
{ACAD_REACTORS
330
593
102
}
330
593
100
AcDbDictionary
281
     1
  0
LAYOUT
  5
61C
102
{ACAD_REACTORS
330
619
102
}
330
619
100
AcDbPlotSettings
  1

  2
\\alderaan\HP LaserJet 4050 Ricerca
  4

  6

 40
0.0
 41
0.0
 42
0.0
 43
0.0
 44
0.0
 45
0.0
 46
0.0
 47
0.0
 48
0.0
 49
0.0
140
0.0
141
0.0
142
1.0
143
1.0
 70
   688
 72
     0
 73
     0
 74
     5
  7

 75
    16
147
1.0
148
0.0
149
0.0
100
AcDbLayout
  1
Layout1
 70
     0
 71
     1
 10
0.0
 20
0.0
 11
12.0
 21
9.0
 12
0.0
 22
0.0
 32
0.0
 14
1.000000000000000E+20
 24
1.000000000000000E+20
 34
1.000000000000000E+20
 15
-1.000000000000000E+20
 25
-1.000000000000000E+20
 35
-1.000000000000000E+20
146
0.0
 13
0.0
 23
0.0
 33
0.0
 16
1.0
 26
0.0
 36
0.0
 17
0.0
 27
1.0
 37
0.0
 76
     0
330
27
  0
LAYOUT
  5
61B
102
{ACAD_REACTORS
330
619
102
}
330
619
100
AcDbPlotSettings
  1

  2
\\alderaan\HP LaserJet 4050 Ricerca
  4
A4
  6

 40
5.027083396911621
 41
5.069430828094482
 42
5.365737915039062
 43
5.365753173828125
 44
209.8886566162109
 45
297.0530090332031
 46
0.254
 47
0.0
 48
259.215225634116
 49
-488.3976836719121
140
1317.037973125747
141
245.6809236204426
142
1.0
143
93.74398742770123
 70
 11956
 72
     0
 73
     1
 74
     4
  7

 75
     0
147
0.0106673508076583
148
-6584.066731106545
149
12405.30116526656
100
AcDbLayout
  1
Model
 70
     1
 71
     0
 10
0.0
 20
0.0
 11
12.0
 21
9.0
 12
0.0
 22
0.0
 32
0.0
 14
0.0
 24
0.0
 34
0.0
 15
0.0
 25
0.0
 35
0.0
146
0.0
 13
0.0
 23
0.0
 33
0.0
 16
1.0
 26
0.0
 36
0.0
 17
0.0
 27
1.0
 37
0.0
 76
     0
330
26
  0
MLINESTYLE
  5
596
102
{ACAD_REACTORS
330
595
102
}
330
595
100
AcDbMlineStyle
  2
STANDARD
 70
     0
  3

 62
     0
 51
90.00000000000019
 52
90.00000000000019
 71
     2
 49
0.5
 62
   256
  6
BYLAYER
 49
-0.5
 62
   256
  6
BYLAYER
  0
ACDBPLACEHOLDER
  5
616
102
{ACAD_REACTORS
330
615
102
}
330
615
  0
XRECORD
  5
5F07
102
{ACAD_REACTORS
330
5F06
102
}
330
5F06
100
AcDbXrecord
280
     1
340
618
  0
XRECORD
  5
5F08
102
{ACAD_REACTORS
330
5F06
102
}
330
5F06
100
AcDbXrecord
280
     1
340
617
  0
ENDSEC
  0
EOF
