  0
SECTION
  2
HEADER
  9
$ACADVER
  1
AC1015
  9
$ACADMAINTVER
 70
     6
  9
$DWGCODEPAGE
  3
ANSI_1252
  9
$INSBASE
 10
0.0
 20
0.0
 30
0.0
  9
$EXTMIN
 10
80.46286980856489
 20
-370.773169833776
 30
-18.8
  9
$EXTMAX
 10
1760.060663696097
 20
334.946701594559
 30
1.038894055499999
  9
$LIMMIN
 10
0.0
 20
0.0
  9
$LIMMAX
 10
420.0
 20
297.0
  9
$ORTHOMODE
 70
     0
  9
$REGENMODE
 70
     1
  9
$FILLMODE
 70
     1
  9
$QTEXTMODE
 70
     0
  9
$MIRRTEXT
 70
     1
  9
$LTSCALE
 40
23.1
  9
$ATTMODE
 70
     1
  9
$TEXTSIZE
 40
35.06651165617814
  9
$TRACEWID
 40
0.05
  9
$TEXTSTYLE
  7
STANDARD
  9
$CLAYER
  8
0
  9
$CELTYPE
  6
BYLAYER
  9
$CECOLOR
 62
   256
  9
$CELTSCALE
 40
1.0
  9
$DISPSILH
 70
     0
  9
$DIMSCALE
 40
1.0
  9
$DIMASZ
 40
0.18
  9
$DIMEXO
 40
0.0625
  9
$DIMDLI
 40
0.38
  9
$DIMRND
 40
0.0
  9
$DIMDLE
 40
0.0
  9
$DIMEXE
 40
0.18
  9
$DIMTP
 40
0.003
  9
$DIMTM
 40
0.003
  9
$DIMTXT
 40
1.5
  9
$DIMCEN
 40
0.09
  9
$DIMTSZ
 40
0.0
  9
$DIMTOL
 70
     1
  9
$DIMLIM
 70
     0
  9
$DIMTIH
 70
     1
  9
$DIMTOH
 70
     1
  9
$DIMSE1
 70
     0
  9
$DIMSE2
 70
     0
  9
$DIMTAD
 70
     0
  9
$DIMZIN
 70
     0
  9
$DIMBLK
  1

  9
$DIMASO
 70
     1
  9
$DIMSHO
 70
     1
  9
$DIMPOST
  1

  9
$DIMAPOST
  1

  9
$DIMALT
 70
     0
  9
$DIMALTD
 70
     2
  9
$DIMALTF
 40
25.4
  9
$DIMLFAC
 40
1.0
  9
$DIMTOFL
 70
     0
  9
$DIMTVP
 40
0.0
  9
$DIMTIX
 70
     0
  9
$DIMSOXD
 70
     0
  9
$DIMSAH
 70
     0
  9
$DIMBLK1
  1

  9
$DIMBLK2
  1

  9
$DIMSTYLE
  2
STANDARD
  9
$DIMCLRD
 70
     0
  9
$DIMCLRE
 70
     0
  9
$DIMCLRT
 70
     0
  9
$DIMTFAC
 40
1.0
  9
$DIMGAP
 40
0.09
  9
$DIMJUST
 70
     0
  9
$DIMSD1
 70
     0
  9
$DIMSD2
 70
     0
  9
$DIMTOLJ
 70
     1
  9
$DIMTZIN
 70
     0
  9
$DIMALTZ
 70
     0
  9
$DIMALTTZ
 70
     0
  9
$DIMUPT
 70
     0
  9
$DIMDEC
 70
     4
  9
$DIMTDEC
 70
     4
  9
$DIMALTU
 70
     2
  9
$DIMALTTD
 70
     2
  9
$DIMTXSTY
  7
STANDARD
  9
$DIMAUNIT
 70
     0
  9
$DIMADEC
 70
     0
  9
$DIMALTRND
 40
0.0
  9
$DIMAZIN
 70
     0
  9
$DIMDSEP
 70
    46
  9
$DIMATFIT
 70
     0
  9
$DIMFRAC
 70
     0
  9
$DIMLDRBLK
  1

  9
$DIMLUNIT
 70
     2
  9
$DIMLWD
 70
    -2
  9
$DIMLWE
 70
    -2
  9
$DIMTMOVE
 70
     0
  9
$LUNITS
 70
     2
  9
$LUPREC
 70
     4
  9
$SKETCHINC
 40
0.1
  9
$FILLETRAD
 40
0.0
  9
$AUNITS
 70
     0
  9
$AUPREC
 70
     0
  9
$MENU
  1
acad
  9
$ELEVATION
 40
0.0
  9
$PELEVATION
 40
0.0
  9
$THICKNESS
 40
0.0
  9
$LIMCHECK
 70
     0
  9
$CHAMFERA
 40
0.0
  9
$CHAMFERB
 40
0.0
  9
$CHAMFERC
 40
0.0
  9
$CHAMFERD
 40
0.0
  9
$SKPOLY
 70
     0
  9
$TDCREATE
 40
2444972.041666667
  9
$TDUCREATE
 40
2444972.0
  9
$TDUPDATE
 40
2453410.421002813
  9
$TDUUPDATE
 40
2453410.379336146
  9
$TDINDWG
 40
2.3155943287
  9
$TDUSRTIMER
 40
2.3155943287
  9
$USRTIMER
 70
     1
  9
$ANGBASE
 50
0.0
  9
$ANGDIR
 70
     0
  9
$PDMODE
 70
     0
  9
$PDSIZE
 40
0.0
  9
$PLINEWID
 40
0.0
  9
$SPLFRAME
 70
     0
  9
$SPLINETYPE
 70
     6
  9
$SPLINESEGS
 70
     8
  9
$HANDSEED
  5
5E37
  9
$SURFTAB1
 70
     6
  9
$SURFTAB2
 70
     6
  9
$SURFTYPE
 70
     6
  9
$SURFU
 70
     6
  9
$SURFV
 70
     6
  9
$UCSBASE
  2

  9
$UCSNAME
  2

  9
$UCSORG
 10
0.0
 20
0.0
 30
0.0
  9
$UCSXDIR
 10
1.0
 20
0.0
 30
0.0
  9
$UCSYDIR
 10
0.0
 20
1.0
 30
0.0
  9
$UCSORTHOREF
  2

  9
$UCSORTHOVIEW
 70
     0
  9
$UCSORGTOP
 10
0.0
 20
0.0
 30
0.0
  9
$UCSORGBOTTOM
 10
0.0
 20
0.0
 30
0.0
  9
$UCSORGLEFT
 10
0.0
 20
0.0
 30
0.0
  9
$UCSORGRIGHT
 10
0.0
 20
0.0
 30
0.0
  9
$UCSORGFRONT
 10
0.0
 20
0.0
 30
0.0
  9
$UCSORGBACK
 10
0.0
 20
0.0
 30
0.0
  9
$PUCSBASE
  2

  9
$PUCSNAME
  2

  9
$PUCSORG
 10
0.0
 20
0.0
 30
0.0
  9
$PUCSXDIR
 10
1.0
 20
0.0
 30
0.0
  9
$PUCSYDIR
 10
0.0
 20
1.0
 30
0.0
  9
$PUCSORTHOREF
  2

  9
$PUCSORTHOVIEW
 70
     0
  9
$PUCSORGTOP
 10
0.0
 20
0.0
 30
0.0
  9
$PUCSORGBOTTOM
 10
0.0
 20
0.0
 30
0.0
  9
$PUCSORGLEFT
 10
0.0
 20
0.0
 30
0.0
  9
$PUCSORGRIGHT
 10
0.0
 20
0.0
 30
0.0
  9
$PUCSORGFRONT
 10
0.0
 20
0.0
 30
0.0
  9
$PUCSORGBACK
 10
0.0
 20
0.0
 30
0.0
  9
$USERI1
 70
     0
  9
$USERI2
 70
     0
  9
$USERI3
 70
     0
  9
$USERI4
 70
     0
  9
$USERI5
 70
     0
  9
$USERR1
 40
0.0
  9
$USERR2
 40
0.0
  9
$USERR3
 40
0.0
  9
$USERR4
 40
0.0
  9
$USERR5
 40
0.0
  9
$WORLDVIEW
 70
     1
  9
$SHADEDGE
 70
     3
  9
$SHADEDIF
 70
    70
  9
$TILEMODE
 70
     1
  9
$MAXACTVP
 70
    16
  9
$PINSBASE
 10
0.0
 20
0.0
 30
0.0
  9
$PLIMCHECK
 70
     0
  9
$PEXTMIN
 10
1.000000000000000E+20
 20
1.000000000000000E+20
 30
1.000000000000000E+20
  9
$PEXTMAX
 10
-1.000000000000000E+20
 20
-1.000000000000000E+20
 30
-1.000000000000000E+20
  9
$PLIMMIN
 10
0.0
 20
0.0
  9
$PLIMMAX
 10
12.0
 20
9.0
  9
$UNITMODE
 70
     0
  9
$VISRETAIN
 70
     0
  9
$PLINEGEN
 70
     1
  9
$PSLTSCALE
 70
     0
  9
$TREEDEPTH
 70
  3020
  9
$CMLSTYLE
  2
STANDARD
  9
$CMLJUST
 70
     0
  9
$CMLSCALE
 40
1.0
  9
$PROXYGRAPHICS
 70
     1
  9
$MEASUREMENT
 70
     0
  9
$CELWEIGHT
370
    -1
  9
$ENDCAPS
280
     0
  9
$JOINSTYLE
280
     0
  9
$LWDISPLAY
290
     0
  9
$INSUNITS
 70
     0
  9
$HYPERLINKBASE
  1

  9
$STYLESHEET
  1

  9
$XEDIT
290
     1
  9
$CEPSNTYPE
380
     0
  9
$PSTYLEMODE
290
     1
  9
$FINGERPRINTGUID
  2
{9C19D7CE-BE25-492F-B456-B99F77E59DF7}
  9
$VERSIONGUID
  2
{C222326A-0B37-468E-9945-799477149272}
  9
$EXTNAMES
290
     1
  9
$PSVPSCALE
 40
0.0
  9
$OLESTARTUP
290
     0
  0
ENDSEC
  0
SECTION
  2
CLASSES
  0
CLASS
  1
IMAGE
  2
AcDbRasterImage
  3
ISM
 90
      127
280
     0
281
     1
  0
CLASS
  1
DICTIONARYVAR
  2
AcDbDictionaryVar
  3
ObjectDBX Classes
 90
        0
280
     0
281
     0
  0
CLASS
  1
RASTERVARIABLES
  2
AcDbRasterVariables
  3
ISM
 90
        0
280
     0
281
     0
  0
CLASS
  1
IMAGEDEF
  2
AcDbRasterImageDef
  3
ISM
 90
        0
280
     0
281
     0
  0
CLASS
  1
IMAGEDEF_REACTOR
  2
AcDbRasterImageDefReactor
  3
ISM
 90
        1
280
     0
281
     0
  0
CLASS
  1
IDBUFFER
  2
AcDbIdBuffer
  3
ObjectDBX Classes
 90
        0
280
     0
281
     0
  0
CLASS
  1
SPATIAL_FILTER
  2
AcDbSpatialFilter
  3
ObjectDBX Classes
 90
        0
280
     0
281
     0
  0
CLASS
  1
SORTENTSTABLE
  2
AcDbSortentsTable
  3
ObjectDBX Classes
 90
        0
280
     0
281
     0
  0
CLASS
  1
LAYER_INDEX
  2
AcDbLayerIndex
  3
ObjectDBX Classes
 90
        0
280
     0
281
     0
  0
CLASS
  1
SPATIAL_INDEX
  2
AcDbSpatialIndex
  3
AutoCAD 2000
 90
        0
280
     0
281
     0
  0
CLASS
  1
OBJECT_PTR
  2
CAseDLPNTableRecord
  3
ASE-LPNTableRecord
 90
        1
280
     0
281
     0
  0
CLASS
  1
PLOTSETTINGS
  2
AcDbPlotSettings
  3
ObjectDBX Classes
 90
        0
280
     0
281
     0
  0
CLASS
  1
ACDBDICTIONARYWDFLT
  2
AcDbDictionaryWithDefault
  3
ObjectDBX Classes
 90
        0
280
     0
281
     0
  0
CLASS
  1
WIPEOUT
  2
AcDbWipeout
  3
WipeOut|AutoCAD Express Tool|expresstools@autodesk.com
 90
      127
280
     0
281
     1
  0
CLASS
  1
WIPEOUTVARIABLES
  2
AcDbWipeoutVariables
  3
WipeOut|AutoCAD Express Tool|expresstools@autodesk.com
 90
        0
280
     0
281
     0
  0
CLASS
  1
RTEXT
  2
RText
  3
RText|AutoCAD Express Tool|expresstools@autodesk.com
 90
        0
280
     0
281
     1
  0
CLASS
  1
ARCALIGNEDTEXT
  2
AcDbArcAlignedText
  3
ATEXT|AutoCAD Express Tool|expresstools@autodesk.com
 90
        0
280
     0
281
     1
  0
CLASS
  1
ACDBPLACEHOLDER
  2
AcDbPlaceHolder
  3
ObjectDBX Classes
 90
        0
280
     0
281
     0
  0
CLASS
  1
LAYOUT
  2
AcDbLayout
  3
ObjectDBX Classes
 90
        0
280
     0
281
     0
  0
ENDSEC
  0
SECTION
  2
TABLES
  0
TABLE
  2
VPORT
  5
6
330
0
100
AcDbSymbolTable
 70
     1
  0
VPORT
  5
5E2D
330
6
100
AcDbSymbolTableRecord
100
AcDbViewportTableRecord
  2
*Active
 70
     0
 10
0.0
 20
0.0
 11
1.0
 21
1.0
 12
446.731793841358
 22
34.01055407435817
 13
0.0
 23
0.0
 14
1.0
 24
1.0
 15
0.0
 25
0.0
 16
0.0
 26
0.0
 36
1.0
 17
0.0
 27
0.0
 37
0.0
 40
186.4079445937172
 41
1.888667992047713
 42
50.0
 43
0.0
 44
0.0
 50
0.0
 51
0.0
 71
     0
 72
   100
 73
     1
 74
     1
 75
     0
 76
     0
 77
     0
 78
     0
281
     0
 65
     1
110
0.0
120
0.0
130
0.0
111
1.0
121
0.0
131
0.0
112
0.0
122
1.0
132
0.0
 79
     0
146
0.0
  0
ENDTAB
  0
TABLE
  2
LTYPE
  5
3
330
0
100
AcDbSymbolTable
 70
     2
  0
LTYPE
  5
C
330
3
100
AcDbSymbolTableRecord
100
AcDbLinetypeTableRecord
  2
BYBLOCK
 70
     0
  3

 72
    65
 73
     0
 40
0.0
  0
LTYPE
  5
D
330
3
100
AcDbSymbolTableRecord
100
AcDbLinetypeTableRecord
  2
BYLAYER
 70
     0
  3

 72
    65
 73
     0
 40
0.0
  0
LTYPE
  5
E
330
3
100
AcDbSymbolTableRecord
100
AcDbLinetypeTableRecord
  2
CONTINUOUS
 70
     0
  3
Solid line
 72
    65
 73
     0
 40
0.0
  0
LTYPE
  5
F
330
3
100
AcDbSymbolTableRecord
100
AcDbLinetypeTableRecord
  2
CENTER
 70
     0
  3
____ _ ____ _ ____ _ ____ _ ____ _ ____ _ ____
 72
    65
 73
     4
 40
0.6
 49
0.375
 74
     0
 49
-0.075
 74
     0
 49
0.075
 74
     0
 49
-0.075
 74
     0
  0
ENDTAB
  0
TABLE
  2
LAYER
  5
1
330
0
100
AcDbSymbolTable
 70
     3
  0
LAYER
  5
14
330
1
100
AcDbSymbolTableRecord
100
AcDbLayerTableRecord
  2
0
 70
     0
 62
     7
  6
CONTINUOUS
370
    -3
390
273
  0
LAYER
  5
15
330
1
100
AcDbSymbolTableRecord
100
AcDbLayerTableRecord
  2
DEFAULT_1
 70
     0
 62
     7
  6
CENTER
370
    -3
390
273
  0
LAYER
  5
27A
330
1
100
AcDbSymbolTableRecord
100
AcDbLayerTableRecord
  2
Defpoints
 70
     0
 62
     7
  6
CONTINUOUS
290
     0
370
    -3
390
273
  0
ENDTAB
  0
TABLE
  2
STYLE
  5
2
330
0
100
AcDbSymbolTable
 70
     1
  0
STYLE
  5
1B
330
2
100
AcDbSymbolTableRecord
100
AcDbTextStyleTableRecord
  2
STANDARD
 70
     0
 40
0.0
 41
1.0
 50
0.0
 71
     0
 42
35.06651165617814
  3
VERDANA.TTF
  4

1001
ACAD
1000
Verdana
1071
       34
  0
ENDTAB
  0
TABLE
  2
VIEW
  5
4
330
0
100
AcDbSymbolTable
 70
     0
  0
ENDTAB
  0
TABLE
  2
UCS
  5
5
330
0
100
AcDbSymbolTable
 70
     0
  0
ENDTAB
  0
TABLE
  2
APPID
  5
7
330
0
100
AcDbSymbolTable
 70
     1
  0
APPID
  5
19
330
7
100
AcDbSymbolTableRecord
100
AcDbRegAppTableRecord
  2
ACAD
 70
     0
  0
ENDTAB
  0
TABLE
  2
DIMSTYLE
  5
8
330
0
100
AcDbSymbolTable
 70
     1
100
AcDbDimStyleTable
  0
DIMSTYLE
105
28
330
8
100
AcDbSymbolTableRecord
100
AcDbDimStyleTableRecord
  2
STANDARD
 70
     0
 47
0.003
 48
0.003
 71
     1
140
1.5
289
     0
340
1B
  0
ENDTAB
  0
TABLE
  2
BLOCK_RECORD
  5
23
330
0
100
AcDbSymbolTable
 70
     0
  0
BLOCK_RECORD
  5
21
330
23
100
AcDbSymbolTableRecord
100
AcDbBlockTableRecord
  2
*MODEL_SPACE
340
276
  0
BLOCK_RECORD
  5
22
330
23
100
AcDbSymbolTableRecord
100
AcDbBlockTableRecord
  2
*PAPER_SPACE
340
277
  0
ENDTAB
  0
ENDSEC
  0
SECTION
  2
BLOCKS
  0
BLOCK
  5
24
330
21
100
AcDbEntity
  8
0
100
AcDbBlockBegin
  2
*MODEL_SPACE
 70
     0
 71
     0
 10
0.0
 20
0.0
 30
0.0
  3
*MODEL_SPACE
  1

  0
ENDBLK
  5
25
330
21
100
AcDbEntity
  8
0
100
AcDbBlockEnd
  0
BLOCK
  5
26
330
22
100
AcDbEntity
 67
     1
  8
0
100
AcDbBlockBegin
  2
*PAPER_SPACE
 70
     0
 71
     0
 10
0.0
 20
0.0
 30
0.0
  3
*PAPER_SPACE
  1

  0
ENDBLK
  5
27
330
22
100
AcDbEntity
 67
     1
  8
0
100
AcDbBlockEnd
  0
ENDSEC
  0
SECTION
  2
ENTITIES
  0
LINE
  5
1B1E
330
21
100
AcDbEntity
  8
0
  6
Continuous
100
AcDbLine
 10
400.8617342334889
 20
-25.67741105512249
 30
0.0
 11
383.427419658489
 21
-25.67741105512252
 31
0.0
  0
LINE
  5
1B1F
330
21
100
AcDbEntity
  8
0
  6
Continuous
100
AcDbLine
 10
400.8617342334889
 20
-23.67741105512252
 30
0.0
 11
385.8617342334889
 21
-23.67741105512252
 31
0.0
  0
LINE
  5
1B20
330
21
100
AcDbEntity
  8
0
  6
Continuous
100
AcDbLine
 10
379.983350131889
 20
-2.677411055122519
 30
0.0
 11
382.304481515389
 21
-2.677411055122519
 31
0.0
  0
LINE
  5
1B21
330
21
100
AcDbEntity
  8
0
  6
Continuous
100
AcDbLine
 10
358.227419658489
 20
6.32258894487748
 30
0.0
 11
368.861734233489
 21
6.32258894487748
 31
0.0
  0
LINE
  5
1B22
330
21
100
AcDbEntity
  8
0
  6
Continuous
100
AcDbLine
 10
356.361734233489
 20
8.022588944877469
 30
0.0
 11
370.561734233489
 21
8.022588944877469
 31
0.0
  0
LINE
  5
1B23
330
21
100
AcDbEntity
  8
0
  6
Continuous
100
AcDbLine
 10
356.8617342334889
 20
10.32258894487748
 30
0.0
 11
361.261734233489
 21
10.32258894487748
 31
0.0
  0
LINE
  5
1B24
330
21
100
AcDbEntity
  8
0
  6
Continuous
100
AcDbLine
 10
374.104374920589
 20
10.32258894487748
 30
0.0
 11
378.861734233489
 21
10.32258894487748
 31
0.0
  0
LINE
  5
1B26
330
21
100
AcDbEntity
  8
0
  6
Continuous
100
AcDbLine
 10
363.261734233489
 20
14.32258894487748
 30
0.0
 11
381.8617342334889
 21
14.32258894487748
 31
0.0
  0
LINE
  5
1B27
330
21
100
AcDbEntity
  8
0
  6
Continuous
100
AcDbLine
 10
382.261734233489
 20
14.82258894487748
 30
0.0
 11
385.8617342334889
 21
14.82258894487748
 31
0.0
  0
LINE
  5
1B28
330
21
100
AcDbEntity
  8
0
  6
Continuous
100
AcDbLine
 10
379.9521160404891
 20
-1.677411055122519
 30
0.0
 11
380.361734233489
 21
-1.440917881122516
 31
0.0
  0
LINE
  5
1B29
330
21
100
AcDbEntity
  8
0
  6
Continuous
100
AcDbLine
 10
384.949071917689
 20
14.82258894487748
 30
0.0
 11
385.8617342334889
 21
13.90992662907749
 31
0.0
  0
LINE
  5
1B2A
330
21
100
AcDbEntity
  8
0
  6
Continuous
100
AcDbLine
 10
385.8617342334889
 20
-23.67741105512252
 30
0.0
 11
385.8617342334889
 21
14.82258894487748
 31
0.0
  0
LINE
  5
1B2B
330
21
100
AcDbEntity
  8
0
  6
Continuous
100
AcDbLine
 10
381.2162981492891
 20
14.32258894487748
 30
0.0
 11
385.8617342334889
 21
9.677152860577479
 31
0.0
  0
LINE
  5
1B2C
330
21
100
AcDbEntity
  8
0
  6
Continuous
100
AcDbLine
 10
382.261734233489
 20
14.82258894487748
 30
0.0
 11
382.261734233489
 21
30.32258894487748
 31
0.0
  0
LINE
  5
1B2D
330
21
100
AcDbEntity
  8
0
  6
Continuous
100
AcDbLine
 10
381.8617342334889
 20
7.32258894487748
 30
0.0
 11
381.8617342334889
 21
1.15715833017748
 31
0.0
  0
LINE
  5
1B2E
330
21
100
AcDbEntity
  8
0
  6
Continuous
100
AcDbLine
 10
381.8617342334889
 20
14.32258894487748
 30
0.0
 11
381.8617342334889
 21
30.32258894487748
 31
0.0
  0
LINE
  5
1B2F
330
21
100
AcDbEntity
  8
0
  6
Continuous
100
AcDbLine
 10
382.304481515389
 20
-2.677411055122519
 30
0.0
 11
383.0151642269889
 21
-25.43084104852253
 31
0.0
  0
LINE
  5
1B30
330
21
100
AcDbEntity
  8
0
  6
Continuous
100
AcDbLine
 10
376.9835243808889
 20
14.32258894487748
 30
0.0
 11
385.8617342334889
 21
5.444379092177484
 31
0.0
  0
LINE
  5
1B31
330
21
100
AcDbEntity
  8
0
  6
Continuous
100
AcDbLine
 10
372.7507506123891
 20
14.32258894487748
 30
0.0
 11
376.7507506123891
 21
10.32258894487748
 31
0.0
  0
LINE
  5
1B32
330
21
100
AcDbEntity
  8
0
  6
Continuous
100
AcDbLine
 10
381.8617342334889
 20
5.21160532377749
 30
0.0
 11
385.8617342334889
 21
1.21160532377749
 31
0.0
  0
LINE
  5
1B33
330
21
100
AcDbEntity
  8
0
  6
Continuous
100
AcDbLine
 10
368.861734233489
 20
6.32258894487748
 30
0.0
 11
371.983054577089
 21
9.443909288477469
 31
0.0
  0
LINE
  5
1B34
330
21
100
AcDbEntity
  8
0
  6
Continuous
100
AcDbLine
 10
379.9521160404891
 20
-1.677411055122519
 30
0.0
 11
380.614251427389
 21
-22.87653539982253
 31
0.0
  0
LINE
  5
1B35
330
21
100
AcDbEntity
  8
0
  6
Continuous
100
AcDbLine
 10
368.5179768439889
 20
14.32258894487748
 30
0.0
 11
372.819482098989
 21
10.02108368987748
 31
0.0
  0
LINE
  5
1B36
330
21
100
AcDbEntity
  8
0
  6
Continuous
100
AcDbLine
 10
381.844773933489
 20
0.9957918553774902
 30
0.0
 11
385.8617342334889
 21
-3.021168444622531
 31
0.0
  0
LINE
  5
1B37
330
21
100
AcDbEntity
  8
0
  6
Continuous
100
AcDbLine
 10
364.2852030755889
 20
14.32258894487748
 30
0.0
 11
370.5734686545891
 21
8.034323365877469
 31
0.0
  0
LINE
  5
1B38
330
21
100
AcDbEntity
  8
0
  6
Continuous
100
AcDbLine
 10
380.1632847590891
 20
-1.555492738622518
 30
0.0
 11
385.8617342334889
 21
-7.253942213022526
 31
0.0
  0
LINE
  5
1B39
330
21
100
AcDbEntity
  8
0
  6
Continuous
100
AcDbLine
 10
362.2617342334891
 20
12.11328401857747
 30
0.0
 11
368.0524293071889
 21
6.32258894487748
 31
0.0
  0
LINE
  5
1B3A
330
21
100
AcDbEntity
  8
0
  6
Continuous
100
AcDbLine
 10
380.077846282089
 20
-5.702828030122532
 30
0.0
 11
385.8617342334889
 21
-11.48671598142252
 31
0.0
  0
LINE
  5
1B3B
330
21
100
AcDbEntity
  8
0
  6
Continuous
100
AcDbLine
 10
359.819655538789
 20
10.32258894487748
 30
0.0
 11
363.819655538789
 21
6.32258894487748
 31
0.0
  0
LINE
  5
1B3C
330
21
100
AcDbEntity
  8
0
  6
Continuous
100
AcDbLine
 10
380.2143156205889
 20
-10.07207113692252
 30
0.0
 11
385.8617342334889
 21
-15.71948974992253
 31
0.0
  0
LINE
  5
1B3D
330
21
100
AcDbEntity
  8
0
  6
Continuous
100
AcDbLine
 10
356.034618090589
 20
9.874852624677487
 30
0.0
 11
359.586881770389
 21
6.32258894487748
 31
0.0
  0
LINE
  5
1B3E
330
21
100
AcDbEntity
  8
0
  6
Continuous
100
AcDbLine
 10
380.3507849589889
 20
-14.44131424382252
 30
0.0
 11
385.8617342334889
 21
-19.95226351832252
 31
0.0
  0
LINE
  5
1B3F
330
21
100
AcDbEntity
  8
0
  6
Continuous
100
AcDbLine
 10
355.978891520989
 20
8.405431657377475
 30
0.0
 11
357.944576945989
 21
6.439746232377473
 31
0.0
  0
LINE
  5
1B40
330
21
100
AcDbEntity
  8
0
  6
Continuous
100
AcDbLine
 10
363.261734233489
 20
14.32258894487748
 30
0.0
 11
363.261734233489
 21
30.32258894487748
 31
0.0
  0
LINE
  5
1B41
330
21
100
AcDbEntity
  8
0
  6
Continuous
100
AcDbLine
 10
362.2617342334891
 20
11.32258894487748
 30
0.0
 11
362.2617342334891
 21
30.32258894487745
 31
0.0
  0
LINE
  5
1B42
330
21
100
AcDbEntity
  8
0
  6
Continuous
100
AcDbLine
 10
361.261734233489
 20
30.32258894487745
 30
0.0
 11
361.261734233489
 21
10.32258894487748
 31
0.0
  0
LINE
  5
1B43
330
21
100
AcDbEntity
  8
0
  6
Continuous
100
AcDbLine
 10
380.487254297489
 20
-18.81055735062253
 30
0.0
 11
385.802678769089
 21
-24.12598182222251
 31
0.0
  0
LINE
  5
1B44
330
21
100
AcDbEntity
  8
0
  6
Continuous
100
AcDbLine
 10
356.8617342334889
 20
10.32258894487748
 30
0.0
 11
356.8617342334889
 21
30.32258894487745
 31
0.0
  0
LINE
  5
1B45
330
21
100
AcDbEntity
  8
0
  6
Continuous
100
AcDbLine
 10
380.7312137437889
 20
-23.14689056542253
 30
0.0
 11
383.144576945989
 21
-25.56025376762253
 31
0.0
  0
LINE
  5
1B46
330
21
100
AcDbEntity
  8
0
  6
Continuous
100
AcDbLine
 10
355.861734233489
 20
8.688274369777474
 30
0.0
 11
355.861734233489
 21
30.32258894487745
 31
0.0
  0
ARC
  5
1B47
330
21
100
AcDbEntity
  8
0
  6
Continuous
100
AcDbCircle
 10
363.261734233489
 20
13.32258894487748
 30
0.0
 40
1.0
100
AcDbArc
 50
90.0
 51
180.0
  0
ARC
  5
1B48
330
21
100
AcDbEntity
  8
0
  6
Continuous
100
AcDbCircle
 10
356.2617342334891
 20
8.688274369777474
 30
0.0
 40
0.4
100
AcDbArc
 50
180.0
 51
225.0000000033025
  0
ARC
  5
1B49
330
21
100
AcDbEntity
  8
0
  6
Continuous
100
AcDbCircle
 10
383.861734233489
 20
-23.67741105512252
 30
0.0
 40
2.0
100
AcDbArc
 50
270.0
 51
0.0
  0
ARC
  5
1B4A
330
21
100
AcDbEntity
  8
0
  6
Continuous
100
AcDbCircle
 10
356.8617342334889
 20
9.322588944877481
 30
0.0
 40
1.0
100
AcDbArc
 50
90.0
 51
179.9999999999006
  0
ARC
  5
1B4B
330
21
100
AcDbEntity
  8
0
  6
Continuous
100
AcDbCircle
 10
361.261734233489
 20
11.32258894487748
 30
0.0
 40
1.0
100
AcDbArc
 50
270.0
 51
359.9999999997004
  0
ARC
  5
1B4C
330
21
100
AcDbEntity
  8
0
  6
Continuous
100
AcDbCircle
 10
382.261734233489
 20
14.42258894487747
 30
0.0
 40
0.4
100
AcDbArc
 50
90.0
 51
179.9999999936995
  0
ARC
  5
1B4D
330
21
100
AcDbEntity
  8
0
  6
Continuous
100
AcDbCircle
 10
383.427419658489
 20
-25.27741105512252
 30
0.0
 40
0.4
100
AcDbArc
 50
224.9999999987
 51
269.9999999997004
  0
ARC
  5
1B4E
330
21
100
AcDbEntity
  8
0
  6
Continuous
100
AcDbCircle
 10
381.0140564562889
 20
-22.86404785302253
 30
0.0
 40
0.4
100
AcDbArc
 50
181.7889999999985
 51
225.0000000069952
  0
ARC
  5
1B4F
330
21
100
AcDbEntity
  8
0
  6
Continuous
100
AcDbCircle
 10
378.861734233489
 20
1.15715833017748
 30
0.0
 40
3.0
100
AcDbArc
 50
299.9999999999997
 51
0.0
  0
ARC
  5
1B50
330
21
100
AcDbEntity
  8
0
  6
Continuous
100
AcDbCircle
 10
374.104374920589
 20
7.32258894487748
 30
0.0
 40
3.0
100
AcDbArc
 50
90.0
 51
135.0000000001969
  0
ARC
  5
1B51
330
21
100
AcDbEntity
  8
0
  6
Continuous
100
AcDbCircle
 10
358.227419658489
 20
6.722588944877486
 30
0.0
 40
0.4
100
AcDbArc
 50
224.9999999919972
 51
270.0000000001042
  0
ARC
  5
1B52
330
21
100
AcDbEntity
  8
0
  6
Continuous
100
AcDbCircle
 10
378.861741459089
 20
7.322596016277486
 30
0.0
 40
2.9999990147
100
AcDbArc
 50
359.9998639397993
 51
90.00013863339784
  0
SPLINE
  5
1B53
330
21
100
AcDbEntity
  8
0
  6
Continuous
100
AcDbSpline
210
0.0
220
0.0
230
1.0
 70
     8
 71
     3
 72
    23
 73
    19
 74
     0
 42
0.0000000001
 43
0.0000000001
 40
0.0
 40
0.0
 40
0.0
 40
0.0
 40
0.1689672258034583
 40
0.674324635153346
 40
1.526049467200318
 40
2.776183329452607
 40
4.460470276969212
 40
6.296765605581457
 40
8.068604755871611
 40
9.733698090633567
 40
11.28184638356769
 40
12.72436946409753
 40
14.08491712661873
 40
15.38024034001644
 40
16.55911977622682
 40
17.61439045729721
 40
18.61647808320993
 40
19.22107378570109
 40
19.22107378570109
 40
19.22107378570109
 40
19.22107378570109
 10
385.8617342334889
 20
14.82258894487748
 30
0.0
 10
385.902210762433
 20
14.86175352504091
 30
0.0
 10
386.0637469448652
 20
15.01805390284531
 30
0.0
 10
386.4295260126573
 20
15.37155678621818
 30
0.0
 10
387.0551172439746
 20
15.97481655188525
 30
0.0
 10
387.9653339483212
 20
16.84904499789866
 30
0.0
 10
389.1159294546594
 20
17.94677202506304
 30
0.0
 10
390.3987883461919
 20
19.15776655014861
 30
0.0
 10
391.6861409755097
 20
20.35462182237964
 30
0.0
 10
392.9149222914057
 20
21.47330729616777
 30
0.0
 10
394.0775255432663
 20
22.50143220888762
 30
0.0
 10
395.1834477381124
 20
23.44005632314256
 30
0.0
 10
396.2509922204508
 20
24.29296041185998
 30
0.0
 10
397.2853426218733
 20
25.04510146874765
 30
0.0
 10
398.2852684517506
 20
25.66793038397623
 30
0.0
 10
399.2617147795668
 20
26.13391171844569
 30
0.0
 10
400.1221280708403
 20
26.37576893302551
 30
0.0
 10
400.6595559539912
 20
26.4166928848332
 30
0.0
 10
400.8617342334889
 20
26.41682730883048
 30
0.0
  0
SPLINE
  5
1B56
330
21
100
AcDbEntity
  8
0
  6
Continuous
100
AcDbSpline
210
0.0
220
0.0
230
1.0
 70
     8
 71
     3
 72
    10
 73
     6
 74
     4
 42
0.0000000001
 43
0.0000000001
 44
0.0000000001
 40
0.0
 40
0.0
 40
0.0
 40
0.0
 40
0.7926752927867324
 40
1.517103927882839
 40
2.175609439272693
 40
2.175609439272693
 40
2.175609439272693
 40
2.175609439272693
 10
383.779397178289
 20
42.90921701937747
 30
0.0
 10
383.8627069058601
 20
43.16011277594011
 30
0.0
 10
384.0221536756523
 20
43.64030301428115
 30
0.0
 10
384.3231319315363
 20
44.3018197093125
 30
0.0
 10
384.5497242454009
 20
44.70336414621583
 30
0.0
 10
384.6576196848891
 20
44.89456574857749
 30
0.0
 11
383.779397178289
 21
42.90921701937747
 31
0.0
 11
384.043094345589
 21
43.65674489427746
 31
0.0
 11
384.3419312520891
 21
44.31666409437747
 31
0.0
 11
384.6576196848891
 21
44.89456574857749
 31
0.0
  0
SPLINE
  5
1B57
330
21
100
AcDbEntity
  8
0
  6
Continuous
100
AcDbSpline
210
0.0
220
0.0
230
1.0
 70
     8
 71
     3
 72
    10
 73
     6
 74
     4
 42
0.0000000001
 43
0.0000000001
 44
0.0000000001
 40
0.0
 40
0.0
 40
0.0
 40
0.0
 40
0.6593027895099224
 40
1.383974889390211
 40
2.176935540146281
 40
2.176935540146281
 40
2.176935540146281
 40
2.176935540146281
 10
417.275956251689
 20
44.89607921717748
 30
0.0
 10
417.3837232154374
 20
44.70450461355475
 30
0.0
 10
417.609942145657
 20
44.30236094743161
 30
0.0
 10
417.9113592731654
 20
43.64058268980886
 30
0.0
 10
418.0709187329444
 20
43.16023764277837
 30
0.0
 10
418.1542882918891
 20
42.90925813477747
 30
0.0
 11
417.275956251689
 21
44.89607921717748
 31
0.0
 11
417.5914061935891
 21
44.31713923547746
 31
0.0
 11
417.8903734968889
 21
43.65701182057748
 31
0.0
 11
418.1542882918891
 21
42.90925813477747
 31
0.0
  0
SPLINE
  5
1B58
330
21
100
AcDbEntity
  8
0
  6
Continuous
100
AcDbSpline
210
0.0
220
0.0
230
1.0
 70
     8
 71
     3
 72
    12
 73
     8
 74
     6
 42
0.0000000001
 43
0.0000000001
 44
0.0000000001
 40
0.0
 40
0.0
 40
0.0
 40
0.0
 40
0.6174362474984819
 40
1.273850402652816
 40
1.976228963992316
 40
2.719296699441665
 40
3.488604880850003
 40
3.488604880850003
 40
3.488604880850003
 40
3.488604880850003
 10
414.3608773223891
 20
16.69482042537748
 30
0.0
 10
414.5397247314418
 20
16.79992094738518
 30
0.0
 10
414.9087099423977
 20
17.01675684391853
 30
0.0
 10
415.5752470990236
 20
17.11360575697009
 30
0.0
 10
416.275877145732
 20
17.04612963465705
 30
0.0
 10
416.9864608391265
 20
16.81450571578657
 30
0.0
 10
417.4114339561792
 20
16.54038096405873
 30
0.0
 10
417.627607258189
 20
16.40094049037748
 30
0.0
 11
414.3608773223891
 21
16.69482042537748
 31
0.0
 11
414.9116696631891
 21
16.97384608197748
 31
0.0
 11
415.5584951931891
 21
17.08563282907747
 31
0.0
 11
416.2580485604889
 21
17.02269850037749
 31
0.0
 11
416.963495345489
 21
16.78925794477749
 31
0.0
 11
417.627607258189
 21
16.40094049037748
 31
0.0
  0
SPLINE
  5
1B59
330
21
100
AcDbEntity
  8
0
  6
Continuous
100
AcDbSpline
210
0.0
220
0.0
230
1.0
 70
     8
 71
     3
 72
    12
 73
     8
 74
     6
 42
0.0000000001
 43
0.0000000001
 44
0.0000000001
 40
0.0
 40
0.0
 40
0.0
 40
0.0
 40
0.3854093681181017
 40
0.8051115020960272
 40
1.268036061468232
 40
1.774014498131157
 40
2.316410740729457
 40
2.316410740729457
 40
2.316410740729457
 40
2.316410740729457
 10
414.3608773223891
 20
16.69482042537748
 30
0.0
 10
414.2884013670898
 20
16.58772522716236
 30
0.0
 10
414.1370007264625
 20
16.36400576667477
 30
0.0
 10
414.0333897462303
 20
15.94643101777387
 30
0.0
 10
414.0138035814895
 20
15.48275458916138
 30
0.0
 10
414.0814861573539
 20
14.97988670654018
 30
0.0
 10
414.1918370003493
 20
14.64774767368747
 30
0.0
 10
414.248929072289
 20
14.47590933477747
 30
0.0
 11
414.3608773223891
 21
16.69482042537748
 31
0.0
 11
414.1630687345891
 21
16.36404536037747
 31
0.0
 11
414.0504136610891
 21
15.95974508127747
 31
0.0
 11
414.0274358137889
 21
15.49739114087748
 31
0.0
 11
414.094623171089
 21
14.99589334687746
 31
0.0
 11
414.248929072289
 21
14.47590933477747
 31
0.0
  0
SPLINE
  5
1B5A
330
21
100
AcDbEntity
  8
0
  6
Continuous
100
AcDbSpline
210
0.0
220
0.0
230
1.0
 70
     8
 71
     3
 72
    10
 73
     6
 74
     4
 42
0.0000000001
 43
0.0000000001
 44
0.0000000001
 40
0.0
 40
0.0
 40
0.0
 40
0.0
 40
0.3691460344400098
 40
0.7551465320987714
 40
1.164567932948779
 40
1.164567932948779
 40
1.164567932948779
 40
1.164567932948779
 10
414.360943434689
 20
16.69491546847749
 30
0.0
 10
414.2529206570465
 20
16.63579603818135
 30
0.0
 10
414.0319429996593
 20
16.51485790366906
 30
0.0
 10
413.6673869935853
 20
16.37683013890875
 30
0.0
 10
413.4091477414978
 20
16.31602707201599
 30
0.0
 10
413.2762262358889
 20
16.28473037667748
 30
0.0
 11
414.360943434689
 21
16.69491546847749
 31
0.0
 11
414.033191891089
 21
16.52506930157747
 31
0.0
 11
413.672542553389
 21
16.38748863647748
 31
0.0
 11
413.2762262358889
 21
16.28473037667748
 31
0.0
  0
SPLINE
  5
1B5B
330
21
100
AcDbEntity
  8
0
  6
Continuous
100
AcDbSpline
210
0.0
220
0.0
230
1.0
 70
     8
 71
     3
 72
    10
 73
     6
 74
     4
 42
0.0000000001
 43
0.0000000001
 44
0.0000000001
 40
0.0
 40
0.0
 40
0.0
 40
0.0
 40
0.6525621930412089
 40
1.316402139938732
 40
2.004850124694498
 40
2.004850124694498
 40
2.004850124694498
 40
2.004850124694498
 10
414.2493240731889
 20
14.47614022557746
 30
0.0
 10
414.0782122726899
 20
14.34155926781497
 30
0.0
 10
413.7330314719206
 20
14.07007148828564
 30
0.0
 10
413.1488437690492
 20
13.73822817634046
 30
0.0
 10
412.7266864056046
 20
13.57896099589713
 30
0.0
 10
412.5117666541891
 20
13.49787828647748
 30
0.0
 11
414.2493240731889
 21
14.47614022557746
 31
0.0
 11
413.7265519742891
 21
14.08556789117747
 31
0.0
 11
413.149238258989
 21
13.75786017197748
 31
0.0
 11
412.5117666541891
 21
13.49787828647748
 31
0.0
  0
SPLINE
  5
1B5C
330
21
100
AcDbEntity
  8
0
  6
Continuous
100
AcDbSpline
210
0.0
220
0.0
230
1.0
 70
     8
 71
     3
 72
    10
 73
     6
 74
     4
 42
0.0000000001
 43
0.0000000001
 44
0.0000000001
 40
0.0
 40
0.0
 40
0.0
 40
0.0
 40
0.6055799628729064
 40
1.218118918924206
 40
1.85157623705883
 40
1.85157623705883
 40
1.85157623705883
 40
1.85157623705883
 10
412.5117666541891
 20
13.49787828647748
 30
0.0
 10
412.316285489187
 20
13.44560651117553
 30
0.0
 10
411.9230767967249
 20
13.34046228196591
 30
0.0
 10
411.2984718007774
 20
13.32780683697612
 30
0.0
 10
410.8908160978514
 20
13.41087860866114
 30
0.0
 10
410.6835662900889
 20
13.45311181817749
 30
0.0
 11
412.5117666541891
 21
13.49787828647748
 31
0.0
 11
411.9209466528891
 21
13.36499180297747
 31
0.0
 11
411.3085891229891
 21
13.35008448077747
 31
0.0
 11
410.6835662900889
 21
13.45311181817749
 31
0.0
  0
SPLINE
  5
1B5D
330
21
100
AcDbEntity
  8
0
  6
Continuous
100
AcDbSpline
210
0.0
220
0.0
230
1.0
 70
     8
 71
     3
 72
    12
 73
     8
 74
     6
 42
0.0000000001
 43
0.0000000001
 44
0.0000000001
 40
0.0
 40
0.0
 40
0.0
 40
0.0
 40
0.4752618957682695
 40
1.014933599367197
 40
1.631500819877816
 40
2.317362426850098
 40
3.05184672143652
 40
3.05184672143652
 40
3.05184672143652
 40
3.05184672143652
 10
413.276222707989
 20
16.28473966747748
 30
0.0
 10
413.1479010648607
 20
16.18895305632281
 30
0.0
 10
412.8738670042793
 20
15.984398365749
 30
0.0
 10
412.6151358394449
 20
15.48898749814428
 30
0.0
 10
412.4584409162607
 20
14.89424510643034
 30
0.0
 10
412.413657834399
 20
14.21063495074676
 30
0.0
 10
412.4783274174538
 20
13.74082484287163
 30
0.0
 10
412.5117691255891
 20
13.49787828647748
 30
0.0
 11
413.276222707989
 21
16.28473966747748
 31
0.0
 11
412.9160537200891
 21
15.97465553417748
 31
0.0
 11
412.645849681289
 21
15.50749889547748
 31
0.0
 11
412.4827464605891
 21
14.91289610637747
 31
0.0
 11
412.4370877580891
 21
14.22855596667747
 31
0.0
 11
412.5117691255891
 21
13.49787828647748
 31
0.0
  0
SPLINE
  5
1B5E
330
21
100
AcDbEntity
  8
0
  6
Continuous
100
AcDbSpline
210
0.0
220
0.0
230
1.0
 70
     8
 71
     3
 72
    10
 73
     6
 74
     4
 42
0.0000000001
 43
0.0000000001
 44
0.0000000001
 40
0.0
 40
0.0
 40
0.0
 40
0.0
 40
0.3483752419835626
 40
0.702454184192095
 40
1.068551350139248
 40
1.068551350139248
 40
1.068551350139248
 40
1.068551350139248
 10
413.2762257011891
 20
16.28473022907747
 30
0.0
 10
413.1628617108768
 20
16.25860316064196
 30
0.0
 10
412.934277702214
 20
16.20592126384958
 30
0.0
 10
412.5748743433513
 20
16.19966248842468
 30
0.0
 10
412.3381379559525
 20
16.24122108269842
 30
0.0
 10
412.2177944461891
 20
16.26234714257748
 30
0.0
 11
413.2762257011891
 21
16.28473022907747
 31
0.0
 11
412.9342438238891
 21
16.21829450957747
 31
0.0
 11
412.5802442412891
 21
16.21079832157747
 31
0.0
 11
412.2177944461891
 21
16.26234714257748
 31
0.0
  0
SPLINE
  5
1B5F
330
21
100
AcDbEntity
  8
0
  6
Continuous
100
AcDbSpline
210
0.0
220
0.0
230
1.0
 70
     8
 71
     3
 72
    12
 73
     8
 74
     6
 42
0.0000000001
 43
0.0000000001
 44
0.0000000001
 40
0.0
 40
0.0
 40
0.0
 40
0.0
 40
0.5091505841432014
 40
1.112100839995273
 40
1.795180669618783
 40
2.53177825802742
 40
3.288386858596747
 40
3.288386858596747
 40
3.288386858596747
 40
3.288386858596747
 10
412.2177944462889
 20
16.26235049997748
 30
0.0
 10
412.0779496025674
 20
16.16459626109195
 30
0.0
 10
411.7724966127936
 20
15.95107873884333
 30
0.0
 10
411.4096957948076
 20
15.46472988005473
 30
0.0
 10
411.0887850230332
 20
14.87171342837705
 30
0.0
 10
410.8327756060037
 20
14.18886643189245
 30
0.0
 10
410.733744981751
 20
13.70054474964885
 30
0.0
 10
410.6835660964891
 20
13.45311181817749
 30
0.0
 11
412.2177944462889
 21
16.26235049997748
 31
0.0
 11
411.8151752683891
 21
15.95069024437748
 31
0.0
 11
411.438168931689
 21
15.48014244327748
 31
0.0
 11
411.1107594476891
 21
14.88064174817748
 31
0.0
 11
410.8537756428891
 21
14.19032636277748
 31
0.0
 11
410.6835660964891
 21
13.45311181817749
 31
0.0
  0
SPLINE
  5
1B60
330
21
100
AcDbEntity
  8
0
  6
Continuous
100
AcDbSpline
210
0.0
220
0.0
230
1.0
 70
     8
 71
     3
 72
    13
 73
     9
 74
     0
 42
0.0000000001
 43
0.0000000001
 40
0.0
 40
0.0
 40
0.0
 40
0.0
 40
2.202765202282023
 40
4.470149599391648
 40
6.564314570445544
 40
8.494907330619659
 40
10.39886999910403
 40
11.33625498012663
 40
11.33625498012663
 40
11.33625498012663
 40
11.33625498012663
 10
412.2177944461891
 20
16.26234714257748
 30
0.0
 10
411.4891970360986
 20
16.3537302037526
 30
0.0
 10
410.0106284544544
 20
16.53917709290817
 30
0.0
 10
407.8493258463701
 20
16.88184905697201
 30
0.0
 10
405.7755215863863
 20
17.19551165698641
 30
0.0
 10
403.8141607818504
 20
17.4410640277689
 30
0.0
 10
402.2266838143194
 20
17.55750248551683
 30
0.0
 10
401.2793289384108
 20
17.57467394223906
 30
0.0
 10
400.966787968289
 20
17.57467055870234
 30
0.0
  0
SPLINE
  5
1B61
330
21
100
AcDbEntity
  8
0
  6
Continuous
100
AcDbSpline
210
0.0
220
0.0
230
1.0
 70
     8
 71
     3
 72
    13
 73
     9
 74
     7
 42
0.0000000001
 43
0.0000000001
 44
0.0000000001
 40
0.0
 40
0.0
 40
0.0
 40
0.0
 40
0.5916800055786232
 40
1.248312516705688
 40
1.943744896871664
 40
2.648042025563221
 40
3.330449088767467
 40
3.962251834768686
 40
3.962251834768686
 40
3.962251834768686
 40
3.962251834768686
 10
417.627607258189
 20
16.40094049037748
 30
0.0
 10
417.4333654016998
 20
16.36485738047541
 30
0.0
 10
417.0235585154816
 20
16.28873008648586
 30
0.0
 10
416.4152534093922
 20
16.05730763845353
 30
0.0
 10
415.8008955450807
 20
15.75133214398027
 30
0.0
 10
415.2172265897216
 20
15.37388877450479
 30
0.0
 10
414.6875963686777
 20
14.95496595279417
 30
0.0
 10
414.3913491207608
 20
14.63144239438862
 30
0.0
 10
414.248929072289
 20
14.47590933477747
 30
0.0
 11
417.627607258189
 21
16.40094049037748
 31
0.0
 11
417.0491819130891
 21
16.27640395297749
 31
0.0
 11
416.4319229417889
 21
16.05244499017749
 31
0.0
 11
415.8099143738891
 21
15.74142805037749
 31
0.0
 11
415.2175058065891
 21
15.36052578617747
 31
0.0
 11
414.687417960989
 21
14.93077437447749
 31
0.0
 11
414.248929072289
 21
14.47590933477747
 31
0.0
  0
SPLINE
  5
1B62
330
21
100
AcDbEntity
  8
0
  6
Continuous
100
AcDbSpline
210
0.0
220
0.0
230
1.0
 70
     8
 71
     3
 72
    11
 73
     7
 74
     5
 42
0.0000000001
 43
0.0000000001
 44
0.0000000001
 40
0.0
 40
0.0
 40
0.0
 40
0.0
 40
0.9760339379114098
 40
2.049870623464067
 40
3.231194620059406
 40
4.531371887458059
 40
4.531371887458059
 40
4.531371887458059
 40
4.531371887458059
 10
416.831341725589
 20
10.76656898597747
 30
0.0
 10
416.6156477964186
 20
11.01029185089188
 30
0.0
 10
416.1626464899147
 20
11.52215964733721
 30
0.0
 10
415.516154493519
 20
12.38482323414007
 30
0.0
 10
414.8577919445129
 20
13.37152560662748
 30
0.0
 10
414.4585211500082
 20
14.09636314910922
 30
0.0
 10
414.2493240731889
 20
14.47614022557746
 30
0.0
 11
416.831341725589
 21
10.76656898597747
 31
0.0
 11
416.1939783723889
 21
11.50576463257746
 31
0.0
 11
415.545280440489
 21
12.36151939907748
 31
0.0
 11
414.893453345089
 21
13.34673400647747
 31
0.0
 11
414.2493240731889
 21
14.47614022557746
 31
0.0
  0
SPLINE
  5
1B63
330
21
100
AcDbEntity
  8
0
  6
Continuous
100
AcDbSpline
210
0.0
220
0.0
230
1.0
 70
     8
 71
     3
 72
    12
 73
     8
 74
     6
 42
0.0000000001
 43
0.0000000001
 44
0.0000000001
 40
0.0
 40
0.0
 40
0.0
 40
0.0
 40
0.7171063765929666
 40
1.467453160811159
 40
2.231384260944594
 40
2.986832562334512
 40
3.713224435130002
 40
3.713224435130002
 40
3.713224435130002
 40
3.713224435130002
 10
419.336271266789
 20
13.31736929407748
 30
0.0
 10
419.1113443201318
 20
13.23401434362891
 30
0.0
 10
418.6510642702011
 20
13.06344064703711
 30
0.0
 10
418.0380329047515
 20
12.62788339404632
 30
0.0
 10
417.5067396587029
 20
12.0866303782203
 30
0.0
 10
417.0796827192056
 20
11.46209735662508
 30
0.0
 10
416.9130343159118
 20
10.99536113514316
 30
0.0
 10
416.831343963689
 20
10.76656898607748
 30
0.0
 11
419.336271266789
 21
13.31736929407748
 31
0.0
 11
418.6751319083889
 21
13.03963506117748
 31
0.0
 11
418.0568801548891
 21
12.61444679007749
 31
0.0
 11
417.5216227046889
 21
12.06938698807747
 31
0.0
 11
417.104082003189
 21
11.43981419747749
 31
0.0
 11
416.831343963689
 21
10.76656898607748
 31
0.0
  0
SPLINE
  5
1B64
330
21
100
AcDbEntity
  8
0
  6
Continuous
100
AcDbSpline
210
0.0
220
0.0
230
1.0
 70
     8
 71
     3
 72
    11
 73
     7
 74
     5
 42
0.0000000001
 43
0.0000000001
 44
0.0000000001
 40
0.0
 40
0.0
 40
0.0
 40
0.0
 40
0.7600027104178552
 40
1.594953479782913
 40
2.51424098610649
 40
3.53138647451286
 40
3.53138647451286
 40
3.53138647451286
 40
3.53138647451286
 10
419.3362712661889
 20
13.31735419797749
 30
0.0
 10
419.1937718199415
 20
13.52687204043556
 30
0.0
 10
418.8947202711194
 20
13.96656943535849
 30
0.0
 10
418.4661916354842
 20
14.68729620325973
 30
0.0
 10
418.0295165587403
 20
15.50205260270081
 30
0.0
 10
417.7660919198635
 20
16.09155153709673
 30
0.0
 10
417.6277234951889
 20
16.40119622047748
 30
0.0
 11
419.3362712661889
 21
13.31735419797749
 31
0.0
 11
418.9149504098891
 21
13.94988313477748
 31
0.0
 11
418.485682558989
 21
14.66603388667747
 31
0.0
 11
418.0543315179891
 21
15.47783792627749
 31
0.0
 11
417.6277234951889
 21
16.40119622047748
 31
0.0
  0
SPLINE
  5
1B65
330
21
100
AcDbEntity
  8
0
  6
Continuous
100
AcDbSpline
210
0.0
220
0.0
230
1.0
 70
     8
 71
     3
 72
    12
 73
     8
 74
     6
 42
0.0000000001
 43
0.0000000001
 44
0.0000000001
 40
0.0
 40
0.0
 40
0.0
 40
0.0
 40
0.1737916967281143
 40
0.6893865892198383
 40
1.570873484762078
 40
2.873355143930838
 40
4.657483548164082
 40
4.657483548164082
 40
4.657483548164082
 40
4.657483548164082
 10
419.966787968289
 20
7.32258894487748
 30
0.0
 10
419.9279619004718
 20
7.365582977715684
 30
0.0
 10
419.7739489587189
 20
7.536129155773341
 30
0.0
 10
419.4227856264092
 20
7.924545208858489
 30
0.0
 10
418.8185457254708
 20
8.591352719347047
 30
0.0
 10
417.9287255088542
 20
9.570004744292536
 30
0.0
 10
417.2333082017358
 20
10.32827317821336
 30
0.0
 10
416.831341725589
 20
10.76656898597747
 30
0.0
 11
419.966787968289
 21
7.32258894487748
 31
0.0
 11
419.850303597389
 21
7.45156547447749
 31
0.0
 11
419.504525819289
 21
7.834025696377466
 31
0.0
 11
418.912628869089
 21
8.487230983677478
 31
0.0
 11
418.036150334889
 21
9.450685108977467
 31
0.0
 11
416.831341725589
 21
10.76656898597747
 31
0.0
  0
SPLINE
  5
1B66
330
21
100
AcDbEntity
  8
0
  6
Continuous
100
AcDbSpline
210
0.0
220
0.0
230
1.0
 70
     8
 71
     3
 72
    12
 73
     8
 74
     6
 42
0.0000000001
 43
0.0000000001
 44
0.0000000001
 40
0.0
 40
0.0
 40
0.0
 40
0.0
 40
0.1754052558939321
 40
0.6958926411755089
 40
1.586041709007076
 40
2.902065441351993
 40
4.70631497476241
 40
4.70631497476241
 40
4.70631497476241
 40
4.70631497476241
 10
422.9667879682891
 20
10.32258894487748
 30
0.0
 10
422.9218338663339
 20
10.35997456606941
 30
0.0
 10
422.7434855689476
 20
10.50829611174172
 30
0.0
 10
422.3368037808007
 20
10.84610253207034
 30
0.0
 10
421.6369921352065
 20
11.42604973416024
 30
0.0
 10
420.6063094667835
 20
12.27737487657747
 30
0.0
 10
419.8015886023629
 20
12.93632596805228
 30
0.0
 10
419.3362712661889
 20
13.31735419797749
 30
0.0
 11
422.9667879682891
 21
10.32258894487748
 31
0.0
 11
422.831920093389
 21
10.43473911257749
 31
0.0
 11
422.4315433457891
 21
10.76731328207748
 31
0.0
 11
421.746170912389
 21
11.33531855537748
 31
0.0
 11
420.7312845985891
 21
12.17312774257749
 31
0.0
 11
419.3362712661889
 21
13.31735419797749
 31
0.0
  0
SPLINE
  5
1B67
330
21
100
AcDbEntity
  8
0
  6
Continuous
100
AcDbSpline
210
0.0
220
0.0
230
1.0
 70
     8
 71
     3
 72
     9
 73
     5
 74
     3
 42
0.0000000001
 43
0.0000000001
 44
0.0000000001
 40
0.0
 40
0.0
 40
0.0
 40
0.0
 40
0.767602335382485
 40
1.428599660943285
 40
1.428599660943285
 40
1.428599660943285
 40
1.428599660943285
 10
418.152696242389
 20
17.72861267407748
 30
0.0
 10
418.0726166045959
 20
17.48530414600189
 30
0.0
 10
417.9235788305737
 20
17.03247790422112
 30
0.0
 10
417.7213107211973
 20
16.60088807844105
 30
0.0
 10
417.6277234951889
 20
16.40119622047748
 30
0.0
 11
418.152696242389
 21
17.72861267407748
 31
0.0
 11
417.8970895646889
 21
17.00481810957748
 31
0.0
 11
417.6277234951889
 21
16.40119622047748
 31
0.0
  0
SPLINE
  5
1B68
330
21
100
AcDbEntity
  8
0
  6
Continuous
100
AcDbSpline
210
0.0
220
0.0
230
1.0
 70
     8
 71
     3
 72
    13
 73
     9
 74
     7
 42
0.0000000001
 43
0.0000000001
 44
0.0000000001
 40
0.0
 40
0.0
 40
0.0
 40
0.0
 40
0.4964275712249949
 40
1.0361532127291
 40
1.628763152405077
 40
2.271483961911642
 40
2.952348873641589
 40
3.653553864793911
 40
3.653553864793911
 40
3.653553864793911
 40
3.653553864793911
 10
414.741397529189
 20
17.48969647577749
 30
0.0
 10
414.8600077260827
 20
17.6070027756714
 30
0.0
 10
415.1075732194144
 20
17.85184675000686
 30
0.0
 10
415.6200753604151
 20
18.06349301283094
 30
0.0
 10
416.2057679317638
 20
18.16517137281143
 30
0.0
 10
416.8479960406187
 20
18.14032558663584
 30
0.0
 10
417.513342432188
 20
18.00352587609227
 30
0.0
 10
417.9374990106405
 20
17.82114815925963
 30
0.0
 10
418.1526984800891
 20
17.72861726407748
 30
0.0
 11
414.741397529189
 21
17.48969647577749
 31
0.0
 11
415.115239806189
 21
17.81631901847748
 31
0.0
 11
415.607370975089
 21
18.03792831587748
 31
0.0
 11
416.190711984289
 21
18.14233045947748
 31
0.0
 11
416.833165054189
 21
18.12378074387749
 31
0.0
 11
417.499379826289
 21
17.98329976487747
 31
0.0
 11
418.1526984800891
 21
17.72861726407748
 31
0.0
  0
SPLINE
  5
1B69
330
21
100
AcDbEntity
  8
0
  6
Continuous
100
AcDbSpline
210
0.0
220
0.0
230
1.0
 70
     8
 71
     3
 72
     9
 73
     5
 74
     3
 42
0.0000000001
 43
0.0000000001
 44
0.0000000001
 40
0.0
 40
0.0
 40
0.0
 40
0.0
 40
0.4727146752015827
 40
0.8822876415554596
 40
0.8822876415554596
 40
0.8822876415554596
 40
0.8822876415554596
 10
414.7414047103891
 20
17.48969197367748
 30
0.0
 10
414.6840424112266
 20
17.34263430554928
 30
0.0
 10
414.5769798419915
 20
17.06816183834661
 30
0.0
 10
414.4294358646289
 20
16.81324992496
 30
0.0
 10
414.360943434689
 20
16.69491546847749
 30
0.0
 11
414.7414047103891
 21
17.48969197367748
 31
0.0
 11
414.557697083489
 21
17.05413408777747
 31
0.0
 11
414.360943434689
 21
16.69491546847749
 31
0.0
  0
SPLINE
  5
1B6A
330
21
100
AcDbEntity
  8
0
  6
Continuous
100
AcDbSpline
210
0.0
220
0.0
230
1.0
 70
     8
 71
     3
 72
    11
 73
     7
 74
     5
 42
0.0000000001
 43
0.0000000001
 44
0.0000000001
 40
0.0
 40
0.0
 40
0.0
 40
0.0
 40
0.7759072698616595
 40
1.519841814603016
 40
2.199720857479837
 40
2.797554095943863
 40
2.797554095943863
 40
2.797554095943863
 40
2.797554095943863
 10
418.2512593004889
 20
20.50038832717749
 30
0.0
 10
418.290046986999
 20
20.24437140098417
 30
0.0
 10
418.3660240401075
 20
19.74288720978163
 30
0.0
 10
418.3731848522955
 20
19.00784346590898
 30
0.0
 10
418.3111026879
 20
18.33430460089952
 30
0.0
 10
418.2031885590581
 20
17.92167797817162
 30
0.0
 10
418.152696242389
 20
17.72861267407748
 30
0.0
 11
418.2512593004889
 21
20.50038832717749
 31
0.0
 11
418.349110014889
 21
19.73067582947749
 31
0.0
 11
418.3601914987889
 21
18.98682382297747
 31
0.0
 11
418.2891380767889
 21
18.31066783197747
 31
0.0
 11
418.152696242389
 21
17.72861267407748
 31
0.0
  0
SPLINE
  5
1B6B
330
21
100
AcDbEntity
  8
0
  6
Continuous
100
AcDbSpline
210
0.0
220
0.0
230
1.0
 70
     8
 71
     3
 72
    13
 73
     9
 74
     7
 42
0.0000000001
 43
0.0000000001
 44
0.0000000001
 40
0.0
 40
0.0
 40
0.0
 40
0.0
 40
0.4970477979280845
 40
1.078831994725301
 40
1.725696696193831
 40
2.411260899880757
 40
3.105696510569284
 40
3.77842802947017
 40
3.77842802947017
 40
3.77842802947017
 40
3.77842802947017
 10
414.827644637289
 20
19.07158246707749
 30
0.0
 10
414.9468061579784
 20
19.18729995492338
 30
0.0
 10
415.2054437811523
 20
19.43846237583696
 30
0.0
 10
415.6986422613329
 20
19.7417053582411
 30
0.0
 10
416.2736931718283
 20
20.01925708465018
 30
0.0
 10
416.9118334864378
 20
20.24467651752588
 30
0.0
 10
417.5759133502268
 20
20.41615278879897
 30
0.0
 10
418.0285366429334
 20
20.4726041403697
 30
0.0
 10
418.2512555399889
 20
20.50038172707747
 30
0.0
 11
414.827644637289
 21
19.07158246707749
 31
0.0
 11
415.1956766926889
 21
19.40566167867749
 31
0.0
 11
415.6840684931889
 21
19.72180452747747
 31
0.0
 11
416.2665989877892
 21
20.00303782007748
 31
0.0
 11
416.9119929578889
 21
20.23426260407749
 31
0.0
 11
417.585600138489
 21
20.40306480677748
 31
0.0
 11
418.2512555399889
 21
20.50038172707747
 31
0.0
  0
SPLINE
  5
1B6C
330
21
100
AcDbEntity
  8
0
  6
Continuous
100
AcDbSpline
210
0.0
220
0.0
230
1.0
 70
     8
 71
     3
 72
    11
 73
     7
 74
     5
 42
0.0000000001
 43
0.0000000001
 44
0.0000000001
 40
0.0
 40
0.0
 40
0.0
 40
0.0
 40
0.4526529888531035
 40
0.8799240574430104
 40
1.269513746548001
 40
1.616339355954483
 40
1.616339355954483
 40
1.616339355954483
 40
1.616339355954483
 10
414.8276474024889
 20
19.07158240937747
 30
0.0
 10
414.8615235599007
 20
18.92415490571222
 30
0.0
 10
414.9273763138079
 20
18.63756670150637
 30
0.0
 10
414.9347339473004
 20
18.21202878513489
 30
0.0
 10
414.8791341687788
 20
17.82472532788627
 30
0.0
 10
414.7855021630734
 20
17.59696107070505
 30
0.0
 10
414.741404793689
 20
17.48969214587748
 30
0.0
 11
414.8276474024889
 21
19.07158240937747
 31
0.0
 11
414.9131987490891
 21
18.62708753267748
 31
0.0
 11
414.922978915589
 21
18.19992841197748
 31
0.0
 11
414.860732945589
 21
17.81534348627747
 31
0.0
 11
414.741404793689
 21
17.48969214587748
 31
0.0
  0
SPLINE
  5
1B6D
330
21
100
AcDbEntity
  8
0
  6
Continuous
100
AcDbSpline
210
0.0
220
0.0
230
1.0
 70
     8
 71
     3
 72
    10
 73
     6
 74
     4
 42
0.0000000001
 43
0.0000000001
 44
0.0000000001
 40
0.0
 40
0.0
 40
0.0
 40
0.0
 40
2.396910567234753
 40
4.572183471685455
 40
6.516723268616014
 40
6.516723268616014
 40
6.516723268616014
 40
6.516723268616014
 10
417.275956251689
 20
26.94111604517747
 30
0.0
 10
417.3583352148174
 20
26.14616957037622
 30
0.0
 10
417.5154757184218
 20
24.62978377666089
 30
0.0
 10
417.8828096858098
 20
22.48783320004099
 30
0.0
 10
418.1331156175307
 20
21.13766421946187
 30
0.0
 10
418.2512593004889
 20
20.50038832717749
 30
0.0
 11
417.275956251689
 21
26.94111604517747
 31
0.0
 11
417.5507361056891
 21
24.56000783697749
 31
0.0
 11
417.9008563079889
 21
22.41309655497747
 31
0.0
 11
418.2512593004889
 21
20.50038832717749
 31
0.0
  0
SPLINE
  5
1B6E
330
21
100
AcDbEntity
  8
0
  6
Continuous
100
AcDbSpline
210
0.0
220
0.0
230
1.0
 70
     8
 71
     3
 72
    12
 73
     8
 74
     6
 42
0.0000000001
 43
0.0000000001
 44
0.0000000001
 40
0.0
 40
0.0
 40
0.0
 40
0.0
 40
0.6192549079478775
 40
1.299941408621443
 40
2.004845755702323
 40
2.695374078694961
 40
3.333746617114633
 40
3.333746617114633
 40
3.333746617114633
 40
3.333746617114633
 10
413.9742567861889
 20
26.49280004177749
 30
0.0
 10
414.1769919437507
 20
26.53168478082039
 30
0.0
 10
414.6025740795004
 20
26.61331171957622
 30
0.0
 10
415.2629481307062
 20
26.71660476266844
 30
0.0
 10
415.9487278495969
 20
26.80956359171476
 30
0.0
 10
416.6223524310641
 20
26.8869017086726
 30
0.0
 10
417.063864168479
 20
26.92306558091536
 30
0.0
 10
417.275955963089
 20
26.9404378496775
 30
0.0
 11
413.9742567861889
 21
26.49280004177749
 31
0.0
 11
414.583053231089
 21
26.60612933937748
 31
0.0
 11
415.2552817367891
 21
26.71310105677747
 31
0.0
 11
415.9537954979889
 21
26.80780408707747
 31
0.0
 11
416.6399947108891
 21
26.88500515617747
 31
0.0
 11
417.275955963089
 21
26.9404378496775
 31
0.0
  0
SPLINE
  5
1B6F
330
21
100
AcDbEntity
  8
0
  6
Continuous
100
AcDbSpline
210
0.0
220
0.0
230
1.0
 70
     8
 71
     3
 72
    10
 73
     6
 74
     4
 42
0.0000000001
 43
0.0000000001
 44
0.0000000001
 40
0.0
 40
0.0
 40
0.0
 40
0.0
 40
2.731648361627544
 40
5.229618598891859
 40
7.468934248683715
 40
7.468934248683715
 40
7.468934248683715
 40
7.468934248683715
 10
413.974456403889
 20
26.48999076807749
 30
0.0
 10
414.0466978488325
 20
25.58216259035768
 30
0.0
 10
414.1850008637427
 20
23.84416615220232
 30
0.0
 10
414.5059219570074
 20
21.37466084171005
 30
0.0
 10
414.7243815217567
 20
19.81081336894644
 30
0.0
 10
414.827647386189
 20
19.07158246687749
 30
0.0
 11
413.974456403889
 21
26.48999076807749
 31
0.0
 11
414.214754301789
 21
23.76893220717747
 31
0.0
 11
414.5211814641891
 21
21.28982799387748
 31
0.0
 11
414.827647386189
 21
19.07158246687749
 31
0.0
  0
SPLINE
  5
1B70
330
21
100
AcDbEntity
  8
0
  6
Continuous
100
AcDbSpline
210
0.0
220
0.0
230
1.0
 70
     8
 71
     3
 72
    10
 73
     6
 74
     4
 42
0.0000000001
 43
0.0000000001
 44
0.0000000001
 40
0.0
 40
0.0
 40
0.0
 40
0.0
 40
0.5693160673839439
 40
1.189736092772978
 40
1.833438542110798
 40
1.833438542110798
 40
1.833438542110798
 40
1.833438542110798
 10
413.9742567861889
 20
26.49280004177749
 30
0.0
 10
414.1531672164686
 20
26.5561515553721
 30
0.0
 10
414.5270477522058
 20
26.68854125342092
 30
0.0
 10
415.1135788343855
 20
26.86144725584646
 30
0.0
 10
415.5224958627293
 20
26.96322033732783
 30
0.0
 10
415.7307200640891
 20
27.01504409897748
 30
0.0
 11
413.9742567861889
 21
26.49280004177749
 31
0.0
 11
414.5125280384891
 21
26.67823154807749
 31
0.0
 11
415.107218049889
 21
26.85505009417747
 31
0.0
 11
415.7307200640891
 21
27.01504409897748
 31
0.0
  0
SPLINE
  5
1B71
330
21
100
AcDbEntity
  8
0
  6
Continuous
100
AcDbSpline
210
0.0
220
0.0
230
1.0
 70
     8
 71
     3
 72
    12
 73
     8
 74
     6
 42
0.0000000001
 43
0.0000000001
 44
0.0000000001
 40
0.0
 40
0.0
 40
0.0
 40
0.0
 40
1.411263208668643
 40
2.718098343526043
 40
3.987431354166504
 40
5.297748810169891
 40
6.714810664064957
 40
6.714810664064957
 40
6.714810664064957
 40
6.714810664064957
 10
415.7307199907891
 20
33.63013379057747
 30
0.0
 10
415.6110943589746
 20
33.17484407201497
 30
0.0
 10
415.3806949340616
 20
32.29795433079044
 30
0.0
 10
415.2053284682419
 20
30.97612993959389
 30
0.0
 10
415.2046493368139
 20
29.67718650978496
 30
0.0
 10
415.3795215634536
 20
28.3521265043237
 30
0.0
 10
415.6106386879412
 20
27.47221755078771
 30
0.0
 10
415.7307199907891
 20
27.01504409917749
 30
0.0
 11
415.7307199907891
 21
33.63013379057747
 31
0.0
 11
415.401728054989
 21
32.25775332207749
 31
0.0
 11
415.2327188062891
 21
30.96189301187749
 31
0.0
 11
415.232093663589
 21
29.69256015517749
 31
0.0
 11
415.4006522113891
 21
28.39312956777749
 31
0.0
 11
415.7307199907891
 21
27.01504409917749
 31
0.0
  0
SPLINE
  5
1B72
330
21
100
AcDbEntity
  8
0
  6
Continuous
100
AcDbSpline
210
0.0
220
0.0
230
1.0
 70
     8
 71
     3
 72
    10
 73
     6
 74
     4
 42
0.0000000001
 43
0.0000000001
 44
0.0000000001
 40
0.0
 40
0.0
 40
0.0
 40
0.0
 40
0.5693614327448588
 40
1.189741794045552
 40
1.833438075094058
 40
1.833438075094058
 40
1.833438075094058
 40
1.833438075094058
 10
413.9742568473891
 20
34.15237783487749
 30
0.0
 10
414.1531822465819
 20
34.08902330041163
 30
0.0
 10
414.5270660630702
 20
33.95663720405637
 30
0.0
 10
415.1135970344842
 20
33.78373198333592
 30
0.0
 10
415.5224983173544
 20
33.68195892428825
 30
0.0
 10
415.7307200550889
 20
33.63013379167748
 30
0.0
 11
413.9742568473891
 21
34.15237783487749
 31
0.0
 11
414.512572909189
 21
33.96693712007749
 31
0.0
 11
415.107225206389
 21
33.79013090377748
 31
0.0
 11
415.7307200550889
 21
33.63013379167748
 31
0.0
  0
SPLINE
  5
1B73
330
21
100
AcDbEntity
  8
0
  6
Continuous
100
AcDbSpline
210
0.0
220
0.0
230
1.0
 70
     8
 71
     3
 72
    12
 73
     8
 74
     6
 42
0.0000000001
 43
0.0000000001
 44
0.0000000001
 40
0.0
 40
0.0
 40
0.0
 40
0.0
 40
1.596249652392763
 40
3.100385833396418
 40
4.573685610139346
 40
6.082101504253848
 40
7.686850750327443
 40
7.686850750327443
 40
7.686850750327443
 40
7.686850750327443
 10
413.9744488260889
 20
34.15509833347747
 30
0.0
 10
413.9145837403678
 20
33.62631930491049
 30
0.0
 10
413.7983081543988
 20
32.59927506611695
 30
0.0
 10
413.711636765138
 20
31.07622477612866
 30
0.0
 10
413.7112336087396
 20
29.58022159526061
 30
0.0
 10
413.7976015936021
 20
28.05287524341729
 30
0.0
 10
413.914301089435
 20
27.02158958021468
 30
0.0
 10
413.974456403889
 20
26.48999076807749
 30
0.0
 11
413.9744488260889
 21
34.15509833347747
 31
0.0
 11
413.810101590689
 21
32.56733168217747
 31
0.0
 11
413.7253834229891
 21
31.06558320687748
 31
0.0
 11
413.7250107148891
 21
29.59228347727748
 31
0.0
 11
413.8094217256889
 21
28.08623125677747
 31
0.0
 11
413.974456403889
 21
26.48999076807749
 31
0.0
  0
SPLINE
  5
1B74
330
21
100
AcDbEntity
  8
0
  6
Continuous
100
AcDbSpline
210
0.0
220
0.0
230
1.0
 70
     8
 71
     3
 72
    12
 73
     8
 74
     6
 42
0.0000000001
 43
0.0000000001
 44
0.0000000001
 40
0.0
 40
0.0
 40
0.0
 40
0.0
 40
0.6194966158698284
 40
1.300455287215943
 40
2.005618083441215
 40
2.696295760424092
 40
3.333745847204244
 40
3.333745847204244
 40
3.333745847204244
 40
3.333745847204244
 10
413.9742568473891
 20
34.15237783487749
 30
0.0
 10
414.177071700514
 20
34.1134808371237
 30
0.0
 10
414.6028232563991
 20
34.03182775768804
 30
0.0
 10
415.2634536420854
 20
33.92850723332866
 30
0.0
 10
415.9494597038329
 20
33.83553050954107
 30
0.0
 10
416.6229159407446
 20
33.75823052430008
 30
0.0
 10
417.0641707180907
 20
33.72208737204111
 30
0.0
 10
417.2759559873891
 20
33.70474005337749
 30
0.0
 11
413.9742568473891
 21
34.15237783487749
 31
0.0
 11
414.5832926232889
 21
34.03901346327748
 31
0.0
 11
415.2557918301891
 21
33.93201099227747
 31
0.0
 11
415.9545636138891
 21
33.83728737597747
 31
0.0
 11
416.6409132433891
 21
33.76008737877749
 31
0.0
 11
417.2759559873891
 21
33.70474005337749
 31
0.0
  0
SPLINE
  5
1B75
330
21
100
AcDbEntity
  8
0
  6
Continuous
100
AcDbSpline
210
0.0
220
0.0
230
1.0
 70
     8
 71
     3
 72
    10
 73
     6
 74
     4
 42
0.0000000001
 43
0.0000000001
 44
0.0000000001
 40
0.0
 40
0.0
 40
0.0
 40
0.0
 40
1.938906784164741
 40
4.114831208332114
 40
6.51666896013207
 40
6.51666896013207
 40
6.51666896013207
 40
6.51666896013207
 10
418.2512593004889
 20
40.14478956257747
 30
0.0
 10
418.1334639749285
 20
39.50935867708543
 30
0.0
 10
417.8834736784531
 20
38.16081997490788
 30
0.0
 10
417.515920753972
 20
36.01892542869621
 30
0.0
 10
417.3585334490413
 20
34.50069357135888
 30
0.0
 10
417.275956251689
 20
33.70411514487748
 30
0.0
 11
418.2512593004889
 21
40.14478956257747
 31
0.0
 11
417.901848917689
 21
38.23762624967748
 31
0.0
 11
417.551438521589
 21
36.09010217437748
 31
0.0
 11
417.275956251689
 21
33.70411514487748
 31
0.0
  0
SPLINE
  5
1B76
330
21
100
AcDbEntity
  8
0
  6
Continuous
100
AcDbSpline
210
0.0
220
0.0
230
1.0
 70
     8
 71
     3
 72
    13
 73
     9
 74
     7
 42
0.0000000001
 43
0.0000000001
 44
0.0000000001
 40
0.0
 40
0.0
 40
0.0
 40
0.0
 40
0.497046780790153
 40
1.078830180872206
 40
1.725694589847
 40
2.411259154309803
 40
3.105695838376716
 40
3.77842913676013
 40
3.77842913676013
 40
3.77842913676013
 40
3.77842913676013
 10
414.827654476189
 20
41.57359542327748
 30
0.0
 10
414.9468148636908
 20
41.45787723918336
 30
0.0
 10
415.2054501217182
 20
41.20671321539069
 30
0.0
 10
415.698646688355
 20
40.90346826923341
 30
0.0
 10
416.2736964406183
 20
40.62591469428104
 30
0.0
 10
416.9118366375919
 20
40.40049369927583
 30
0.0
 10
417.5759173126603
 20
40.22901619725177
 30
0.0
 10
418.0285415161104
 20
40.17256441729219
 30
0.0
 10
418.251260985689
 20
40.14478660427747
 30
0.0
 11
414.827654476189
 21
41.57359542327748
 31
0.0
 11
415.1956833422891
 21
41.23951421157747
 31
0.0
 11
415.6840728922891
 21
40.92336935227748
 31
0.0
 11
416.266602155189
 21
40.64213418117748
 31
0.0
 11
416.911995929089
 21
40.41090777987747
 31
0.0
 11
417.585603903289
 21
40.24210432827749
 31
0.0
 11
418.251260985689
 21
40.14478660427747
 31
0.0
  0
SPLINE
  5
1B77
330
21
100
AcDbEntity
  8
0
  6
Continuous
100
AcDbSpline
210
0.0
220
0.0
230
1.0
 70
     8
 71
     3
 72
    10
 73
     6
 74
     4
 42
0.0000000001
 43
0.0000000001
 44
0.0000000001
 40
0.0
 40
0.0
 40
0.0
 40
0.0
 40
2.232788679718848
 40
4.731598161469021
 40
7.469022375957871
 40
7.469022375957871
 40
7.469022375957871
 40
7.469022375957871
 10
414.827647386189
 20
41.57359542277748
 30
0.0
 10
414.7246888346837
 20
40.83651831820973
 30
0.0
 10
414.506504956632
 20
39.27454664372377
 30
0.0
 10
414.1853892507169
 20
36.80503703357754
 30
0.0
 10
414.0468664583294
 20
35.06484470656997
 30
0.0
 10
413.9744488260889
 20
34.15509833347747
 30
0.0
 11
414.827647386189
 21
41.57359542277748
 31
0.0
 11
414.5220580885891
 21
39.36181775097748
 31
0.0
 11
414.2153694822891
 21
36.88190022717748
 31
0.0
 11
413.9744488260889
 21
34.15509833347747
 31
0.0
  0
SPLINE
  5
1B78
330
21
100
AcDbEntity
  8
0
  6
Continuous
100
AcDbSpline
210
0.0
220
0.0
230
1.0
 70
     8
 71
     3
 72
    12
 73
     8
 74
     6
 42
0.0000000001
 43
0.0000000001
 44
0.0000000001
 40
0.0
 40
0.0
 40
0.0
 40
0.0
 40
0.5342523962488338
 40
1.127790787859421
 40
1.722767164095007
 40
2.281167010711439
 40
2.790608720672549
 40
2.790608720672549
 40
2.790608720672549
 40
2.790608720672549
 10
418.1542882918891
 20
42.90925813477747
 30
0.0
 10
418.2000546219994
 20
42.73695935346991
 30
0.0
 10
418.2966659724678
 20
42.3732417928517
 30
0.0
 10
418.361463909233
 20
41.80066613681759
 30
0.0
 10
418.372337120409
 20
41.21801520700049
 30
0.0
 10
418.3348268080562
 20
40.66405080782477
 30
0.0
 10
418.2782505041969
 20
40.31250410206906
 30
0.0
 10
418.2512593004889
 20
40.14478956257747
 30
0.0
 11
418.1542882918891
 21
42.90925813477747
 31
0.0
 11
418.279426213589
 21
42.38986798907748
 31
0.0
 11
418.3521059621889
 21
41.80079628167749
 31
0.0
 11
418.3637307848889
 21
41.20593348087749
 31
0.0
 11
418.324838672989
 21
40.64888968337749
 31
0.0
 11
418.2512593004889
 21
40.14478956257747
 31
0.0
  0
SPLINE
  5
1B79
330
21
100
AcDbEntity
  8
0
  6
Continuous
100
AcDbSpline
210
0.0
220
0.0
230
1.0
 70
     8
 71
     3
 72
    13
 73
     9
 74
     7
 42
0.0000000001
 43
0.0000000001
 44
0.0000000001
 40
0.0
 40
0.0
 40
0.0
 40
0.0
 40
0.496427109629488
 40
1.03615165373045
 40
1.628759581716164
 40
2.271477553372251
 40
2.952339121521822
 40
3.653540698647349
 40
3.653540698647349
 40
3.653540698647349
 40
3.653540698647349
 10
414.741403859289
 20
43.15548538247748
 30
0.0
 10
414.8600146697211
 20
43.03817996187884
 30
0.0
 10
415.1075813013486
 20
42.79333796355296
 30
0.0
 10
415.6200826541564
 20
42.58169353579433
 30
0.0
 10
416.2057733710879
 20
42.48001617402075
 30
0.0
 10
416.8479986909755
 20
42.50486198679846
 30
0.0
 10
417.5133419448722
 20
42.6416608540053
 30
0.0
 10
417.9374966145319
 20
42.82403727721314
 30
0.0
 10
418.1526951199889
 20
42.91656751797748
 30
0.0
 11
414.741403859289
 21
43.15548538247748
 31
0.0
 11
415.115247672689
 21
42.82886529987749
 31
0.0
 11
415.6073785030889
 21
42.60725792347748
 31
0.0
 11
416.1907176652889
 21
42.50285687867747
 31
0.0
 11
416.8331678927891
 21
42.52140671087746
 31
0.0
 11
417.499379435389
 21
42.66188680017748
 31
0.0
 11
418.1526951199889
 21
42.91656751797748
 31
0.0
  0
SPLINE
  5
1B7A
330
21
100
AcDbEntity
  8
0
  6
Continuous
100
AcDbSpline
210
0.0
220
0.0
230
1.0
 70
     8
 71
     3
 72
    12
 73
     8
 74
     6
 42
0.0000000001
 43
0.0000000001
 44
0.0000000001
 40
0.0
 40
0.0
 40
0.0
 40
0.0
 40
0.3148084028761613
 40
0.6549743668754333
 40
0.9955931457408895
 40
1.318202963888672
 40
1.617034910569376
 40
1.617034910569376
 40
1.617034910569376
 40
1.617034910569376
 10
414.7414046690889
 20
43.15548600147747
 30
0.0
 10
414.7819203316603
 20
43.05840956250077
 30
0.0
 10
414.8662151605114
 20
42.85643725624599
 30
0.0
 10
414.9242539515719
 20
42.52705387691938
 30
0.0
 10
414.9335692000271
 20
42.19204627233778
 30
0.0
 10
414.9002614303587
 20
41.87186959747726
 30
0.0
 10
414.8512266953551
 20
41.6704513150943
 30
0.0
 10
414.827647421889
 20
41.57359555027747
 30
0.0
 11
414.7414046690889
 21
43.15548600147747
 31
0.0
 11
414.8522988497891
 21
42.86085604507746
 31
0.0
 11
414.915896999189
 21
42.52668818537748
 31
0.0
 11
414.9260559154891
 21
42.18622093447748
 31
0.0
 11
414.8920217477892
 21
41.86541138007749
 31
0.0
 11
414.827647421889
 21
41.57359555027747
 31
0.0
  0
SPLINE
  5
1B7B
330
21
100
AcDbEntity
  8
0
  6
Continuous
100
AcDbSpline
210
0.0
220
0.0
230
1.0
 70
     8
 71
     3
 72
    13
 73
     9
 74
     7
 42
0.0000000001
 43
0.0000000001
 44
0.0000000001
 40
0.0
 40
0.0
 40
0.0
 40
0.0
 40
0.520421834892
 40
1.058879987547334
 40
1.619535490338344
 40
2.202556175815284
 40
2.804515733498576
 40
3.41922963090459
 40
3.41922963090459
 40
3.41922963090459
 40
3.41922963090459
 10
414.1041869055891
 20
44.32832454827749
 30
0.0
 10
414.2631001999783
 20
44.25670439340611
 30
0.0
 10
414.5864342645814
 20
44.11098193594216
 30
0.0
 10
415.1294076224335
 20
44.04376561795591
 30
0.0
 10
415.6915526182827
 20
44.08627726199859
 30
0.0
 10
416.2538422350383
 20
44.24854888598954
 30
0.0
 10
416.7973233010468
 20
44.51314498506663
 30
0.0
 10
417.1153008195571
 20
44.76653099071442
 30
0.0
 10
417.275956251689
 20
44.89455211127747
 30
0.0
 11
414.1041869055891
 21
44.32832454827749
 31
0.0
 11
414.588577151589
 21
44.13804849667747
 31
0.0
 11
415.1216809154891
 21
44.06230181967749
 31
0.0
 11
415.680760036689
 21
44.10431525857748
 31
0.0
 11
416.2419685155889
 21
44.26229678567747
 31
0.0
 11
416.7813694821891
 21
44.52950813707746
 31
0.0
 11
417.275956251689
 21
44.89455211127747
 31
0.0
  0
SPLINE
  5
1B7C
330
21
100
AcDbEntity
  8
0
  6
Continuous
100
AcDbSpline
210
0.0
220
0.0
230
1.0
 70
     8
 71
     3
 72
    12
 73
     8
 74
     6
 42
0.0000000001
 43
0.0000000001
 44
0.0000000001
 40
0.0
 40
0.0
 40
0.0
 40
0.0
 40
0.27349694300402
 40
0.5455989924638627
 40
0.8141772306740316
 40
1.078550375462956
 40
1.339843473250503
 40
1.339843473250503
 40
1.339843473250503
 40
1.339843473250503
 10
414.1040534967889
 20
44.32845789377748
 30
0.0
 10
414.1576670645907
 20
44.25469408930815
 30
0.0
 10
414.2646207594066
 20
44.10754269172131
 30
0.0
 10
414.4078279041296
 20
43.87671136336455
 30
0.0
 10
414.535879055288
 20
43.6407729802064
 30
0.0
 10
414.6485767423719
 20
43.40091626401923
 30
0.0
 10
414.7105831595408
 20
43.23697583882564
 30
0.0
 10
414.7414047103891
 20
43.15548591597749
 30
0.0
 11
414.1040534967889
 21
44.32845789377748
 31
0.0
 11
414.262133318289
 21
44.10527333367747
 31
0.0
 11
414.4061426875889
 21
43.87440361527748
 31
0.0
 11
414.5342244843891
 21
43.63833302547749
 31
0.0
 11
414.6458313322892
 21
43.39867270087748
 31
0.0
 11
414.7414047103891
 21
43.15548591597749
 31
0.0
  0
SPLINE
  5
1B7D
330
21
100
AcDbEntity
  8
0
  6
Continuous
100
AcDbSpline
210
0.0
220
0.0
230
1.0
 70
     8
 71
     3
 72
    11
 73
     7
 74
     5
 42
0.0000000001
 43
0.0000000001
 44
0.0000000001
 40
0.0
 40
0.0
 40
0.0
 40
0.0
 40
0.3585201823742742
 40
0.7561235796746485
 40
1.20284119894369
 40
1.698125401664687
 40
1.698125401664687
 40
1.698125401664687
 40
1.698125401664687
 10
414.1041869055891
 20
44.32832454827749
 30
0.0
 10
414.2189509692092
 20
44.2918017801118
 30
0.0
 10
414.4609898246725
 20
44.21477480209848
 30
0.0
 10
414.8683827011947
 20
44.24204945622286
 30
0.0
 10
415.3027728851237
 20
44.35429779336499
 30
0.0
 10
415.5832507769066
 20
44.4977091531908
 30
0.0
 10
415.730719991689
 20
44.57311174727749
 30
0.0
 11
414.1041869055891
 21
44.32832454827749
 31
0.0
 11
414.4516388258889
 21
44.23992837047748
 31
0.0
 11
414.849047229889
 21
44.25237915257747
 31
0.0
 11
415.2814061101889
 21
44.36472874087747
 31
0.0
 11
415.730719991689
 21
44.57311174727749
 31
0.0
  0
SPLINE
  5
1B7E
330
21
100
AcDbEntity
  8
0
  6
Continuous
100
AcDbSpline
210
0.0
220
0.0
230
1.0
 70
     8
 71
     3
 72
    13
 73
     9
 74
     7
 42
0.0000000001
 43
0.0000000001
 44
0.0000000001
 40
0.0
 40
0.0
 40
0.0
 40
0.0
 40
0.5208218753363305
 40
1.057345044790155
 40
1.603511102739907
 40
2.160584533909046
 40
2.735896061664744
 40
3.337952671026859
 40
3.337952671026859
 40
3.337952671026859
 40
3.337952671026859
 10
412.5770382748889
 20
45.51172309977746
 30
0.0
 10
412.7506996663774
 20
45.50742259753091
 30
0.0
 10
413.1032578450125
 20
45.49869194516043
 30
0.0
 10
413.633908508808
 20
45.42624613088482
 30
0.0
 10
414.1676364864788
 20
45.30482182255423
 30
0.0
 10
414.698448627499
 20
45.12552449762418
 30
0.0
 10
415.2276924730693
 20
44.88870913054419
 30
0.0
 10
415.5605239528092
 20
44.67996485955159
 30
0.0
 10
415.7307199907891
 20
44.57322180777748
 30
0.0
 11
412.5770382748889
 21
45.51172309977746
 31
0.0
 11
413.097379358189
 21
45.48934939067748
 31
0.0
 11
413.6292711802891
 21
45.41900594077747
 31
0.0
 11
414.1615828547889
 21
45.29676992297749
 31
0.0
 11
414.6896407069889
 21
45.11932778467746
 31
0.0
 11
415.213221258489
 21
44.88090219867749
 31
0.0
 11
415.7307199907891
 21
44.57322180777748
 31
0.0
  0
SPLINE
  5
1B7F
330
21
100
AcDbEntity
  8
0
  6
Continuous
100
AcDbSpline
210
0.0
220
0.0
230
1.0
 70
     8
 71
     3
 72
    13
 73
     9
 74
     7
 42
0.0000000001
 43
0.0000000001
 44
0.0000000001
 40
0.0
 40
0.0
 40
0.0
 40
0.0
 40
0.2610639331373026
 40
0.5275933728629597
 40
0.7983847807966175
 40
1.076399874615572
 40
1.367371346255088
 40
1.677742943164136
 40
1.677742943164136
 40
1.677742943164136
 40
1.677742943164136
 10
412.5770382748889
 20
44.92142334577747
 30
0.0
 10
412.6641282252608
 20
44.91933950264156
 30
0.0
 10
412.8401313985332
 20
44.91512819005089
 30
0.0
 10
413.1033366563232
 20
44.86993584252726
 30
0.0
 10
413.3646638025336
 20
44.79292806081352
 30
0.0
 10
413.6208954277262
 20
44.67853785837582
 30
0.0
 10
413.8730112527583
 20
44.52658965380339
 30
0.0
 10
414.0254006540191
 20
44.39590714417074
 30
0.0
 10
414.1040534967889
 20
44.32845789377748
 30
0.0
 11
412.5770382748889
 21
44.92142334577747
 31
0.0
 11
412.837801216089
 21
44.90889076097746
 31
0.0
 11
413.1007209122889
 21
44.86517376667748
 31
0.0
 11
413.360291338389
 21
44.78802987187748
 31
0.0
 11
413.6144408107891
 21
44.67533365157748
 31
0.0
 11
413.862762280989
 21
44.52367335767746
 31
0.0
 11
414.1040534967889
 21
44.32845789377748
 31
0.0
  0
SPLINE
  5
1B80
330
21
100
AcDbEntity
  8
0
  6
Continuous
100
AcDbSpline
210
0.0
220
0.0
230
1.0
 70
     8
 71
     3
 72
    10
 73
     6
 74
     4
 42
0.0000000001
 43
0.0000000001
 44
0.0000000001
 40
0.0
 40
0.0
 40
0.0
 40
0.0
 40
0.5693151289877378
 40
1.189735285709277
 40
1.833437773426307
 40
1.833437773426307
 40
1.833437773426307
 40
1.833437773426307
 10
387.959318880389
 20
34.15237775427747
 30
0.0
 10
387.7804079672829
 20
34.08902857570584
 30
0.0
 10
387.4065260599124
 20
33.95664362889903
 30
0.0
 10
386.8199954759454
 20
33.78373742592023
 30
0.0
 10
386.4110795190288
 20
33.68195984143112
 30
0.0
 10
386.202855878789
 20
33.63013379067749
 30
0.0
 11
387.959318880389
 21
34.15237775427747
 31
0.0
 11
387.421046593289
 21
33.96695213297747
 31
0.0
 11
386.8263564565891
 21
33.79013354747747
 31
0.0
 11
386.202855878789
 21
33.63013379067749
 31
0.0
  0
SPLINE
  5
1B81
330
21
100
AcDbEntity
  8
0
  6
Continuous
100
AcDbSpline
210
0.0
220
0.0
230
1.0
 70
     8
 71
     3
 72
    10
 73
     6
 74
     0
 42
0.0000000001
 43
0.0000000001
 40
3.357401527917766
 40
3.357401527917766
 40
3.357401527917766
 40
3.357401527917766
 40
3.996269813635598
 40
5.30343157711866
 40
6.714810650060654
 40
6.714810650060654
 40
6.714810650060654
 40
6.714810650060654
 10
386.7217336609408
 20
30.32258894487751
 30
0.0
 10
386.7217287262133
 20
30.53568675683715
 30
0.0
 10
386.7005577630418
 20
31.18479426719677
 30
0.0
 10
386.5529255768286
 20
32.2977734736202
 30
0.0
 10
386.3224904573933
 20
33.1748064451956
 30
0.0
 10
386.202855945789
 20
33.63013379057747
 30
0.0
  0
SPLINE
  5
1B82
330
21
100
AcDbEntity
  8
0
  6
Continuous
100
AcDbSpline
210
0.0
220
0.0
230
1.0
 70
     8
 71
     3
 72
    10
 73
     6
 74
     0
 42
0.0000000001
 43
0.0000000001
 40
3.843232162662801
 40
3.843232162662801
 40
3.843232162662801
 40
3.843232162662801
 40
4.583769406006101
 40
6.088386788053057
 40
7.686452435823049
 40
7.686452435823049
 40
7.686452435823049
 40
7.686452435823049
 10
388.2187000031588
 20
30.32258894487745
 30
0.0
 10
388.2186967060923
 20
30.56946435648612
 30
0.0
 10
388.2081465896817
 20
31.31793909303695
 30
0.0
 10
388.1354340195019
 20
32.59775080370815
 30
0.0
 10
388.0190424764596
 20
33.6255535842034
 30
0.0
 10
387.959093933589
 20
34.15493293117748
 30
0.0
  0
SPLINE
  5
1B83
330
21
100
AcDbEntity
  8
0
  6
Continuous
100
AcDbSpline
210
0.0
220
0.0
230
1.0
 70
     8
 71
     3
 72
    12
 73
     8
 74
     6
 42
0.0000000001
 43
0.0000000001
 44
0.0000000001
 40
0.0
 40
0.0
 40
0.0
 40
0.0
 40
1.534376094070254
 40
2.993848119395554
 40
4.345351032859472
 40
5.537858021047895
 40
6.516308530637298
 40
6.516308530637298
 40
6.516308530637298
 40
6.516308530637298
 10
384.6576196848891
 20
33.70474006527749
 30
0.0
 10
384.608006518015
 20
34.21384682793044
 30
0.0
 10
384.511202164169
 20
35.20720714541093
 30
0.0
 10
384.3056854190827
 20
36.64141169183012
 30
0.0
 10
384.0849753336493
 20
37.95756920501323
 30
0.0
 10
383.8719342755958
 20
39.11225712601522
 30
0.0
 10
383.7412265884838
 20
39.82400486705418
 30
0.0
 10
383.6823166359891
 20
40.14478956257747
 30
0.0
 11
384.6576196848891
 21
33.70474006527749
 31
0.0
 11
384.497014838289
 21
35.23068766637749
 31
0.0
 11
384.294642788889
 21
36.67606102517749
 31
0.0
 11
384.072367868089
 21
38.00916041557747
 31
0.0
 11
383.859167042689
 21
39.18245420867748
 31
0.0
 11
383.6823166359891
 21
40.14478956257747
 31
0.0
  0
SPLINE
  5
1B84
330
21
100
AcDbEntity
  8
0
  6
Continuous
100
AcDbSpline
210
0.0
220
0.0
230
1.0
 70
     8
 71
     3
 72
    12
 73
     8
 74
     6
 42
0.0000000001
 43
0.0000000001
 44
0.0000000001
 40
0.0
 40
0.0
 40
0.0
 40
0.0
 40
0.6192508476785105
 40
1.299935643071085
 40
2.004839064007715
 40
2.695366081581168
 40
3.333739803848328
 40
3.333739803848328
 40
3.333739803848328
 40
3.333739803848328
 10
387.959318880389
 20
34.15237775427747
 30
0.0
 10
387.7565811827523
 20
34.11351368839858
 30
0.0
 10
387.3309928119974
 20
34.03192997372139
 30
0.0
 10
386.6706175305085
 20
33.92866212712093
 30
0.0
 10
385.984839165582
 20
33.83570340575743
 30
0.0
 10
385.3112182705183
 20
33.75833993112173
 30
0.0
 10
384.8697101859005
 20
33.72213303245965
 30
0.0
 10
384.6576197332891
 20
33.70474006097749
 30
0.0
 11
387.959318880389
 21
34.15237775427747
 31
0.0
 11
387.3505161582891
 21
34.03910437737747
 31
0.0
 11
386.6782848049891
 21
33.93216140977748
 31
0.0
 11
385.9797719680892
 21
33.83745845557749
 31
0.0
 11
385.2935772883891
 21
33.76022877507748
 31
0.0
 11
384.6576197332891
 21
33.70474006097749
 31
0.0
  0
SPLINE
  5
1B85
330
21
100
AcDbEntity
  8
0
  6
Continuous
100
AcDbSpline
210
0.0
220
0.0
230
1.0
 70
     8
 71
     3
 72
    12
 73
     8
 74
     6
 42
0.0000000001
 43
0.0000000001
 44
0.0000000001
 40
0.0
 40
0.0
 40
0.0
 40
0.0
 40
1.747310329657455
 40
3.417833367714045
 40
4.969784737025618
 40
6.340884688859232
 40
7.469350870701389
 40
7.469350870701389
 40
7.469350870701389
 40
7.469350870701389
 10
387.959093933589
 20
34.15493293117748
 30
0.0
 10
387.9156322974694
 20
34.73578473638497
 30
0.0
 10
387.8306189900886
 20
35.87196223607634
 30
0.0
 10
387.6508061262391
 20
37.51903156065703
 30
0.0
 10
387.4579315768559
 20
39.03805034083361
 30
0.0
 10
387.2717320439307
 20
40.37567355554958
 30
0.0
 10
387.1575002065297
 20
41.20099281119823
 30
0.0
 10
387.1059285502891
 20
41.57359542277748
 30
0.0
 11
387.959093933589
 21
34.15493293117748
 31
0.0
 11
387.818607985389
 21
35.89658648067749
 31
0.0
 11
387.641487498589
 21
37.55769320627749
 31
0.0
 11
387.4470667224891
 21
39.09741838127749
 31
0.0
 11
387.2607746073891
 21
40.45580357177749
 31
0.0
 11
387.1059285502891
 21
41.57359542277748
 31
0.0
  0
SPLINE
  5
1B86
330
21
100
AcDbEntity
  8
0
  6
Continuous
100
AcDbSpline
210
0.0
220
0.0
230
1.0
 70
     8
 71
     3
 72
    10
 73
     6
 74
     4
 42
0.0000000001
 43
0.0000000001
 44
0.0000000001
 40
0.0
 40
0.0
 40
0.0
 40
0.0
 40
0.9890176113380922
 40
1.930816463666912
 40
2.788774135334583
 40
2.788774135334583
 40
2.788774135334583
 40
2.788774135334583
 10
383.6823166359891
 20
40.14478956257747
 30
0.0
 10
383.6363621292535
 20
40.47145520450212
 30
0.0
 10
383.5466471260344
 20
41.1091904604892
 30
0.0
 10
383.5714969808061
 20
42.04629860768843
 30
0.0
 10
383.7122832765524
 20
42.63065152405832
 30
0.0
 10
383.779397178289
 20
42.90921701937747
 30
0.0
 11
383.6823166359891
 21
40.14478956257747
 31
0.0
 11
383.5725064519891
 21
41.12769218187747
 31
0.0
 11
383.606404761789
 21
42.06888078297748
 31
0.0
 11
383.779397178289
 21
42.90921701937747
 31
0.0
  0
SPLINE
  5
1B87
330
21
100
AcDbEntity
  8
0
  6
Continuous
100
AcDbSpline
210
0.0
220
0.0
230
1.0
 70
     8
 71
     3
 72
    13
 73
     9
 74
     7
 42
0.0000000001
 43
0.0000000001
 44
0.0000000001
 40
0.0
 40
0.0
 40
0.0
 40
0.0
 40
0.4970494827381705
 40
1.078835257102362
 40
1.725700960653771
 40
2.411265146717627
 40
3.105699307915405
 40
3.77842758365448
 40
3.77842758365448
 40
3.77842758365448
 40
3.77842758365448
 10
387.1059442234892
 20
41.57359542107747
 30
0.0
 10
386.9867812032304
 20
41.45787868495781
 30
0.0
 10
386.7281404198424
 20
41.20671798748561
 30
0.0
 10
386.2349388062148
 20
40.9034775675304
 30
0.0
 10
385.6598857684771
 20
40.62592832587613
 30
0.0
 10
385.0217449208515
 20
40.40051098668243
 30
0.0
 10
384.3576663467154
 20
40.22903621190177
 30
0.0
 10
383.9050446334277
 20
40.17258494604133
 30
0.0
 10
383.682326822789
 20
40.14480744007747
 30
0.0
 11
387.1059442234892
 21
41.57359542107747
 31
0.0
 11
386.7379078804891
 21
41.23951842617748
 31
0.0
 11
386.2495125789889
 21
40.92337808277747
 31
0.0
 11
385.666979780389
 21
40.64214725767749
 31
0.0
 11
385.0215850738891
 21
40.41092458137748
 31
0.0
 11
384.347979024589
 21
40.24212382727748
 31
0.0
 11
383.682326822789
 21
40.14480744007747
 31
0.0
  0
SPLINE
  5
1B88
330
21
100
AcDbEntity
  8
0
  6
Continuous
100
AcDbSpline
210
0.0
220
0.0
230
1.0
 70
     8
 71
     3
 72
    10
 73
     6
 74
     4
 42
0.0000000001
 43
0.0000000001
 44
0.0000000001
 40
0.0
 40
0.0
 40
0.0
 40
0.0
 40
0.5770333343408336
 40
1.115157422157217
 40
1.614651292252209
 40
1.614651292252209
 40
1.614651292252209
 40
1.614651292252209
 10
387.1059285502891
 20
41.57359542277748
 30
0.0
 10
387.0655320086699
 20
41.76195406667729
 30
0.0
 10
386.9874628564475
 20
42.12597036742063
 30
0.0
 10
387.0098500221752
 20
42.67407534305406
 30
0.0
 10
387.1329249635916
 20
42.99904888114474
 30
0.0
 10
387.192171411989
 20
43.15548631457747
 30
0.0
 11
387.1059285502891
 21
41.57359542277748
 31
0.0
 11
387.009781802589
 21
42.14256226877748
 31
0.0
 11
387.039618598689
 21
42.67985855527749
 31
0.0
 11
387.192171411989
 21
43.15548631457747
 31
0.0
  0
SPLINE
  5
1B89
330
21
100
AcDbEntity
  8
0
  6
Continuous
100
AcDbSpline
210
0.0
220
0.0
230
1.0
 70
     8
 71
     3
 72
    13
 73
     9
 74
     7
 42
0.0000000001
 43
0.0000000001
 44
0.0000000001
 40
0.0
 40
0.0
 40
0.0
 40
0.0
 40
0.5208231075081166
 40
1.059780816321476
 40
1.620957061162347
 40
2.204517388556028
 40
2.806723167525349
 40
3.419232674680719
 40
3.419232674680719
 40
3.419232674680719
 40
3.419232674680719
 10
387.8293890306891
 20
44.32832454817748
 30
0.0
 10
387.6703465014629
 20
44.25665999909194
 30
0.0
 10
387.3467237223978
 20
44.11083560452052
 30
0.0
 10
386.803251292885
 20
44.0437192236602
 30
0.0
 10
386.2405761280988
 20
44.08643672062243
 30
0.0
 10
385.6780370966271
 20
44.24939091799978
 30
0.0
 10
385.1349871362427
 20
44.5137742942195
 30
0.0
 10
384.8176394609531
 20
44.76691043636171
 30
0.0
 10
384.6576196847891
 20
44.89455211127747
 30
0.0
 11
387.8293890306891
 21
44.32832454817748
 31
0.0
 11
387.344605537789
 21
44.13795208607749
 31
0.0
 11
386.8109879452891
 21
44.06227066917748
 31
0.0
 11
386.2514066792889
 21
44.10455050497747
 31
0.0
 11
385.6897935799891
 21
44.26308561907748
 31
0.0
 11
385.1502588853891
 21
44.53058162567749
 31
0.0
 11
384.6576196847891
 21
44.89455211127747
 31
0.0
  0
SPLINE
  5
1B8A
330
21
100
AcDbEntity
  8
0
  6
Continuous
100
AcDbSpline
210
0.0
220
0.0
230
1.0
 70
     8
 71
     3
 72
    13
 73
     9
 74
     7
 42
0.0000000001
 43
0.0000000001
 44
0.0000000001
 40
0.0
 40
0.0
 40
0.0
 40
0.0
 40
0.4964272263491438
 40
1.036151679151298
 40
1.628759617965967
 40
2.271477914391697
 40
2.952340238382168
 40
3.652484242626732
 40
3.652484242626732
 40
3.652484242626732
 40
3.652484242626732
 10
387.192171841489
 20
43.15548553007746
 30
0.0
 10
387.07356134486
 20
43.03817972645812
 30
0.0
 10
386.8259954203417
 20
42.7933369802448
 30
0.0
 10
386.3134942891346
 20
42.58169165885214
 30
0.0
 10
385.727803709411
 20
42.48001395397222
 30
0.0
 10
385.0855774081731
 20
42.50485871767814
 30
0.0
 10
384.4205836588434
 20
42.64158907359607
 30
0.0
 10
383.9967241786459
 20
42.82374986850416
 30
0.0
 10
383.7818354647891
 20
42.91610193507747
 30
0.0
 11
387.192171841489
 21
43.15548553007746
 31
0.0
 11
386.8183288317892
 21
42.82886435017746
 31
0.0
 11
386.326198460589
 21
42.60725617637748
 31
0.0
 11
385.742859386789
 21
42.50285457617747
 31
0.0
 11
385.1004088247892
 21
42.52140407607749
 31
0.0
 11
384.434196492289
 21
42.66188408267749
 31
0.0
 11
383.7818354647891
 21
42.91610193507747
 31
0.0
  0
SPLINE
  5
1B8B
330
21
100
AcDbEntity
  8
0
  6
Continuous
100
AcDbSpline
210
0.0
220
0.0
230
1.0
 70
     8
 71
     3
 72
    12
 73
     8
 74
     6
 42
0.0000000001
 43
0.0000000001
 44
0.0000000001
 40
0.0
 40
0.0
 40
0.0
 40
0.0
 40
0.2613219915295751
 40
0.5257836041216535
 40
0.7944251641473221
 40
1.066502591501702
 40
1.339847029305462
 40
1.339847029305462
 40
1.339847029305462
 40
1.339847029305462
 10
387.192171226189
 20
43.15548591597749
 30
0.0
 10
387.2229963688493
 20
43.23698478580037
 30
0.0
 10
387.2850169990712
 20
43.40096168363625
 30
0.0
 10
387.3977446898513
 20
43.64087108481768
 30
0.0
 10
387.5258240791096
 20
43.87684246680207
 30
0.0
 10
387.6690199015
 20
44.10763603466509
 30
0.0
 10
387.7759404148721
 20
44.25473846776444
 30
0.0
 10
387.829524859289
 20
44.32846054317747
 30
0.0
 11
387.192171226189
 21
43.15548591597749
 31
0.0
 11
387.287755995789
 21
43.39869926897748
 31
0.0
 11
387.3994042555892
 21
43.63843789877748
 31
0.0
 11
387.5275242456892
 21
43.87455980777747
 31
0.0
 11
387.6715291491891
 21
44.10540329207748
 31
0.0
 11
387.829524859289
 21
44.32846054317747
 31
0.0
  0
SPLINE
  5
1B8C
330
21
100
AcDbEntity
  8
0
  6
Continuous
100
AcDbSpline
210
0.0
220
0.0
230
1.0
 70
     8
 71
     3
 72
    13
 73
     9
 74
     7
 42
0.0000000001
 43
0.0000000001
 44
0.0000000001
 40
0.0
 40
0.0
 40
0.0
 40
0.0
 40
0.6038859892168418
 40
1.180353288942037
 40
1.737836421206461
 40
2.283523833527919
 40
2.818722985283459
 40
3.337948929572852
 40
3.337948929572852
 40
3.337948929572852
 40
3.337948929572852
 10
386.202855945789
 20
44.57322145867746
 30
0.0
 10
386.3735823541198
 20
44.68027031894397
 30
0.0
 10
386.7072835513339
 20
44.88950761960883
 30
0.0
 10
387.2376790382781
 20
45.12654254102616
 30
0.0
 10
387.768928382493
 20
45.30568132181708
 30
0.0
 10
388.3022773338772
 20
45.42667676044448
 30
0.0
 10
388.8318255182813
 20
45.49875013711316
 30
0.0
 10
389.1834089621502
 20
45.50744267253091
 30
0.0
 10
389.3565376616891
 20
45.51172309977746
 30
0.0
 11
386.202855945789
 21
44.57322145867746
 31
0.0
 11
386.721984078989
 21
44.88174093827749
 31
0.0
 11
387.2467212227891
 21
45.12041535577748
 31
0.0
 11
387.7752646934892
 21
45.29769830007748
 31
0.0
 11
388.307181488989
 21
45.41951486147747
 31
0.0
 11
388.837788668289
 21
45.48947308697748
 31
0.0
 11
389.3565376616891
 21
45.51172309977746
 31
0.0
  0
SPLINE
  5
1B8D
330
21
100
AcDbEntity
  8
0
  6
Continuous
100
AcDbSpline
210
0.0
220
0.0
230
1.0
 70
     8
 71
     3
 72
    11
 73
     7
 74
     5
 42
0.0000000001
 43
0.0000000001
 44
0.0000000001
 40
0.0
 40
0.0
 40
0.0
 40
0.0
 40
0.3587679534290236
 40
0.7565061459864715
 40
1.202797237785779
 40
1.69810507245844
 40
1.69810507245844
 40
1.69810507245844
 40
1.69810507245844
 10
387.8293890306891
 20
44.32832454817748
 30
0.0
 10
387.7145344495902
 20
44.29184752036002
 30
0.0
 10
387.4723495061874
 20
44.21493124211531
 30
0.0
 10
387.0649465460001
 20
44.241811280702
 30
0.0
 10
386.6307707195583
 20
44.35459148249383
 30
0.0
 10
386.3503599766029
 20
44.49778688827558
 30
0.0
 10
386.2028559448891
 20
44.57311174727749
 30
0.0
 11
387.8293890306891
 21
44.32832454817748
 31
0.0
 11
387.4816645703891
 21
44.23999480167748
 31
0.0
 11
387.0841173985891
 21
44.25232022307747
 31
0.0
 11
386.652238490489
 21
44.36482065577749
 31
0.0
 11
386.2028559448891
 21
44.57311174727749
 31
0.0
  0
SPLINE
  5
1B8E
330
21
100
AcDbEntity
  8
0
  6
Continuous
100
AcDbSpline
210
0.0
220
0.0
230
1.0
 70
     8
 71
     3
 72
    13
 73
     9
 74
     7
 42
0.0000000001
 43
0.0000000001
 44
0.0000000001
 40
0.0
 40
0.0
 40
0.0
 40
0.0
 40
0.3113009428695802
 40
0.6028622730214182
 40
0.8810513821943302
 40
1.151601238721051
 40
1.417501224237766
 40
1.677738370213069
 40
1.677738370213069
 40
1.677738370213069
 40
1.677738370213069
 10
387.829524859289
 20
44.32846054317747
 30
0.0
 10
387.9084216303626
 20
44.39610348060234
 30
0.0
 10
388.0612123232049
 20
44.52710011245925
 30
0.0
 10
388.3139061643667
 20
44.67919884133435
 30
0.0
 10
388.5703820476937
 20
44.79347090191
 30
0.0
 10
388.83154302805
 20
44.87021658542419
 30
0.0
 10
389.0942074127191
 20
44.91517105827846
 30
0.0
 10
389.2697239430171
 20
44.91935425793828
 30
0.0
 10
389.3565376616891
 20
44.92142334577747
 30
0.0
 11
387.829524859289
 21
44.32846054317747
 31
0.0
 11
388.071578865389
 21
44.52421072877749
 31
0.0
 11
388.3204882394892
 21
44.67604001687749
 31
0.0
 11
388.5748807236891
 21
44.78861729897746
 31
0.0
 11
388.8342768655891
 21
44.86549945837748
 31
0.0
 11
389.096598352789
 21
44.90897634477747
 31
0.0
 11
389.3565376616891
 21
44.92142334577747
 31
0.0
  0
ARC
  5
1B8F
330
21
100
AcDbEntity
  8
0
  6
Continuous
100
AcDbCircle
 10
427.7241472811891
 20
53.32258894487745
 30
0.0
 40
3.0
100
AcDbArc
 50
270.0
 51
315.0000000000058
  0
ARC
  5
1B90
330
21
100
AcDbEntity
  8
0
  6
Continuous
100
AcDbCircle
 10
427.7241472811891
 20
7.32258894487748
 30
0.0
 40
3.0
100
AcDbArc
 50
44.99999999989867
 51
90.0
  0
ARC
  5
1B91
330
21
100
AcDbEntity
  8
0
  6
Continuous
100
AcDbCircle
 10
374.2094286553891
 20
53.32258894487745
 30
0.0
 40
3.0
100
AcDbArc
 50
224.9999999998999
 51
270.0
  0
ARC
  5
1B92
330
21
100
AcDbEntity
  8
0
  6
Continuous
100
AcDbCircle
 10
419.3362712661889
 20
46.32258894487748
 30
0.0
 40
4.0
100
AcDbArc
 50
90.0
 51
121.0027191339013
  0
ARC
  5
1B93
330
21
100
AcDbEntity
  8
0
  6
Continuous
100
AcDbCircle
 10
382.5973046702891
 20
46.32258894487748
 30
0.0
 40
4.0
100
AcDbArc
 50
58.99728086609864
 51
90.0
  0
ARC
  5
1B94
330
21
100
AcDbEntity
  8
0
  6
Continuous
100
AcDbCircle
 10
422.9667879682891
 20
1.15715833017748
 30
0.0
 40
3.0
100
AcDbArc
 50
180.0
 51
240.0000000000002
  0
ARC
  5
1B95
330
21
100
AcDbEntity
  8
0
  6
Continuous
100
AcDbCircle
 10
422.966781284889
 20
7.322595482077474
 30
0.0
 40
2.999999093099999
100
AcDbArc
 50
89.99986925530601
 51
180.0001267836
  0
ARC
  5
1B96
330
21
100
AcDbEntity
  8
0
  6
Continuous
100
AcDbCircle
 10
415.7307199907891
 20
52.32258894487745
 30
0.0
 40
3.0
100
AcDbArc
 50
270.0
 51
301.0027191339022
  0
ARC
  5
1B97
330
21
100
AcDbEntity
  8
0
  6
Continuous
100
AcDbCircle
 10
386.202855945789
 20
52.32258894487745
 30
0.0
 40
3.0
100
AcDbArc
 50
238.9972808660987
 51
270.0
  0
ARC
  5
1B98
330
21
100
AcDbEntity
  8
0
  6
Continuous
100
AcDbCircle
 10
418.4011025432889
 20
-25.27741105512252
 30
0.0
 40
0.4
100
AcDbArc
 50
270.0
 51
314.9999999907029
  0
ARC
  5
1B99
330
21
100
AcDbEntity
  8
0
  6
Continuous
100
AcDbCircle
 10
420.8144657454891
 20
-22.86404785302253
 30
0.0
 40
0.4
100
AcDbArc
 50
314.9999999991997
 51
358.2110000000016
  0
ARC
  5
1B9A
330
21
100
AcDbEntity
  8
0
  6
Continuous
100
AcDbCircle
 10
445.566787968289
 20
51.95690351987747
 30
0.0
 40
0.4
100
AcDbArc
 50
0.0
 51
44.99999999330182
  0
ARC
  5
1B9B
330
21
100
AcDbEntity
  8
0
  6
Continuous
100
AcDbCircle
 10
445.566787968289
 20
8.688274369777474
 30
0.0
 40
0.4
100
AcDbArc
 50
315.0000000052024
 51
0.0
  0
ARC
  5
1B9C
330
21
100
AcDbEntity
  8
0
  6
Continuous
100
AcDbCircle
 10
443.601102543289
 20
53.92258894487747
 30
0.0
 40
0.4
100
AcDbArc
 50
44.99999999980309
 51
90.0
  0
ARC
  5
1B9D
330
21
100
AcDbEntity
  8
0
  6
Continuous
100
AcDbCircle
 10
443.601102543289
 20
6.722588944877486
 30
0.0
 40
0.4
100
AcDbArc
 50
270.0
 51
315.0000000003029
  0
ARC
  5
1B9E
330
21
100
AcDbEntity
  8
0
  6
Continuous
100
AcDbCircle
 10
358.332473393189
 20
53.92258894487747
 30
0.0
 40
0.4
100
AcDbArc
 50
90.0
 51
135.0000000001969
  0
ARC
  5
1B9F
330
21
100
AcDbEntity
  8
0
  6
Continuous
100
AcDbCircle
 10
356.3667879682892
 20
51.95690351987747
 30
0.0
 40
0.4
100
AcDbArc
 50
135.000000002402
 51
180.0
  0
ARC
  5
1BA0
330
21
100
AcDbEntity
  8
0
  6
Continuous
100
AcDbCircle
 10
400.966787968289
 20
30.32258894487748
 30
0.0
 40
11.0
100
AcDbArc
 50
270.0
 51
180.385176778764
  0
LINE
  5
1BA1
330
21
100
AcDbEntity
  8
0
  6
Continuous
100
AcDbLine
 10
445.8496306806889
 20
52.23974623237745
 30
0.0
 11
443.883945255789
 21
54.20543165737746
 31
0.0
  0
LINE
  5
1BA2
330
21
100
AcDbEntity
  8
0
  6
Continuous
100
AcDbLine
 10
445.966787968289
 20
51.95690351987747
 30
0.0
 11
445.966787968289
 21
8.688274369777474
 31
0.0
  0
LINE
  5
1BA3
330
21
100
AcDbEntity
  8
0
  6
Continuous
100
AcDbLine
 10
445.8496306806889
 20
52.23974623237745
 30
0.0
 11
445.8496306806889
 21
8.405431657377475
 31
0.0
  0
LINE
  5
1BA4
330
21
100
AcDbEntity
  8
0
  6
Continuous
100
AcDbLine
 10
418.6839452557889
 20
-25.56025376762253
 30
0.0
 11
421.097308457889
 21
-23.14689056542253
 31
0.0
  0
LINE
  5
1BA5
330
21
100
AcDbEntity
  8
0
  6
Continuous
100
AcDbLine
 10
445.466787968289
 20
8.022589707777485
 30
0.0
 11
445.466787968289
 21
52.6225881819775
 31
0.0
  0
LINE
  5
1BA6
330
21
100
AcDbEntity
  8
0
  6
Continuous
100
AcDbLine
 10
443.883945255789
 20
54.20543165737746
 30
0.0
 11
443.883945255789
 21
6.439746232377473
 31
0.0
  0
LINE
  5
1BA7
330
21
100
AcDbEntity
  8
0
  6
Continuous
100
AcDbLine
 10
443.601102543289
 20
54.32258894487745
 30
0.0
 11
443.601102543289
 21
6.32258894487748
 31
0.0
  0
LINE
  5
1BA8
330
21
100
AcDbEntity
  8
0
  6
Continuous
100
AcDbLine
 10
368.9667879682891
 20
54.32258894487745
 30
0.0
 11
358.332473393189
 21
54.32258894487745
 31
0.0
  0
LINE
  5
1BA9
330
21
100
AcDbEntity
  8
0
  6
Continuous
100
AcDbLine
 10
443.601102543289
 20
54.32258894487745
 30
0.0
 11
432.966787968289
 21
54.32258894487745
 31
0.0
  0
LINE
  5
1BAA
330
21
100
AcDbEntity
  8
0
  6
Continuous
100
AcDbLine
 10
356.4667879682891
 20
52.62258894487747
 30
0.0
 11
370.6667879682891
 21
52.62258894487747
 31
0.0
  0
LINE
  5
1BAB
330
21
100
AcDbEntity
  8
0
  6
Continuous
100
AcDbLine
 10
445.466787968289
 20
52.62258894487747
 30
0.0
 11
431.266787968289
 21
52.62258894487747
 31
0.0
  0
LINE
  5
1BAC
330
21
100
AcDbEntity
  8
0
  6
Continuous
100
AcDbLine
 10
382.5973046702891
 20
50.32258894487745
 30
0.0
 11
374.2094286553891
 21
50.32258894487745
 31
0.0
  0
LINE
  5
1BAD
330
21
100
AcDbEntity
  8
0
  6
Continuous
100
AcDbLine
 10
427.7241472811891
 20
50.32258894487745
 30
0.0
 11
419.3362712661889
 21
50.32258894487745
 31
0.0
  0
LINE
  5
1BAE
330
21
100
AcDbEntity
  8
0
  6
Continuous
100
AcDbLine
 10
415.7307199907891
 20
49.32258894487748
 30
0.0
 11
386.202855945789
 21
49.32258894487748
 31
0.0
  0
LINE
  5
1BAF
330
21
100
AcDbEntity
  8
0
  6
Continuous
100
AcDbLine
 10
445.8496306806889
 20
8.405431657377475
 30
0.0
 11
443.883945255789
 21
6.439746232377473
 31
0.0
  0
LWPOLYLINE
  5
1BB0
330
21
100
AcDbEntity
  8
0
  6
Continuous
100
AcDbPolyline
 90
        5
 70
     0
 43
0.0
 10
412.2177944461891
 20
44.56217951707748
 10
412.961133077789
 20
44.46261893787749
 10
413.657753954789
 20
44.18148742247749
 10
414.2638754659889
 20
43.73645367847749
 10
414.7414047103891
 20
43.15548591597749
  0
LINE
  5
1BB1
330
21
100
AcDbEntity
  8
0
  6
Continuous
100
AcDbLine
 10
389.3565376616891
 20
45.51172309977746
 30
0.0
 11
412.5770382748889
 21
45.51172309977746
 31
0.0
  0
LINE
  5
1BB2
330
21
100
AcDbEntity
  8
0
  6
Continuous
100
AcDbLine
 10
389.3565376616891
 20
44.92142334577747
 30
0.0
 11
412.5770382748889
 21
44.92142334577747
 31
0.0
  0
LINE
  5
1BB3
330
21
100
AcDbEntity
  8
0
  6
Continuous
100
AcDbLine
 10
412.2177944461891
 20
44.56217951707748
 30
0.0
 11
389.7157814902891
 21
44.56217951707748
 31
0.0
  0
LWPOLYLINE
  5
1BB4
330
21
100
AcDbEntity
  8
0
  6
Continuous
100
AcDbPolyline
 90
        4
 70
     0
 43
0.0
 10
415.730719991689
 20
44.57311174727749
 10
416.2688904365891
 20
44.60961256207747
 10
416.789600492189
 20
44.71793077457746
 10
417.275956251689
 20
44.89455211127747
  0
LINE
  5
1BB5
330
21
100
AcDbEntity
  8
0
  6
Continuous
100
AcDbLine
 10
432.966787968289
 20
6.32258894487748
 30
0.0
 11
432.966787968289
 21
54.32258894487745
 31
0.0
  0
LINE
  5
1BB6
330
21
100
AcDbEntity
  8
0
  6
Continuous
100
AcDbLine
 10
431.2667872052891
 20
8.022589707777485
 30
0.0
 11
431.2667872052891
 21
52.6225881819775
 31
0.0
  0
LINE
  5
1BB7
330
21
100
AcDbEntity
  8
0
  6
Continuous
100
AcDbLine
 10
429.845467624689
 20
9.443909288477469
 30
0.0
 11
429.845467624689
 21
51.20126860127749
 31
0.0
  0
LINE
  5
1BB8
330
21
100
AcDbEntity
  8
0
  6
Continuous
100
AcDbLine
 10
387.1059285502891
 20
41.57359542277748
 30
0.0
 11
414.827647386189
 21
41.57359542277748
 31
0.0
  0
LINE
  5
1BB9
330
21
100
AcDbEntity
  8
0
  6
Continuous
100
AcDbLine
 10
427.7241472811891
 20
10.32258894487748
 30
0.0
 11
427.7241472811891
 21
50.32258894487745
 31
0.0
  0
LWPOLYLINE
  5
1BBB
330
21
100
AcDbEntity
  8
0
  6
Continuous
100
AcDbPolyline
 90
        4
 70
     0
 43
0.0
 10
384.6576196847891
 20
44.89455211127747
 10
385.1439754443891
 20
44.71793077457746
 10
385.6646854998889
 20
44.60961256207747
 10
386.2028559448891
 20
44.57311174727749
  0
LINE
  5
1BC0
330
21
100
AcDbEntity
  8
0
  6
Continuous
100
AcDbLine
 10
421.214270774389
 20
-22.87653539982253
 30
0.0
 11
421.876406161289
 21
-1.677411055122519
 31
0.0
  0
LINE
  5
1BC2
330
21
100
AcDbEntity
  8
0
  6
Continuous
100
AcDbLine
 10
432.966787968289
 20
6.32258894487748
 30
0.0
 11
429.845467624689
 21
9.443909288477469
 31
0.0
  0
LWPOLYLINE
  5
1BC4
330
21
100
AcDbEntity
  8
0
  6
Continuous
100
AcDbPolyline
 90
        4
 70
     0
 43
0.0
 10
386.202855878789
 20
33.63013379067749
 10
385.6646854998889
 20
33.63860562577747
 10
385.1439754443891
 20
33.66374627157748
 10
384.6576197332891
 20
33.70474006097749
  0
LWPOLYLINE
  5
1BC7
330
21
100
AcDbEntity
  8
0
  6
Continuous
100
AcDbPolyline
 90
        4
 70
     0
 43
0.0
 10
417.2759559873891
 20
33.70474005337749
 10
416.789600492189
 20
33.66374627157748
 10
416.2688904365891
 20
33.63860562577747
 10
415.7307200550889
 20
33.63013379167748
  0
LINE
  5
1BCA
330
21
100
AcDbEntity
  8
0
  6
Continuous
100
AcDbLine
 10
419.5240406863891
 20
-2.677411055122519
 30
0.0
 11
418.8133579747891
 21
-25.43084104852253
 31
0.0
  0
LINE
  5
1BCB
330
21
100
AcDbEntity
  8
0
  6
Continuous
100
AcDbLine
 10
419.966787968289
 20
1.15715833017748
 30
0.0
 11
419.966787968289
 21
7.32258894487748
 31
0.0
  0
LINE
  5
1BCC
330
21
100
AcDbEntity
  8
0
  6
Continuous
100
AcDbLine
 10
419.3362712661889
 20
13.31735419797749
 30
0.0
 11
419.3362712661889
 21
50.32258894487745
 31
0.0
  0
LINE
  5
1BCE
330
21
100
AcDbEntity
  8
0
  6
Continuous
100
AcDbLine
 10
389.3565376616891
 20
44.92142334577747
 30
0.0
 11
389.7157814902891
 21
44.56217951707748
 31
0.0
  0
LWPOLYLINE
  5
1BD0
330
21
100
AcDbEntity
  8
0
  6
Continuous
100
AcDbPolyline
 90
        4
 70
     0
 43
0.0
 10
415.7307200640891
 20
27.01504409897748
 10
416.2688904365891
 20
27.00657226397749
 10
416.789600492189
 20
26.98143161817748
 10
417.275955963089
 20
26.9404378496775
  0
LINE
  5
1BD1
330
21
100
AcDbEntity
  8
DEFAULT_1
  6
CENTER
100
AcDbLine
 10
345.0333558875809
 20
30.32258894487748
 30
0.0
 11
455.8881151087152
 21
30.32258894487748
 31
0.0
  0
LINE
  5
1BD2
330
21
100
AcDbEntity
  8
0
  6
Continuous
100
AcDbLine
 10
417.275956251689
 20
44.89607921717748
 30
0.0
 11
417.275956251689
 21
49.75116037347749
 31
0.0
  0
LINE
  5
1BD3
330
21
100
AcDbEntity
  8
0
  6
Continuous
100
AcDbLine
 10
417.275956251689
 20
26.94111604517747
 30
0.0
 11
417.275956251689
 21
33.70411514487748
 31
0.0
  0
LINE
  5
1BD4
330
21
100
AcDbEntity
  8
0
  6
Continuous
100
AcDbLine
 10
415.7307199907891
 20
44.57322180777748
 30
0.0
 11
415.7307199907891
 21
49.32258894487748
 31
0.0
  0
LINE
  5
1BD5
330
21
100
AcDbEntity
  8
0
  6
Continuous
100
AcDbLine
 10
415.7307199907891
 20
27.01504409917749
 30
0.0
 11
415.7307199907891
 21
33.63013379057747
 31
0.0
  0
LWPOLYLINE
  5
1BD9
330
21
100
AcDbEntity
  8
0
  6
Continuous
100
AcDbPolyline
 90
        4
 70
     0
 43
0.0
 10
414.7414047103891
 20
17.48969197367748
 10
414.3428124166889
 20
16.98625010367749
 10
413.846841432389
 20
16.57836437787748
 10
413.2762262358889
 20
16.28473037667748
  0
LINE
  5
1BDA
330
21
100
AcDbEntity
  8
0
  6
Continuous
100
AcDbLine
 10
412.5770382748889
 20
44.92142334577747
 30
0.0
 11
412.5770382748889
 21
45.51172309977746
 31
0.0
  0
LINE
  5
1BDB
330
21
100
AcDbEntity
  8
0
  6
Continuous
100
AcDbLine
 10
412.2177944461891
 20
16.26234714257748
 30
0.0
 11
412.2177944461891
 21
44.56217951707748
 31
0.0
  0
LINE
  5
1BDC
330
21
100
AcDbEntity
  8
0
  6
Continuous
100
AcDbLine
 10
372.088108311789
 20
51.20126860127749
 30
0.0
 11
368.9667879682891
 21
54.32258894487745
 31
0.0
  0
LINE
  5
1BDD
330
21
100
AcDbEntity
  8
0
  6
Continuous
100
AcDbLine
 10
400.966787968289
 20
19.07158246687746
 30
0.0
 11
414.827647386189
 21
19.07158246687749
 31
0.0
  0
LINE
  5
1BE3
330
21
100
AcDbEntity
  8
0
  6
Continuous
100
AcDbLine
 10
421.876406161289
 20
-1.677411055122519
 30
0.0
 11
421.466787968289
 21
-1.440917881122516
 31
0.0
  0
LINE
  5
1BE7
330
21
100
AcDbEntity
  8
DEFAULT_1
  6
CENTER
100
AcDbLine
 10
400.966787968289
 20
-24.60111096852254
 30
0.0
 11
400.966787968289
 21
-29.60111096852254
 31
0.0
  0
LINE
  5
1BE9
330
21
100
AcDbEntity
  8
DEFAULT_1
  6
CENTER
100
AcDbLine
 10
400.966787968289
 20
58.17009994749696
 30
0.0
 11
401.019272895666
 21
-35.02964571981316
 31
0.0
  0
LINE
  5
1BEB
330
21
100
AcDbEntity
  8
0
  6
Continuous
100
AcDbLine
 10
427.7241472811891
 20
10.32258894487748
 30
0.0
 11
422.9667879682891
 21
10.32258894487748
 31
0.0
  0
LINE
  5
1BEC
330
21
100
AcDbEntity
  8
0
  6
Continuous
100
AcDbLine
 10
445.466787968289
 20
8.022588944877469
 30
0.0
 11
431.266787968289
 21
8.022588944877469
 31
0.0
  0
LINE
  5
1BED
330
21
100
AcDbEntity
  8
0
  6
Continuous
100
AcDbLine
 10
432.966787968289
 20
54.32258894487745
 30
0.0
 11
429.845467624689
 21
51.20126860127749
 31
0.0
  0
LINE
  5
1BF3
330
21
100
AcDbEntity
  8
0
  6
Continuous
100
AcDbLine
 10
443.601102543289
 20
6.32258894487748
 30
0.0
 11
432.966787968289
 21
6.32258894487748
 31
0.0
  0
LINE
  5
1BF6
330
21
100
AcDbEntity
  8
0
  6
Continuous
100
AcDbLine
 10
389.7157814902891
 20
30.32258894487751
 30
0.0
 11
389.7157814902891
 21
44.56217951707748
 31
0.0
  0
LINE
  5
1BF7
330
21
100
AcDbEntity
  8
0
  6
Continuous
100
AcDbLine
 10
400.966787968289
 20
1.157158330177509
 30
0.0
 11
419.966787968289
 21
1.15715833017748
 31
0.0
  0
LINE
  5
1BF9
330
21
100
AcDbEntity
  8
0
  6
Continuous
100
AcDbLine
 10
412.5770382748889
 20
44.92142334577747
 30
0.0
 11
412.2177944461891
 21
44.56217951707748
 31
0.0
  0
LINE
  5
1BFA
330
21
100
AcDbEntity
  8
0
  6
Continuous
100
AcDbLine
 10
389.3565376616891
 20
44.92142334577747
 30
0.0
 11
389.3565376616891
 21
45.51172309977746
 31
0.0
  0
LINE
  5
1BFB
330
21
100
AcDbEntity
  8
0
  6
Continuous
100
AcDbLine
 10
386.202855945789
 20
33.63013379057747
 30
0.0
 11
386.202855945789
 21
30.32258894487745
 31
0.0
  0
LINE
  5
1BFC
330
21
100
AcDbEntity
  8
0
  6
Continuous
100
AcDbLine
 10
386.202855945789
 20
49.32258894487748
 30
0.0
 11
386.202855945789
 21
44.57322145867746
 31
0.0
  0
LINE
  5
1BFD
330
21
100
AcDbEntity
  8
0
  6
Continuous
100
AcDbLine
 10
400.966787968289
 20
-1.440917881122516
 30
0.0
 11
421.466787968289
 21
-1.440917881122516
 31
0.0
  0
LINE
  5
1BFE
330
21
100
AcDbEntity
  8
0
  6
Continuous
100
AcDbLine
 10
400.966787968289
 20
-1.677411055122519
 30
0.0
 11
421.876406161289
 21
-1.677411055122519
 31
0.0
  0
LINE
  5
1BFF
330
21
100
AcDbEntity
  8
0
  6
Continuous
100
AcDbLine
 10
400.966787968289
 20
-2.677411055122519
 30
0.0
 11
421.8451716046891
 21
-2.677411055122519
 31
0.0
  0
LINE
  5
1C03
330
21
100
AcDbEntity
  8
0
  6
Continuous
100
AcDbLine
 10
384.6576196848891
 20
33.70474006527749
 30
0.0
 11
384.6576196848891
 21
30.32258894487748
 31
0.0
  0
LINE
  5
1C04
330
21
100
AcDbEntity
  8
0
  6
Continuous
100
AcDbLine
 10
384.6576196848891
 20
49.75116037347749
 30
0.0
 11
384.6576196848891
 21
44.89456574857749
 31
0.0
  0
LINE
  5
1C05
330
21
100
AcDbEntity
  8
0
  6
Continuous
100
AcDbLine
 10
382.5973046702891
 20
50.32258894487745
 30
0.0
 11
382.5973046702891
 21
30.32258894487748
 31
0.0
  0
LINE
  5
1C06
330
21
100
AcDbEntity
  8
0
  6
Continuous
100
AcDbLine
 10
374.2094286553891
 20
30.32258894487745
 30
0.0
 11
374.2094286553891
 21
50.32258894487745
 31
0.0
  0
LWPOLYLINE
  5
1C07
330
21
100
AcDbEntity
  8
0
  6
Continuous
100
AcDbPolyline
 90
        5
 70
     0
 43
0.0
 10
387.192171226189
 20
43.15548591597749
 10
387.669702898889
 20
43.73645597767747
 10
388.2758239278889
 20
44.18148850727749
 10
388.9724439343891
 20
44.46261922227748
 10
389.7157814902891
 20
44.56217951707748
  0
LINE
  5
1C08
330
21
100
AcDbEntity
  8
0
  6
Continuous
100
AcDbLine
 10
372.088108311789
 20
30.32258894487748
 30
0.0
 11
372.088108311789
 21
51.20126860127749
 31
0.0
  0
LINE
  5
1C09
330
21
100
AcDbEntity
  8
0
  6
Continuous
100
AcDbLine
 10
370.666788731189
 20
52.6225881819775
 30
0.0
 11
370.666788731189
 21
30.32258894487748
 31
0.0
  0
LINE
  5
1C0A
330
21
100
AcDbEntity
  8
0
  6
Continuous
100
AcDbLine
 10
368.9667879682891
 20
30.32258894487745
 30
0.0
 11
368.9667879682891
 21
54.32258894487745
 31
0.0
  0
LINE
  5
1C0B
330
21
100
AcDbEntity
  8
0
  6
Continuous
100
AcDbLine
 10
421.214270774389
 20
-22.87653539982253
 30
0.0
 11
400.966787968289
 21
-22.87653539982253
 31
0.0
  0
LINE
  5
1C0C
330
21
100
AcDbEntity
  8
0
  6
Continuous
100
AcDbLine
 10
421.097308457889
 20
-23.14689056542253
 30
0.0
 11
400.966787968289
 21
-23.14689056542253
 31
0.0
  0
LINE
  5
1C0D
330
21
100
AcDbEntity
  8
0
  6
Continuous
100
AcDbLine
 10
400.966787968289
 20
-25.43084046792251
 30
0.0
 11
418.813357029589
 21
-25.43084046792251
 31
0.0
  0
LINE
  5
1C0E
330
21
100
AcDbEntity
  8
0
  6
Continuous
100
AcDbLine
 10
418.6839452557889
 20
-25.56025376762253
 30
0.0
 11
400.966787968289
 21
-25.56025376762256
 31
0.0
  0
LINE
  5
1C0F
330
21
100
AcDbEntity
  8
0
  6
Continuous
100
AcDbLine
 10
418.4011025432889
 20
-25.67741105512252
 30
0.0
 11
400.966787968289
 21
-25.67741105512252
 31
0.0
  0
LINE
  5
1C10
330
21
100
AcDbEntity
  8
0
  6
Continuous
100
AcDbLine
 10
358.332473393189
 20
54.32258894487745
 30
0.0
 11
358.332473393189
 21
30.32258894487745
 31
0.0
  0
LINE
  5
1C11
330
21
100
AcDbEntity
  8
0
  6
Continuous
100
AcDbLine
 10
358.049630680689
 20
54.20543165737746
 30
0.0
 11
358.049630680689
 21
30.32258894487748
 31
0.0
  0
LINE
  5
1C12
330
21
100
AcDbEntity
  8
0
  6
Continuous
100
AcDbLine
 10
356.4667879682891
 20
52.6225881819775
 30
0.0
 11
356.4667879682891
 21
30.32258894487748
 31
0.0
  0
LINE
  5
1C13
330
21
100
AcDbEntity
  8
0
  6
Continuous
100
AcDbLine
 10
356.0839452557891
 20
52.23974623237745
 30
0.0
 11
356.0839452557891
 21
30.32258894487743
 31
0.0
  0
LINE
  5
1C14
330
21
100
AcDbEntity
  8
0
  6
Continuous
100
AcDbLine
 10
355.9667879682891
 20
51.95690351987747
 30
0.0
 11
355.9667879682891
 21
30.32258894487748
 31
0.0
  0
LINE
  5
1C15
330
21
100
AcDbEntity
  8
0
  6
Continuous
100
AcDbLine
 10
358.049630680689
 20
54.20543165737746
 30
0.0
 11
356.0839452557891
 21
52.23974623237745
 31
0.0
  0
MTEXT
  5
2E3E
330
21
100
AcDbEntity
  8
0
100
AcDbMText
 10
2320.303926075331
 20
185.571951966812
 30
0.0
 40
0.18
 41
14.68390410115808
 71
     9
 72
     1
  1
\A1;
 73
     1
 44
1.0
  0
ENDSEC
  0
SECTION
  2
OBJECTS
  0
DICTIONARY
  5
232
330
0
100
AcDbDictionary
281
     1
  3
ACAD_COLOR
350
2B7
  3
ACAD_GROUP
350
233
  3
ACAD_LAYOUT
350
274
  3
ACAD_MATERIAL
350
2B6
  3
ACAD_MLINESTYLE
350
234
  3
ACAD_PLOTSETTINGS
350
275
  3
ACAD_PLOTSTYLENAME
350
272
  3
ACDBHEADERROUNDTRIPXREC
350
5E34
  3
AcDbVariableDictionary
350
2AE
  0
DICTIONARY
  5
2B7
102
{ACAD_REACTORS
330
232
102
}
330
232
100
AcDbDictionary
281
     1
  0
DICTIONARY
  5
233
102
{ACAD_REACTORS
330
232
102
}
330
232
100
AcDbDictionary
281
     1
  0
DICTIONARY
  5
274
102
{ACAD_REACTORS
330
232
102
}
330
232
100
AcDbDictionary
281
     1
  3
Layout1
350
277
  3
Model
350
276
  0
DICTIONARY
  5
2B6
102
{ACAD_REACTORS
330
232
102
}
330
232
100
AcDbDictionary
281
     1
  0
DICTIONARY
  5
234
102
{ACAD_REACTORS
330
232
102
}
330
232
100
AcDbDictionary
281
     1
  3
STANDARD
350
235
  0
DICTIONARY
  5
275
102
{ACAD_REACTORS
330
232
102
}
330
232
100
AcDbDictionary
281
     1
  0
ACDBDICTIONARYWDFLT
  5
272
102
{ACAD_REACTORS
330
232
102
}
330
232
100
AcDbDictionary
281
     1
  3
Normal
350
273
100
AcDbDictionaryWithDefault
340
273
  0
DICTIONARY
  5
5E34
102
{ACAD_REACTORS
330
232
102
}
330
232
100
AcDbDictionary
281
     1
  3
COLORDICT
350
5E35
  3
MATERIALDICT
350
5E36
  0
DICTIONARY
  5
2AE
102
{ACAD_REACTORS
330
232
102
}
330
232
100
AcDbDictionary
281
     1
  0
LAYOUT
  5
277
102
{ACAD_REACTORS
330
274
102
}
330
274
100
AcDbPlotSettings
  1

  2
\\alderaan\HP LaserJet 5Si/5Si MX PS Tecnico
  4

  6

 40
0.0
 41
0.0
 42
0.0
 43
0.0
 44
0.0
 45
0.0
 46
0.0
 47
0.0
 48
0.0
 49
0.0
140
0.0
141
0.0
142
1.0
143
1.0
 70
   688
 72
     0
 73
     0
 74
     5
  7

 75
    16
147
1.0
148
0.0
149
0.0
100
AcDbLayout
  1
Layout1
 70
     0
 71
     1
 10
0.0
 20
0.0
 11
12.0
 21
9.0
 12
0.0
 22
0.0
 32
0.0
 14
1.000000000000000E+20
 24
1.000000000000000E+20
 34
1.000000000000000E+20
 15
-1.000000000000000E+20
 25
-1.000000000000000E+20
 35
-1.000000000000000E+20
146
0.0
 13
0.0
 23
0.0
 33
0.0
 16
1.0
 26
0.0
 36
0.0
 17
0.0
 27
1.0
 37
0.0
 76
     0
330
22
  0
LAYOUT
  5
276
102
{ACAD_REACTORS
330
274
102
}
330
274
100
AcDbPlotSettings
  1

  2
\\alderaan\HP LaserJet 4050 Ricerca
  4
A4
  6

 40
5.027083396911621
 41
5.069430828094482
 42
5.365737915039062
 43
5.365753173828125
 44
209.8886566162109
 45
297.0530090332031
 46
0.0
 47
0.0
 48
70.15568666023683
 49
-413.5017910393744
140
1567.471881557387
141
355.5977189696187
142
1.0
143
5.224086096996019
 70
 11952
 72
     1
 73
     1
 74
     4
  7

 75
     0
147
0.1914210411989621
148
-70.15568666023683
149
413.5017910393744
100
AcDbLayout
  1
Model
 70
     1
 71
     0
 10
0.0
 20
0.0
 11
12.0
 21
9.0
 12
0.0
 22
0.0
 32
0.0
 14
0.0
 24
0.0
 34
0.0
 15
0.0
 25
0.0
 35
0.0
146
0.0
 13
0.0
 23
0.0
 33
0.0
 16
1.0
 26
0.0
 36
0.0
 17
0.0
 27
1.0
 37
0.0
 76
     0
330
21
  0
MLINESTYLE
  5
235
102
{ACAD_REACTORS
330
234
102
}
330
234
100
AcDbMlineStyle
  2
STANDARD
 70
     0
  3

 62
     0
 51
90.00000000000019
 52
90.00000000000019
 71
     2
 49
0.5
 62
   256
  6
BYLAYER
 49
-0.5
 62
   256
  6
BYLAYER
  0
ACDBPLACEHOLDER
  5
273
102
{ACAD_REACTORS
330
272
102
}
330
272
  0
XRECORD
  5
5E35
102
{ACAD_REACTORS
330
5E34
102
}
330
5E34
100
AcDbXrecord
280
     1
340
2B7
  0
XRECORD
  5
5E36
102
{ACAD_REACTORS
330
5E34
102
}
330
5E34
100
AcDbXrecord
280
     1
340
2B6
  0
ENDSEC
  0
EOF
