  0
SECTION
  2
HEADER
  9
$ACADVER
  1
AC1015
  9
$ACADMAINTVER
 70
     6
  9
$DWGCODEPAGE
  3
ANSI_1252
  9
$INSBASE
 10
0.0
 20
0.0
 30
0.0
  9
$EXTMIN
 10
80.46286980856489
 20
-370.773169833776
 30
-18.8
  9
$EXTMAX
 10
1760.060663696097
 20
334.946701594559
 30
1.038894055499999
  9
$LIMMIN
 10
0.0
 20
0.0
  9
$LIMMAX
 10
420.0
 20
297.0
  9
$ORTHOMODE
 70
     0
  9
$REGENMODE
 70
     1
  9
$FILLMODE
 70
     1
  9
$QTEXTMODE
 70
     0
  9
$MIRRTEXT
 70
     1
  9
$LTSCALE
 40
23.1
  9
$ATTMODE
 70
     1
  9
$TEXTSIZE
 40
35.06651165617814
  9
$TRACEWID
 40
0.05
  9
$TEXTSTYLE
  7
STANDARD
  9
$CLAYER
  8
0
  9
$CELTYPE
  6
BYLAYER
  9
$CECOLOR
 62
   256
  9
$CELTSCALE
 40
1.0
  9
$DISPSILH
 70
     0
  9
$DIMSCALE
 40
1.0
  9
$DIMASZ
 40
0.18
  9
$DIMEXO
 40
0.0625
  9
$DIMDLI
 40
0.38
  9
$DIMRND
 40
0.0
  9
$DIMDLE
 40
0.0
  9
$DIMEXE
 40
0.18
  9
$DIMTP
 40
0.003
  9
$DIMTM
 40
0.003
  9
$DIMTXT
 40
1.5
  9
$DIMCEN
 40
0.09
  9
$DIMTSZ
 40
0.0
  9
$DIMTOL
 70
     1
  9
$DIMLIM
 70
     0
  9
$DIMTIH
 70
     1
  9
$DIMTOH
 70
     1
  9
$DIMSE1
 70
     0
  9
$DIMSE2
 70
     0
  9
$DIMTAD
 70
     0
  9
$DIMZIN
 70
     0
  9
$DIMBLK
  1

  9
$DIMASO
 70
     1
  9
$DIMSHO
 70
     1
  9
$DIMPOST
  1

  9
$DIMAPOST
  1

  9
$DIMALT
 70
     0
  9
$DIMALTD
 70
     2
  9
$DIMALTF
 40
25.4
  9
$DIMLFAC
 40
1.0
  9
$DIMTOFL
 70
     0
  9
$DIMTVP
 40
0.0
  9
$DIMTIX
 70
     0
  9
$DIMSOXD
 70
     0
  9
$DIMSAH
 70
     0
  9
$DIMBLK1
  1

  9
$DIMBLK2
  1

  9
$DIMSTYLE
  2
STANDARD
  9
$DIMCLRD
 70
     0
  9
$DIMCLRE
 70
     0
  9
$DIMCLRT
 70
     0
  9
$DIMTFAC
 40
1.0
  9
$DIMGAP
 40
0.09
  9
$DIMJUST
 70
     0
  9
$DIMSD1
 70
     0
  9
$DIMSD2
 70
     0
  9
$DIMTOLJ
 70
     1
  9
$DIMTZIN
 70
     0
  9
$DIMALTZ
 70
     0
  9
$DIMALTTZ
 70
     0
  9
$DIMUPT
 70
     0
  9
$DIMDEC
 70
     4
  9
$DIMTDEC
 70
     4
  9
$DIMALTU
 70
     2
  9
$DIMALTTD
 70
     2
  9
$DIMTXSTY
  7
STANDARD
  9
$DIMAUNIT
 70
     0
  9
$DIMADEC
 70
     0
  9
$DIMALTRND
 40
0.0
  9
$DIMAZIN
 70
     0
  9
$DIMDSEP
 70
    46
  9
$DIMATFIT
 70
     0
  9
$DIMFRAC
 70
     0
  9
$DIMLDRBLK
  1

  9
$DIMLUNIT
 70
     2
  9
$DIMLWD
 70
    -2
  9
$DIMLWE
 70
    -2
  9
$DIMTMOVE
 70
     0
  9
$LUNITS
 70
     2
  9
$LUPREC
 70
     4
  9
$SKETCHINC
 40
0.1
  9
$FILLETRAD
 40
0.0
  9
$AUNITS
 70
     0
  9
$AUPREC
 70
     0
  9
$MENU
  1
acad
  9
$ELEVATION
 40
0.0
  9
$PELEVATION
 40
0.0
  9
$THICKNESS
 40
0.0
  9
$LIMCHECK
 70
     0
  9
$CHAMFERA
 40
0.0
  9
$CHAMFERB
 40
0.0
  9
$CHAMFERC
 40
0.0
  9
$CHAMFERD
 40
0.0
  9
$SKPOLY
 70
     0
  9
$TDCREATE
 40
2444972.041666667
  9
$TDUCREATE
 40
2444972.0
  9
$TDUPDATE
 40
2453410.421575023
  9
$TDUUPDATE
 40
2453410.379908356
  9
$TDINDWG
 40
2.3154892593
  9
$TDUSRTIMER
 40
2.3154892593
  9
$USRTIMER
 70
     1
  9
$ANGBASE
 50
0.0
  9
$ANGDIR
 70
     0
  9
$PDMODE
 70
     0
  9
$PDSIZE
 40
0.0
  9
$PLINEWID
 40
0.0
  9
$SPLFRAME
 70
     0
  9
$SPLINETYPE
 70
     6
  9
$SPLINESEGS
 70
     8
  9
$HANDSEED
  5
5E37
  9
$SURFTAB1
 70
     6
  9
$SURFTAB2
 70
     6
  9
$SURFTYPE
 70
     6
  9
$SURFU
 70
     6
  9
$SURFV
 70
     6
  9
$UCSBASE
  2

  9
$UCSNAME
  2

  9
$UCSORG
 10
0.0
 20
0.0
 30
0.0
  9
$UCSXDIR
 10
1.0
 20
0.0
 30
0.0
  9
$UCSYDIR
 10
0.0
 20
1.0
 30
0.0
  9
$UCSORTHOREF
  2

  9
$UCSORTHOVIEW
 70
     0
  9
$UCSORGTOP
 10
0.0
 20
0.0
 30
0.0
  9
$UCSORGBOTTOM
 10
0.0
 20
0.0
 30
0.0
  9
$UCSORGLEFT
 10
0.0
 20
0.0
 30
0.0
  9
$UCSORGRIGHT
 10
0.0
 20
0.0
 30
0.0
  9
$UCSORGFRONT
 10
0.0
 20
0.0
 30
0.0
  9
$UCSORGBACK
 10
0.0
 20
0.0
 30
0.0
  9
$PUCSBASE
  2

  9
$PUCSNAME
  2

  9
$PUCSORG
 10
0.0
 20
0.0
 30
0.0
  9
$PUCSXDIR
 10
1.0
 20
0.0
 30
0.0
  9
$PUCSYDIR
 10
0.0
 20
1.0
 30
0.0
  9
$PUCSORTHOREF
  2

  9
$PUCSORTHOVIEW
 70
     0
  9
$PUCSORGTOP
 10
0.0
 20
0.0
 30
0.0
  9
$PUCSORGBOTTOM
 10
0.0
 20
0.0
 30
0.0
  9
$PUCSORGLEFT
 10
0.0
 20
0.0
 30
0.0
  9
$PUCSORGRIGHT
 10
0.0
 20
0.0
 30
0.0
  9
$PUCSORGFRONT
 10
0.0
 20
0.0
 30
0.0
  9
$PUCSORGBACK
 10
0.0
 20
0.0
 30
0.0
  9
$USERI1
 70
     0
  9
$USERI2
 70
     0
  9
$USERI3
 70
     0
  9
$USERI4
 70
     0
  9
$USERI5
 70
     0
  9
$USERR1
 40
0.0
  9
$USERR2
 40
0.0
  9
$USERR3
 40
0.0
  9
$USERR4
 40
0.0
  9
$USERR5
 40
0.0
  9
$WORLDVIEW
 70
     1
  9
$SHADEDGE
 70
     3
  9
$SHADEDIF
 70
    70
  9
$TILEMODE
 70
     1
  9
$MAXACTVP
 70
    16
  9
$PINSBASE
 10
0.0
 20
0.0
 30
0.0
  9
$PLIMCHECK
 70
     0
  9
$PEXTMIN
 10
1.000000000000000E+20
 20
1.000000000000000E+20
 30
1.000000000000000E+20
  9
$PEXTMAX
 10
-1.000000000000000E+20
 20
-1.000000000000000E+20
 30
-1.000000000000000E+20
  9
$PLIMMIN
 10
0.0
 20
0.0
  9
$PLIMMAX
 10
12.0
 20
9.0
  9
$UNITMODE
 70
     0
  9
$VISRETAIN
 70
     0
  9
$PLINEGEN
 70
     1
  9
$PSLTSCALE
 70
     0
  9
$TREEDEPTH
 70
  3020
  9
$CMLSTYLE
  2
STANDARD
  9
$CMLJUST
 70
     0
  9
$CMLSCALE
 40
1.0
  9
$PROXYGRAPHICS
 70
     1
  9
$MEASUREMENT
 70
     0
  9
$CELWEIGHT
370
    -1
  9
$ENDCAPS
280
     0
  9
$JOINSTYLE
280
     0
  9
$LWDISPLAY
290
     0
  9
$INSUNITS
 70
     0
  9
$HYPERLINKBASE
  1

  9
$STYLESHEET
  1

  9
$XEDIT
290
     1
  9
$CEPSNTYPE
380
     0
  9
$PSTYLEMODE
290
     1
  9
$FINGERPRINTGUID
  2
{9C19D7CE-BE25-492F-B456-B99F77E59DF7}
  9
$VERSIONGUID
  2
{510863B8-4FE9-4235-9727-A7BBCDDAA8ED}
  9
$EXTNAMES
290
     1
  9
$PSVPSCALE
 40
0.0
  9
$OLESTARTUP
290
     0
  0
ENDSEC
  0
SECTION
  2
CLASSES
  0
CLASS
  1
IMAGE
  2
AcDbRasterImage
  3
ISM
 90
      127
280
     0
281
     1
  0
CLASS
  1
DICTIONARYVAR
  2
AcDbDictionaryVar
  3
ObjectDBX Classes
 90
        0
280
     0
281
     0
  0
CLASS
  1
RASTERVARIABLES
  2
AcDbRasterVariables
  3
ISM
 90
        0
280
     0
281
     0
  0
CLASS
  1
IMAGEDEF
  2
AcDbRasterImageDef
  3
ISM
 90
        0
280
     0
281
     0
  0
CLASS
  1
IMAGEDEF_REACTOR
  2
AcDbRasterImageDefReactor
  3
ISM
 90
        1
280
     0
281
     0
  0
CLASS
  1
IDBUFFER
  2
AcDbIdBuffer
  3
ObjectDBX Classes
 90
        0
280
     0
281
     0
  0
CLASS
  1
SPATIAL_FILTER
  2
AcDbSpatialFilter
  3
ObjectDBX Classes
 90
        0
280
     0
281
     0
  0
CLASS
  1
SORTENTSTABLE
  2
AcDbSortentsTable
  3
ObjectDBX Classes
 90
        0
280
     0
281
     0
  0
CLASS
  1
LAYER_INDEX
  2
AcDbLayerIndex
  3
ObjectDBX Classes
 90
        0
280
     0
281
     0
  0
CLASS
  1
SPATIAL_INDEX
  2
AcDbSpatialIndex
  3
AutoCAD 2000
 90
        0
280
     0
281
     0
  0
CLASS
  1
OBJECT_PTR
  2
CAseDLPNTableRecord
  3
ASE-LPNTableRecord
 90
        1
280
     0
281
     0
  0
CLASS
  1
PLOTSETTINGS
  2
AcDbPlotSettings
  3
ObjectDBX Classes
 90
        0
280
     0
281
     0
  0
CLASS
  1
ACDBDICTIONARYWDFLT
  2
AcDbDictionaryWithDefault
  3
ObjectDBX Classes
 90
        0
280
     0
281
     0
  0
CLASS
  1
WIPEOUT
  2
AcDbWipeout
  3
WipeOut|AutoCAD Express Tool|expresstools@autodesk.com
 90
      127
280
     0
281
     1
  0
CLASS
  1
WIPEOUTVARIABLES
  2
AcDbWipeoutVariables
  3
WipeOut|AutoCAD Express Tool|expresstools@autodesk.com
 90
        0
280
     0
281
     0
  0
CLASS
  1
RTEXT
  2
RText
  3
RText|AutoCAD Express Tool|expresstools@autodesk.com
 90
        0
280
     0
281
     1
  0
CLASS
  1
ARCALIGNEDTEXT
  2
AcDbArcAlignedText
  3
ATEXT|AutoCAD Express Tool|expresstools@autodesk.com
 90
        0
280
     0
281
     1
  0
CLASS
  1
ACDBPLACEHOLDER
  2
AcDbPlaceHolder
  3
ObjectDBX Classes
 90
        0
280
     0
281
     0
  0
CLASS
  1
LAYOUT
  2
AcDbLayout
  3
ObjectDBX Classes
 90
        0
280
     0
281
     0
  0
ENDSEC
  0
SECTION
  2
TABLES
  0
TABLE
  2
VPORT
  5
6
330
0
100
AcDbSymbolTable
 70
     1
  0
VPORT
  5
5E2D
330
6
100
AcDbSymbolTableRecord
100
AcDbViewportTableRecord
  2
*Active
 70
     0
 10
0.0
 20
0.0
 11
1.0
 21
1.0
 12
693.3677162176059
 22
-0.6493276866058296
 13
0.0
 23
0.0
 14
1.0
 24
1.0
 15
0.0
 25
0.0
 16
0.0
 26
0.0
 36
1.0
 17
0.0
 27
0.0
 37
0.0
 40
302.1417653648204
 41
1.888667992047713
 42
50.0
 43
0.0
 44
0.0
 50
0.0
 51
0.0
 71
     0
 72
   100
 73
     1
 74
     1
 75
     0
 76
     0
 77
     0
 78
     0
281
     0
 65
     1
110
0.0
120
0.0
130
0.0
111
1.0
121
0.0
131
0.0
112
0.0
122
1.0
132
0.0
 79
     0
146
0.0
  0
ENDTAB
  0
TABLE
  2
LTYPE
  5
3
330
0
100
AcDbSymbolTable
 70
     2
  0
LTYPE
  5
C
330
3
100
AcDbSymbolTableRecord
100
AcDbLinetypeTableRecord
  2
BYBLOCK
 70
     0
  3

 72
    65
 73
     0
 40
0.0
  0
LTYPE
  5
D
330
3
100
AcDbSymbolTableRecord
100
AcDbLinetypeTableRecord
  2
BYLAYER
 70
     0
  3

 72
    65
 73
     0
 40
0.0
  0
LTYPE
  5
E
330
3
100
AcDbSymbolTableRecord
100
AcDbLinetypeTableRecord
  2
CONTINUOUS
 70
     0
  3
Solid line
 72
    65
 73
     0
 40
0.0
  0
LTYPE
  5
F
330
3
100
AcDbSymbolTableRecord
100
AcDbLinetypeTableRecord
  2
CENTER
 70
     0
  3
____ _ ____ _ ____ _ ____ _ ____ _ ____ _ ____
 72
    65
 73
     4
 40
0.6
 49
0.375
 74
     0
 49
-0.075
 74
     0
 49
0.075
 74
     0
 49
-0.075
 74
     0
  0
ENDTAB
  0
TABLE
  2
LAYER
  5
1
330
0
100
AcDbSymbolTable
 70
     2
  0
LAYER
  5
14
330
1
100
AcDbSymbolTableRecord
100
AcDbLayerTableRecord
  2
0
 70
     0
 62
     7
  6
CONTINUOUS
370
    -3
390
273
  0
LAYER
  5
27A
330
1
100
AcDbSymbolTableRecord
100
AcDbLayerTableRecord
  2
Defpoints
 70
     0
 62
     7
  6
CONTINUOUS
290
     0
370
    -3
390
273
  0
ENDTAB
  0
TABLE
  2
STYLE
  5
2
330
0
100
AcDbSymbolTable
 70
     1
  0
STYLE
  5
1B
330
2
100
AcDbSymbolTableRecord
100
AcDbTextStyleTableRecord
  2
STANDARD
 70
     0
 40
0.0
 41
1.0
 50
0.0
 71
     0
 42
35.06651165617814
  3
VERDANA.TTF
  4

1001
ACAD
1000
Verdana
1071
       34
  0
ENDTAB
  0
TABLE
  2
VIEW
  5
4
330
0
100
AcDbSymbolTable
 70
     0
  0
ENDTAB
  0
TABLE
  2
UCS
  5
5
330
0
100
AcDbSymbolTable
 70
     0
  0
ENDTAB
  0
TABLE
  2
APPID
  5
7
330
0
100
AcDbSymbolTable
 70
     1
  0
APPID
  5
19
330
7
100
AcDbSymbolTableRecord
100
AcDbRegAppTableRecord
  2
ACAD
 70
     0
  0
ENDTAB
  0
TABLE
  2
DIMSTYLE
  5
8
330
0
100
AcDbSymbolTable
 70
     1
100
AcDbDimStyleTable
  0
DIMSTYLE
105
28
330
8
100
AcDbSymbolTableRecord
100
AcDbDimStyleTableRecord
  2
STANDARD
 70
     0
 47
0.003
 48
0.003
 71
     1
140
1.5
289
     0
340
1B
  0
ENDTAB
  0
TABLE
  2
BLOCK_RECORD
  5
23
330
0
100
AcDbSymbolTable
 70
     0
  0
BLOCK_RECORD
  5
21
330
23
100
AcDbSymbolTableRecord
100
AcDbBlockTableRecord
  2
*MODEL_SPACE
340
276
  0
BLOCK_RECORD
  5
22
330
23
100
AcDbSymbolTableRecord
100
AcDbBlockTableRecord
  2
*PAPER_SPACE
340
277
  0
ENDTAB
  0
ENDSEC
  0
SECTION
  2
BLOCKS
  0
BLOCK
  5
24
330
21
100
AcDbEntity
  8
0
100
AcDbBlockBegin
  2
*MODEL_SPACE
 70
     0
 71
     0
 10
0.0
 20
0.0
 30
0.0
  3
*MODEL_SPACE
  1

  0
ENDBLK
  5
25
330
21
100
AcDbEntity
  8
0
100
AcDbBlockEnd
  0
BLOCK
  5
26
330
22
100
AcDbEntity
 67
     1
  8
0
100
AcDbBlockBegin
  2
*PAPER_SPACE
 70
     0
 71
     0
 10
0.0
 20
0.0
 30
0.0
  3
*PAPER_SPACE
  1

  0
ENDBLK
  5
27
330
22
100
AcDbEntity
 67
     1
  8
0
100
AcDbBlockEnd
  0
ENDSEC
  0
SECTION
  2
ENTITIES
  0
LINE
  5
1E28
330
21
100
AcDbEntity
  8
0
  6
Continuous
100
AcDbLine
 10
599.0374257814498
 20
29.767583178574
 30
0.0
 11
599.0374257814498
 21
9.767583178573972
 31
0.0
  0
LINE
  5
1E29
330
21
100
AcDbEntity
  8
0
  6
Continuous
100
AcDbLine
 10
615.1374257814498
 20
-18.15395585242604
 30
0.0
 11
618.6446054583498
 21
-20.17882698302603
 31
0.0
  0
LINE
  5
1E2A
330
21
100
AcDbEntity
  8
0
  6
Continuous
100
AcDbLine
 10
603.4374257814498
 20
29.767583178574
 30
0.0
 11
603.4374257814498
 21
9.767583178573972
 31
0.0
  0
LINE
  5
1E2B
330
21
100
AcDbEntity
  8
0
  6
Continuous
100
AcDbLine
 10
604.4374257814498
 20
10.76758317857397
 30
0.0
 11
604.4374257814498
 21
29.76758317857397
 31
0.0
  0
LINE
  5
1E2C
330
21
100
AcDbEntity
  8
0
  6
Continuous
100
AcDbLine
 10
605.4374257814498
 20
13.76758317857397
 30
0.0
 11
605.4374257814498
 21
29.76758317857397
 31
0.0
  0
LINE
  5
1E2D
330
21
100
AcDbEntity
  8
0
  6
Continuous
100
AcDbLine
 10
618.8446054583498
 20
-20.23241682142603
 30
0.0
 11
644.0374257814498
 21
-20.23241682142603
 31
0.0
  0
LINE
  5
1E2E
330
21
100
AcDbEntity
  8
0
  6
Continuous
100
AcDbLine
 10
622.6374257814498
 20
-19.83241682142602
 30
0.0
 11
644.0374257814498
 21
-19.83241682142605
 31
0.0
  0
LINE
  5
1E2F
330
21
100
AcDbEntity
  8
0
  6
Continuous
100
AcDbLine
 10
644.0374257814498
 20
-19.39810224642602
 30
0.0
 11
622.6374257814498
 21
-19.39810224642602
 31
0.0
  0
LINE
  5
1E30
330
21
100
AcDbEntity
  8
0
  6
Continuous
100
AcDbLine
 10
644.0374257814498
 20
-19.11525953392603
 30
0.0
 11
622.7545830689498
 21
-19.11525953392603
 31
0.0
  0
LINE
  5
1E31
330
21
100
AcDbEntity
  8
0
  6
Continuous
100
AcDbLine
 10
623.0774266969499
 20
-18.79241819472602
 30
0.0
 11
644.0374257814498
 21
-18.79241819472602
 31
0.0
  0
LINE
  5
1E32
330
21
100
AcDbEntity
  8
0
  6
Continuous
100
AcDbLine
 10
600.1202684938498
 20
5.884740466073964
 30
0.0
 11
598.1545830689499
 21
7.85042589097398
 31
0.0
  0
LINE
  5
1E33
330
21
100
AcDbEntity
  8
0
  6
Continuous
100
AcDbLine
 10
625.1202684938498
 20
-16.74957410902601
 30
0.0
 11
644.0374257814498
 21
-16.74957410902604
 31
0.0
  0
LINE
  5
1E34
330
21
100
AcDbEntity
  8
0
  6
Continuous
100
AcDbLine
 10
625.2374257814499
 20
-16.46673139652603
 30
0.0
 11
644.0374257814498
 21
-16.46673139652605
 31
0.0
  0
LINE
  5
1E35
330
21
100
AcDbEntity
  8
0
  6
Continuous
100
AcDbLine
 10
615.1374257814498
 20
-18.15395585242604
 30
0.0
 11
615.1374257814498
 21
-2.238783409726011
 31
0.0
  0
LINE
  5
1E36
330
21
100
AcDbEntity
  8
0
  6
Continuous
100
AcDbLine
 10
607.7134342391498
 20
13.76758317857397
 30
0.0
 11
604.3671027699497
 21
10.42125170927397
 31
0.0
  0
LINE
  5
1E37
330
21
100
AcDbEntity
  8
0
  6
Continuous
100
AcDbLine
 10
603.7837572428498
 20
9.837906182173981
 30
0.0
 11
599.9754300102499
 21
6.029578949673975
 31
0.0
  0
LINE
  5
1E38
330
21
100
AcDbEntity
  8
0
  6
Continuous
100
AcDbLine
 10
622.6374257814498
 20
-19.83241682142602
 30
0.0
 11
622.6374257814498
 21
-19.39810224642602
 31
0.0
  0
LINE
  5
1E39
330
21
100
AcDbEntity
  8
0
  6
Continuous
100
AcDbLine
 10
623.0774257814499
 20
-1.232416821426028
 30
0.0
 11
623.0774257814499
 21
-18.79241682142603
 31
0.0
  0
LINE
  5
1E3A
330
21
100
AcDbEntity
  8
0
  6
Continuous
100
AcDbLine
 10
624.0374257814498
 20
13.76758317857397
 30
0.0
 11
624.0374257814498
 21
29.76758317857397
 31
0.0
  0
LINE
  5
1E3B
330
21
100
AcDbEntity
  8
0
  6
Continuous
100
AcDbLine
 10
624.4374257814498
 20
14.26758317857397
 30
0.0
 11
624.43742578145
 21
29.767583178574
 31
0.0
  0
LINE
  5
1E3C
330
21
100
AcDbEntity
  8
0
  6
Continuous
100
AcDbLine
 10
613.1184426898498
 20
13.76758317857397
 30
0.0
 11
605.1184426898498
 21
5.767583178573971
 31
0.0
  0
LINE
  5
1E3D
330
21
100
AcDbEntity
  8
0
  6
Continuous
100
AcDbLine
 10
625.2374257814499
 20
-16.46673139652603
 30
0.0
 11
625.2374257814499
 21
0.1902329093739752
 31
0.0
  0
LINE
  5
1E3E
330
21
100
AcDbEntity
  8
0
  6
Continuous
100
AcDbLine
 10
628.5374257814498
 20
3.827539605273983
 30
0.0
 11
628.5374257814498
 21
14.26758317857397
 31
0.0
  0
LINE
  5
1E3F
330
21
100
AcDbEntity
  8
0
  6
Continuous
100
AcDbLine
 10
618.5234511405499
 20
13.76758317857397
 30
0.0
 11
610.5234511405499
 21
5.767583178573971
 31
0.0
  0
LINE
  5
1E40
330
21
100
AcDbEntity
  8
0
  6
Continuous
100
AcDbLine
 10
614.1587461249497
 20
8.888903522073974
 30
0.0
 11
611.0374257814498
 21
5.767583178573971
 31
0.0
  0
LINE
  5
1E41
330
21
100
AcDbEntity
  8
0
  6
Continuous
100
AcDbLine
 10
623.0774257814499
 20
-1.232416821426028
 30
0.0
 11
625.2374257814499
 21
-1.232416821426028
 31
0.0
  0
LINE
  5
1E42
330
21
100
AcDbEntity
  8
0
  6
Continuous
100
AcDbLine
 10
644.0374257814498
 20
0.1902329093739468
 30
0.0
 11
625.2374257814499
 21
0.1902329093739752
 31
0.0
  0
LINE
  5
1E43
330
21
100
AcDbEntity
  8
0
  6
Continuous
100
AcDbLine
 10
644.0374257814498
 20
1.05625831317397
 30
0.0
 11
625.7374257814499
 21
1.05625831317397
 31
0.0
  0
LINE
  5
1E44
330
21
100
AcDbEntity
  8
0
  6
Continuous
100
AcDbLine
 10
624.4262332591497
 20
14.26535684647396
 30
0.0
 11
624.0396521088499
 21
13.87877569617399
 31
0.0
  0
LINE
  5
1E45
330
21
100
AcDbEntity
  8
0
  6
Continuous
100
AcDbLine
 10
623.9284595911499
 20
13.76758317857397
 30
0.0
 11
619.8639423941499
 21
9.703065981573985
 31
0.0
  0
LINE
  5
1E46
330
21
100
AcDbEntity
  8
0
  6
Continuous
100
AcDbLine
 10
627.5374257814498
 20
2.095488797673965
 30
0.0
 11
644.0374257814498
 21
2.095488797673965
 31
0.0
  0
LINE
  5
1E47
330
21
100
AcDbEntity
  8
0
  6
Continuous
100
AcDbLine
 10
628.5374257814498
 20
3.827539605273983
 30
0.0
 11
644.0374257814498
 21
3.827539605273983
 31
0.0
  0
LINE
  5
1E48
330
21
100
AcDbEntity
  8
0
  6
Continuous
100
AcDbLine
 10
628.5374257814498
 20
12.97154091807397
 30
0.0
 11
622.2563225519498
 21
6.690437688573979
 31
0.0
  0
LINE
  5
1E49
330
21
100
AcDbEntity
  8
0
  6
Continuous
100
AcDbLine
 10
611.0374257814498
 20
5.767583178573971
 30
0.0
 11
600.4031112063499
 21
5.767583178573971
 31
0.0
  0
LINE
  5
1E4A
330
21
100
AcDbEntity
  8
0
  6
Continuous
100
AcDbLine
 10
612.7374257814499
 20
7.467583178573988
 30
0.0
 11
598.5374257814498
 21
7.467583178573988
 31
0.0
  0
LINE
  5
1E4B
330
21
100
AcDbEntity
  8
0
  6
Continuous
100
AcDbLine
 10
628.5374257814498
 20
7.566532467373974
 30
0.0
 11
615.1374257814498
 21
-5.833467532626031
 31
0.0
  0
LINE
  5
1E4C
330
21
100
AcDbEntity
  8
0
  6
Continuous
100
AcDbLine
 10
619.2728086886497
 20
9.767583178573972
 30
0.0
 11
616.2800664685498
 21
9.767583178573972
 31
0.0
  0
LINE
  5
1E4D
330
21
100
AcDbEntity
  8
0
  6
Continuous
100
AcDbLine
 10
603.4374257814498
 20
9.767583178573972
 30
0.0
 11
599.0374257814498
 21
9.767583178573972
 31
0.0
  0
LINE
  5
1E4E
330
21
100
AcDbEntity
  8
0
  6
CENTER
100
AcDbLine
 10
644.0374257814498
 20
55.8412607444643
 30
0.0
 11
643.8080985246625
 21
-32.13348383523683
 31
0.0
  0
LINE
  5
1E4F
330
21
100
AcDbEntity
  8
0
  6
Continuous
100
AcDbLine
 10
625.2374257814499
 20
-1.138475983326031
 30
0.0
 11
615.1374257814498
 21
-11.23847598332602
 31
0.0
  0
LINE
  5
1E50
330
21
100
AcDbEntity
  8
0
  6
Continuous
100
AcDbLine
 10
620.7728086886497
 20
4.169506967173987
 30
0.0
 11
620.3235856505498
 21
3.910147925273975
 31
0.0
  0
LINE
  5
1E51
330
21
100
AcDbEntity
  8
0
  6
Continuous
100
AcDbLine
 10
624.0374257814498
 20
13.76758317857397
 30
0.0
 11
605.4374257814498
 21
13.76758317857397
 31
0.0
  0
LINE
  5
1E52
330
21
100
AcDbEntity
  8
0
  6
Continuous
100
AcDbLine
 10
628.5374257814498
 20
14.26758317857397
 30
0.0
 11
624.4374257814498
 21
14.26758317857397
 31
0.0
  0
LINE
  5
1E53
330
21
100
AcDbEntity
  8
0
  6
Continuous
100
AcDbLine
 10
625.2374257814499
 20
-6.54348443392601
 30
0.0
 11
615.1374257814498
 21
-16.64348443392603
 31
0.0
  0
LINE
  5
1E54
330
21
100
AcDbEntity
  8
0
  6
Continuous
100
AcDbLine
 10
616.1374257814498
 20
-0.5067326021260215
 30
0.0
 11
617.5374257814499
 21
0.3015577747739826
 31
0.0
  0
LINE
  5
1E55
330
21
100
AcDbEntity
  8
0
  6
Continuous
100
AcDbLine
 10
625.7374257814499
 20
1.05625831317397
 30
0.0
 11
627.5374257814498
 21
2.095488797673965
 31
0.0
  0
LINE
  5
1E56
330
21
100
AcDbEntity
  8
0
  6
Continuous
100
AcDbLine
 10
625.2374257814499
 20
-11.94849288462603
 30
0.0
 11
617.6064633238497
 21
-19.57945534212604
 31
0.0
  0
LINE
  5
1E57
330
21
100
AcDbEntity
  8
0
  6
Continuous
100
AcDbLine
 10
622.7545830689498
 20
-19.11525953392603
 30
0.0
 11
625.1202684938498
 21
-16.74957410902601
 31
0.0
  0
LINE
  5
1E58
330
21
100
AcDbEntity
  8
0
  6
Continuous
100
AcDbLine
 10
622.6073601286498
 20
-19.98356698802601
 30
0.0
 11
622.3885758716498
 21
-20.20235124502602
 31
0.0
  0
ARC
  5
1E59
330
21
100
AcDbEntity
  8
0
  6
Continuous
100
AcDbCircle
 10
624.4374257814498
 20
13.86758317857396
 30
0.0
 40
0.4
100
AcDbArc
 50
90.0
 51
179.9999999948004
  0
ARC
  5
1E5A
330
21
100
AcDbEntity
  8
0
  6
Continuous
100
AcDbCircle
 10
605.4374257814498
 20
12.76758317857397
 30
0.0
 40
1.0
100
AcDbArc
 50
90.0
 51
180.0
  0
ARC
  5
1E5C
330
21
100
AcDbEntity
  8
0
  6
Continuous
100
AcDbCircle
 10
603.4374257814498
 20
10.76758317857397
 30
0.0
 40
1.0
100
AcDbArc
 50
270.0
 51
0.0
  0
ARC
  5
1E5D
330
21
100
AcDbEntity
  8
0
  6
Continuous
100
AcDbCircle
 10
622.2374257814499
 20
-19.83241682142602
 30
0.0
 40
0.4
100
AcDbArc
 50
270.0000000060057
 51
0.0
  0
ARC
  5
1E5E
330
21
100
AcDbEntity
  8
0
  6
Continuous
100
AcDbCircle
 10
618.8446054583498
 20
-19.83241682142602
 30
0.0
 40
0.4
100
AcDbArc
 50
240.0000000040012
 51
270.0
  0
ARC
  5
1E60
330
21
100
AcDbEntity
  8
0
  6
Continuous
100
AcDbCircle
 10
600.4031112063499
 20
6.167583178573977
 30
0.0
 40
0.4
100
AcDbArc
 50
224.9999999961978
 51
270.0
  0
ARC
  5
1E61
330
21
100
AcDbEntity
  8
0
  6
Continuous
100
AcDbCircle
 10
616.2800664685498
 20
6.767583178573971
 30
0.0
 40
3.0
100
AcDbArc
 50
90.0
 51
135.0000000001969
  0
ARC
  5
1E62
330
21
100
AcDbEntity
  8
0
  6
Continuous
100
AcDbCircle
 10
621.8235856505498
 20
1.312071713873962
 30
0.0
 40
3.0
100
AcDbArc
 50
119.9999999998963
 51
164.6571874945996
  0
ARC
  5
1E63
330
21
100
AcDbEntity
  8
0
  6
Continuous
100
AcDbCircle
 10
616.0374257814498
 20
2.899633986073979
 30
0.0
 40
3.0
100
AcDbArc
 50
300.0000000000005
 51
344.6571874945996
  0
ARC
  5
1E64
330
21
100
AcDbEntity
  8
0
  6
Continuous
100
AcDbCircle
 10
617.1374257814497
 20
-2.238783409726011
 30
0.0
 40
2.0
100
AcDbArc
 50
119.9999999999997
 51
180.0
  0
ARC
  5
1E65
330
21
100
AcDbEntity
  8
0
  6
Continuous
100
AcDbCircle
 10
623.0374257814498
 20
-19.39810224642602
 30
0.0
 40
0.4
100
AcDbArc
 50
134.9999999912982
 51
180.0000000001009
  0
ARC
  5
1E66
330
21
100
AcDbEntity
  8
0
  6
Continuous
100
AcDbCircle
 10
624.8374257814498
 20
-16.46673139652603
 30
0.0
 40
0.4
100
AcDbArc
 50
314.9999999900995
 51
0.0
  0
ARC
  5
1E67
330
21
100
AcDbEntity
  8
0
  6
Continuous
100
AcDbCircle
 10
626.2374257814499
 20
0.1902329093739752
 30
0.0
 40
1.0
100
AcDbArc
 50
119.9999999959988
 51
180.0000000001009
  0
ARC
  5
1E68
330
21
100
AcDbEntity
  8
0
  6
Continuous
100
AcDbCircle
 10
626.5374257814499
 20
3.827539605273983
 30
0.0
 40
2.0
100
AcDbArc
 50
299.9999999978959
 51
0.0
  0
ARC
  5
1E69
330
21
100
AcDbEntity
  8
0
  6
Continuous
100
AcDbCircle
 10
619.2728361543499
 20
6.767594271473967
 30
0.0
 40
2.9999985531
100
AcDbArc
 50
299.9996077657033
 51
90.00052628760489
  0
SPLINE
  5
1E6A
330
21
100
AcDbEntity
  8
0
  6
Continuous
100
AcDbSpline
210
0.0
220
0.0
230
1.0
 70
    24
 71
     3
 72
    18
 73
    14
 74
    12
 42
0.0000000001
 43
0.0000000001
 44
0.0000000001
 40
0.0
 40
0.0
 40
0.0
 40
0.0
 40
3.707976441408644
 40
7.394775941938646
 40
10.66858309241671
 40
13.46965471370187
 40
15.82628617324439
 40
17.78441230643833
 40
19.34452802340081
 40
20.49937623222404
 40
21.2930466954859
 40
21.76404711007841
 40
21.92031021678298
 40
21.92031021678298
 40
21.92031021678298
 40
21.92031021678298
 10
644.0374257814498
 20
29.76758317857397
 30
0.0
 10
643.1634473527163
 20
28.89360474984064
 30
0.0
 10
641.4204819480829
 20
27.15063934520734
 30
0.0
 10
638.9058727979832
 20
24.63603019510725
 30
0.0
 10
636.6050231639498
 20
22.33518056107405
 30
0.0
 10
634.6176971438833
 20
20.34785454100725
 30
0.0
 10
632.9404801135497
 20
18.67063751067396
 30
0.0
 10
631.5557591949163
 20
17.28591659204077
 30
0.0
 10
630.4543013049834
 20
16.18445870210721
 30
0.0
 10
629.6273082485831
 20
15.35746564570739
 30
0.0
 10
629.0570221307835
 20
14.78717952790731
 30
0.0
 10
628.72210477875
 20
14.45226217587387
 30
0.0
 10
628.5742573489165
 20
14.30441474604063
 30
0.0
 10
628.5374257814498
 20
14.26758317857397
 30
0.0
 11
644.0374257814498
 21
29.76758317857397
 31
0.0
 11
641.4154904952497
 21
27.14564789237397
 31
0.0
 11
638.8085295675498
 21
24.53868696467399
 31
0.0
 11
636.4935983311498
 21
22.22375572827397
 31
0.0
 11
634.5129415931499
 21
20.24309899027398
 31
0.0
 11
632.8465515073498
 21
18.57670890447397
 31
0.0
 11
631.4619472401497
 21
17.19210463727398
 31
0.0
 11
630.3587788372499
 21
16.08893623437399
 31
0.0
 11
629.5421778375498
 21
15.27233523467399
 31
0.0
 11
628.98096807095
 21
14.71112546807399
 31
0.0
 11
628.6479204838499
 21
14.37807788097396
 31
0.0
 11
628.5374257814498
 21
14.26758317857397
 31
0.0
  0
SPLINE
  5
1E6B
330
21
100
AcDbEntity
  8
0
  6
Continuous
100
AcDbSpline
210
-2.900000000000000E-15
220
-1.0
230
-3.100000000000000E-15
 70
     8
 71
     3
 72
    17
 73
    13
 74
     0
 42
0.0000000001
 43
0.0000000001
 40
29.50061999362777
 40
29.50061999362777
 40
29.50061999362777
 40
29.50061999362777
 40
32.45068199303737
 40
35.40074399242559
 40
38.35080599173934
 40
41.30086799111457
 40
44.25092999044775
 40
47.20099198984591
 40
50.15105398922116
 40
53.10111598862729
 40
56.05117798789489
 40
59.0012399873045
 40
59.0012399873045
 40
59.0012399873045
 40
59.0012399873045
 10
644.0374257814498
 20
-1.232416821426056
 30
-18.8
 10
643.0530632518229
 20
-1.232416821426056
 30
-18.80000000000199
 10
641.0843381925768
 20
-1.232416821426028
 30
-18.64505800447292
 10
638.2039684802166
 20
-1.232416821426056
 30
-17.95354180355512
 10
635.4672256096089
 20
-1.232416821426056
 30
-16.81994981915415
 10
632.9415553993531
 20
-1.232416821425999
 30
-15.27219484797994
 10
630.6889310231227
 20
-1.232416821426028
 30
-13.34838775415894
 10
628.7656302789632
 20
-1.232416821426056
 30
-11.09589905309195
 10
627.2159855839345
 20
-1.232416821426056
 30
-8.5701924920912
 10
626.089446145186
 20
-1.232416821425999
 30
-5.833459349128366
 10
625.3716094857066
 20
-1.232416821426113
 30
-2.953087076847283
 10
625.2821536828694
 20
-1.232416821426056
 30
-0.9843623589648878
 10
625.2374257814499
 20
-1.232416821426028
 30
0.0
  0
LINE
  5
1E6C
330
21
100
AcDbEntity
  8
0
100
AcDbLine
 10
644.0374257814498
 20
29.51049394178321
 30
0.0
 11
643.7803365446594
 21
29.51049394178321
 31
0.0
  0
LINE
  5
1E6D
330
21
100
AcDbEntity
  8
0
100
AcDbLine
 10
643.7803365446594
 20
29.51049394178321
 30
0.0
 11
644.0374257814498
 21
29.51049394178321
 31
0.0
  0
LINE
  5
1E6E
330
21
100
AcDbEntity
  8
0
100
AcDbLine
 10
593.0374257814499
 20
29.76758317857397
 30
0.0
 11
593.0374257814499
 21
29.76758317857397
 31
0.0
  0
SPLINE
  5
1E6F
330
21
100
AcDbEntity
  8
0
  6
Continuous
100
AcDbSpline
210
0.0
220
0.0
230
1.0
 70
     8
 71
     3
 72
    10
 73
     6
 74
     4
 42
0.0000000001
 43
0.0000000001
 44
0.0000000001
 40
0.0
 40
0.0
 40
0.0
 40
0.0
 40
0.2925677570425602
 40
0.6108481915695769
 40
0.9424234206496238
 40
0.9424234206496238
 40
0.9424234206496238
 40
0.9424234206496238
 10
657.2491826075593
 20
-18.15395585242604
 30
0.0
 10
657.1516580871331
 20
-18.15684624366573
 30
0.0
 10
656.9480379837484
 20
-18.16288105173734
 30
0.0
 10
656.6360542359755
 20
-18.20528714934854
 30
0.0
 10
656.4248467341226
 20
-18.25361921257559
 30
0.0
 10
656.3170825339591
 20
-18.27827963462602
 30
0.0
 11
657.2491826075593
 21
-18.15395585242604
 31
0.0
 11
656.9569307495592
 21
-18.16754790732602
 31
0.0
 11
656.6413965289592
 21
-18.20926829362602
 31
0.0
 11
656.3170825339591
 21
-18.27827963462602
 31
0.0
  0
SPLINE
  5
1E70
330
21
100
AcDbEntity
  8
0
  6
Continuous
100
AcDbSpline
210
0.0
220
0.0
230
1.0
 70
     8
 71
     3
 72
    10
 73
     6
 74
     4
 42
0.0000000001
 43
0.0000000001
 44
0.0000000001
 40
0.0
 40
0.0
 40
0.0
 40
0.0
 40
0.1985968168325924
 40
0.4270439694709569
 40
0.6822839017319899
 40
0.6822839017319899
 40
0.6822839017319899
 40
0.6822839017319899
 10
659.8554189676592
 20
-18.27827963462602
 30
0.0
 10
659.7940812475961
 20
-18.25292619170436
 30
0.0
 10
659.6621863669438
 20
-18.1984085258238
 30
0.0
 10
659.4359157659172
 20
-18.16132265759203
 30
0.0
 10
659.2747900320693
 20
-18.15650049189365
 30
0.0
 10
659.1897645627591
 20
-18.15395585242604
 30
0.0
 11
659.8554189676592
 21
-18.27827963462602
 31
0.0
 11
659.6693017644593
 21
-18.20898979172602
 31
0.0
 11
659.4446412595592
 21
-18.16756806932602
 31
0.0
 11
659.1897645627591
 21
-18.15395585242604
 31
0.0
  0
SPLINE
  5
1E71
330
21
100
AcDbEntity
  8
0
  6
Continuous
100
AcDbSpline
210
0.0
220
0.0
230
1.0
 70
     8
 71
     3
 72
    10
 73
     6
 74
     4
 42
0.0000000001
 43
0.0000000001
 44
0.0000000001
 40
0.0
 40
0.0
 40
0.0
 40
0.0
 40
0.0399367743324096
 40
0.1388279404195198
 40
0.2942257025800081
 40
0.2942257025800081
 40
0.2942257025800081
 40
0.2942257025800081
 10
672.6586106255592
 20
-18.15395585242604
 30
0.0
 10
672.6460281118781
 20
-18.1583276698171
 30
0.0
 10
672.6022888643084
 20
-18.17352495138117
 30
0.0
 10
672.5145808903676
 20
-18.21793923788589
 30
0.0
 10
672.4385983963407
 20
-18.25539199184722
 30
0.0
 10
672.3921649569592
 20
-18.27827963462602
 30
0.0
 11
672.6586106255592
 21
-18.15395585242604
 31
0.0
 11
672.6210579693592
 21
-18.16754790732602
 31
0.0
 11
672.5313982119591
 21
-18.20926829362602
 31
0.0
 11
672.3921649569592
 21
-18.27827963462602
 31
0.0
  0
SPLINE
  5
1E72
330
21
100
AcDbEntity
  8
0
  6
Continuous
100
AcDbSpline
210
0.0
220
0.0
230
1.0
 70
     8
 71
     3
 72
    11
 73
     7
 74
     5
 42
0.0000000001
 43
0.0000000001
 44
0.0000000001
 40
0.0
 40
0.0
 40
0.0
 40
0.0
 40
0.5410062207006581
 40
1.048787277280885
 40
1.522555233638596
 40
1.961840585741195
 40
1.961840585741195
 40
1.961840585741195
 40
1.961840585741195
 10
660.4431359519592
 20
0.3015577747739826
 30
0.0
 10
660.2758245341762
 20
0.2342315089934739
 30
0.0
 10
659.951476902669
 20
0.1037137288356399
 30
0.0
 10
659.4877518071086
 20
-0.1027349050477555
 30
0.0
 10
659.0591221376269
 20
-0.3042897112879095
 30
0.0
 10
658.7871763721896
 20
-0.4409723017102433
 30
0.0
 10
658.6563386760593
 20
-0.5067326021260215
 30
0.0
 11
660.4431359519592
 21
0.3015577747739826
 31
0.0
 11
659.9425103810593
 21
0.0964681148739715
 31
0.0
 11
659.4781530869592
 21
-0.1089921120260158
 31
0.0
 11
659.0496617469592
 21
-0.3111090287260367
 31
0.0
 11
658.6563386760593
 21
-0.5067326021260215
 31
0.0
  0
SPLINE
  5
1E73
330
21
100
AcDbEntity
  8
0
  6
Continuous
100
AcDbSpline
210
0.0
220
0.0
230
1.0
 70
     8
 71
     3
 72
    11
 73
     7
 74
     5
 42
0.0000000001
 43
0.0000000001
 44
0.0000000001
 40
0.0
 40
0.0
 40
0.0
 40
0.0
 40
0.5378976045488055
 40
1.078513182165803
 40
1.610960115653095
 40
2.126281155179516
 40
2.126281155179516
 40
2.126281155179516
 40
2.126281155179516
 10
661.5464018762593
 20
-1.430493032826035
 30
0.0
 10
661.5155966050406
 20
-1.25293805427199
 30
0.0
 10
661.4538304049152
 20
-0.8969309196235041
 30
0.0
 10
661.209404398551
 20
-0.4120973439830802
 30
0.0
 10
660.8786935297676
 20
0.0102219459479966
 30
0.0
 10
660.5867310322774
 20
0.2055096719815918
 30
0.0
 10
660.4431358646593
 20
0.301557534273968
 30
0.0
 11
661.5464018762593
 21
-1.430493032826035
 31
0.0
 11
661.4286459477592
 21
-0.9056431740260109
 31
0.0
 11
661.1927820610592
 21
-0.4191933516260349
 31
0.0
 11
660.8560669134592
 21
-0.0067340853260305
 31
0.0
 11
660.4431358646593
 21
0.301557534273968
 31
0.0
  0
SPLINE
  5
1E74
330
21
100
AcDbEntity
  8
0
  6
Continuous
100
AcDbSpline
210
0.0
220
0.0
230
1.0
 70
     8
 71
     3
 72
    11
 73
     7
 74
     5
 42
0.0000000001
 43
0.0000000001
 44
0.0000000001
 40
0.0
 40
0.0
 40
0.0
 40
0.0
 40
0.5161644011604427
 40
1.001202475868871
 40
1.454384884447483
 40
1.874950153997071
 40
1.874950153997071
 40
1.874950153997071
 40
1.874950153997071
 10
661.5464018762593
 20
-1.430493032826035
 30
0.0
 10
661.3880596944759
 20
-1.497839826074914
 30
0.0
 10
661.0809238593048
 20
-1.628472190474736
 30
0.0
 10
660.6421804455329
 20
-1.834907370257122
 30
0.0
 10
660.2365025610636
 20
-2.036422236009742
 30
0.0
 10
659.9792456855087
 20
-2.172994197461665
 30
0.0
 10
659.8554189676592
 20
-2.238731051726034
 30
0.0
 11
661.5464018762593
 21
-1.430493032826035
 31
0.0
 11
661.0727318197592
 21
-1.635584150626016
 31
0.0
 11
660.6333504776592
 21
-1.841025067026038
 31
0.0
 11
660.2277351425591
 21
-2.043140121826013
 31
0.0
 11
659.8554189676592
 21
-2.238731051726034
 31
0.0
  0
SPLINE
  5
1E75
330
21
100
AcDbEntity
  8
0
  6
Continuous
100
AcDbSpline
210
0.0
220
0.0
230
1.0
 70
     8
 71
     3
 72
    12
 73
     8
 74
     6
 42
0.0000000001
 43
0.0000000001
 44
0.0000000001
 40
0.0
 40
0.0
 40
0.0
 40
0.0
 40
0.4377331504188324
 40
0.8814200376457164
 40
1.324439533181617
 40
1.760468584475476
 40
2.183871393638193
 40
2.183871393638193
 40
2.183871393638193
 40
2.183871393638193
 10
659.8554189676592
 20
-2.238783409726011
 30
0.0
 10
659.8276640645338
 20
-2.095107129175122
 30
0.0
 10
659.7717767557153
 20
-1.805800384893155
 30
0.0
 10
659.5859133872492
 20
-1.400742890100382
 30
0.0
 10
659.334646156194
 20
-1.036897646997142
 30
0.0
 10
659.0254148445506
 20
-0.7257897604928174
 30
0.0
 10
658.7783057309266
 20
-0.579032968195196
 30
0.0
 10
658.6565663613591
 20
-0.5067326021260215
 30
0.0
 11
659.8554189676592
 21
-2.238783409726011
 31
0.0
 11
659.7554311035592
 21
-1.812622949326026
 31
0.0
 11
659.5748020836593
 21
-1.407368447726014
 31
0.0
 11
659.3227212967593
 21
-1.043058757626027
 31
0.0
 11
659.0113333023591
 21
-0.7378394094260159
 31
0.0
 11
658.6565663613591
 21
-0.5067326021260215
 31
0.0
  0
SPLINE
  5
1E76
330
21
100
AcDbEntity
  8
0
  6
Continuous
100
AcDbSpline
210
0.0
220
0.0
230
1.0
 70
    24
 71
     3
 72
     8
 73
     4
 74
     2
 42
0.0000000001
 43
0.0000000001
 44
0.0000000001
 40
0.0
 40
0.0
 40
0.0
 40
0.0
 40
1.024603723475557
 40
1.024603723475557
 40
1.024603723475557
 40
1.024603723475557
 10
662.4828407626591
 20
-1.014686584826023
 30
0.0
 10
662.1706944671926
 20
-1.15328873415936
 30
0.0
 10
661.8585481717259
 20
-1.291890883492698
 30
0.0
 10
661.5464018762593
 20
-1.430493032826035
 30
0.0
 11
662.4828407626591
 21
-1.014686584826023
 31
0.0
 11
661.5464018762593
 21
-1.430493032826035
 31
0.0
  0
SPLINE
  5
1E77
330
21
100
AcDbEntity
  8
0
  6
Continuous
100
AcDbSpline
210
0.0
220
0.0
230
1.0
 70
     8
 71
     3
 72
    21
 73
    17
 74
    15
 42
0.0000000001
 43
0.0000000001
 44
0.0000000001
 40
0.0
 40
0.0
 40
0.0
 40
0.0
 40
0.3861213716377976
 40
0.8166990966796004
 40
1.284923296522364
 40
1.783907849203831
 40
2.309474490651116
 40
2.866271240917159
 40
3.460436723063092
 40
4.096924271864742
 40
4.784523485234733
 40
5.54550013248403
 40
6.415227878664376
 40
7.415947683928415
 40
8.539861092844133
 40
8.754356416205349
 40
8.754356416205349
 40
8.754356416205349
 40
8.754356416205349
 10
670.7011820483592
 20
-1.430493032826035
 30
0.0
 10
670.5826337138833
 20
-1.380363389486427
 30
0.0
 10
670.3318878997661
 20
-1.274332391360966
 30
0.0
 10
669.941760450904
 20
-1.097470230426792
 30
0.0
 10
669.5195409237701
 20
-0.9004485435186258
 30
0.0
 10
669.0695206319717
 20
-0.6881278987375762
 30
0.0
 10
668.5907937822987
 20
-0.4674660834425405
 30
0.0
 10
668.077211714895
 20
-0.2468476747113729
 30
0.0
 10
667.5178713610226
 20
-0.0402905318695647
 30
0.0
 10
666.8991388138441
 20
0.1263663668778257
 30
0.0
 10
666.2056144515797
 20
0.2092917534027418
 30
0.0
 10
665.429779227621
 20
0.1514664635433595
 30
0.0
 10
664.5793409033533
 20
-0.0788649663182383
 30
0.0
 10
663.6556803958807
 20
-0.4601770155541587
 30
0.0
 10
662.9518997497294
 20
-0.7957551365626236
 30
0.0
 10
662.5476296713762
 20
-0.98444661499743
 30
0.0
 10
662.4828407626591
 20
-1.014686584826023
 30
0.0
 11
670.7011820483592
 21
-1.430493032826035
 31
0.0
 11
670.3461584957593
 21
-1.278677385626025
 31
0.0
 11
669.9535116628592
 21
-1.10196959882603
 31
0.0
 11
669.5289679106593
 21
-0.9044942743260264
 31
0.0
 11
669.0772260911592
 21
-0.6925628884260107
 31
0.0
 11
668.5993286539591
 21
-0.4738522711260203
 31
0.0
 11
668.0868840644594
 21
-0.2560836696260367
 31
0.0
 11
667.5283543494592
 21
-0.0534086153260205
 31
0.0
 11
666.9125453098593
 21
0.1075125657739875
 31
0.0
 11
666.2293547845592
 21
0.1852517731739738
 31
0.0
 11
665.4702469453591
 21
0.1319531228739663
 31
0.0
 11
664.6276281116593
 21
-0.0834995484260333
 31
0.0
 11
663.6972607579592
 21
-0.4520870086260232
 31
0.0
 11
662.6771669338593
 21
-0.9238813926260149
 31
0.0
 11
662.4828407626591
 21
-1.014686584826023
 31
0.0
  0
SPLINE
  5
1E78
330
21
100
AcDbEntity
  8
0
  6
Continuous
100
AcDbSpline
210
0.0
220
0.0
230
1.0
 70
     8
 71
     3
 72
    21
 73
    17
 74
    15
 42
0.0000000001
 43
0.0000000001
 44
0.0000000001
 40
0.0
 40
0.0
 40
0.0
 40
0.0
 40
0.2779837240627814
 40
0.596795081398604
 40
0.9546154180545595
 40
1.349728587585978
 40
1.782965175968302
 40
2.263697747560849
 40
2.805314115857846
 40
3.422919081524837
 40
4.134401596036541
 40
4.96174365233239
 40
5.928970915938845
 40
7.049672184395671
 40
8.320438545836764
 40
9.745933041899848
 40
9.745933041899848
 40
9.745933041899848
 40
9.745933041899848
 10
669.9569271112591
 20
0.3015577747739826
 30
0.0
 10
669.8693436180342
 20
0.3318118742788703
 30
0.0
 10
669.6813131923523
 20
0.3967635107012358
 30
0.0
 10
669.3814163668059
 20
0.5031476539877242
 30
0.0
 10
669.0444564529308
 20
0.6218265787447406
 30
0.0
 10
668.6702839198338
 20
0.7496472517495136
 30
0.0
 10
668.2545995745481
 20
0.8825255482377817
 30
0.0
 10
667.7878152834512
 20
1.015362135416928
 30
0.0
 10
667.2551088849962
 20
1.139384486307532
 30
0.0
 10
666.6387378274799
 20
1.238255284801482
 30
0.0
 10
665.9201938721782
 20
1.285489053338231
 30
0.0
 10
665.0839830109335
 20
1.249455062628868
 30
0.0
 10
664.120910563036
 20
1.111660711758133
 30
0.0
 10
663.0246907222631
 20
0.8826846471308173
 30
0.0
 10
661.7867532506434
 20
0.5887778636748096
 30
0.0
 10
660.907821237667
 20
0.4008918256250426
 30
0.0
 10
660.4431359519592
 20
0.3015577747739826
 30
0.0
 11
669.9569271112591
 21
0.3015577747739826
 31
0.0
 11
669.6942947697592
 21
0.3926577420739647
 31
0.0
 11
669.3936338877592
 21
0.4986941301739876
 31
0.0
 11
669.0560041038593
 21
0.6171910598739885
 31
0.0
 11
668.6819153790593
 21
0.7443604064739873
 31
0.0
 11
668.2690352891593
 21
0.8756005408739611
 31
0.0
 11
667.8064027651592
 21
1.006271704973983
 31
0.0
 11
667.2786140206592
 21
1.127874877573987
 31
0.0
 11
666.6686004695594
 21
1.224411715573978
 31
0.0
 11
665.9586459522593
 21
1.271015919473967
 31
0.0
 11
665.1319266073592
 21
1.238922261473987
 31
0.0
 11
664.1733909624592
 21
1.109546850673979
 31
0.0
 11
663.0747498701591
 21
0.8882798548739856
 31
0.0
 11
661.8359433934593
 21
0.6050738191739811
 31
0.0
 11
660.4431359519592
 21
0.3015577747739826
 31
0.0
  0
SPLINE
  5
1E79
330
21
100
AcDbEntity
  8
0
  6
Continuous
100
AcDbSpline
210
0.0
220
0.0
230
1.0
 70
     8
 71
     3
 72
    11
 73
     7
 74
     5
 42
0.0000000001
 43
0.0000000001
 44
0.0000000001
 40
0.0
 40
0.0
 40
0.0
 40
0.0
 40
0.5249265132101711
 40
1.029770971613863
 40
1.512715587685698
 40
1.978403912659309
 40
1.978403912659309
 40
1.978403912659309
 40
1.978403912659309
 10
670.7011820913592
 20
-1.430493032826035
 30
0.0
 10
670.7076282123093
 20
-1.254598342823041
 30
0.0
 10
670.7202738456824
 20
-0.9095381462663833
 30
0.0
 10
670.5788284834971
 20
-0.4186730610000201
 30
0.0
 10
670.3325043088269
 20
0.0100078032889628
 30
0.0
 10
670.080592036669
 20
0.205560217624719
 30
0.0
 10
669.9569271300592
 20
0.3015578077739747
 30
0.0
 11
670.7011820913592
 21
-1.430493032826035
 31
0.0
 11
670.6922145106591
 21
-0.905643124026028
 31
0.0
 11
670.5571795883592
 21
-0.4191932325260268
 31
0.0
 11
670.3059569938591
 21
-0.0067338888260338
 31
0.0
 11
669.9569271300592
 21
0.3015578077739747
 31
0.0
  0
SPLINE
  5
1E7A
330
21
100
AcDbEntity
  8
0
  6
Continuous
100
AcDbSpline
210
0.0
220
0.0
230
1.0
 70
     8
 71
     3
 72
    11
 73
     7
 74
     5
 42
0.0000000001
 43
0.0000000001
 44
0.0000000001
 40
0.0
 40
0.0
 40
0.0
 40
0.0
 40
0.4228262437468983
 40
0.8767391906943225
 40
1.361005914053896
 40
1.874942797529377
 40
1.874942797529377
 40
1.874942797529377
 40
1.874942797529377
 10
672.3921649569592
 20
-2.238714927926025
 30
0.0
 10
672.2676678658299
 20
-2.172633414692651
 30
0.0
 10
672.0095205049822
 20
-2.035611994454685
 30
0.0
 10
671.6031541508867
 20
-1.833818927562563
 30
0.0
 10
671.1650637977449
 20
-1.627772871807498
 30
0.0
 10
670.8588432855977
 20
-1.497543274697315
 30
0.0
 10
670.7011820483592
 20
-1.430493032826035
 30
0.0
 11
672.3921649569592
 21
-2.238714927926025
 31
0.0
 11
672.0178299490592
 21
-2.042105329326034
 31
0.0
 11
671.6115334724593
 21
-1.839719221826015
 31
0.0
 11
671.1728213760594
 21
-1.634668116426013
 31
0.0
 11
670.7011820483592
 21
-1.430493032826035
 31
0.0
  0
SPLINE
  5
1E7B
330
21
100
AcDbEntity
  8
0
  6
Continuous
100
AcDbSpline
210
0.0
220
0.0
230
1.0
 70
     8
 71
     3
 72
    11
 73
     7
 74
     5
 42
0.0000000001
 43
0.0000000001
 44
0.0000000001
 40
0.0
 40
0.0
 40
0.0
 40
0.0
 40
0.42397048621271
 40
0.8798150359591119
 40
1.367096826845153
 40
1.88537447556161
 40
1.88537447556161
 40
1.88537447556161
 40
1.88537447556161
 10
671.6593759815592
 20
-0.5067326021260215
 30
0.0
 10
671.5344688851053
 20
-0.4406091333022766
 30
0.0
 10
671.2752641877692
 20
-0.3033910391358899
 30
0.0
 10
670.866629794222
 20
-0.1015943394131713
 30
0.0
 10
670.4251520145047
 20
0.104530494179927
 30
0.0
 10
670.1161767474471
 20
0.2345461260209428
 30
0.0
 10
669.9569271112591
 20
0.3015577747739826
 30
0.0
 11
671.6593759815592
 21
-0.5067326021260215
 31
0.0
 11
671.2837774091593
 21
-0.3100687122260126
 31
0.0
 11
670.8753248954592
 21
-0.1076809715260367
 31
0.0
 11
670.4332935069592
 21
0.0973843724739823
 31
0.0
 11
669.9569271112591
 21
0.3015577747739826
 31
0.0
  0
SPLINE
  5
1E7C
330
21
100
AcDbEntity
  8
0
  6
Continuous
100
AcDbSpline
210
0.0
220
0.0
230
1.0
 70
     8
 71
     3
 72
    12
 73
     8
 74
     6
 42
0.0000000001
 43
0.0000000001
 44
0.0000000001
 40
0.0
 40
0.0
 40
0.0
 40
0.0
 40
0.4264474483189936
 40
0.8378869797827333
 40
1.233330893277822
 40
1.614974396456498
 40
1.988068365795185
 40
1.988068365795185
 40
1.988068365795185
 40
1.988068365795185
 10
672.3921649569592
 20
-2.238783409726011
 30
0.0
 10
672.4032971638379
 20
-2.096609783253712
 30
0.0
 10
672.4251698030968
 20
-1.817266030678306
 30
0.0
 10
672.3507794268588
 20
-1.407930512241594
 30
0.0
 10
672.1969807065792
 20
-1.04056456380377
 30
0.0
 10
671.9683689247826
 20
-0.7245820728211425
 30
0.0
 10
671.7615837578545
 20
-0.5787986225645156
 30
0.0
 10
671.6593623874591
 20
-0.5067326021260215
 30
0.0
 11
672.3921649569592
 21
-2.238783409726011
 31
0.0
 11
672.4068044771593
 21
-1.812587315626018
 31
0.0
 11
672.3353204897591
 21
-1.407405223726016
 31
0.0
 11
672.1812376127593
 21
-1.043215224226031
 31
0.0
 11
671.9521531283592
 21
-0.737974233326014
 31
0.0
 11
671.6593623874591
 21
-0.5067326021260215
 31
0.0
  0
SPLINE
  5
1E7D
330
21
100
AcDbEntity
  8
0
  6
Continuous
100
AcDbSpline
210
0.0
220
0.0
230
1.0
 70
     8
 71
     3
 72
    15
 73
    11
 74
     9
 42
0.0000000001
 43
0.0000000001
 44
0.0000000001
 40
0.0
 40
0.0
 40
0.0
 40
0.0
 40
1.756508085630482
 40
3.404722301594877
 40
4.989071125934506
 40
6.543562558252651
 40
8.098014309093836
 40
9.682269855148265
 40
11.32998531086682
 40
13.08615953313482
 40
13.08615953313482
 40
13.08615953313482
 40
13.08615953313482
 10
659.8554189676592
 20
-18.27827963462602
 30
0.0
 10
660.3845255742954
 20
-18.53002582216974
 30
0.0
 10
661.4101178151014
 20
-19.01799730723349
 30
0.0
 10
662.9927392437539
 20
-19.5433221240997
 30
0.0
 10
664.5584876535403
 20
-19.87051564769673
 30
0.0
 10
666.1242640742203
 20
-19.98003904451056
 30
0.0
 10
667.689999369557
 20
-19.87038513131927
 30
0.0
 10
669.2555170619118
 20
-19.54312424770681
 30
0.0
 10
670.8378212335508
 20
-19.01783695437847
 30
0.0
 10
671.8631601941579
 20
-18.52998029685518
 30
0.0
 10
672.3921649569592
 20
-18.27827963462602
 30
0.0
 11
659.8554189676592
 21
-18.27827963462602
 31
0.0
 11
661.4572298787593
 21
-18.99905869922602
 31
0.0
 11
663.0212864410592
 21
-19.51899828382602
 31
0.0
 11
664.5734837891591
 21
-19.83655865562602
 31
0.0
 11
666.1242756556592
 21
-19.94374167642601
 31
0.0
 11
667.6750189881593
 21
-19.83643201982602
 31
0.0
 11
669.2271025517593
 21
-19.51878087972602
 31
0.0
 11
670.7906651609591
 21
-18.99893648942603
 31
0.0
 11
672.3921649569592
 21
-18.27827963462602
 31
0.0
  0
SPLINE
  5
1E7E
330
21
100
AcDbEntity
  8
0
  6
Continuous
100
AcDbSpline
210
0.0
220
0.0
230
1.0
 70
     8
 71
     3
 72
     9
 73
     5
 74
     3
 42
0.0000000001
 43
0.0000000001
 44
0.0000000001
 40
0.0
 40
0.0
 40
0.0
 40
0.0
 40
1.082780050477487
 40
2.34064401228511
 40
2.34064401228511
 40
2.34064401228511
 40
2.34064401228511
 10
646.5788241070592
 20
27.22307471647397
 30
0.0
 10
646.3118515155368
 20
27.46596092586265
 30
0.0
 10
645.7347372645719
 20
27.991007680669
 30
0.0
 10
645.1573494585877
 20
28.51575359920715
 30
0.0
 10
644.8470607904591
 20
28.79775247497398
 30
0.0
 11
646.5788241070592
 21
27.22307471647397
 31
0.0
 11
645.7778477922593
 21
27.95166896627399
 31
0.0
 11
644.8470607904591
 21
28.79775247497398
 31
0.0
  0
SPLINE
  5
1E7F
330
21
100
AcDbEntity
  8
0
  6
Continuous
100
AcDbSpline
210
0.0
220
0.0
230
1.0
 70
     8
 71
     3
 72
     9
 73
     5
 74
     3
 42
0.0000000001
 43
0.0000000001
 44
0.0000000001
 40
0.0
 40
0.0
 40
0.0
 40
0.0
 40
1.13429379855256
 40
1.297830741908969
 40
1.297830741908969
 40
1.297830741908969
 40
1.297830741908969
 10
647.5418906813593
 20
26.35309365317397
 30
0.0
 10
647.2611215865996
 20
26.60632661966677
 30
0.0
 10
646.9398725741994
 20
26.89606947923151
 30
0.0
 10
646.6192278762917
 20
27.18648061527728
 30
0.0
 10
646.5788241070592
 20
27.22307471647397
 30
0.0
 11
647.5418906813593
 21
26.35309365317397
 31
0.0
 11
646.7000450100592
 21
27.11330302377397
 31
0.0
 11
646.5788241070592
 21
27.22307471647397
 31
0.0
  0
SPLINE
  5
1E80
330
21
100
AcDbEntity
  8
0
  6
Continuous
100
AcDbSpline
210
0.0
220
0.0
230
1.0
 70
    24
 71
     3
 72
     8
 73
     4
 74
     2
 42
0.0000000001
 43
0.0000000001
 44
0.0000000001
 40
0.0
 40
0.0
 40
0.0
 40
0.0
 40
0.0998477751780943
 40
0.0998477751780943
 40
0.0998477751780943
 40
0.0998477751780943
 10
647.6158070784593
 20
26.28596732117399
 30
0.0
 10
647.5911682794258
 20
26.30834276517398
 30
0.0
 10
647.5665294803926
 20
26.33071820917397
 30
0.0
 10
647.5418906813593
 20
26.35309365317397
 30
0.0
 11
647.6158070784593
 21
26.28596732117399
 31
0.0
 11
647.5418906813593
 21
26.35309365317397
 31
0.0
  0
SPLINE
  5
1E81
330
21
100
AcDbEntity
  8
0
  6
Continuous
100
AcDbSpline
210
0.0
220
0.0
230
1.0
 70
    24
 71
     3
 72
     8
 73
     4
 74
     2
 42
0.0000000001
 43
0.0000000001
 44
0.0000000001
 40
0.0
 40
0.0
 40
0.0
 40
0.0
 40
0.0853456469997557
 40
0.0853456469997557
 40
0.0853456469997557
 40
0.0853456469997557
 10
644.7439684011592
 20
28.70325139427396
 30
0.0
 10
644.7248072789259
 20
28.72427926470729
 30
0.0
 10
644.7056461566925
 20
28.74530713514063
 30
0.0
 10
644.6864850344593
 20
28.76633500557398
 30
0.0
 11
644.7439684011592
 21
28.70325139427396
 31
0.0
 11
644.6864850344593
 21
28.76633500557398
 31
0.0
  0
SPLINE
  5
1E82
330
21
100
AcDbEntity
  8
0
  6
Continuous
100
AcDbSpline
210
0.0
220
0.0
230
1.0
 70
     8
 71
     3
 72
    10
 73
     6
 74
     4
 42
0.0000000001
 43
0.0000000001
 44
0.0000000001
 40
0.0
 40
0.0
 40
0.0
 40
0.0
 40
0.7205811019192274
 40
1.445109266114871
 40
2.088053566909234
 40
2.088053566909234
 40
2.088053566909234
 40
2.088053566909234
 10
646.1550714048591
 20
27.16419173837397
 30
0.0
 10
645.9915942402997
 20
27.34017430639437
 30
0.0
 10
645.663744447024
 20
27.69310340631615
 30
0.0
 10
645.1978145100873
 20
28.21018584859239
 30
0.0
 10
644.88911132582
 20
28.54556583976141
 30
0.0
 10
644.7439684011592
 20
28.70325139427396
 30
0.0
 11
646.1550714048591
 21
27.16419173837397
 31
0.0
 11
645.6659793044591
 21
27.69336660717397
 31
0.0
 11
645.1786092546593
 21
28.22947433447396
 31
0.0
 11
644.7439684011592
 21
28.70325139427396
 31
0.0
  0
SPLINE
  5
1E83
330
21
100
AcDbEntity
  8
0
  6
Continuous
100
AcDbSpline
210
0.0
220
0.0
230
1.0
 70
     8
 71
     3
 72
    10
 73
     6
 74
     4
 42
0.0000000001
 43
0.0000000001
 44
0.0000000001
 40
0.0
 40
0.0
 40
0.0
 40
0.0
 40
0.2543619468384453
 40
0.5091205186651822
 40
0.7643672575753877
 40
0.7643672575753877
 40
0.7643672575753877
 40
0.7643672575753877
 10
644.3459197891593
 20
29.25341116947397
 30
0.0
 10
644.2831826055066
 20
29.31044567373623
 30
0.0
 10
644.157610412504
 20
29.4246036158055
 30
0.0
 10
643.9690762172036
 20
29.59598720761584
 30
0.0
 10
643.8432899017055
 20
29.71034806079917
 30
0.0
 10
643.7803365438591
 20
29.76758321937399
 30
0.0
 11
644.3459197891593
 21
29.25341116947397
 31
0.0
 11
644.1577071427591
 21
29.42451347727396
 31
0.0
 11
643.9691987473593
 21
29.59588008657397
 31
0.0
 11
643.7803365438591
 21
29.76758321937399
 31
0.0
  0
SPLINE
  5
1E84
330
21
100
AcDbEntity
  8
0
  6
Continuous
100
AcDbSpline
210
0.0
220
0.0
230
1.0
 70
     8
 71
     3
 72
    10
 73
     6
 74
     4
 42
0.0000000001
 43
0.0000000001
 44
0.0000000001
 40
0.0
 40
0.0
 40
0.0
 40
0.0
 40
0.2266978890296666
 40
0.4893519607569921
 40
0.752498942590786
 40
0.752498942590786
 40
0.752498942590786
 40
0.752498942590786
 10
644.2865195276592
 20
29.21078029837398
 30
0.0
 10
644.2356899110148
 20
29.26669599238281
 30
0.0
 10
644.1259686750742
 20
29.38739607749358
 30
0.0
 10
643.9572379337154
 20
29.57299543457163
 30
0.0
 10
643.8393534281316
 20
29.70269420457449
 30
0.0
 10
643.7803559201593
 20
29.76760438237397
 30
0.0
 11
644.2865195276592
 21
29.21078029837398
 31
0.0
 11
644.1340296495591
 21
29.37852644577399
 31
0.0
 11
643.9573520507593
 21
29.57287712747399
 31
0.0
 11
643.7803559201593
 21
29.76760438237397
 31
0.0
  0
SPLINE
  5
1E85
330
21
100
AcDbEntity
  8
0
  6
Continuous
100
AcDbSpline
210
0.0
220
0.0
230
1.0
 70
    24
 71
     3
 72
     8
 73
     4
 74
     2
 42
0.0000000001
 43
0.0000000001
 44
0.0000000001
 40
0.0
 40
0.0
 40
0.0
 40
0.0
 40
0.0355550875581251
 40
0.0355550875581251
 40
0.0355550875581251
 40
0.0355550875581251
 10
644.3104360862592
 20
29.18447131747397
 30
0.0
 10
644.3024639000591
 20
29.19324097777398
 30
0.0
 10
644.2944917138591
 20
29.20201063807398
 30
0.0
 10
644.2865195276592
 20
29.21078029837398
 30
0.0
 11
644.3104360862592
 21
29.18447131747397
 31
0.0
 11
644.2865195276592
 21
29.21078029837398
 31
0.0
  0
SPLINE
  5
1E86
330
21
100
AcDbEntity
  8
0
  6
Continuous
100
AcDbSpline
210
0.0
220
0.0
230
1.0
 70
     8
 71
     3
 72
    10
 73
     6
 74
     4
 42
0.0000000001
 43
0.0000000001
 44
0.0000000001
 40
0.0
 40
0.0
 40
0.0
 40
0.0
 40
0.1218187771665476
 40
0.244033795292435
 40
0.3666442985439303
 40
0.3666442985439303
 40
0.3666442985439303
 40
0.3666442985439303
 10
651.9194535962593
 20
22.36841504987399
 30
0.0
 10
651.8894057528
 20
22.39572796583276
 30
0.0
 10
651.829212329009
 20
22.45044263870137
 30
0.0
 10
651.7387797222929
 20
22.53265208300878
 30
0.0
 10
651.6783966124671
 20
22.58755042983916
 30
0.0
 10
651.6481562868592
 20
22.61504394397397
 30
0.0
 11
651.9194535962593
 21
22.36841504987399
 31
0.0
 11
651.8293107206591
 21
22.45035451807396
 31
0.0
 11
651.7388780073592
 21
22.53256421957397
 31
0.0
 11
651.6481562868592
 21
22.61504394397397
 31
0.0
  0
SPLINE
  5
1E87
330
21
100
AcDbEntity
  8
0
  6
Continuous
100
AcDbSpline
210
0.0
220
0.0
230
1.0
 70
     8
 71
     3
 72
    12
 73
     8
 74
     0
 42
0.0000000001
 43
0.0000000001
 40
12.67779678852917
 40
12.67779678852917
 40
12.67779678852917
 40
12.67779678852917
 40
12.67876395364214
 40
15.7821064895141
 40
18.90248399888965
 40
22.07252348155854
 40
25.35559410046432
 40
25.35559410046432
 40
25.35559410046432
 40
25.35559410046432
 10
643.780336544659
 20
-19.94374168691237
 30
0.0
 10
643.7806590068926
 20
-19.94374168690177
 30
0.0
 10
644.8156659832659
 20
-19.94373046756127
 30
0.0
 10
646.8910354698926
 20
-19.87171898614815
 30
0.0
 10
650.0074310214025
 20
-19.54763685491431
 30
0.0
 10
653.1587251856688
 20
-19.02828493657131
 30
0.0
 10
655.2520745486035
 20
-18.53118377039871
 30
0.0
 10
656.3170825339591
 20
-18.27827963462602
 30
0.0
  0
SPLINE
  5
1E88
330
21
100
AcDbEntity
  8
0
  6
Continuous
100
AcDbSpline
210
0.0
220
0.0
230
1.0
 70
     8
 71
     3
 72
    11
 73
     7
 74
     0
 42
0.0000000001
 43
0.0000000001
 40
0.0
 40
0.0
 40
0.0
 40
0.0
 40
2.953914482221213
 40
5.608984588797946
 40
8.114963489648922
 40
9.313945296284878
 40
9.313945296284878
 40
9.313945296284878
 40
9.313945296284878
 10
652.9351167167592
 20
-1.430493032826035
 30
0.0
 10
651.9743468509321
 20
-1.214965385008554
 30
0.0
 10
650.1500071812363
 20
-0.8057147914846041
 30
0.0
 10
647.5173936217061
 20
-0.1841020328566003
 30
0.0
 10
645.4168705630734
 20
0.1391856522991191
 30
0.0
 10
644.1804658304045
 20
0.1849010308963841
 30
0.0
 10
643.7803365446594
 20
0.1848488872065275
 30
0.0
  0
SPLINE
  5
1E89
330
21
100
AcDbEntity
  8
0
  6
Continuous
100
AcDbSpline
210
0.0
220
0.0
230
1.0
 70
     8
 71
     3
 72
    11
 73
     7
 74
     0
 42
0.0000000001
 43
0.0000000001
 40
0.0
 40
0.0
 40
0.0
 40
0.0
 40
2.916175926667951
 40
5.638965400131199
 40
8.286026883874687
 40
9.569978061914561
 40
9.569978061914561
 40
9.569978061914561
 40
9.569978061914561
 10
653.2941277039593
 20
0.3015577747739826
 30
0.0
 10
652.3308373289351
 20
0.4317591709241242
 30
0.0
 10
650.4681372615745
 20
0.6835276466273115
 30
0.0
 10
647.7309512029751
 20
1.053898969359892
 30
0.0
 10
645.5192834229599
 20
1.243476791170763
 30
0.0
 10
644.208476395858
 20
1.270880307724524
 30
0.0
 10
643.780336544659
 20
1.27085247390562
 30
0.0
  0
SPLINE
  5
1E8A
330
21
100
AcDbEntity
  8
0
  6
Continuous
100
AcDbSpline
210
0.0
220
0.0
230
1.0
 70
     8
 71
     3
 72
     9
 73
     5
 74
     3
 42
0.0000000001
 43
0.0000000001
 44
0.0000000001
 40
0.0
 40
0.0
 40
0.0
 40
0.0
 40
1.760143029833081
 40
3.477601394874168
 40
3.477601394874168
 40
3.477601394874168
 40
3.477601394874168
 10
656.3170825339591
 20
-2.238842115926019
 30
0.0
 10
655.7494830902982
 20
-2.089986032036964
 30
0.0
 10
654.6280488752657
 20
-1.795883725466358
 30
0.0
 10
653.4947908362965
 20
-1.551289198911623
 30
0.0
 10
652.9351167167592
 20
-1.430493032826035
 30
0.0
 11
656.3170825339591
 21
-2.238842115926019
 31
0.0
 11
654.6112552378592
 21
-1.804956507326011
 31
0.0
 11
652.9351167167592
 21
-1.430493032826035
 31
0.0
  0
SPLINE
  5
1E8B
330
21
100
AcDbEntity
  8
0
  6
Continuous
100
AcDbSpline
210
0.0
220
0.0
230
1.0
 70
     8
 71
     3
 72
     9
 73
     5
 74
     3
 42
0.0000000001
 43
0.0000000001
 44
0.0000000001
 40
0.0
 40
0.0
 40
0.0
 40
0.0
 40
1.810800603083803
 40
3.581666344587055
 40
3.581666344587055
 40
3.581666344587055
 40
3.581666344587055
 10
656.7830107689592
 20
-0.5067326021260215
 30
0.0
 10
656.1979960665453
 20
-0.3577762818013058
 30
0.0
 10
655.0408684031481
 20
-0.0631486798378489
 30
0.0
 10
653.8720305009404
 20
0.1808959728848222
 30
0.0
 10
653.2941277039593
 20
0.3015577747739826
 30
0.0
 11
656.7830107689592
 21
-0.5067326021260215
 31
0.0
 11
655.0249734546591
 21
-0.0727929454260163
 31
0.0
 11
653.2941277039593
 21
0.3015577747739826
 31
0.0
  0
SPLINE
  5
1E8C
330
21
100
AcDbEntity
  8
0
  6
Continuous
100
AcDbSpline
210
0.0
220
0.0
230
1.0
 70
     8
 71
     3
 72
    10
 73
     6
 74
     4
 42
0.0000000001
 43
0.0000000001
 44
0.0000000001
 40
0.0
 40
0.0
 40
0.0
 40
0.0
 40
2.79149319730558
 40
6.076349436701408
 40
9.829265301367812
 40
9.829265301367812
 40
9.829265301367812
 40
9.829265301367812
 10
659.5442685671591
 20
16.15348947527397
 30
0.0
 10
658.8400062020157
 20
16.76163464862071
 30
0.0
 10
657.3070115202237
 20
18.08540738253423
 30
0.0
 10
654.8273816276645
 20
20.22698978973411
 30
0.0
 10
653.0519321787641
 20
21.76033216169525
 30
0.0
 10
652.1051677332594
 20
22.57799218657396
 30
0.0
 11
659.5442685671591
 21
16.15348947527397
 31
0.0
 11
657.4315053854593
 21
17.97795268637398
 31
0.0
 11
654.9454525766591
 21
20.12500227717396
 31
0.0
 11
652.1051677332594
 21
22.57799218657396
 31
0.0
  0
SPLINE
  5
1E8D
330
21
100
AcDbEntity
  8
0
  6
Continuous
100
AcDbSpline
210
0.0
220
0.0
230
1.0
 70
     8
 71
     3
 72
    12
 73
     8
 74
     6
 42
0.0000000001
 43
0.0000000001
 44
0.0000000001
 40
0.0
 40
0.0
 40
0.0
 40
0.0
 40
0.5999233490856019
 40
1.226973336267369
 40
1.863358391003991
 40
2.490408331503075
 40
3.090331357242999
 40
3.090331357242999
 40
3.090331357242999
 40
3.090331357242999
 10
659.5442685671591
 20
16.15327824997396
 30
0.0
 10
659.3682614490704
 20
16.0577253495039
 30
0.0
 10
659.0082887271935
 20
15.86229894835038
 30
0.0
 10
658.518826667869
 20
15.47513931477426
 30
0.0
 10
658.0727801690804
 20
15.02909278402552
 30
0.0
 10
657.6856206491293
 20
14.53963079346481
 30
0.0
 10
657.4901943155198
 20
14.17965817621929
 30
0.0
 10
657.3946414707593
 20
14.00365115107397
 30
0.0
 11
659.5442685671591
 21
16.15327824997396
 31
0.0
 11
659.0252540024591
 21
15.85239304527397
 31
0.0
 11
658.5295987702593
 21
15.46831287497397
 31
0.0
 11
658.0796065992593
 21
15.01832067067397
 31
0.0
 11
657.6955264935593
 21
14.52266544747397
 31
0.0
 11
657.3946414707593
 21
14.00365115107397
 31
0.0
  0
SPLINE
  5
1E8E
330
21
100
AcDbEntity
  8
0
  6
Continuous
100
AcDbSpline
210
0.0
220
0.0
230
1.0
 70
     8
 71
     3
 72
    10
 73
     6
 74
     4
 42
0.0000000001
 43
0.0000000001
 44
0.0000000001
 40
0.0
 40
0.0
 40
0.0
 40
0.0
 40
2.793224380487549
 40
6.078143747607473
 40
9.831595347388824
 40
9.831595347388824
 40
9.831595347388824
 40
9.831595347388824
 10
657.3959001781592
 20
14.00184888047397
 30
0.0
 10
656.7873967906859
 20
14.7065643550338
 30
0.0
 10
655.4632743586302
 20
16.24004730236164
 30
0.0
 10
653.3211576972276
 20
18.72024203556017
 30
0.0
 10
651.7876876436095
 20
20.49584497534443
 30
0.0
 10
650.9699123866591
 20
21.44274585997397
 30
0.0
 11
657.3959001781592
 21
14.00184888047397
 31
0.0
 11
655.5703501252592
 21
16.11596085577398
 31
0.0
 11
653.4232542021593
 21
18.60205706177396
 31
0.0
 11
650.9699123866591
 21
21.44274585997397
 31
0.0
  0
SPLINE
  5
1E8F
330
21
100
AcDbEntity
  8
0
  6
Continuous
100
AcDbSpline
210
0.0
220
0.0
230
1.0
 70
     8
 71
     3
 72
    10
 73
     6
 74
     4
 42
0.0000000001
 43
0.0000000001
 44
0.0000000001
 40
0.0
 40
0.0
 40
0.0
 40
0.0
 40
1.605282623798492
 40
3.279271980235261
 40
5.000715468463015
 40
5.000715468463015
 40
5.000715468463015
 40
5.000715468463015
 10
650.7180149321594
 20
21.73442518027397
 30
0.0
 10
650.3682806439051
 20
22.13940880848304
 30
0.0
 10
649.6538433012238
 20
22.96670952472546
 30
0.0
 10
648.564281533814
 20
24.22822764109289
 30
0.0
 10
647.824536365751
 20
25.08483321511613
 30
0.0
 10
647.4494944901591
 20
25.51912190667398
 30
0.0
 11
650.7180149321594
 21
21.73442518027397
 31
0.0
 11
649.6687990569592
 21
22.94936482877398
 31
0.0
 11
648.5746344424592
 21
24.21626820387397
 31
0.0
 11
647.4494944901591
 21
25.51912190667398
 31
0.0
  0
SPLINE
  5
1E90
330
21
100
AcDbEntity
  8
0
  6
Continuous
100
AcDbSpline
210
0.0
220
0.0
230
1.0
 70
    24
 71
     3
 72
     8
 73
     4
 74
     2
 42
0.0000000001
 43
0.0000000001
 44
0.0000000001
 40
0.0
 40
0.0
 40
0.0
 40
0.0
 40
0.0187460286800892
 40
0.0187460286800892
 40
0.0187460286800892
 40
0.0187460286800892
 10
650.7302674637592
 20
21.72023754267397
 30
0.0
 10
650.7261832865593
 20
21.72496675520731
 30
0.0
 10
650.7220991093593
 20
21.72969596774064
 30
0.0
 10
650.7180149321594
 20
21.73442518027397
 30
0.0
 11
650.7302674637592
 21
21.72023754267397
 31
0.0
 11
650.7180149321594
 21
21.73442518027397
 31
0.0
  0
SPLINE
  5
1E91
330
21
100
AcDbEntity
  8
0
  6
Continuous
100
AcDbSpline
210
0.0
220
0.0
230
1.0
 70
    24
 71
     3
 72
     8
 73
     4
 74
     2
 42
0.0000000001
 43
0.0000000001
 44
0.0000000001
 40
0.0
 40
0.0
 40
0.0
 40
0.0
 40
0.0697421989530329
 40
0.0697421989530329
 40
0.0697421989530329
 40
0.0697421989530329
 10
647.6994911864592
 20
26.38286440997396
 30
0.0
 10
647.6818968926259
 20
26.39805922537397
 30
0.0
 10
647.6643025987926
 20
26.41325404077398
 30
0.0
 10
647.6467083049593
 20
26.42844885617399
 30
0.0
 11
647.6994911864592
 21
26.38286440997396
 31
0.0
 11
647.6467083049593
 21
26.42844885617399
 31
0.0
  0
SPLINE
  5
1E92
330
21
100
AcDbEntity
  8
0
  6
Continuous
100
AcDbSpline
210
0.0
220
0.0
230
1.0
 70
     8
 71
     3
 72
    10
 73
     6
 74
     4
 42
0.0000000001
 43
0.0000000001
 44
0.0000000001
 40
0.0
 40
0.0
 40
0.0
 40
0.0
 40
1.782290293558914
 40
3.624851777882532
 40
5.454598061727397
 40
5.454598061727397
 40
5.454598061727397
 40
5.454598061727397
 10
651.8276710811591
 20
22.81764761857397
 30
0.0
 10
651.378036362863
 20
23.20595108980727
 30
0.0
 10
650.4635617602112
 20
23.99568917744919
 30
0.0
 10
649.0875222933629
 20
25.18411850938255
 30
0.0
 10
648.1610905702
 20
25.98421313607766
 30
0.0
 10
647.6994911864592
 20
26.38286440997396
 30
0.0
 11
651.8276710811591
 21
22.81764761857397
 31
0.0
 11
650.4787736758592
 21
23.98256584767398
 31
0.0
 11
649.0842860489593
 21
25.18690678027397
 31
0.0
 11
647.6994911864592
 21
26.38286440997396
 31
0.0
  0
SPLINE
  5
1E93
330
21
100
AcDbEntity
  8
0
  6
Continuous
100
AcDbSpline
210
0.0
220
0.0
230
1.0
 70
     8
 71
     3
 72
     9
 73
     5
 74
     3
 42
0.0000000001
 43
0.0000000001
 44
0.0000000001
 40
0.0
 40
0.0
 40
0.0
 40
0.0
 40
0.2372576267193151
 40
0.4530040028532213
 40
0.4530040028532213
 40
0.4530040028532213
 40
0.4530040028532213
 10
644.7152621617593
 20
28.96015411447397
 30
0.0
 10
644.6554077505566
 20
29.01184574992604
 30
0.0
 10
644.5411257009628
 20
29.11054233598571
 30
0.0
 10
644.4268404509653
 20
29.20923521613332
 30
0.0
 10
644.3724112883592
 20
29.25623840177397
 30
0.0
 11
644.7152621617593
 21
28.96015411447397
 31
0.0
 11
644.5356980502593
 21
29.11522800427397
 31
0.0
 11
644.3724112883592
 21
29.25623840177397
 31
0.0
  0
SPLINE
  5
1E94
330
21
100
AcDbEntity
  8
0
  6
Continuous
100
AcDbSpline
210
0.0
220
0.0
230
1.0
 70
    24
 71
     3
 72
     8
 73
     4
 74
     2
 42
0.0000000001
 43
0.0000000001
 44
0.0000000001
 40
0.0
 40
0.0
 40
0.0
 40
0.0
 40
0.1049727812452127
 40
0.1049727812452127
 40
0.1049727812452127
 40
0.1049727812452127
 10
644.7946739083593
 20
28.89150238977396
 30
0.0
 10
644.7682033261592
 20
28.9143862980073
 30
0.0
 10
644.7417327439592
 20
28.93727020624063
 30
0.0
 10
644.7152621617593
 20
28.96015411447397
 30
0.0
 11
644.7946739083593
 21
28.89150238977396
 31
0.0
 11
644.7152621617593
 21
28.96015411447397
 31
0.0
  0
SPLINE
  5
1E95
330
21
100
AcDbEntity
  8
0
  6
Continuous
100
AcDbSpline
210
0.0
220
0.0
230
1.0
 70
    24
 71
     3
 72
     8
 73
     4
 74
     2
 42
0.0000000001
 43
0.0000000001
 44
0.0000000001
 40
0.0
 40
0.0
 40
0.0
 40
0.0
 40
0.1009387012968469
 40
0.1009387012968469
 40
0.1009387012968469
 40
0.1009387012968469
 10
644.8710381785592
 20
28.82549390807398
 30
0.0
 10
644.845583421826
 20
28.84749673530731
 30
0.0
 10
644.8201286650927
 20
28.86949956254064
 30
0.0
 10
644.7946739083593
 20
28.89150238977396
 30
0.0
 11
644.8710381785592
 21
28.82549390807398
 31
0.0
 11
644.7946739083593
 21
28.89150238977396
 31
0.0
  0
SPLINE
  5
1E96
330
21
100
AcDbEntity
  8
0
  6
Continuous
100
AcDbSpline
210
0.0
220
0.0
230
1.0
 70
    24
 71
     3
 72
     8
 73
     4
 74
     2
 42
0.0000000001
 43
0.0000000001
 44
0.0000000001
 40
0.0
 40
0.0
 40
0.0
 40
0.0
 40
0.0309446461211681
 40
0.0309446461211681
 40
0.0309446461211681
 40
0.0309446461211681
 10
644.8944556521592
 20
28.80526538727398
 30
0.0
 10
644.8866498276259
 20
28.81200822754065
 30
0.0
 10
644.8788440030925
 20
28.81875106780731
 30
0.0
 10
644.8710381785592
 20
28.82549390807398
 30
0.0
 11
644.8944556521592
 21
28.80526538727398
 31
0.0
 11
644.8710381785592
 21
28.82549390807398
 31
0.0
  0
SPLINE
  5
1E97
330
21
100
AcDbEntity
  8
0
  6
Continuous
100
AcDbSpline
210
0.0
220
0.0
230
1.0
 70
    24
 71
     3
 72
     8
 73
     4
 74
     2
 42
0.0000000001
 43
0.0000000001
 44
0.0000000001
 40
0.0
 40
0.0
 40
0.0
 40
0.0
 40
0.1777036414912287
 40
0.1777036414912287
 40
0.1777036414912287
 40
0.1777036414912287
 10
644.4177064046592
 20
29.02957270967397
 30
0.0
 10
644.3789891226927
 20
29.07440242810731
 30
0.0
 10
644.340271840726
 20
29.11923214654064
 30
0.0
 10
644.3015545587593
 20
29.16406186497397
 30
0.0
 11
644.4177064046592
 21
29.02957270967397
 31
0.0
 11
644.3015545587593
 21
29.16406186497397
 31
0.0
  0
SPLINE
  5
1E98
330
21
100
AcDbEntity
  8
0
  6
Continuous
100
AcDbSpline
210
0.0
220
0.0
230
1.0
 70
    24
 71
     3
 72
     8
 73
     4
 74
     2
 42
0.0000000001
 43
0.0000000001
 44
0.0000000001
 40
0.0
 40
0.0
 40
0.0
 40
0.0
 40
0.1774971855615381
 40
0.1774971855615381
 40
0.1774971855615381
 40
0.1774971855615381
 10
644.5337198896593
 20
28.89523685377398
 30
0.0
 10
644.4950487279925
 20
28.94001547240731
 30
0.0
 10
644.4563775663258
 20
28.98479409104064
 30
0.0
 10
644.4177064046592
 20
29.02957270967397
 30
0.0
 11
644.5337198896593
 21
28.89523685377398
 31
0.0
 11
644.4177064046592
 21
29.02957270967397
 31
0.0
  0
SPLINE
  5
1E99
330
21
100
AcDbEntity
  8
0
  6
Continuous
100
AcDbSpline
210
0.0
220
0.0
230
1.0
 70
    24
 71
     3
 72
     8
 73
     4
 74
     2
 42
0.0000000001
 43
0.0000000001
 44
0.0000000001
 40
0.0
 40
0.0
 40
0.0
 40
0.0
 40
0.1772884607938754
 40
0.1772884607938754
 40
0.1772884607938754
 40
0.1772884607938754
 10
644.6495455677593
 20
28.76101461037396
 30
0.0
 10
644.6109370083925
 20
28.80575535817396
 30
0.0
 10
644.5723284490259
 20
28.85049610597397
 30
0.0
 10
644.5337198896593
 20
28.89523685377398
 30
0.0
 11
644.6495455677593
 21
28.76101461037396
 31
0.0
 11
644.5337198896593
 21
28.89523685377398
 31
0.0
  0
SPLINE
  5
1E9A
330
21
100
AcDbEntity
  8
0
  6
Continuous
100
AcDbSpline
210
0.0
220
0.0
230
1.0
 70
    24
 71
     3
 72
     8
 73
     4
 74
     2
 42
0.0000000001
 43
0.0000000001
 44
0.0000000001
 40
0.0
 40
0.0
 40
0.0
 40
0.0
 40
0.0512564660529186
 40
0.0512564660529186
 40
0.0512564660529186
 40
0.0512564660529186
 10
646.0827011139592
 20
27.10169029787397
 30
0.0
 10
646.0715339363926
 20
27.11462119377397
 30
0.0
 10
646.0603667588259
 20
27.12755208967398
 30
0.0
 10
646.0491995812592
 20
27.14048298557398
 30
0.0
 11
646.0827011139592
 21
27.10169029787397
 31
0.0
 11
646.0491995812592
 21
27.14048298557398
 31
0.0
  0
SPLINE
  5
1E9B
330
21
100
AcDbEntity
  8
0
  6
Continuous
100
AcDbSpline
210
0.0
220
0.0
230
1.0
 70
    24
 71
     3
 72
     8
 73
     4
 74
     2
 42
0.0000000001
 43
0.0000000001
 44
0.0000000001
 40
0.0
 40
0.0
 40
0.0
 40
0.0
 40
0.1208601621842365
 40
0.1208601621842365
 40
0.1208601621842365
 40
0.1208601621842365
 10
646.1616939359592
 20
27.01021728067397
 30
0.0
 10
646.1353629952924
 20
27.0407082864073
 30
0.0
 10
646.1090320546258
 20
27.07119929214063
 30
0.0
 10
646.0827011139592
 20
27.10169029787397
 30
0.0
 11
646.1616939359592
 21
27.01021728067397
 31
0.0
 11
646.0827011139592
 21
27.10169029787397
 31
0.0
  0
SPLINE
  5
1E9C
330
21
100
AcDbEntity
  8
0
  6
Continuous
100
AcDbSpline
210
0.0
220
0.0
230
1.0
 70
    24
 71
     3
 72
     8
 73
     4
 74
     2
 42
0.0000000001
 43
0.0000000001
 44
0.0000000001
 40
0.0
 40
0.0
 40
0.0
 40
0.0
 40
0.1719696814352162
 40
0.1719696814352162
 40
0.1719696814352162
 40
0.1719696814352162
 10
646.2740980493593
 20
26.88006780267398
 30
0.0
 10
646.2366300115591
 20
26.92345096200731
 30
0.0
 10
646.1991619737592
 20
26.96683412134064
 30
0.0
 10
646.1616939359592
 20
27.01021728067397
 30
0.0
 11
646.2740980493593
 21
26.88006780267398
 31
0.0
 11
646.1616939359592
 21
27.01021728067397
 31
0.0
  0
SPLINE
  5
1E9D
330
21
100
AcDbEntity
  8
0
  6
Continuous
100
AcDbSpline
210
0.0
220
0.0
230
1.0
 70
    24
 71
     3
 72
     8
 73
     4
 74
     2
 42
0.0000000001
 43
0.0000000001
 44
0.0000000001
 40
0.0
 40
0.0
 40
0.0
 40
0.0
 40
0.1435154133988275
 40
0.1435154133988275
 40
0.1435154133988275
 40
0.1435154133988275
 10
646.3678916180592
 20
26.77144257377398
 30
0.0
 10
646.3366270951592
 20
26.80765098340731
 30
0.0
 10
646.3053625722591
 20
26.84385939304065
 30
0.0
 10
646.2740980493593
 20
26.88006780267398
 30
0.0
 11
646.3678916180592
 21
26.77144257377398
 31
0.0
 11
646.2740980493593
 21
26.88006780267398
 31
0.0
  0
SPLINE
  5
1E9E
330
21
100
AcDbEntity
  8
0
  6
Continuous
100
AcDbSpline
210
0.0
220
0.0
230
1.0
 70
    24
 71
     3
 72
     8
 73
     4
 74
     2
 42
0.0000000001
 43
0.0000000001
 44
0.0000000001
 40
0.0
 40
0.0
 40
0.0
 40
0.0
 40
0.0143887034346193
 40
0.0143887034346193
 40
0.0143887034346193
 40
0.0143887034346193
 10
646.3772959207593
 20
26.76055249217399
 30
0.0
 10
646.3741611531925
 20
26.76418251937399
 30
0.0
 10
646.3710263856258
 20
26.76781254657398
 30
0.0
 10
646.3678916180592
 20
26.77144257377398
 30
0.0
 11
646.3772959207593
 21
26.76055249217399
 31
0.0
 11
646.3678916180592
 21
26.77144257377398
 31
0.0
  0
SPLINE
  5
1E9F
330
21
100
AcDbEntity
  8
0
  6
Continuous
100
AcDbSpline
210
0.0
220
0.0
230
1.0
 70
     8
 71
     3
 72
    11
 73
     7
 74
     5
 42
0.0000000001
 43
0.0000000001
 44
0.0000000001
 40
0.0
 40
0.0
 40
0.0
 40
0.0
 40
0.9163984387635324
 40
1.942394908787632
 40
3.097889403575702
 40
4.422955399453246
 40
4.422955399453246
 40
4.422955399453246
 40
4.422955399453246
 10
663.1498198426593
 20
11.94304701627396
 30
0.0
 10
662.9790402566595
 20
12.19640555723585
 30
0.0
 10
662.6170564466275
 20
12.73342342986146
 30
0.0
 10
662.0995973861139
 20
13.62781412417969
 30
0.0
 10
661.5673328810644
 20
14.66967109459478
 30
0.0
 10
661.255877883101
 20
15.43603442977084
 30
0.0
 10
661.0895048280593
 20
15.84541045577398
 30
0.0
 11
663.1498198426593
 21
11.94304701627396
 31
0.0
 11
662.6458355307593
 21
12.70841353757399
 31
0.0
 11
662.1285845275592
 21
13.59448360037396
 31
0.0
 11
661.6071922575592
 21
14.62565653847397
 31
0.0
 11
661.0895048280593
 21
15.84541045577398
 31
0.0
  0
SPLINE
  5
1EA0
330
21
100
AcDbEntity
  8
0
  6
Continuous
100
AcDbSpline
210
0.0
220
0.0
230
1.0
 70
     8
 71
     3
 72
    13
 73
     9
 74
     7
 42
0.0000000001
 43
0.0000000001
 44
0.0000000001
 40
0.0
 40
0.0
 40
0.0
 40
0.0
 40
0.6372337026038571
 40
1.297294195600407
 40
1.970529025803076
 40
2.645247293125481
 40
3.309535266688891
 40
3.953075470796572
 40
3.953075470796572
 40
3.953075470796572
 40
3.953075470796572
 10
663.1498198440592
 20
11.94306869547398
 30
0.0
 10
662.9448266395179
 20
11.88474012758621
 30
0.0
 10
662.5274970266895
 20
11.76599356372855
 30
0.0
 10
661.9552487355282
 20
11.43103303453928
 30
0.0
 10
661.4401063143891
 20
10.99899067739704
 30
0.0
 10
661.0135490217191
 20
10.47743711177708
 30
0.0
 10
660.6830428494011
 20
9.89818152020446
 30
0.0
 10
660.566091933372
 20
9.476742960045325
 30
0.0
 10
660.5085441471592
 20
9.269366592373984
 30
0.0
 11
663.1498198440592
 21
11.94306869547398
 31
0.0
 11
662.5446340070591
 21
11.74352698447399
 31
0.0
 11
661.9701390412592
 21
11.41851100227398
 31
0.0
 11
661.4554707464592
 21
10.98450445517397
 31
0.0
 11
661.0267303293592
 21
10.46351847167398
 31
0.0
 11
660.7056607246593
 21
9.881974990273989
 31
0.0
 11
660.5085441471592
 21
9.269366592373984
 31
0.0
  0
SPLINE
  5
1EA1
330
21
100
AcDbEntity
  8
0
  6
Continuous
100
AcDbSpline
210
0.0
220
0.0
230
1.0
 70
     8
 71
     3
 72
    11
 73
     7
 74
     5
 42
0.0000000001
 43
0.0000000001
 44
0.0000000001
 40
0.0
 40
0.0
 40
0.0
 40
0.0
 40
1.176913518498866
 40
2.499952206622097
 40
3.989451113968812
 40
5.684248707847131
 40
5.684248707847131
 40
5.684248707847131
 40
5.684248707847131
 10
660.5085266656593
 20
9.269366591973977
 30
0.0
 10
660.2500803831557
 20
9.564748137547644
 30
0.0
 10
659.7010992183698
 20
10.19218569778079
 30
0.0
 10
658.9212923899237
 20
11.27129380450402
 30
0.0
 10
658.1196820647181
 20
12.54425917580747
 30
0.0
 10
657.6473123821305
 20
13.49554187425948
 30
0.0
 10
657.3959001781592
 20
14.00184888047397
 30
0.0
 11
660.5085266656593
 21
9.269366591973977
 31
0.0
 11
659.7465570088593
 21
10.16632125757397
 31
0.0
 11
658.9647969260592
 21
11.23369304997396
 31
0.0
 11
658.1767487630592
 21
12.49764996687398
 31
0.0
 11
657.3959001781592
 21
14.00184888047397
 31
0.0
  0
SPLINE
  5
1EA2
330
21
100
AcDbEntity
  8
0
  6
Continuous
100
AcDbSpline
210
0.0
220
0.0
230
1.0
 70
     8
 71
     3
 72
    14
 73
    10
 74
     8
 42
0.0000000001
 43
0.0000000001
 44
0.0000000001
 40
0.0
 40
0.0
 40
0.0
 40
0.0
 40
0.5143402624657455
 40
1.098241577883514
 40
1.727716478117721
 40
2.378639942951025
 40
3.026626093802657
 40
3.646962664788989
 40
4.217276855913106
 40
4.217276855913106
 40
4.217276855913106
 40
4.217276855913106
 10
661.0895048252592
 20
15.84618866607397
 30
0.0
 10
660.918536663841
 20
15.83024920922398
 30
0.0
 10
660.5534780497951
 20
15.79621459144467
 30
0.0
 10
659.9954039021218
 20
15.64408398448589
 30
0.0
 10
659.4142245605192
 20
15.42267006440346
 30
0.0
 10
658.8376508546824
 20
15.13558776946679
 30
0.0
 10
658.2950872602444
 20
14.79560947349359
 30
0.0
 10
657.8046301355985
 20
14.42471183536881
 30
0.0
 10
657.5274222812623
 20
14.14001779660924
 30
0.0
 10
657.3946414707593
 20
14.00365115107397
 30
0.0
 11
661.0895048252592
 21
15.84618866607397
 31
0.0
 11
660.5788622795592
 21
15.78462490957398
 31
0.0
 11
660.0132917838591
 21
15.63946720037398
 31
0.0
 11
659.4248561047593
 21
15.41590042827397
 31
0.0
 11
658.8420886382592
 21
15.12592898647398
 31
0.0
 11
658.2925497842593
 21
14.78257334047398
 31
0.0
 11
657.8022527776592
 21
14.40253872807398
 31
0.0
 11
657.3946414707593
 21
14.00365115107397
 31
0.0
  0
SPLINE
  5
1EA3
330
21
100
AcDbEntity
  8
0
  6
Continuous
100
AcDbSpline
210
0.0
220
0.0
230
1.0
 70
     8
 71
     3
 72
     9
 73
     5
 74
     3
 42
0.0000000001
 43
0.0000000001
 44
0.0000000001
 40
0.0
 40
0.0
 40
0.0
 40
0.0
 40
0.5747181415920832
 40
1.238545323249502
 40
1.238545323249502
 40
1.238545323249502
 40
1.238545323249502
 10
664.1054165730593
 20
11.15512088067396
 30
0.0
 10
663.9578130626223
 20
11.27724114194484
 30
0.0
 10
663.639720376283
 20
11.54041619685446
 30
0.0
 10
663.3207691649866
 20
11.80255019905533
 30
0.0
 10
663.1498198426593
 20
11.94304701627396
 30
0.0
 11
664.1054165730593
 21
11.15512088067396
 31
0.0
 11
663.6624211834591
 21
11.52125750417397
 31
0.0
 11
663.1498198426593
 21
11.94304701627396
 31
0.0
  0
SPLINE
  5
1EA4
330
21
100
AcDbEntity
  8
0
  6
Continuous
100
AcDbSpline
210
0.0
220
0.0
230
1.0
 70
     8
 71
     3
 72
    13
 73
     9
 74
     7
 42
0.0000000001
 43
0.0000000001
 44
0.0000000001
 40
0.0
 40
0.0
 40
0.0
 40
0.0
 40
0.6830331112909782
 40
1.384099107656085
 40
2.095710285613355
 40
2.808383208906128
 40
3.512437843767519
 40
4.19981272629849
 40
4.19981272629849
 40
4.19981272629849
 40
4.19981272629849
 10
664.1058055678593
 20
11.15554180657398
 30
0.0
 10
663.8821327054976
 20
11.10817401942136
 30
0.0
 10
663.4288817516506
 20
11.01218787929754
 30
0.0
 10
662.8050929242725
 20
10.67966243532283
 30
0.0
 10
662.2520022743589
 20
10.23025521195423
 30
0.0
 10
661.8060459442826
 20
9.673075146850968
 30
0.0
 10
661.4762449243506
 20
9.044845836144969
 30
0.0
 10
661.3811354019616
 20
8.588950666097954
 30
0.0
 10
661.3341507031591
 20
8.363735601273987
 30
0.0
 11
664.1058055678593
 21
11.15554180657398
 31
0.0
 11
663.4448382191592
 21
10.98333148437396
 31
0.0
 11
662.8212490746591
 21
10.66297213907398
 31
0.0
 11
662.2703053579591
 21
10.21258176437396
 31
0.0
 11
661.8231658123593
 21
9.657632287073964
 31
0.0
 11
661.5051185190591
 21
9.029509012473966
 31
0.0
 11
661.3341507031591
 21
8.363735601273987
 31
0.0
  0
SPLINE
  5
1EA5
330
21
100
AcDbEntity
  8
0
  6
Continuous
100
AcDbSpline
210
0.0
220
0.0
230
1.0
 70
     8
 71
     3
 72
     9
 73
     5
 74
     3
 42
0.0000000001
 43
0.0000000001
 44
0.0000000001
 40
0.0
 40
0.0
 40
0.0
 40
0.0
 40
0.5692723195676835
 40
1.22593699420888
 40
1.22593699420888
 40
1.22593699420888
 40
1.22593699420888
 10
661.3348159381591
 20
8.363735601273987
 30
0.0
 10
661.206961564179
 20
8.503953812305566
 30
0.0
 10
660.9316251363464
 20
8.805915959869569
 30
0.0
 10
660.6561063816405
 20
9.10771175888919
 30
0.0
 10
660.5085266656593
 20
9.269366591973977
 30
0.0
 11
661.3348159381591
 21
8.363735601273987
 31
0.0
 11
660.9512135015592
 21
8.784354365073966
 31
0.0
 11
660.5085266656593
 21
9.269366591973977
 31
0.0
  0
SPLINE
  5
1EA6
330
21
100
AcDbEntity
  8
0
  6
Continuous
100
AcDbSpline
210
0.0
220
0.0
230
1.0
 70
     8
 71
     3
 72
    19
 73
    15
 74
    13
 42
0.0000000001
 43
0.0000000001
 44
0.0000000001
 40
0.0
 40
0.0
 40
0.0
 40
0.0
 40
0.5379464463994816
 40
1.13551911276978
 40
1.78393228032813
 40
2.466484079675522
 40
3.165099162911527
 40
3.82476888485513
 40
4.395158631893807
 40
4.864638943291918
 40
5.262354705243296
 40
5.624721660695215
 40
5.963281676934026
 40
6.316671488034687
 40
6.316671488034687
 40
6.316671488034687
 40
6.316671488034687
 10
664.1058055678593
 20
11.15554180657398
 30
0.0
 10
663.9442239696474
 20
11.07591129022789
 30
0.0
 10
663.6031509980355
 20
10.9078239761915
 30
0.0
 10
663.1635976640226
 20
10.49660643274126
 30
0.0
 10
662.7695327764844
 20
9.986801980300651
 30
0.0
 10
662.4470268342756
 20
9.388478165446625
 30
0.0
 10
662.21457123604
 20
8.74678410993268
 30
0.0
 10
662.0833294368601
 20
8.115040667446889
 30
0.0
 10
662.0486026284723
 20
7.547792368537671
 30
0.0
 10
662.0823619899628
 20
7.068436031239834
 30
0.0
 10
662.1693312822524
 20
6.666139562774633
 30
0.0
 10
662.3004523785015
 20
6.323536366911876
 30
0.0
 10
662.4719515938838
 20
6.012778229724217
 30
0.0
 10
662.6361297406932
 20
5.849200926062983
 30
0.0
 10
662.7199781383592
 20
5.765659388573965
 30
0.0
 11
664.1058055678593
 21
11.15554180657398
 31
0.0
 11
663.6348154270592
 21
10.89562900107398
 31
0.0
 11
663.1881793645594
 21
10.49862859897396
 31
0.0
 11
662.7908595938593
 21
9.986206277373981
 31
0.0
 11
662.4647583707591
 21
9.386593943373981
 31
0.0
 11
662.2266118366592
 21
8.729822093473985
 31
0.0
 11
662.094098992059
 21
8.083598844073975
 31
0.0
 11
662.0602808884592
 21
7.514212508273971
 31
0.0
 11
662.0960562257591
 21
7.046097257473974
 31
0.0
 11
662.1819489348593
 21
6.657767153273965
 31
0.0
 11
662.3114083219593
 21
6.319314678773963
 31
0.0
 11
662.4818977947593
 21
6.026814722773963
 31
0.0
 11
662.7199781383592
 21
5.765659388573965
 31
0.0
  0
SPLINE
  5
1EA7
330
21
100
AcDbEntity
  8
0
  6
Continuous
100
AcDbSpline
210
0.0
220
0.0
230
1.0
 70
     8
 71
     3
 72
    14
 73
    10
 74
     8
 42
0.0000000001
 43
0.0000000001
 44
0.0000000001
 40
0.0
 40
0.0
 40
0.0
 40
0.0
 40
0.0755660489179717
 40
0.3092668326650913
 40
0.7197431212298394
 40
1.334553819836995
 40
2.179352048603087
 40
3.26897623196302
 40
4.611803810565282
 40
4.611803810565282
 40
4.611803810565282
 40
4.611803810565282
 10
667.0449536374592
 20
4.169506967173987
 30
0.0
 10
667.0214375181396
 20
4.178532591155344
 30
0.0
 10
666.9251938234814
 20
4.215471483442411
 30
0.0
 10
666.70113457435
 20
4.301240907350825
 30
0.0
 10
666.3089640500192
 20
4.450636894844076
 30
0.0
 10
665.725843432213
 20
4.670982485682693
 30
0.0
 10
664.9296934124438
 20
4.967988465320676
 30
0.0
 10
663.9042832613513
 20
5.344742042209082
 30
0.0
 10
663.1401596858748
 20
5.615943469072198
 30
0.0
 10
662.7183275958591
 20
5.765659389873974
 30
0.0
 11
667.0449536374592
 21
4.169506967173987
 31
0.0
 11
666.9744033420593
 21
4.196578789573976
 31
0.0
 11
666.7561492812592
 21
4.280132492473967
 31
0.0
 11
666.3725612334592
 21
4.426252282573983
 31
0.0
 11
665.7974289025592
 21
4.643542404473976
 31
0.0
 11
665.0059417553593
 21
4.938893285873973
 31
0.0
 11
663.9828973698593
 21
5.313941344473988
 31
0.0
 11
662.7183275958591
 21
5.765659389873974
 31
0.0
  0
SPLINE
  5
1EA8
330
21
100
AcDbEntity
  8
0
  6
Continuous
100
AcDbSpline
210
0.0
220
0.0
230
1.0
 70
     8
 71
     3
 72
    10
 73
     6
 74
     4
 42
0.0000000001
 43
0.0000000001
 44
0.0000000001
 40
0.0
 40
0.0
 40
0.0
 40
0.0
 40
0.1218907741270048
 40
0.2441123200426587
 40
0.3666637094203458
 40
0.3666637094203458
 40
0.3666637094203458
 40
0.3666637094203458
 10
651.1795060446593
 20
21.62845110867397
 30
0.0
 10
651.1521771321004
 20
21.65851684344167
 30
0.0
 10
651.0974451452315
 20
21.71872990157093
 30
0.0
 10
651.0152322101997
 20
21.80916807920459
 30
0.0
 10
650.9603464568486
 20
21.86953894835451
 30
0.0
 10
650.9328665995593
 20
21.89976505927399
 30
0.0
 11
651.1795060446593
 21
21.62845110867397
 31
0.0
 11
651.0975186562591
 21
21.71864772147399
 31
0.0
 11
651.0153054108591
 21
21.80908603507399
 31
0.0
 11
650.9328665995593
 21
21.89976505927399
 31
0.0
  0
SPLINE
  5
1EA9
330
21
100
AcDbEntity
  8
0
  6
Continuous
100
AcDbSpline
210
0.0
220
0.0
230
1.0
 70
     8
 71
     3
 72
    14
 73
    10
 74
     8
 42
0.0000000001
 43
0.0000000001
 44
0.0000000001
 40
0.0
 40
0.0
 40
0.0
 40
0.0
 40
0.0757447791856953
 40
0.3103270802255292
 40
0.7227674552046706
 40
1.341201709269262
 40
2.192409120021492
 40
3.293004266044621
 40
4.651457375808848
 40
4.651457375808848
 40
4.651457375808848
 40
4.651457375808848
 10
668.5449536374592
 20
9.767583178573972
 30
0.0
 10
668.5209536196693
 20
9.775423699728785
 30
0.0
 10
668.4226253186805
 20
9.807546389418786
 30
0.0
 10
668.1935472508524
 20
9.882158171523074
 30
0.0
 10
667.7922565427286
 20
10.01214740765031
 30
0.0
 10
667.1949234480844
 20
10.20391943038766
 30
0.0
 10
666.378103333499
 20
10.46241483242274
 30
0.0
 10
665.3244862688086
 20
10.79022228836083
 30
0.0
 10
664.5392210070679
 20
11.02527217074305
 30
0.0
 10
664.1054165730593
 20
11.15512088067396
 30
0.0
 11
668.5449536374592
 21
9.767583178573972
 31
0.0
 11
668.4729518834593
 21
9.791099534473972
 31
0.0
 11
668.2499045285592
 21
9.863754427173973
 31
0.0
 11
667.8575353797592
 21
9.990850902273962
 31
0.0
 11
667.2686912562592
 21
10.17985758157397
 31
0.0
 11
666.4571770525593
 21
10.43675980677398
 31
0.0
 11
665.4060431467591
 21
10.76299160707398
 31
0.0
 11
664.1054165730593
 21
11.15512088067396
 31
0.0
  0
SPLINE
  5
1EAA
330
21
100
AcDbEntity
  8
0
  6
Continuous
100
AcDbSpline
210
0.0
220
0.0
230
1.0
 70
    24
 71
     3
 72
     8
 73
     4
 74
     2
 42
0.0000000001
 43
0.0000000001
 44
0.0000000001
 40
0.0
 40
0.0
 40
0.0
 40
0.0
 40
0.015469955717336
 40
0.015469955717336
 40
0.015469955717336
 40
0.015469955717336
 10
646.4530035764592
 20
26.82763061047399
 30
0.0
 10
646.4495348014591
 20
26.83144619154065
 30
0.0
 10
646.446066026459
 20
26.83526177260732
 30
0.0
 10
646.442597251459
 20
26.83907735367399
 30
0.0
 11
646.4530035764592
 21
26.82763061047399
 31
0.0
 11
646.442597251459
 21
26.83907735367399
 31
0.0
  0
SPLINE
  5
1EAB
330
21
100
AcDbEntity
  8
0
  6
Continuous
100
AcDbSpline
210
0.0
220
0.0
230
1.0
 70
     8
 71
     3
 72
    10
 73
     6
 74
     4
 42
0.0000000001
 43
0.0000000001
 44
0.0000000001
 40
0.0
 40
0.0
 40
0.0
 40
0.0
 40
0.5132850555442378
 40
1.029113974974279
 40
1.536655907330657
 40
1.536655907330657
 40
1.536655907330657
 40
1.536655907330657
 10
647.4866880601592
 20
25.69061356337397
 30
0.0
 10
647.3715936097431
 20
25.81721045452571
 30
0.0
 10
647.1408342956231
 20
26.0710316567316
 30
0.0
 10
646.7962845111591
 20
26.45004798490542
 30
0.0
 10
646.5668111497862
 20
26.70245103304132
 30
0.0
 10
646.4530035764592
 20
26.82763061047399
 30
0.0
 11
647.4866880601592
 21
25.69061356337397
 31
0.0
 11
647.1414074067593
 21
26.07040668947397
 31
0.0
 11
646.7944231927592
 21
26.45208905657398
 31
0.0
 11
646.4530035764592
 21
26.82763061047399
 31
0.0
  0
SPLINE
  5
1EAC
330
21
100
AcDbEntity
  8
0
  6
Continuous
100
AcDbSpline
210
0.0
220
0.0
230
1.0
 70
     8
 71
     3
 72
    19
 73
    15
 74
    13
 42
0.0000000001
 43
0.0000000001
 44
0.0000000001
 40
0.0
 40
0.0
 40
0.0
 40
0.0
 40
0.5315398219617401
 40
1.210255992099886
 40
1.889029613226858
 40
2.567841806824702
 40
3.246676839854409
 40
3.925517890705585
 40
4.604351457662935
 40
5.283177105351463
 40
5.961997769050045
 40
6.64081649242568
 40
7.319636123780858
 40
7.838084227061115
 40
7.838084227061115
 40
7.838084227061115
 40
7.838084227061115
 10
667.0449628435592
 20
4.169528026373967
 30
0.0
 10
666.8959708330644
 20
4.266225956621909
 30
0.0
 10
666.5567328944827
 20
4.486396195371494
 30
0.0
 10
666.1242672659107
 20
4.954619857084413
 30
0.0
 10
665.7773722077479
 20
5.54358652915136
 30
0.0
 10
665.5733868503328
 20
6.197547720586368
 30
0.0
 10
665.5212073318207
 20
6.880105702641044
 30
0.0
 10
665.6239371760247
 20
7.557061811630403
 30
0.0
 10
665.8762049202087
 20
8.193598227583724
 30
0.0
 10
666.2651124887814
 20
8.756943121723474
 30
0.0
 10
666.7707651210881
 20
9.219115883181905
 30
0.0
 10
667.3671742784939
 20
9.553196519317099
 30
0.0
 10
667.9724460254467
 20
9.738426282133645
 30
0.0
 10
668.371955677974
 20
9.758763618840844
 30
0.0
 10
668.5449537598593
 20
9.767570215173976
 30
0.0
 11
667.0449628435592
 21
4.169528026373967
 31
0.0
 11
666.6099785207593
 21
4.475016522473964
 31
0.0
 11
666.1441591487592
 21
4.968643863973966
 31
0.0
 11
665.8011985906592
 21
5.554401223573961
 31
0.0
 11
665.5986901690591
 21
6.202302707873968
 31
0.0
 11
665.5470256322591
 21
6.879168852473981
 31
0.0
 11
665.6488610332591
 21
7.550328090973977
 31
0.0
 11
665.8989799918592
 21
8.18140298207396
 31
0.0
 11
666.2845716088593
 21
8.740083002173975
 31
0.0
 11
666.7858919830591
 21
9.197767801873965
 31
0.0
 11
667.3772744469593
 21
9.531026921173975
 31
0.0
 11
668.0284424600593
 21
9.722798427473975
 31
0.0
 11
668.5449537598593
 21
9.767570215173976
 31
0.0
  0
SPLINE
  5
1EAD
330
21
100
AcDbEntity
  8
0
  6
Continuous
100
AcDbSpline
210
0.0
220
0.0
230
1.0
 70
     8
 71
     3
 72
    18
 73
    14
 74
    12
 42
0.0000000001
 43
0.0000000001
 44
0.0000000001
 40
0.0
 40
0.0
 40
0.0
 40
0.0
 40
0.2898829812006994
 40
0.6774696179251107
 40
0.9268074946429552
 40
1.103312515026223
 40
2.063473676626017
 40
3.017646750648769
 40
3.936480529691577
 40
4.059610574111641
 40
4.128944179475824
 40
4.202483573327964
 40
4.292516421092428
 40
4.292516421092428
 40
4.292516421092428
 40
4.292516421092428
 10
643.1643544102591
 20
33.42092022457396
 30
0.0
 10
643.2312069798893
 20
33.34148316055672
 30
0.0
 10
643.3874444541182
 20
33.15583515464088
 30
0.0
 10
643.7790128607849
 20
33.31092423400747
 30
0.0
 10
643.8178802463024
 20
33.60592925126519
 30
0.0
 10
643.6493684835733
 20
34.03775776739278
 30
0.0
 10
643.7306322857854
 20
34.7846654766936
 30
0.0
 10
644.2676713035601
 20
35.60064558461443
 30
0.0
 10
644.917745377242
 20
35.89342467754396
 30
0.0
 10
645.279514259556
 20
35.93670945449489
 30
0.0
 10
645.3732831565793
 20
35.93910890751923
 30
0.0
 10
645.423116535452
 20
36.01717137582669
 30
0.0
 10
645.4004466685553
 20
36.06996595627093
 30
0.0
 10
645.3879688015592
 20
36.09902496027397
 30
0.0
 11
643.1643544102591
 21
33.42092022457396
 31
0.0
 11
643.3887116433593
 21
33.23735559087399
 31
0.0
 11
643.7490437693593
 21
33.38012869737398
 31
0.0
 11
643.7966348049592
 21
33.62488259437399
 31
0.0
 11
643.7490437693593
 21
33.79485057827398
 31
0.0
 11
643.8034335242591
 21
34.75347000787397
 31
0.0
 11
644.3405323536592
 21
35.54212145347398
 31
0.0
 11
645.1767748347593
 21
35.92284973757398
 31
0.0
 11
645.2991517831592
 21
35.93644717627399
 31
0.0
 11
645.3671389767592
 21
35.95004461497396
 31
0.0
 11
645.4079312929594
 21
36.01123308927399
 31
0.0
 11
645.3879688015592
 21
36.09902496027397
 31
0.0
  0
SPLINE
  5
1EAE
330
21
100
AcDbEntity
  8
0
  6
Continuous
100
AcDbSpline
210
0.0
220
0.0
230
1.0
 70
     8
 71
     3
 72
    14
 73
    10
 74
     8
 42
0.0000000001
 43
0.0000000001
 44
0.0000000001
 40
0.0
 40
0.0
 40
0.0
 40
0.0
 40
0.1314363830700711
 40
0.460314550027796
 40
2.296145031510807
 40
2.598057166813808
 40
2.862071670333707
 40
3.877359740969303
 40
4.290351380379888
 40
4.290351380379888
 40
4.290351380379888
 40
4.290351380379888
 10
645.3879688015592
 20
36.09902496027397
 30
0.0
 10
645.350078480494
 20
36.12324880301311
 30
0.0
 10
645.2173795604224
 20
36.20808518552727
 30
0.0
 10
644.4122269979102
 20
35.96489983020177
 30
0.0
 10
643.7927681129752
 20
35.48205501876227
 30
0.0
 10
643.0987639995362
 20
35.06369566154402
 30
0.0
 10
642.7925776995475
 20
34.61078848451938
 30
0.0
 10
642.9475253237405
 20
33.98572279666277
 30
0.0
 10
643.1157202966941
 20
33.54760374694511
 30
0.0
 10
643.1643544102591
 20
33.42092022457396
 30
0.0
 11
645.3879688015592
 21
36.09902496027397
 31
0.0
 11
645.2719569057592
 21
36.16080491517397
 31
0.0
 11
644.9456183765591
 21
36.12001259897397
 31
0.0
 11
643.3479193272591
 21
35.21578292427398
 31
0.0
 11
643.1031654303592
 21
35.03901622097397
 31
0.0
 11
642.9535936044592
 21
34.82145720147398
 31
0.0
 11
643.0215807980592
 21
33.80844801697398
 31
0.0
 11
643.1643544102591
 21
33.42092022457396
 31
0.0
  0
SPLINE
  5
1EAF
330
21
100
AcDbEntity
  8
0
  6
Continuous
100
AcDbSpline
210
0.0
220
0.0
230
1.0
 70
     8
 71
     3
 72
    11
 73
     7
 74
     5
 42
0.0000000001
 43
0.0000000001
 44
0.0000000001
 40
0.0
 40
0.0
 40
0.0
 40
0.0
 40
0.8541128098377137
 40
1.596371899937449
 40
2.014326647385688
 40
2.437561407950672
 40
2.437561407950672
 40
2.437561407950672
 40
2.437561407950672
 10
644.8276447660592
 20
32.82386236877397
 30
0.0
 10
645.1141450500539
 20
32.80954612154371
 30
0.0
 10
645.6496258406773
 20
32.78278846783836
 30
0.0
 10
646.2987552071493
 20
33.08347433179688
 30
0.0
 10
646.6028286388489
 20
33.53306768014704
 30
0.0
 10
646.6685224632839
 20
33.80719486161917
 30
0.0
 10
646.7015755503592
 20
33.94511877877397
 30
0.0
 11
644.8276447660592
 21
32.82386236877397
 31
0.0
 11
645.6811226970592
 21
32.85678824347397
 31
0.0
 11
646.3414251524591
 21
33.19582986957397
 31
0.0
 11
646.5781540996593
 21
33.54027954147398
 31
0.0
 11
646.7015755503592
 21
33.94511877877397
 31
0.0
  0
SPLINE
  5
1EB0
330
21
100
AcDbEntity
  8
0
  6
Continuous
100
AcDbSpline
210
0.0
220
0.0
230
1.0
 70
     8
 71
     3
 72
    11
 73
     7
 74
     5
 42
0.0000000001
 43
0.0000000001
 44
0.0000000001
 40
0.0
 40
0.0
 40
0.0
 40
0.0
 40
0.1133348160704773
 40
0.2266682087645313
 40
0.3400014426889397
 40
0.4518321887600984
 40
0.4518321887600984
 40
0.4518321887600984
 40
0.4518321887600984
 10
644.8471260799593
 20
33.14114410337399
 30
0.0
 10
644.8092121730966
 20
33.13002656617504
 30
0.0
 10
644.7333848355339
 20
33.10779163140275
 30
0.0
 10
644.6840045082224
 20
32.99104586866704
 30
0.0
 10
644.7198239464656
 20
32.8701287134481
 30
0.0
 10
644.7918647322351
 20
32.83921572430948
 30
0.0
 10
644.8276447660592
 20
32.82386236877397
 30
0.0
 11
644.8471260799593
 21
33.14114410337399
 31
0.0
 11
644.7441112528593
 21
33.09389237397397
 31
0.0
 11
644.6982309296592
 21
32.99026103777396
 31
0.0
 11
644.7321978802592
 21
32.88213764447397
 31
0.0
 11
644.8276447660592
 21
32.82386236877397
 31
0.0
  0
SPLINE
  5
1EB1
330
21
100
AcDbEntity
  8
0
  6
Continuous
100
AcDbSpline
210
0.0
220
0.0
230
1.0
 70
     8
 71
     3
 72
     9
 73
     5
 74
     3
 42
0.0000000001
 43
0.0000000001
 44
0.0000000001
 40
0.0
 40
0.0
 40
0.0
 40
0.0
 40
0.9444512604614687
 40
1.888902543377103
 40
1.888902543377103
 40
1.888902543377103
 40
1.888902543377103
 10
646.4485093490594
 20
34.05080380027397
 30
0.0
 10
646.2334213631706
 20
33.80798785348731
 30
0.0
 10
645.8032453862796
 20
33.32235595414107
 30
0.0
 10
645.1658325179251
 20
33.20154805410839
 30
0.0
 10
644.8471260799593
 20
33.14114410337399
 30
0.0
 11
646.4485093490594
 21
34.05080380027397
 31
0.0
 11
645.7514361697592
 21
33.41356195757396
 31
0.0
 11
644.8471260799593
 21
33.14114410337399
 31
0.0
  0
SPLINE
  5
1EB2
330
21
100
AcDbEntity
  8
0
  6
Continuous
100
AcDbSpline
210
0.0
220
0.0
230
1.0
 70
     8
 71
     3
 72
    11
 73
     7
 74
     5
 42
0.0000000001
 43
0.0000000001
 44
0.0000000001
 40
0.0
 40
0.0
 40
0.0
 40
0.0
 40
0.0935285689528875
 40
0.1870563008019388
 40
0.2805843016234959
 40
0.3741131171256416
 40
0.3741131171256416
 40
0.3741131171256416
 40
0.3741131171256416
 10
646.7015755503592
 20
33.94511877877397
 30
0.0
 10
646.7009951726494
 20
33.97756111031956
 30
0.0
 10
646.6998344224246
 20
34.04244548304385
 30
0.0
 10
646.6219412763717
 20
34.11025946570443
 30
0.0
 10
646.5189552707342
 20
34.11798090811638
 30
0.0
 10
646.4719913911308
 20
34.07319623457103
 30
0.0
 10
646.4485093490594
 20
34.05080380027397
 30
0.0
 11
646.7015755503592
 21
33.94511877877397
 31
0.0
 11
646.6871422932593
 21
34.03752697267399
 31
0.0
 11
646.6177592453591
 21
34.10024403007398
 31
0.0
 11
646.5243789282592
 21
34.10549791587397
 31
0.0
 11
646.4485093490594
 21
34.05080380027397
 31
0.0
  0
SPLINE
  5
1EB3
330
21
100
AcDbEntity
  8
0
  6
Continuous
100
AcDbSpline
210
0.0
220
0.0
230
1.0
 70
     8
 71
     3
 72
     9
 73
     5
 74
     3
 42
0.0000000001
 43
0.0000000001
 44
0.0000000001
 40
0.0
 40
0.0
 40
0.0
 40
0.0
 40
2.095850293511624
 40
4.195624821475471
 40
4.195624821475471
 40
4.195624821475471
 40
4.195624821475471
 10
651.9711520846593
 20
30.40692538857397
 30
0.0
 10
651.9156655143866
 20
31.11646562775846
 30
0.0
 10
651.8045884817304
 20
32.53687463720644
 30
0.0
 10
651.0043684737054
 20
33.71573597621445
 30
0.0
 10
650.6038842404591
 20
34.30571794957399
 30
0.0
 11
651.9711520846593
 21
30.40692538857397
 31
0.0
 11
651.6327287624592
 21
32.47527209737399
 31
0.0
 11
650.6038842404591
 21
34.30571794957399
 31
0.0
  0
SPLINE
  5
1EB4
330
21
100
AcDbEntity
  8
0
  6
Continuous
100
AcDbSpline
210
0.0
220
0.0
230
1.0
 70
     8
 71
     3
 72
    19
 73
    15
 74
    13
 42
0.0000000001
 43
0.0000000001
 44
0.0000000001
 40
0.0
 40
0.0
 40
0.0
 40
0.0
 40
0.0399291134071779
 40
0.0799186345070083
 40
0.1602806135784397
 40
0.2407244686969314
 40
0.3208728018313105
 40
0.4822081742234413
 40
0.6454570205557121
 40
0.8085390885932995
 40
0.970772021706348
 40
1.130473659796533
 40
1.290145592909243
 40
1.294133039315446
 40
1.294133039315446
 40
1.294133039315446
 40
1.294133039315446
 10
652.7706911746593
 20
30.43214631617397
 30
0.0
 10
652.7714104699843
 20
30.41884952223932
 30
0.0
 10
652.7728501488369
 20
30.39223581800447
 30
0.0
 10
652.7700687296861
 20
30.33876186315665
 30
0.0
 10
652.755052360974
 20
30.27298076340539
 30
0.0
 10
652.7223599656428
 20
30.19912259019223
 30
0.0
 10
652.6605720794851
 20
30.11052734417105
 30
0.0
 10
652.5491108728131
 20
30.02765609868629
 30
0.0
 10
652.3873052016453
 20
29.98596390233085
 30
0.0
 10
652.2224010935347
 20
30.01540404631346
 30
0.0
 10
652.082139503525
 20
30.10443328854703
 30
0.0
 10
651.9909942681142
 20
30.2419216359991
 30
0.0
 10
651.9701445802166
 20
30.35105632993896
 30
0.0
 10
651.9711281213665
 20
30.40559655412785
 30
0.0
 10
651.9711520846593
 20
30.40692538857397
 30
0.0
 11
652.7706911746593
 21
30.43214631617397
 31
0.0
 11
652.7721434930592
 21
30.39224362367398
 31
0.0
 11
652.7700062201593
 21
30.35231125757397
 31
0.0
 11
652.7526129304592
 21
30.27385412817398
 31
0.0
 11
652.7200531369592
 21
30.20029412767397
 31
0.0
 11
652.6739341569592
 21
30.13474418497398
 31
0.0
 11
652.5451149025591
 21
30.03761179037397
 31
0.0
 11
652.3867817245593
 21
29.99785263327396
 31
0.0
 11
652.2260663895592
 21
30.02553551627398
 31
0.0
 11
652.0895777344592
 21
30.11323028017398
 31
0.0
 11
652.0009529151591
 21
30.24608454097398
 31
0.0
 11
651.9710870427593
 21
30.40293847267398
 31
0.0
 11
651.9711520846593
 21
30.40692538857397
 31
0.0
  0
SPLINE
  5
1EB5
330
21
100
AcDbEntity
  8
0
  6
Continuous
100
AcDbSpline
210
0.0
220
0.0
230
1.0
 70
     8
 71
     3
 72
     9
 73
     5
 74
     3
 42
0.0000000001
 43
0.0000000001
 44
0.0000000001
 40
0.0
 40
0.0
 40
0.0
 40
0.0
 40
2.293945445338731
 40
4.587890824640328
 40
4.587890824640328
 40
4.587890824640328
 40
4.587890824640328
 10
650.8041959285592
 20
34.49287400837397
 30
0.0
 10
651.319136040255
 20
33.90673729251462
 30
0.0
 10
652.3490162488225
 20
32.73446387766938
 30
0.0
 10
652.6301328673958
 20
31.19958549597487
 30
0.0
 10
652.7706911746593
 20
30.43214631617397
 30
0.0
 11
650.8041959285592
 21
34.49287400837397
 31
0.0
 11
652.1618253607591
 21
32.64381261647398
 31
0.0
 11
652.7706911746593
 21
30.43214631617397
 31
0.0
  0
SPLINE
  5
1EB6
330
21
100
AcDbEntity
  8
0
  6
Continuous
100
AcDbSpline
210
0.0
220
0.0
230
1.0
 70
     8
 71
     3
 72
    11
 73
     7
 74
     5
 42
0.0000000001
 43
0.0000000001
 44
0.0000000001
 40
0.0
 40
0.0
 40
0.0
 40
0.0
 40
0.1010135617105715
 40
0.2020255336048099
 40
0.3030373571438478
 40
0.4040507087366245
 40
0.4040507087366245
 40
0.4040507087366245
 40
0.4040507087366245
 10
650.6038842404591
 20
34.30571794957399
 30
0.0
 10
650.5881657407184
 20
34.33737305101934
 30
0.0
 10
650.5567289886247
 20
34.40068275570172
 30
0.0
 10
650.6072215047885
 20
34.50292055619626
 30
0.0
 10
650.7126486667289
 20
34.54636240362708
 30
0.0
 10
650.773680020742
 20
34.51070356336236
 30
0.0
 10
650.8041959285592
 20
34.49287400837397
 30
0.0
 11
650.6038842404591
 21
34.30571794957399
 31
0.0
 11
650.5730036309592
 21
34.40189553327397
 31
0.0
 11
650.6163772791592
 21
34.49312132517397
 31
0.0
 11
650.7103347792593
 21
34.53020739627397
 31
0.0
 11
650.8041959285592
 21
34.49287400837397
 31
0.0
  0
SPLINE
  5
1EB7
330
21
100
AcDbEntity
  8
0
  6
Continuous
100
AcDbSpline
210
0.0
220
0.0
230
1.0
 70
     8
 71
     3
 72
    11
 73
     7
 74
     5
 42
0.0000000001
 43
0.0000000001
 44
0.0000000001
 40
0.0
 40
0.0
 40
0.0
 40
0.0
 40
0.08483849520439
 40
0.1696754701158413
 40
0.2545123713991542
 40
0.3393510447684536
 40
0.3393510447684536
 40
0.3393510447684536
 40
0.3393510447684536
 10
649.6229465523592
 20
34.59603643427397
 30
0.0
 10
649.6148419402355
 20
34.62461963787045
 30
0.0
 10
649.5986328612215
 20
34.68178553285677
 30
0.0
 10
649.6568520128051
 20
34.75811037383621
 30
0.0
 10
649.7511300217694
 20
34.77619953287976
 30
0.0
 10
649.7950696869945
 20
34.73619801546741
 30
0.0
 10
649.8170397490591
 20
34.71619704787398
 30
0.0
 11
649.6229465523592
 21
34.59603643427397
 31
0.0
 11
649.6123884559592
 21
34.68021539167398
 31
0.0
 11
649.6628617966591
 21
34.74840449777398
 31
0.0
 11
649.7464013287593
 21
34.76318442997396
 31
0.0
 11
649.8170397490591
 21
34.71619704787398
 31
0.0
  0
SPLINE
  5
1EB8
330
21
100
AcDbEntity
  8
0
  6
Continuous
100
AcDbSpline
210
0.0
220
0.0
230
1.0
 70
     8
 71
     3
 72
    15
 73
    11
 74
     9
 42
0.0000000001
 43
0.0000000001
 44
0.0000000001
 40
0.0
 40
0.0
 40
0.0
 40
0.0
 40
0.3890681942698519
 40
0.8130068211352639
 40
1.261850964238387
 40
1.525417037514122
 40
1.792928191846982
 40
4.308203670919244
 40
6.72112827221478
 40
7.596849517694505
 40
7.596849517694505
 40
7.596849517694505
 40
7.596849517694505
 10
651.9529008885593
 20
28.82659343127398
 30
0.0
 10
651.9347521690386
 20
28.69030874543687
 30
0.0
 10
651.8968281418819
 20
28.40552479024932
 30
0.0
 10
651.4390458197119
 20
28.21190748845819
 30
0.0
 10
651.0439269606409
 20
28.41702632209714
 30
0.0
 10
650.9638211301876
 20
28.74788140183689
 30
0.0
 10
650.940085677871
 20
29.75776858843817
 30
0.0
 10
650.9105856755271
 20
31.5107450298426
 30
0.0
 10
650.25247359435
 20
33.35991136747251
 30
0.0
 10
649.7553292633601
 20
34.33609273596714
 30
0.0
 10
649.6229465523592
 20
34.59603643427397
 30
0.0
 11
651.9529008885593
 21
28.82659343127398
 31
0.0
 11
651.8395925484592
 21
28.45439015367399
 31
0.0
 11
651.4511859159592
 21
28.28449534157397
 31
0.0
 11
651.0547149267592
 21
28.49490403797398
 31
0.0
 11
650.9738173468592
 21
28.74574792677399
 31
0.0
 11
650.9576533377591
 21
29.01277029007398
 31
0.0
 11
650.7717270196592
 21
31.52116462507397
 31
0.0
 11
650.0112849081593
 21
33.81112814587396
 31
0.0
 11
649.6229465523592
 21
34.59603643427397
 31
0.0
  0
SPLINE
  5
1EB9
330
21
100
AcDbEntity
  8
0
  6
Continuous
100
AcDbSpline
210
0.0
220
0.0
230
1.0
 70
     8
 71
     3
 72
     9
 73
     5
 74
     3
 42
0.0000000001
 43
0.0000000001
 44
0.0000000001
 40
0.0
 40
0.0
 40
0.0
 40
0.0
 40
3.158231882708542
 40
6.316463775346771
 40
6.316463775346771
 40
6.316463775346771
 40
6.316463775346771
 10
649.8170397490591
 20
34.71619704787398
 30
0.0
 10
650.3622618999489
 20
33.80322613681383
 30
0.0
 10
651.4527062034427
 20
31.97728431182308
 30
0.0
 10
651.7861693266791
 20
29.87682372589102
 30
0.0
 10
651.9529008885593
 20
28.82659343127398
 30
0.0
 11
649.8170397490591
 21
34.71619704787398
 31
0.0
 11
651.2634609072592
 21
31.90865462467397
 31
0.0
 11
651.9529008885593
 21
28.82659343127398
 31
0.0
  0
SPLINE
  5
1EBA
330
21
100
AcDbEntity
  8
0
  6
Continuous
100
AcDbSpline
210
0.0
220
0.0
230
1.0
 70
     8
 71
     3
 72
    14
 73
    10
 74
     8
 42
0.0000000001
 43
0.0000000001
 44
0.0000000001
 40
0.0
 40
0.0
 40
0.0
 40
0.0
 40
0.3236319058408124
 40
0.6690891357231519
 40
1.014562030792928
 40
1.360000505294145
 40
1.704523353365073
 40
2.051731077760218
 40
2.742649236506405
 40
2.742649236506405
 40
2.742649236506405
 40
2.742649236506405
 10
647.3776486178592
 20
29.00837688777398
 30
0.0
 10
647.4697756732136
 20
28.9493871427924
 30
0.0
 10
647.6602427153416
 20
28.82742945946784
 30
0.0
 10
647.8275710223685
 20
28.52007436533894
 30
0.0
 10
647.9144463360728
 20
28.1853266668588
 30
0.0
 10
647.9365559664389
 20
27.83758283466502
 30
0.0
 10
647.8790985345719
 20
27.49490685473037
 30
0.0
 10
647.7596540640451
 20
27.04982398722155
 30
0.0
 10
647.6988089823069
 20
26.70887653995362
 30
0.0
 10
647.6583139204593
 20
26.48196110867397
 30
0.0
 11
647.3776486178592
 21
29.00837688777398
 31
0.0
 11
647.6352860446593
 21
28.81251835007399
 31
0.0
 11
647.8135604683594
 21
28.51661477197396
 31
0.0
 11
647.9036572070592
 21
28.18309700797397
 31
0.0
 11
647.9233014940591
 21
27.83821754837396
 31
0.0
 11
647.8739296411593
 21
27.49725066877398
 31
0.0
 11
647.7925722755592
 21
27.15970928917398
 31
0.0
 11
647.6583139204593
 21
26.48196110867397
 31
0.0
  0
SPLINE
  5
1EBB
330
21
100
AcDbEntity
  8
0
  6
Continuous
100
AcDbSpline
210
0.0
220
0.0
230
1.0
 70
     8
 71
     3
 72
    15
 73
    11
 74
     9
 42
0.0000000001
 43
0.0000000001
 44
0.0000000001
 40
0.0
 40
0.0
 40
0.0
 40
0.0
 40
0.3843221060321682
 40
0.5766428767485351
 40
0.7683065895521861
 40
0.9601481996534306
 40
1.154929323507123
 40
1.349490672840063
 40
1.540711257198165
 40
1.563033440488044
 40
1.563033440488044
 40
1.563033440488044
 40
1.563033440488044
 10
645.8287428155593
 20
28.98186212207398
 30
0.0
 10
645.9551498209935
 20
29.00353439651516
 30
0.0
 10
646.1448128617365
 20
29.03605181480386
 30
0.0
 10
646.4006178496354
 20
29.05161922643948
 30
0.0
 10
646.5922059981415
 20
29.06273538498444
 30
0.0
 10
646.7846468237046
 20
29.07378647566769
 30
0.0
 10
646.9782863364603
 20
29.08167917233101
 30
0.0
 10
647.1719696468601
 20
29.07363165322521
 30
0.0
 10
647.3060958482065
 20
29.04097640510935
 30
0.0
 10
647.3708768866939
 20
29.01146209563648
 30
0.0
 10
647.3776486178592
 20
29.00837688777398
 30
0.0
 11
645.8287428155593
 21
28.98186212207398
 31
0.0
 11
646.2089980077592
 21
29.03762474387398
 31
0.0
 11
646.4008146787591
 21
29.05154033137399
 31
0.0
 11
646.5921524519592
 21
29.06271330557397
 31
0.0
 11
646.7837070142593
 21
29.07320392177397
 31
0.0
 11
646.9784016422593
 21
29.07900806147399
 31
0.0
 11
647.1725978656593
 21
29.06709397437399
 31
0.0
 11
647.3572744045591
 21
29.01749671777398
 31
0.0
 11
647.3776486178592
 21
29.00837688777398
 31
0.0
  0
SPLINE
  5
1EBC
330
21
100
AcDbEntity
  8
0
  6
Continuous
100
AcDbSpline
210
0.0
220
0.0
230
1.0
 70
    24
 71
     3
 72
     8
 73
     4
 74
     2
 42
0.0000000001
 43
0.0000000001
 44
0.0000000001
 40
0.0
 40
0.0
 40
0.0
 40
0.0
 40
0.3469178470316684
 40
0.3469178470316684
 40
0.3469178470316684
 40
0.3469178470316684
 10
645.4885444032592
 20
28.91391337037396
 30
0.0
 10
645.6019438740259
 20
28.93656295427397
 30
0.0
 10
645.7153433447927
 20
28.95921253817398
 30
0.0
 10
645.8287428155593
 20
28.98186212207398
 30
0.0
 11
645.4885444032592
 21
28.91391337037396
 31
0.0
 11
645.8287428155593
 21
28.98186212207398
 31
0.0
  0
SPLINE
  5
1EBD
330
21
100
AcDbEntity
  8
0
  6
Continuous
100
AcDbSpline
210
0.0
220
0.0
230
1.0
 70
     8
 71
     3
 72
    12
 73
     8
 74
     6
 42
0.0000000001
 43
0.0000000001
 44
0.0000000001
 40
0.0
 40
0.0
 40
0.0
 40
0.0
 40
0.0383845652913102
 40
0.2432805557625069
 40
0.3456392650190746
 40
0.4481074897662898
 40
0.6531807245287222
 40
0.6531807245287222
 40
0.6531807245287222
 40
0.6531807245287222
 10
644.8470607904591
 20
28.79775247497398
 30
0.0
 10
644.8596845759813
 20
28.79984688546955
 30
0.0
 10
644.9396938592535
 20
28.81312121449972
 30
0.0
 10
645.0546362328025
 20
28.82264245477485
 30
0.0
 10
645.1901516566977
 20
28.83988469306047
 30
0.0
 10
645.3243697868788
 20
28.86616830350568
 30
0.0
 10
645.4228657950897
 20
28.89481279558351
 30
0.0
 10
645.4885444032592
 20
28.91391337037396
 30
0.0
 11
644.8470607904591
 21
28.79775247497398
 31
0.0
 11
644.8849543947592
 21
28.80387208327397
 31
0.0
 11
645.0884889109593
 21
28.82745316947398
 31
0.0
 11
645.1899462278593
 21
28.84100743847398
 31
0.0
 11
645.2905278397593
 21
28.86057977687398
 31
0.0
 11
645.4885444032592
 21
28.91391337037396
 31
0.0
  0
SPLINE
  5
1EBE
330
21
100
AcDbEntity
  8
0
  6
Continuous
100
AcDbSpline
210
0.0
220
0.0
230
1.0
 70
     8
 71
     3
 72
    11
 73
     7
 74
     5
 42
0.0000000001
 43
0.0000000001
 44
0.0000000001
 40
0.0
 40
0.0
 40
0.0
 40
0.0
 40
0.3600644446719579
 40
0.7200322214626433
 40
1.08000025553703
 40
1.439975420803433
 40
1.439975420803433
 40
1.439975420803433
 40
1.439975420803433
 10
648.6867409369592
 20
36.83418002467397
 30
0.0
 10
648.7423121340736
 20
36.72746369214777
 30
0.0
 10
648.85343960889
 20
36.51405967763811
 30
0.0
 10
649.0848324279573
 20
36.2352153744249
 30
0.0
 10
649.3546167041109
 20
35.99428393550932
 30
0.0
 10
649.4878712267716
 20
35.79339854429009
 30
0.0
 10
649.5544991480592
 20
35.69295485377399
 30
0.0
 11
648.6867409369592
 21
36.83418002467397
 31
0.0
 11
648.8642427423592
 21
36.52090775747396
 31
0.0
 11
649.0912340894593
 21
36.24153036277397
 31
0.0
 11
649.3429645788592
 21
35.98421976007398
 31
0.0
 11
649.5544991480592
 21
35.69295485377399
 31
0.0
  0
SPLINE
  5
1EBF
330
21
100
AcDbEntity
  8
0
  6
Continuous
100
AcDbSpline
210
0.0
220
0.0
230
1.0
 70
     8
 71
     3
 72
    10
 73
     6
 74
     4
 42
0.0000000001
 43
0.0000000001
 44
0.0000000001
 40
0.0
 40
0.0
 40
0.0
 40
0.0
 40
0.901856639431156
 40
1.352842493960357
 40
1.804113669942573
 40
1.804113669942573
 40
1.804113669942573
 40
1.804113669942573
 10
648.3218005551591
 20
38.59927827987397
 30
0.0
 10
648.3740986687545
 20
38.30336695303518
 30
0.0
 10
648.4525491755561
 20
37.85948108482865
 30
0.0
 10
648.553457622942
 20
37.26576234210478
 30
0.0
 10
648.6423038003211
 20
36.97807112275804
 30
0.0
 10
648.6867409369592
 20
36.83418002467397
 30
0.0
 11
648.3218005551591
 21
38.59927827987397
 31
0.0
 11
648.4774582236591
 21
37.71095621647399
 31
0.0
 11
648.5630307856593
 21
37.26816328787399
 31
0.0
 11
648.6867409369592
 21
36.83418002467397
 31
0.0
  0
SPLINE
  5
1EC0
330
21
100
AcDbEntity
  8
0
  6
Continuous
100
AcDbSpline
210
0.0
220
0.0
230
1.0
 70
     8
 71
     3
 72
    14
 73
    10
 74
     8
 42
0.0000000001
 43
0.0000000001
 44
0.0000000001
 40
0.0
 40
0.0
 40
0.0
 40
0.0
 40
0.197190630400087
 40
0.3944503657265024
 40
0.5903299888630453
 40
0.7870697249013128
 40
0.9831665530637699
 40
1.179458802873
 40
1.569060756416258
 40
1.569060756416258
 40
1.569060756416258
 40
1.569060756416258
 10
647.1111160085593
 20
39.10422271597397
 30
0.0
 10
647.1679985165487
 20
39.13745051782141
 30
0.0
 10
647.2817834668495
 20
39.20391776611012
 30
0.0
 10
647.4725082899713
 20
39.26137716743807
 30
0.0
 10
647.6717400517819
 20
39.26567278566945
 30
0.0
 10
647.8634050755816
 20
39.21080506227423
 30
0.0
 10
648.0305365003441
 20
39.10366460168508
 30
0.0
 10
648.2104161687637
 20
38.90952351941683
 30
0.0
 10
648.2773149113899
 20
38.7231866628532
 30
0.0
 10
648.3218005551591
 20
38.59927827987397
 30
0.0
 11
647.1111160085593
 21
39.10422271597397
 31
0.0
 11
647.2851760237593
 21
39.19689016347397
 31
0.0
 11
647.4744060054592
 21
39.25259848607396
 31
0.0
 11
647.6702586900592
 21
39.25584697727396
 31
0.0
 11
647.8594887104591
 21
39.20200904347396
 31
0.0
 11
648.0252219416593
 21
39.09719271797397
 31
0.0
 11
648.1583311211593
 21
38.95292701287397
 31
0.0
 11
648.3218005551591
 21
38.59927827987397
 31
0.0
  0
SPLINE
  5
1EC1
330
21
100
AcDbEntity
  8
0
  6
Continuous
100
AcDbSpline
210
0.0
220
0.0
230
1.0
 70
     8
 71
     3
 72
    15
 73
    11
 74
     9
 42
0.0000000001
 43
0.0000000001
 44
0.0000000001
 40
0.0
 40
0.0
 40
0.0
 40
0.0
 40
0.7420146923630373
 40
1.214581619458121
 40
1.789756484328513
 40
3.674019684862582
 40
4.541650766459714
 40
5.328676197491499
 40
6.756177783375234
 40
7.666261252198408
 40
7.666261252198408
 40
7.666261252198408
 40
7.666261252198408
 10
641.7272664051592
 20
34.42319463877396
 30
0.0
 10
641.6821891983072
 20
34.66937293443306
 30
0.0
 10
641.6084036689067
 20
35.07233481119165
 30
0.0
 10
641.8632062040158
 20
35.67490225438966
 30
0.0
 10
642.8682958835718
 20
35.95103094053496
 30
0.0
 10
643.8797961997958
 20
36.27130586060116
 30
0.0
 10
644.9893437860193
 20
36.76824956058312
 30
0.0
 10
645.6120402113957
 20
37.60812093467819
 30
0.0
 10
646.2930288039818
 20
38.39248645383012
 30
0.0
 10
646.8818661218952
 20
38.90477520412167
 30
0.0
 10
647.1111160085593
 20
39.10422271597397
 30
0.0
 11
641.7272664051592
 21
34.42319463877396
 31
0.0
 11
641.6841103448591
 21
35.16395327567398
 31
0.0
 11
641.8913190722592
 21
35.58866970327398
 31
0.0
 11
642.4143249878594
 21
35.82802495687398
 31
0.0
 11
644.2011383346591
 21
36.42614356767399
 31
0.0
 11
644.9638915376592
 21
36.83965444427398
 31
0.0
 11
645.4870934700593
 21
37.42759046717399
 31
0.0
 11
646.4353977384591
 21
38.49458615237399
 31
0.0
 11
647.1111160085593
 21
39.10422271597397
 31
0.0
  0
SPLINE
  5
1EC2
330
21
100
AcDbEntity
  8
0
  6
Continuous
100
AcDbSpline
210
0.0
220
0.0
230
1.0
 70
     8
 71
     3
 72
    11
 73
     7
 74
     5
 42
0.0000000001
 43
0.0000000001
 44
0.0000000001
 40
0.0
 40
0.0
 40
0.0
 40
0.0
 40
0.7211258206531865
 40
1.442237220541488
 40
2.16336131538509
 40
2.884484992338333
 40
2.884484992338333
 40
2.884484992338333
 40
2.884484992338333
 10
642.0870442657592
 20
31.57643086747399
 30
0.0
 10
642.1010264664801
 20
31.81661651875763
 30
0.0
 10
642.1289905883118
 20
32.29698301819526
 30
0.0
 10
642.0466702504467
 20
33.01907141535803
 30
0.0
 10
641.8162351029653
 20
33.70579587960538
 30
0.0
 10
641.7569226320327
 20
34.18406176524351
 30
0.0
 10
641.7272664051592
 20
34.42319463877396
 30
0.0
 11
642.0870442657592
 21
31.57643086747399
 31
0.0
 11
642.1082794017593
 21
32.29724396267398
 31
0.0
 11
642.0219854205592
 21
33.01317342837399
 31
0.0
 11
641.8398130339592
 21
33.71090774867397
 31
0.0
 11
641.7272664051592
 21
34.42319463877396
 31
0.0
  0
SPLINE
  5
1EC3
330
21
100
AcDbEntity
  8
0
  6
Continuous
100
AcDbSpline
210
0.0
220
0.0
230
1.0
 70
     8
 71
     3
 72
    11
 73
     7
 74
     5
 42
0.0000000001
 43
0.0000000001
 44
0.0000000001
 40
0.0
 40
0.0
 40
0.0
 40
0.0
 40
0.3772389112309034
 40
0.7707906682484023
 40
1.159813847989365
 40
1.549327646165453
 40
1.549327646165453
 40
1.549327646165453
 40
1.549327646165453
 10
642.1652402440592
 20
30.03228898227397
 30
0.0
 10
642.1726016250193
 20
30.15832738031807
 30
0.0
 10
642.1876427132545
 20
30.41585442262763
 30
0.0
 10
642.1145325537057
 20
30.79746241051012
 30
0.0
 10
642.0758078515253
 20
31.18682849260919
 30
0.0
 10
642.0832972211308
 20
31.44650886072733
 30
0.0
 10
642.0870442657592
 20
31.57643086747399
 30
0.0
 11
642.1652402440592
 21
30.03228898227397
 31
0.0
 11
642.1720833899591
 21
30.40946582077399
 31
0.0
 11
642.1201839455594
 21
30.79958046177399
 31
0.0
 11
642.0841164733592
 21
31.18692807287397
 31
0.0
 11
642.0870442657592
 21
31.57643086747399
 31
0.0
  0
SPLINE
  5
1EC4
330
21
100
AcDbEntity
  8
0
  6
Continuous
100
AcDbSpline
210
0.0
220
0.0
230
1.0
 70
    24
 71
     3
 72
     8
 73
     4
 74
     2
 42
0.0000000001
 43
0.0000000001
 44
0.0000000001
 40
0.0
 40
0.0
 40
0.0
 40
0.0
 40
0.0282166939094488
 40
0.0282166939094488
 40
0.0282166939094488
 40
0.0282166939094488
 10
644.3601918029592
 20
29.27775231647397
 30
0.0
 10
644.3554344650258
 20
29.2696386008073
 30
0.0
 10
644.3506771270925
 20
29.26152488514063
 30
0.0
 10
644.3459197891593
 20
29.25341116947397
 30
0.0
 11
644.3601918029592
 21
29.27775231647397
 31
0.0
 11
644.3459197891593
 21
29.25341116947397
 31
0.0
  0
SPLINE
  5
1EC5
330
21
100
AcDbEntity
  8
0
  6
Continuous
100
AcDbSpline
210
0.0
220
0.0
230
1.0
 70
    24
 71
     3
 72
     8
 73
     4
 74
     2
 42
0.0000000001
 43
0.0000000001
 44
0.0000000001
 40
0.0
 40
0.0
 40
0.0
 40
0.0
 40
0.0876001750697552
 40
0.0876001750697552
 40
0.0876001750697552
 40
0.0876001750697552
 10
644.4056696710593
 20
29.35262256547398
 30
0.0
 10
644.3905103816927
 20
29.32766581580732
 30
0.0
 10
644.375351092326
 20
29.30270906614064
 30
0.0
 10
644.3601918029592
 20
29.27775231647397
 30
0.0
 11
644.4056696710593
 21
29.35262256547398
 31
0.0
 11
644.3601918029592
 21
29.27775231647397
 31
0.0
  0
SPLINE
  5
1EC6
330
21
100
AcDbEntity
  8
0
  6
Continuous
100
AcDbSpline
210
0.0
220
0.0
230
1.0
 70
     8
 71
     3
 72
     9
 73
     5
 74
     3
 42
0.0000000001
 43
0.0000000001
 44
0.0000000001
 40
0.0
 40
0.0
 40
0.0
 40
0.0
 40
0.3302378139931511
 40
0.5727377883006799
 40
0.5727377883006799
 40
0.5727377883006799
 40
0.5727377883006799
 10
644.7730145685591
 20
29.78563953637396
 30
0.0
 10
644.686368257998
 20
29.71547116454887
 30
0.0
 10
644.5360958961651
 20
29.59377680858819
 30
0.0
 10
644.4444661518995
 20
29.42435611419019
 30
0.0
 10
644.4056696710593
 20
29.35262256547398
 30
0.0
 11
644.7730145685591
 21
29.78563953637396
 31
0.0
 11
644.5325720748591
 21
29.55926723017399
 31
0.0
 11
644.4056696710593
 21
29.35262256547398
 31
0.0
  0
SPLINE
  5
1EC7
330
21
100
AcDbEntity
  8
0
  6
Continuous
100
AcDbSpline
210
0.0
220
0.0
230
1.0
 70
     8
 71
     3
 72
    22
 73
    18
 74
    16
 42
0.0000000001
 43
0.0000000001
 44
0.0000000001
 40
0.0
 40
0.0
 40
0.0
 40
0.0
 40
0.2153918738509714
 40
0.3239533545580479
 40
0.4317467439977691
 40
0.5402177204122618
 40
0.6506549330701301
 40
0.704383715558904
 40
0.75677251818001
 40
0.8633479617324954
 40
0.9767680546022739
 40
1.091937953780127
 40
1.202810864290477
 40
1.310335424167308
 40
1.41690295517743
 40
1.524802862832381
 40
1.741696880048462
 40
1.741696880048462
 40
1.741696880048462
 40
1.741696880048462
 10
645.3196331635592
 20
31.05403798977397
 30
0.0
 10
645.3119422106593
 20
30.98082365532263
 30
0.0
 10
645.3003748755177
 20
30.87070794471948
 30
0.0
 10
645.3603663944557
 20
30.73679442157221
 30
0.0
 10
645.417742682106
 20
30.64533362340094
 30
0.0
 10
645.4777842802034
 20
30.55438134187027
 30
0.0
 10
645.5156799531607
 20
30.47079250946581
 30
0.0
 10
645.5301931866787
 20
30.39964494279693
 30
0.0
 10
645.5286025877268
 20
30.32811332095922
 30
0.0
 10
645.4963513673047
 20
30.24093017452529
 30
0.0
 10
645.4312768332279
 20
30.14947170239563
 30
0.0
 10
645.353008655616
 20
30.06742414164035
 30
0.0
 10
645.2686405263853
 20
29.99467034012165
 30
0.0
 10
645.178053239385
 20
29.93471163196342
 30
0.0
 10
645.0807149028952
 20
29.88838100223236
 30
0.0
 10
644.9427076746601
 20
29.84735252440402
 30
0.0
 10
644.8409603665295
 20
29.81034966345686
 30
0.0
 10
644.7730145685591
 20
29.78563953637396
 30
0.0
 11
645.3196331635592
 21
31.05403798977397
 31
0.0
 11
645.3215731679592
 21
30.83865485277397
 31
0.0
 11
645.3625260271592
 21
30.73811402317398
 31
0.0
 11
645.418006831759
 21
30.64569489567399
 31
0.0
 11
645.4750158385593
 21
30.55341312137398
 31
0.0
 11
645.5182147811591
 21
30.45177538577397
 31
0.0
 11
645.5282563989592
 21
30.39899330567397
 31
0.0
 11
645.5270926480594
 21
30.34661743027397
 31
0.0
 11
645.4932506794592
 21
30.24555781257396
 31
0.0
 11
645.4295676587592
 21
30.15170372187399
 31
0.0
 11
645.3507057243591
 21
30.06776981347397
 31
0.0
 11
645.2663395743593
 21
29.99583126317399
 31
0.0
 11
645.1765152176592
 21
29.93672867507397
 31
0.0
 11
645.0801839339592
 21
29.89115541047397
 31
0.0
 11
644.9778175787591
 21
29.85704501037398
 31
0.0
 11
644.7730145685591
 21
29.78563953637396
 31
0.0
  0
SPLINE
  5
1EC8
330
21
100
AcDbEntity
  8
0
  6
Continuous
100
AcDbSpline
210
0.0
220
0.0
230
1.0
 70
     8
 71
     3
 72
     9
 73
     5
 74
     3
 42
0.0000000001
 43
0.0000000001
 44
0.0000000001
 40
0.0
 40
0.0
 40
0.0
 40
0.0
 40
0.3347850975809312
 40
0.669966961221325
 40
0.669966961221325
 40
0.669966961221325
 40
0.669966961221325
 10
645.6632488129591
 20
31.61262718067397
 30
0.0
 10
645.5768601621152
 20
31.53752270931526
 30
0.0
 10
645.4039804780789
 20
31.38722475754287
 30
0.0
 10
645.3477600333067
 20
31.16514408570605
 30
0.0
 10
645.3196331635592
 20
31.05403798977397
 30
0.0
 11
645.6632488129591
 21
31.61262718067397
 31
0.0
 11
645.4332131366593
 21
31.36938933577397
 31
0.0
 11
645.3196331635592
 21
31.05403798977397
 31
0.0
  0
SPLINE
  5
1EC9
330
21
100
AcDbEntity
  8
0
  6
Continuous
100
AcDbSpline
210
0.0
220
0.0
230
1.0
 70
     8
 71
     3
 72
    14
 73
    10
 74
     8
 42
0.0000000001
 43
0.0000000001
 44
0.0000000001
 40
0.0
 40
0.0
 40
0.0
 40
0.0
 40
0.4333885284496097
 40
0.6500573050314502
 40
0.8668227705807665
 40
1.084009393198299
 40
1.302012114594521
 40
1.51914632054346
 40
1.734879723193108
 40
1.734879723193108
 40
1.734879723193108
 40
1.734879723193108
 10
647.1510962151592
 20
32.48845183117396
 30
0.0
 10
647.0387112823999
 20
32.39757477300569
 30
0.0
 10
646.8701404926349
 20
32.26126453024641
 30
0.0
 10
646.6320746916802
 20
32.09719369214075
 30
0.0
 10
646.4459217803961
 20
31.98556912362949
 30
0.0
 10
646.2505508952771
 20
31.88966258903622
 30
0.0
 10
646.0487991447592
 20
31.80883038699555
 30
0.0
 10
645.8473915376424
 20
31.72665434958821
 30
0.0
 10
645.7244971549754
 20
31.65055414766564
 30
0.0
 10
645.6632488129591
 20
31.61262718067397
 30
0.0
 11
647.1510962151592
 21
32.48845183117396
 31
0.0
 11
646.8095134497592
 21
32.22171819817399
 31
0.0
 11
646.6308584990592
 21
32.09913040377398
 31
0.0
 11
646.4445747334592
 21
31.98828986187397
 31
0.0
 11
646.2497535751593
 21
31.89229639687397
 31
0.0
 11
646.0485128571592
 21
31.80846704667397
 31
0.0
 11
645.8497394061591
 21
31.72108067147397
 31
0.0
 11
645.6632488129591
 21
31.61262718067397
 31
0.0
  0
SPLINE
  5
1ECA
330
21
100
AcDbEntity
  8
0
  6
Continuous
100
AcDbSpline
210
0.0
220
0.0
230
1.0
 70
     8
 71
     3
 72
    11
 73
     7
 74
     5
 42
0.0000000001
 43
0.0000000001
 44
0.0000000001
 40
0.0
 40
0.0
 40
0.0
 40
0.0
 40
0.173034142664839
 40
0.3460203246684203
 40
0.5221181369499177
 40
0.6980545871972301
 40
0.6980545871972301
 40
0.6980545871972301
 40
0.6980545871972301
 10
647.5212137843591
 20
33.05537585387398
 30
0.0
 10
647.5135104456451
 20
32.99760182264271
 30
0.0
 10
647.4981059033862
 20
32.88206977367146
 30
0.0
 10
647.4043834860709
 20
32.73079962004211
 30
0.0
 10
647.2863025165634
 20
32.60149027051475
 30
0.0
 10
647.1961512080678
 20
32.52611979509291
 30
0.0
 10
647.1510962151592
 20
32.48845183117396
 30
0.0
 11
647.5212137843591
 21
33.05537585387398
 31
0.0
 11
647.4864236380593
 21
32.88587523367397
 31
0.0
 11
647.4010499837593
 21
32.73542405117396
 31
0.0
 11
647.2835196571593
 21
32.60428648287399
 31
0.0
 11
647.1510962151592
 21
32.48845183117396
 31
0.0
  0
SPLINE
  5
1ECB
330
21
100
AcDbEntity
  8
0
  6
Continuous
100
AcDbSpline
210
0.0
220
0.0
230
1.0
 70
     8
 71
     3
 72
     9
 73
     5
 74
     3
 42
0.0000000001
 43
0.0000000001
 44
0.0000000001
 40
0.0
 40
0.0
 40
0.0
 40
0.0
 40
0.3455620670886889
 40
0.6911347874307339
 40
0.6911347874307339
 40
0.6911347874307339
 40
0.6911347874307339
 10
647.3945560205593
 20
33.73426205457398
 30
0.0
 10
647.422344450318
 20
33.6223622075896
 30
0.0
 10
647.4779221665177
 20
33.3985590638862
 30
0.0
 10
647.5067830967898
 20
33.16977143273347
 30
0.0
 10
647.5212137843591
 20
33.05537585387398
 30
0.0
 11
647.3945560205593
 21
33.73426205457398
 31
0.0
 11
647.4712423192593
 21
33.39731643017399
 31
0.0
 11
647.5212137843591
 21
33.05537585387398
 31
0.0
  0
SPLINE
  5
1ECC
330
21
100
AcDbEntity
  8
0
  6
Continuous
100
AcDbSpline
210
0.0
220
0.0
230
1.0
 70
    24
 71
     3
 72
     8
 73
     4
 74
     2
 42
0.0000000001
 43
0.0000000001
 44
0.0000000001
 40
0.0
 40
0.0
 40
0.0
 40
0.0
 40
1.041039879911881
 40
1.041039879911881
 40
1.041039879911881
 40
1.041039879911881
 10
647.2448282401592
 20
34.76447835387399
 30
0.0
 10
647.2947375002926
 20
34.42107292077399
 30
0.0
 10
647.344646760426
 20
34.07766748767399
 30
0.0
 10
647.3945560205593
 20
33.73426205457398
 30
0.0
 11
647.2448282401592
 21
34.76447835387399
 31
0.0
 11
647.3945560205593
 21
33.73426205457398
 31
0.0
  0
SPLINE
  5
1ECD
330
21
100
AcDbEntity
  8
0
  6
Continuous
100
AcDbSpline
210
0.0
220
0.0
230
1.0
 70
     8
 71
     3
 72
    10
 73
     6
 74
     4
 42
0.0000000001
 43
0.0000000001
 44
0.0000000001
 40
0.0
 40
0.0
 40
0.0
 40
0.0
 40
0.0910986346214572
 40
0.4382162938385408
 40
0.7867737451441659
 40
0.7867737451441659
 40
0.7867737451441659
 40
0.7867737451441659
 10
647.2367784746593
 20
35.54534288507398
 30
0.0
 10
647.2295789707561
 20
35.51583004729153
 30
0.0
 10
647.1949468389888
 20
35.37386297558484
 30
0.0
 10
647.1867102044741
 20
35.10777805575243
 30
0.0
 10
647.2254288504698
 20
34.87906936884025
 30
0.0
 10
647.2448282401592
 20
34.76447835387399
 30
0.0
 11
647.2367784746593
 21
35.54534288507398
 31
0.0
 11
647.2164783724593
 21
35.45653485007398
 31
0.0
 11
647.1981781186591
 21
35.10989992677398
 31
0.0
 11
647.2448282401592
 21
34.76447835387399
 31
0.0
  0
SPLINE
  5
1ECE
330
21
100
AcDbEntity
  8
0
  6
Continuous
100
AcDbSpline
210
0.0
220
0.0
230
1.0
 70
     8
 71
     3
 72
    14
 73
    10
 74
     8
 42
0.0000000001
 43
0.0000000001
 44
0.0000000001
 40
0.0
 40
0.0
 40
0.0
 40
0.0
 40
0.4248448291090033
 40
0.6383067239902531
 40
0.8543818511156198
 40
1.066982497219667
 40
1.282086364058992
 40
1.506323809198574
 40
1.636279715358514
 40
1.636279715358514
 40
1.636279715358514
 40
1.636279715358514
 10
648.5225962295592
 20
35.72107006147397
 30
0.0
 10
648.4161661513845
 20
35.8177408260737
 30
0.0
 10
648.2562606285226
 20
35.96298350017356
 30
0.0
 10
647.9814499901909
 20
36.05321748368392
 30
0.0
 10
647.7660105842213
 20
36.07003287726653
 30
0.0
 10
647.5518014580259
 20
36.01325749570917
 30
0.0
 10
647.3860493401853
 20
35.86368177778327
 30
0.0
 10
647.2871556608387
 20
35.69888160691353
 30
0.0
 10
647.2503007775006
 20
35.58655592716765
 30
0.0
 10
647.2367784746593
 20
35.54534288507398
 30
0.0
 11
648.5225962295592
 21
35.72107006147397
 31
0.0
 11
648.1831917227592
 21
35.97660422667397
 31
0.0
 11
647.9808207761591
 21
36.04451579077397
 31
0.0
 11
647.7651462177591
 21
36.05766666227399
 31
0.0
 11
647.5609293739592
 21
35.99855223567397
 31
0.0
 11
647.3968527836591
 21
35.85945318447398
 31
0.0
 11
647.2806668350592
 21
35.66766356757398
 31
0.0
 11
647.2367784746593
 21
35.54534288507398
 31
0.0
  0
SPLINE
  5
1ECF
330
21
100
AcDbEntity
  8
0
  6
Continuous
100
AcDbSpline
210
0.0
220
0.0
230
1.0
 70
     8
 71
     3
 72
     9
 73
     5
 74
     3
 42
0.0000000001
 43
0.0000000001
 44
0.0000000001
 40
0.0
 40
0.0
 40
0.0
 40
0.0
 40
0.1321464198428709
 40
0.6549073437822899
 40
0.6549073437822899
 40
0.6549073437822899
 40
0.6549073437822899
 10
648.9738192771592
 20
35.25014124857398
 30
0.0
 10
648.9374419824427
 20
35.2752010571988
 30
0.0
 10
648.7571589487809
 20
35.39939551302808
 30
0.0
 10
648.6267174215645
 20
35.57828037378145
 30
0.0
 10
648.5225962295592
 20
35.72107006147397
 30
0.0
 11
648.9738192771592
 21
35.25014124857398
 31
0.0
 11
648.8667166742594
 21
35.32754737707398
 31
0.0
 11
648.5225962295592
 21
35.72107006147397
 31
0.0
  0
SPLINE
  5
1ED0
330
21
100
AcDbEntity
  8
0
  6
Continuous
100
AcDbSpline
210
0.0
220
0.0
230
1.0
 70
     8
 71
     3
 72
    18
 73
    14
 74
    12
 42
0.0000000001
 43
0.0000000001
 44
0.0000000001
 40
0.0
 40
0.0
 40
0.0
 40
0.0
 40
0.1276090458502878
 40
0.2552169562649357
 40
0.3173865857660844
 40
0.3793003665859144
 40
0.4419402743380987
 40
0.5050211279758814
 40
0.6296913557836088
 40
0.7540030503564017
 40
0.8802884847455494
 40
1.006077213071278
 40
1.048303833130831
 40
1.048303833130831
 40
1.048303833130831
 40
1.048303833130831
 10
649.5544991480592
 20
35.69295485377399
 30
0.0
 10
649.57109589161
 20
35.65361396267721
 30
0.0
 10
649.6042892310376
 20
35.57493253052978
 30
0.0
 10
649.6129231614186
 20
35.46692864450247
 30
0.0
 10
649.5966393851825
 20
35.38405597553447
 30
0.0
 10
649.5699524796596
 20
35.32714411421122
 30
0.0
 10
649.5316839330108
 20
35.27716297379346
 30
0.0
 10
649.469592490165
 20
35.22090799566106
 30
0.0
 10
649.3758252526375
 20
35.17100431428874
 30
0.0
 10
649.2495848093919
 20
35.15319496616217
 30
0.0
 10
649.124555676425
 20
35.17461908366019
 30
0.0
 10
649.0330608646929
 20
35.21266238689681
 30
0.0
 10
648.9857178149582
 20
35.24261370464917
 30
0.0
 10
648.9738192771592
 20
35.25014124857398
 30
0.0
 11
649.5544991480592
 21
35.69295485377399
 31
0.0
 11
649.5977266648592
 21
35.57289049447397
 31
0.0
 11
649.6068178005592
 21
35.44560683467398
 31
0.0
 11
649.5941862158592
 21
35.38473396797397
 31
0.0
 11
649.5681779629592
 21
35.32854778607398
 31
0.0
 11
649.5303998284591
 21
35.27858209187397
 31
0.0
 11
649.4837526627593
 21
35.23611756517397
 31
0.0
 11
649.3734748595593
 21
35.17796714107396
 31
0.0
 11
649.2505088832593
 21
35.15972526397397
 31
0.0
 11
649.1257379283593
 21
35.17922448837396
 31
0.0
 11
649.0098238316593
 21
35.22807862187398
 31
0.0
 11
648.9738192771592
 21
35.25014124857398
 31
0.0
  0
SPLINE
  5
1ED1
330
21
100
AcDbEntity
  8
0
  6
Continuous
100
AcDbSpline
210
0.0
220
0.0
230
1.0
 70
     8
 71
     3
 72
     9
 73
     5
 74
     3
 42
0.0000000001
 43
0.0000000001
 44
0.0000000001
 40
0.0
 40
0.0
 40
0.0
 40
0.0
 40
0.0514426676927468
 40
0.0528141354028275
 40
0.0528141354028275
 40
0.0528141354028275
 40
0.0528141354028275
 10
646.4156397200593
 20
26.79366121187397
 30
0.0
 10
646.4244198704062
 20
26.80839046232879
 30
0.0
 10
646.4334341006179
 20
26.82351239637291
 30
0.0
 10
646.4423603964581
 20
26.83868629439374
 30
0.0
 10
646.4425921928591
 20
26.83908032737398
 30
0.0
 11
646.4156397200593
 21
26.79366121187397
 31
0.0
 11
646.4418967443592
 21
26.83789826347399
 31
0.0
 11
646.4425921928591
 21
26.83908032737398
 31
0.0
  0
SPLINE
  5
1ED2
330
21
100
AcDbEntity
  8
0
  6
Continuous
100
AcDbSpline
210
0.0
220
0.0
230
1.0
 70
     8
 71
     3
 72
    10
 73
     6
 74
     4
 42
0.0000000001
 43
0.0000000001
 44
0.0000000001
 40
0.0
 40
0.0
 40
0.0
 40
0.0
 40
1.241134952899392
 40
2.091691992358158
 40
2.469969364870477
 40
2.469969364870477
 40
2.469969364870477
 40
2.469969364870477
 10
646.3545133314592
 20
24.40711158297399
 30
0.0
 10
646.2332426536194
 20
24.8059786338623
 30
0.0
 10
646.028864471253
 20
25.47819160668172
 30
0.0
 10
646.1428983165389
 20
26.33050808670051
 30
0.0
 10
646.3514368007068
 20
26.68464957322274
 30
0.0
 10
646.4156320975591
 20
26.79366646737398
 30
0.0
 11
646.3545133314592
 21
24.40711158297399
 31
0.0
 11
646.0966592445593
 21
25.62116563497398
 31
0.0
 11
646.2374315932593
 21
26.45999244857399
 31
0.0
 11
646.4156320975591
 21
26.79366646737398
 31
0.0
  0
SPLINE
  5
1ED3
330
21
100
AcDbEntity
  8
0
  6
Continuous
100
AcDbSpline
210
0.0
220
0.0
230
1.0
 70
     8
 71
     3
 72
    23
 73
    19
 74
    17
 42
0.0000000001
 43
0.0000000001
 44
0.0000000001
 40
0.0
 40
0.0
 40
0.0
 40
0.0
 40
0.134645974181377
 40
0.2682873104624056
 40
0.3331705722767689
 40
0.3981845216469765
 40
0.4642935308760092
 40
0.5307761020487245
 40
0.6619731585305996
 40
0.7924659011189416
 40
1.053725381865513
 40
1.183927333481512
 40
1.314613738523063
 40
1.44542350478185
 40
1.57619041899867
 40
1.706591128346941
 40
1.837071906262091
 40
2.098764468557943
 40
2.098764468557943
 40
2.098764468557943
 40
2.098764468557943
 10
646.7304094044594
 20
22.70403691307397
 30
0.0
 10
646.6861123247154
 20
22.69649552657906
 30
0.0
 10
646.5978486803095
 20
22.68146902235434
 30
0.0
 10
646.4850646575054
 20
22.68925472452973
 30
0.0
 10
646.401703712621
 20
22.71903695274551
 30
0.0
 10
646.3468935575863
 20
22.75579918337288
 30
0.0
 10
646.3012721267714
 20
22.80393598399412
 30
0.0
 10
646.2536813569097
 20
22.87841291209914
 30
0.0
 10
646.2211964582237
 20
22.985336453199
 30
0.0
 10
646.2238736043789
 20
23.16169199084829
 30
0.0
 10
646.2793835156413
 20
23.32829697230274
 30
0.0
 10
646.3069859560158
 20
23.50029535162711
 30
0.0
 10
646.3209478945943
 20
23.63011007377541
 30
0.0
 10
646.3386463212253
 20
23.75971907071994
 30
0.0
 10
646.3636298077174
 20
23.88799543458649
 30
0.0
 10
646.3843502812856
 20
24.01691618800799
 30
0.0
 10
646.3938041608452
 20
24.19166529136312
 30
0.0
 10
646.3702384484554
 20
24.32088489356775
 30
0.0
 10
646.3545133314592
 20
24.40711158297399
 30
0.0
 11
646.7304094044594
 21
22.70403691307397
 31
0.0
 11
646.5968743031591
 21
22.68677669627397
 31
0.0
 11
646.4637863476592
 21
22.69892588817399
 31
0.0
 11
646.4029337892594
 21
22.72143819147396
 31
0.0
 11
646.3487716915593
 21
22.75740040477399
 31
0.0
 11
646.3030215602591
 21
22.80512174787398
 31
0.0
 11
646.2671772512592
 21
22.86111387037397
 31
0.0
 11
646.2279743619592
 21
22.98631690987398
 31
0.0
 11
646.2276043841594
 21
23.11680912797397
 31
0.0
 11
646.2839953522594
 21
23.37191023537398
 31
0.0
 11
646.3058414783593
 21
23.50026636097397
 31
0.0
 11
646.3215622751593
 21
23.63000376117398
 31
0.0
 11
646.3398661814592
 21
23.75952658527399
 31
0.0
 11
646.3629439705592
 21
23.88824100367398
 31
0.0
 11
646.3820768033592
 21
24.01723045947398
 31
0.0
 11
646.3880363748592
 21
24.14757506777397
 31
0.0
 11
646.3545133314592
 21
24.40711158297399
 31
0.0
  0
SPLINE
  5
1ED4
330
21
100
AcDbEntity
  8
0
  6
Continuous
100
AcDbSpline
210
0.0
220
0.0
230
1.0
 70
     8
 71
     3
 72
     9
 73
     5
 74
     3
 42
0.0000000001
 43
0.0000000001
 44
0.0000000001
 40
0.0
 40
0.0
 40
0.0
 40
0.0
 40
0.3454712489188069
 40
0.690960099689877
 40
0.690960099689877
 40
0.690960099689877
 40
0.690960099689877
 10
647.4150301101593
 20
22.76494586317398
 30
0.0
 10
647.2993614534519
 20
22.77242084402037
 30
0.0
 10
647.0680182466883
 20
22.78737118656541
 30
0.0
 10
646.8429475963886
 20
22.73181547598881
 30
0.0
 10
646.7304094044594
 20
22.70403691307397
 30
0.0
 11
647.4150301101593
 21
22.76494586317398
 31
0.0
 11
647.0695921992592
 21
22.76974519047397
 31
0.0
 11
646.7304094044594
 21
22.70403691307397
 31
0.0
  0
SPLINE
  5
1ED5
330
21
100
AcDbEntity
  8
0
  6
Continuous
100
AcDbSpline
210
0.0
220
0.0
230
1.0
 70
     8
 71
     3
 72
     9
 73
     5
 74
     3
 42
0.0000000001
 43
0.0000000001
 44
0.0000000001
 40
0.0
 40
0.0
 40
0.0
 40
0.0
 40
0.3470043748936548
 40
0.6940049083426264
 40
0.6940049083426264
 40
0.6940049083426264
 40
0.6940049083426264
 10
648.0986535106592
 20
22.64635453877398
 30
0.0
 10
647.9853748024316
 20
22.66991959622674
 30
0.0
 10
647.7588186400064
 20
22.71704945025986
 30
0.0
 10
647.5296258639003
 20
22.74898045111726
 30
0.0
 10
647.4150301101593
 20
22.76494586317398
 30
0.0
 11
648.0986535106592
 21
22.64635453877398
 31
0.0
 11
647.7581582252591
 21
22.71324995577399
 31
0.0
 11
647.4150301101593
 21
22.76494586317398
 31
0.0
  0
SPLINE
  5
1ED6
330
21
100
AcDbEntity
  8
0
  6
Continuous
100
AcDbSpline
210
0.0
220
0.0
230
1.0
 70
     8
 71
     3
 72
     9
 73
     5
 74
     3
 42
0.0000000001
 43
0.0000000001
 44
0.0000000001
 40
0.0
 40
0.0
 40
0.0
 40
0.0
 40
0.1734679221870518
 40
0.3469771970178059
 40
0.3469771970178059
 40
0.3469771970178059
 40
0.3469771970178059
 10
648.4403478808592
 20
22.58647222637399
 30
0.0
 10
648.3830937187022
 20
22.59467173479988
 30
0.0
 10
648.2685717456918
 20
22.6110727063148
 30
0.0
 10
648.1552974223373
 20
22.63459299357387
 30
0.0
 10
648.0986535106592
 20
22.64635453877398
 30
0.0
 11
648.4403478808592
 21
22.58647222637399
 31
0.0
 11
648.2688972324592
 21
22.61285015637398
 31
0.0
 11
648.0986535106592
 21
22.64635453877398
 31
0.0
  0
SPLINE
  5
1ED7
330
21
100
AcDbEntity
  8
0
  6
Continuous
100
AcDbSpline
210
0.0
220
0.0
230
1.0
 70
     8
 71
     3
 72
    13
 73
     9
 74
     7
 42
0.0000000001
 43
0.0000000001
 44
0.0000000001
 40
0.0
 40
0.0
 40
0.0
 40
0.0
 40
0.0389548944103677
 40
0.0836071560587725
 40
0.1326169816673478
 40
0.1786631375871121
 40
0.2617600168905397
 40
0.342932903544222
 40
0.342932903544222
 40
0.342932903544222
 40
0.342932903544222
 10
648.7613921664593
 20
22.63704146787398
 30
0.0
 10
648.7551100169623
 20
22.62512998524245
 30
0.0
 10
648.7416269191039
 20
22.59956490022963
 30
0.0
 10
648.6964251129971
 20
22.58575080146117
 30
0.0
 10
648.6512118166155
 20
22.57839549145519
 30
0.0
 10
648.5916942712888
 20
22.57383634041676
 30
0.0
 10
648.5215271733042
 20
22.57594895905673
 30
0.0
 10
648.4671955270781
 20
22.5829919674374
 30
0.0
 10
648.4403478808592
 20
22.58647222637399
 30
0.0
 11
648.7613921664593
 21
22.63704146787398
 31
0.0
 11
648.7392863562592
 21
22.60496629127397
 31
0.0
 11
648.6982768977593
 21
22.58730138867398
 31
0.0
 11
648.6499885131593
 21
22.57892314787398
 31
0.0
 11
648.6040796833592
 21
22.57536958327398
 31
0.0
 11
648.5210063657592
 21
22.57734828307397
 31
0.0
 11
648.4403478808592
 21
22.58647222637399
 31
0.0
  0
SPLINE
  5
1ED8
330
21
100
AcDbEntity
  8
0
  6
Continuous
100
AcDbSpline
210
0.0
220
0.0
230
1.0
 70
     8
 71
     3
 72
    13
 73
     9
 74
     7
 42
0.0000000001
 43
0.0000000001
 44
0.0000000001
 40
0.0
 40
0.0
 40
0.0
 40
0.0
 40
0.0710365866963214
 40
0.143432520904242
 40
0.1821725801405396
 40
0.22203121787393
 40
0.2594055417620599
 40
0.2942661849609936
 40
0.2942661849609936
 40
0.2942661849609936
 40
0.2942661849609936
 10
648.5951501848592
 20
22.86486704717399
 30
0.0
 10
648.614064566728
 20
22.85057686562199
 30
0.0
 10
648.652255273784
 20
22.82172304733614
 30
0.0
 10
648.6950581143831
 20
22.77839431712524
 30
0.0
 10
648.7272692047549
 20
22.73955812880844
 30
0.0
 10
648.7492415194056
 20
22.70807524952436
 30
0.0
 10
648.7662338683804
 20
22.67315197556514
 30
0.0
 10
648.7629681866406
 20
22.64879578274265
 30
0.0
 10
648.7613921664593
 20
22.63704146787398
 30
0.0
 11
648.5951501848592
 21
22.86486704717399
 31
0.0
 11
648.6507919718592
 21
22.82070611207396
 31
0.0
 11
648.7019456745592
 21
22.76947653087399
 31
0.0
 11
648.7265748863592
 21
22.73957345217397
 31
0.0
 11
648.7489332016592
 21
22.70657622897397
 31
0.0
 11
648.7628093114593
 21
22.67187329447398
 31
0.0
 11
648.7613921664593
 21
22.63704146787398
 31
0.0
  0
SPLINE
  5
1ED9
330
21
100
AcDbEntity
  8
0
  6
Continuous
100
AcDbSpline
210
0.0
220
0.0
230
1.0
 70
     8
 71
     3
 72
    10
 73
     6
 74
     4
 42
0.0000000001
 43
0.0000000001
 44
0.0000000001
 40
0.0
 40
0.0
 40
0.0
 40
0.0
 40
0.0825692431352607
 40
0.1700593304851638
 40
0.3447456990620718
 40
0.3447456990620718
 40
0.3447456990620718
 40
0.3447456990620718
 10
648.2798097156591
 20
22.99753763497398
 30
0.0
 10
648.3067932759418
 20
22.99206989213285
 30
0.0
 10
648.3623685243221
 20
22.98080854769612
 30
0.0
 10
648.4716561720525
 20
22.94328286218986
 30
0.0
 10
648.5457691905788
 20
22.89622282568337
 30
0.0
 10
648.5951501848592
 20
22.86486704717399
 30
0.0
 11
648.2798097156591
 21
22.99753763497398
 31
0.0
 11
648.3603679268592
 21
22.97942535957398
 31
0.0
 11
648.4430119505591
 21
22.95071158707398
 31
0.0
 11
648.5951501848592
 21
22.86486704717399
 31
0.0
  0
SPLINE
  5
1EDA
330
21
100
AcDbEntity
  8
0
  6
Continuous
100
AcDbSpline
210
0.0
220
0.0
230
1.0
 70
     8
 71
     3
 72
    22
 73
    18
 74
    16
 42
0.0000000001
 43
0.0000000001
 44
0.0000000001
 40
0.0
 40
0.0
 40
0.0
 40
0.0
 40
0.2585020564637212
 40
0.3885099966170043
 40
0.5191818113230415
 40
0.6487507250099324
 40
0.7778859500823634
 40
0.9082386181219077
 40
1.038781548716794
 40
1.168301512178264
 40
1.297843023218124
 40
1.427730638275268
 40
1.557542359685961
 40
1.686937011251772
 40
1.816156105523344
 40
2.075088664671491
 40
2.079557975984035
 40
2.079557975984035
 40
2.079557975984035
 40
2.079557975984035
 10
647.2172850164593
 20
24.44842641867399
 30
0.0
 10
647.1989465567848
 20
24.36414365625141
 30
0.0
 10
647.1713851709935
 20
24.23747272685299
 30
0.0
 10
647.1539409888176
 20
24.06504122512747
 30
0.0
 10
647.1533908483423
 20
23.93470330308974
 30
0.0
 10
647.1717648199731
 20
23.80545845248127
 30
0.0
 10
647.2170912819593
 20
23.68287737964737
 30
0.0
 10
647.2853942850895
 20
23.57150385106866
 30
0.0
 10
647.3695690441846
 20
23.47172643160526
 30
0.0
 10
647.4653827298906
 20
23.38365196036054
 30
0.0
 10
647.5688754590674
 20
23.305359915242
 30
0.0
 10
647.6767807468061
 20
23.23323754479819
 30
0.0
 10
647.7877877863709
 20
23.16604400877896
 30
0.0
 10
647.9031684725486
 20
23.10694248977666
 30
0.0
 10
648.0638326759062
 20
23.04333155363777
 30
0.0
 10
648.191930908004
 20
23.01334064877392
 30
0.0
 10
648.2783434969097
 20
22.99780130121789
 30
0.0
 10
648.2798097156591
 20
22.99753763497398
 30
0.0
 11
647.2172850164593
 21
24.44842641867399
 31
0.0
 11
647.1686924020592
 21
24.19453260027399
 31
0.0
 11
647.1560504209592
 21
24.06514077357397
 31
0.0
 11
647.1565779426591
 21
23.93447002367398
 31
0.0
 11
647.1762833604591
 21
23.80640832017397
 31
0.0
 11
647.2207165518591
 21
23.68515817437398
 31
0.0
 11
647.2879974395592
 21
23.57351096117398
 31
0.0
 11
647.3717765840592
 21
23.47339846607397
 31
0.0
 11
647.4666827150592
 21
23.38526080537397
 31
0.0
 11
647.5695037481592
 21
23.30646462377396
 31
0.0
 11
647.6773264490591
 21
23.23404185307396
 31
0.0
 11
647.7886707083591
 21
23.16730701257398
 31
0.0
 11
647.9040873305592
 21
23.10880932737396
 31
0.0
 11
648.0242461217592
 21
23.06127576847396
 31
0.0
 11
648.2754111958593
 21
22.99832995257398
 31
0.0
 11
648.2798097156591
 21
22.99753763497398
 31
0.0
  0
SPLINE
  5
1EDB
330
21
100
AcDbEntity
  8
0
  6
Continuous
100
AcDbSpline
210
0.0
220
0.0
230
1.0
 70
     8
 71
     3
 72
    17
 73
    13
 74
    11
 42
0.0000000001
 43
0.0000000001
 44
0.0000000001
 40
0.0
 40
0.0
 40
0.0
 40
0.0
 40
0.4489361004716516
 40
0.6737886890587018
 40
0.8984770302236428
 40
1.124019338319887
 40
1.239994698740307
 40
1.353698208754671
 40
1.464443142463141
 40
1.576876643194939
 40
1.69243794526472
 40
1.807171317117272
 40
1.807171317117272
 40
1.807171317117272
 40
1.807171317117272
 10
644.5110884836593
 20
24.07625557397398
 30
0.0
 10
644.5519128238082
 20
23.93148317458239
 30
0.0
 10
644.6131843023143
 20
23.71420057000803
 30
0.0
 10
644.6222210587935
 20
23.41325970054128
 30
0.0
 10
644.6014216464192
 20
23.18896670688499
 30
0.0
 10
644.5649305568304
 20
23.00315574678916
 30
0.0
 10
644.5164915695154
 20
22.85901846944393
 30
0.0
 10
644.463827599137
 20
22.75770663502672
 30
0.0
 10
644.387722673388
 20
22.67270035557113
 30
0.0
 10
644.2882085003058
 20
22.61636267209223
 30
0.0
 10
644.1785375714827
 20
22.58167471150289
 30
0.0
 10
644.102062757906
 20
22.57346264611058
 30
0.0
 10
644.0639628180592
 20
22.56937137497397
 30
0.0
 11
644.5110884836593
 21
24.07625557397398
 31
0.0
 11
644.6093693163593
 21
23.63820934327399
 31
0.0
 11
644.6176263936592
 21
23.41350841477399
 31
0.0
 11
644.5976760596593
 21
23.18970753267397
 31
0.0
 11
644.5516192887591
 21
22.96891779877399
 31
0.0
 11
644.5134216926592
 21
22.85941333367398
 31
0.0
 11
644.459268207759
 21
22.75943389447397
 31
0.0
 11
644.3843745573593
 21
22.67785337307399
 31
0.0
 11
644.2876738056593
 21
22.62049261377396
 31
0.0
 11
644.1775721491592
 21
22.58539218967397
 31
0.0
 11
644.0639628180592
 21
22.56937137497397
 31
0.0
  0
SPLINE
  5
1EDC
330
21
100
AcDbEntity
  8
0
  6
Continuous
100
AcDbSpline
210
0.0
220
0.0
230
1.0
 70
    24
 71
     3
 72
     8
 73
     4
 74
     2
 42
0.0000000001
 43
0.0000000001
 44
0.0000000001
 40
0.0
 40
0.0
 40
0.0
 40
0.0
 40
0.7218640601074151
 40
0.7218640601074151
 40
0.7218640601074151
 40
0.7218640601074151
 10
644.3753963077592
 20
24.78525159277399
 30
0.0
 10
644.4206270330592
 20
24.54891958650732
 30
0.0
 10
644.4658577583592
 20
24.31258758024065
 30
0.0
 10
644.5110884836593
 20
24.07625557397398
 30
0.0
 11
644.3753963077592
 21
24.78525159277399
 31
0.0
 11
644.5110884836593
 21
24.07625557397398
 31
0.0
  0
SPLINE
  5
1EDD
330
21
100
AcDbEntity
  8
0
  6
Continuous
100
AcDbSpline
210
0.0
220
0.0
230
1.0
 70
    24
 71
     3
 72
     8
 73
     4
 74
     2
 42
0.0000000001
 43
0.0000000001
 44
0.0000000001
 40
0.0
 40
0.0
 40
0.0
 40
0.0
 40
0.908024258011972
 40
0.908024258011972
 40
0.908024258011972
 40
0.908024258011972
 10
644.1222083765592
 20
25.65726301737397
 30
0.0
 10
644.2066043536258
 20
25.36659254250731
 30
0.0
 10
644.2910003306924
 20
25.07592206764065
 30
0.0
 10
644.3753963077592
 20
24.78525159277399
 30
0.0
 11
644.1222083765592
 21
25.65726301737397
 31
0.0
 11
644.3753963077592
 21
24.78525159277399
 31
0.0
  0
SPLINE
  5
1EDE
330
21
100
AcDbEntity
  8
0
  6
Continuous
100
AcDbSpline
210
0.0
220
0.0
230
1.0
 70
     8
 71
     3
 72
    26
 73
    22
 74
    20
 42
0.0000000001
 43
0.0000000001
 44
0.0000000001
 40
0.0
 40
0.0
 40
0.0
 40
0.0
 40
0.0834265133834607
 40
0.2973789766260961
 40
0.5113052067433559
 40
0.6184395639250953
 40
0.7256158298837219
 40
0.9400775914437785
 40
1.154081836688925
 40
1.368173141754163
 40
1.580634000035178
 40
1.798415460255843
 40
1.908191547515788
 40
2.014850754709429
 40
2.120608827526161
 40
2.228399685478606
 40
2.335623614146416
 40
2.442933988581738
 40
2.658127183256447
 40
2.87288421742449
 40
3.086969213253697
 40
3.086969213253697
 40
3.086969213253697
 40
3.086969213253697
 10
646.1550714048591
 20
27.16419173837397
 30
0.0
 10
646.1277865523746
 20
27.15882181068237
 30
0.0
 10
646.0305280049392
 20
27.13968037066864
 30
0.0
 10
645.8685688590408
 20
27.08081962057185
 30
0.0
 10
645.7181098855006
 20
26.98436970830302
 30
0.0
 10
645.5945208299329
 20
26.91283693881913
 30
0.0
 10
645.4649720545561
 20
26.85208497443908
 30
0.0
 10
645.295730838384
 20
26.79345724463508
 30
0.0
 10
645.0863574416012
 20
26.74725559401831
 30
0.0
 10
644.8753393193756
 20
26.71348172527527
 30
0.0
 10
644.6610886311281
 20
26.69696153067245
 30
0.0
 10
644.4812461743804
 20
26.68752911374981
 30
0.0
 10
644.3377934229042
 20
26.66684392917573
 30
0.0
 10
644.2344685764851
 20
26.63413468427165
 30
0.0
 10
644.1447054262683
 20
26.57327040709352
 30
0.0
 10
644.0770934153093
 20
26.48859496646251
 30
0.0
 10
644.0327292354759
 20
26.38978494801498
 30
0.0
 10
643.999867771662
 20
26.24975873069566
 30
0.0
 10
643.9983000373186
 20
26.0682811609395
 30
0.0
 10
644.046628196433
 20
25.857895406517
 30
0.0
 10
644.0970413173175
 20
25.72407057479104
 30
0.0
 10
644.1222083765592
 20
25.65726301737397
 30
0.0
 11
646.1550714048591
 21
27.16419173837397
 31
0.0
 11
646.0734578247593
 21
27.14689414667399
 31
0.0
 11
645.8723618015592
 21
27.07384590247398
 31
0.0
 11
645.6870261266593
 21
26.96700433967397
 31
0.0
 11
645.5938078185592
 21
26.91420171167397
 31
0.0
 11
645.4968935865593
 21
26.86843727547398
 31
0.0
 11
645.2945252246593
 21
26.79743802707398
 31
0.0
 11
645.0860022326592
 21
26.74931340977398
 31
0.0
 11
644.8744706255593
 21
26.71630634837396
 31
0.0
 11
644.6628037702591
 21
26.69795536287399
 31
0.0
 11
644.4456621214592
 21
26.68127397287398
 31
0.0
 11
644.3373026217591
 21
26.66369534497397
 31
0.0
 11
644.2363413459593
 21
26.62930047227397
 31
0.0
 11
644.1489179502592
 21
26.56978644157397
 31
0.0
 11
644.0809262510592
 21
26.48614435947397
 31
0.0
 11
644.0360191219593
 21
26.38877742137399
 31
0.0
 11
644.0107439321591
 21
26.28448609267397
 31
0.0
 11
644.0066952500592
 21
26.06933098767397
 31
0.0
 11
644.0512511679592
 21
25.85924682857399
 31
0.0
 11
644.1222083765592
 21
25.65726301737397
 31
0.0
  0
SPLINE
  5
1EDF
330
21
100
AcDbEntity
  8
0
  6
Continuous
100
AcDbSpline
210
0.0
220
0.0
230
1.0
 70
     8
 71
     3
 72
    16
 73
    12
 74
    10
 42
0.0000000001
 43
0.0000000001
 44
0.0000000001
 40
0.0
 40
0.0
 40
0.0
 40
0.0
 40
0.0010781101892894
 40
0.1087272983035393
 40
0.2103612297987233
 40
0.3116529152102441
 40
0.4154828057667095
 40
0.5177288189012987
 40
0.6205723673464566
 40
0.7236242942839514
 40
0.7263127694372256
 40
0.7263127694372256
 40
0.7263127694372256
 40
0.7263127694372256
 10
644.3104360862592
 20
29.18447131747397
 30
0.0
 10
644.3102874224092
 20
29.18414414079043
 30
0.0
 10
644.2952946888984
 20
29.15114840693835
 30
0.0
 10
644.2711566375534
 20
29.08497874941962
 30
0.0
 10
644.263458410114
 20
28.97857293372121
 30
0.0
 10
644.3083102747323
 20
28.88249611891807
 30
0.0
 10
644.3831882520792
 20
28.81011465303232
 30
0.0
 10
644.4779355618707
 20
28.76493710652955
 30
0.0
 10
644.5813803195138
 20
28.75321058991505
 30
0.0
 10
644.65083668648
 20
28.76038043753704
 30
0.0
 10
644.6856010988148
 20
28.76618760738401
 30
0.0
 10
644.6864849923592
 20
28.76633525607397
 30
0.0
 11
644.3104360862592
 21
29.18447131747397
 31
0.0
 11
644.3099903421592
 21
29.18348966897398
 31
0.0
 11
644.2754475720591
 21
29.08153308637398
 31
0.0
 11
644.2721543220591
 21
28.97995252457397
 31
0.0
 11
644.3128108585592
 21
28.88717832787398
 31
0.0
 11
644.3868748520592
 21
28.81441040197399
 31
0.0
 11
644.4792305339593
 21
28.77053928137397
 31
0.0
 11
644.5811708763592
 21
28.75693920607398
 31
0.0
 11
644.6838330233592
 21
28.76589371437399
 31
0.0
 11
644.6864849923592
 21
28.76633525607397
 31
0.0
  0
SPLINE
  5
1EE0
330
21
100
AcDbEntity
  8
0
  6
Continuous
100
AcDbSpline
210
0.0
220
0.0
230
1.0
 70
    24
 71
     3
 72
     8
 73
     4
 74
     2
 42
0.0000000001
 43
0.0000000001
 44
0.0000000001
 40
0.0
 40
0.0
 40
0.0
 40
0.0
 40
0.0254674936593358
 40
0.0254674936593358
 40
0.0254674936593358
 40
0.0254674936593358
 10
644.3213796682591
 20
29.20746706617396
 30
0.0
 10
644.3177317349926
 20
29.1998016570073
 30
0.0
 10
644.3140838017259
 20
29.19213624784063
 30
0.0
 10
644.3104358684593
 20
29.18447083867397
 30
0.0
 11
644.3213796682591
 21
29.20746706617396
 31
0.0
 11
644.3104358684593
 21
29.18447083867397
 31
0.0
  0
SPLINE
  5
1EE1
330
21
100
AcDbEntity
  8
0
  6
Continuous
100
AcDbSpline
210
0.0
220
0.0
230
1.0
 70
    24
 71
     3
 72
     8
 73
     4
 74
     2
 42
0.0000000001
 43
0.0000000001
 44
0.0000000001
 40
0.0
 40
0.0
 40
0.0
 40
0.0
 40
0.0520882845584169
 40
0.0520882845584169
 40
0.0520882845584169
 40
0.0520882845584169
 10
644.3459203177592
 20
29.25341209757397
 30
0.0
 10
644.3377401012592
 20
29.2380970871073
 30
0.0
 10
644.3295598847591
 20
29.22278207664063
 30
0.0
 10
644.3213796682591
 20
29.20746706617396
 30
0.0
 11
644.3459203177592
 21
29.25341209757397
 31
0.0
 11
644.3213796682591
 21
29.20746706617396
 31
0.0
  0
SPLINE
  5
1EE2
330
21
100
AcDbEntity
  8
0
  6
Continuous
100
AcDbSpline
210
0.0
220
0.0
230
1.0
 70
     8
 71
     3
 72
     9
 73
     5
 74
     3
 42
0.0000000001
 43
0.0000000001
 44
0.0000000001
 40
0.0
 40
0.0
 40
0.0
 40
0.0
 40
0.0996486979573866
 40
0.1636240914297544
 40
0.1636240914297544
 40
0.1636240914297544
 40
0.1636240914297544
 10
644.6864835019591
 20
28.76633500557398
 30
0.0
 10
644.7190373337593
 20
28.77293876505237
 30
0.0
 10
644.7724910291919
 20
28.78378219970652
 30
0.0
 10
644.8261003449327
 20
28.79382563665131
 30
0.0
 10
644.8470610545591
 20
28.79775252067398
 30
0.0
 11
644.6864835019591
 21
28.76633500557398
 31
0.0
 11
644.7842027158592
 21
28.78584957037399
 31
0.0
 11
644.8470610545591
 21
28.79775252067398
 31
0.0
  0
SPLINE
  5
1EE3
330
21
100
AcDbEntity
  8
0
  6
Continuous
100
AcDbSpline
210
0.0
220
0.0
230
1.0
 70
     8
 71
     3
 72
    10
 73
     6
 74
     4
 42
0.0000000001
 43
0.0000000001
 44
0.0000000001
 40
0.0
 40
0.0
 40
0.0
 40
0.0
 40
0.1069947516393288
 40
0.2141854776447045
 40
0.3448267871179894
 40
0.3448267871179894
 40
0.3448267871179894
 40
0.3448267871179894
 10
646.4892668670593
 20
27.12456299857397
 30
0.0
 10
646.4576855022484
 20
27.14231689877603
 30
0.0
 10
646.3944649273785
 20
27.17785721768488
 30
0.0
 10
646.2764506489413
 20
27.17913396406339
 30
0.0
 10
646.1981090815243
 20
27.16948997271292
 30
0.0
 10
646.1550760017591
 20
27.16419252127398
 30
0.0
 11
646.4892668670593
 21
27.12456299857397
 31
0.0
 11
646.3920066996593
 21
27.16915376797397
 31
0.0
 11
646.2850969069592
 21
27.17690927997399
 31
0.0
 11
646.1550760017591
 21
27.16419252127398
 31
0.0
  0
SPLINE
  5
1EE4
330
21
100
AcDbEntity
  8
0
  6
Continuous
100
AcDbSpline
210
0.0
220
0.0
230
1.0
 70
     8
 71
     3
 72
    12
 73
     8
 74
     6
 42
0.0000000001
 43
0.0000000001
 44
0.0000000001
 40
0.0
 40
0.0
 40
0.0
 40
0.0
 40
0.0695965024547085
 40
0.1164661546114316
 40
0.1651416858036353
 40
0.2110892290616946
 40
0.2537990207821739
 40
0.2537990207821739
 40
0.2537990207821739
 40
0.2537990207821739
 10
646.4682662432592
 20
26.88514294497398
 30
0.0
 10
646.4783273465237
 20
26.9060845871688
 30
0.0
 10
646.4951640835296
 20
26.94112934447204
 30
0.0
 10
646.5102925995991
 20
26.99439028535538
 30
0.0
 10
646.5171922109207
 20
27.04076211603436
 30
0.0
 10
646.5156284634813
 20
27.08844174460755
 30
0.0
 10
646.497837491392
 20
27.11281933581485
 30
0.0
 10
646.4892668670593
 20
27.12456299857397
 30
0.0
 11
646.4682662432592
 21
26.88514294497398
 31
0.0
 11
646.4962472648592
 21
26.94886684617399
 31
0.0
 11
646.5091420468593
 21
26.99392779257397
 31
0.0
 11
646.5158191254593
 21
27.04214318387398
 31
0.0
 11
646.5110842052593
 21
27.08784610787399
 31
0.0
 11
646.4892668670593
 21
27.12456299857397
 31
0.0
  0
SPLINE
  5
1EE5
330
21
100
AcDbEntity
  8
0
  6
Continuous
100
AcDbSpline
210
0.0
220
0.0
230
1.0
 70
     8
 71
     3
 72
     9
 73
     5
 74
     3
 42
0.0000000001
 43
0.0000000001
 44
0.0000000001
 40
0.0
 40
0.0
 40
0.0
 40
0.0
 40
0.0349854117472091
 40
0.0534367525275042
 40
0.0534367525275042
 40
0.0534367525275042
 40
0.0534367525275042
 10
646.4422386703593
 20
26.83847920707399
 30
0.0
 10
646.4481188318765
 20
26.84855251306031
 30
0.0
 10
646.4571001963977
 20
26.86393849059329
 30
0.0
 10
646.4654002813686
 20
26.87970044961994
 30
0.0
 10
646.4682662432592
 20
26.88514294497398
 30
0.0
 11
646.4422386703593
 21
26.83847920707399
 31
0.0
 11
646.4595871304593
 21
26.86886028617397
 31
0.0
 11
646.4682662432592
 21
26.88514294497398
 31
0.0
  0
ARC
  5
1EE6
330
21
100
AcDbEntity
  8
0
  6
Continuous
100
AcDbCircle
 10
643.7803365446594
 20
29.76758317857397
 30
0.0
 40
10.999690002
100
AcDbArc
 50
270.0
 51
180.0
  0
ARC
  5
1EE7
330
21
100
AcDbEntity
  8
0
  6
Continuous
100
AcDbCircle
 10
643.7803365446594
 20
29.76758317857397
 30
0.0
 40
10.6330336686
100
AcDbArc
 50
270.0
 51
180.0
  0
ARC
  5
1EE8
330
21
100
AcDbEntity
  8
0
  6
Continuous
100
AcDbCircle
 10
643.7803365446594
 20
-10.63241682142603
 30
0.0
 40
6.0
100
AcDbArc
 50
270.0
 51
272.5231079277092
  0
ARC
  5
1EE9
330
21
100
AcDbEntity
  8
0
  6
Continuous
100
AcDbCircle
 10
671.5376958575594
 20
52.767583178574
 30
0.0
 40
3.0
100
AcDbArc
 50
270.0
 51
315.0000000000058
  0
ARC
  5
1EEA
330
21
100
AcDbEntity
  8
0
  6
Continuous
100
AcDbCircle
 10
671.5376958575594
 20
6.767583178573971
 30
0.0
 40
3.0
100
AcDbArc
 50
44.99999999989867
 51
90.0
  0
ARC
  5
1EEB
330
21
100
AcDbEntity
  8
0
  6
Continuous
100
AcDbCircle
 10
616.0229772317593
 20
52.767583178574
 30
0.0
 40
3.0
100
AcDbArc
 50
224.9999999998999
 51
270.0
  0
ARC
  5
1EEC
330
21
100
AcDbEntity
  8
0
  6
Continuous
100
AcDbCircle
 10
659.5442685671591
 20
51.767583178574
 30
0.0
 40
3.0
100
AcDbArc
 50
270.0
 51
301.0027191339022
  0
ARC
  5
1EED
330
21
100
AcDbEntity
  8
0
  6
Continuous
100
AcDbCircle
 10
663.1498198426593
 20
45.76758317857397
 30
0.0
 40
4.0
100
AcDbArc
 50
90.0
 51
121.0027191339013
  0
ARC
  5
1EEE
330
21
100
AcDbEntity
  8
0
  6
Continuous
100
AcDbCircle
 10
628.0164045221592
 20
51.767583178574
 30
0.0
 40
3.0
100
AcDbArc
 50
238.9972808660987
 51
270.0
  0
ARC
  5
1EEF
330
21
100
AcDbEntity
  8
0
  6
Continuous
100
AcDbCircle
 10
624.4108532466591
 20
45.76758317857397
 30
0.0
 40
4.0
100
AcDbArc
 50
58.99728086609864
 51
90.0
  0
ARC
  5
1EF0
330
21
100
AcDbEntity
  8
0
  6
Continuous
100
AcDbCircle
 10
671.7803365446594
 20
2.899633986073979
 30
0.0
 40
3.0
100
AcDbArc
 50
195.3428125054004
 51
240.0000000000002
  0
ARC
  5
1EF1
330
21
100
AcDbEntity
  8
0
  6
Continuous
100
AcDbCircle
 10
665.9941766754591
 20
1.312071713873962
 30
0.0
 40
3.0
100
AcDbArc
 50
15.3428125054004
 51
60.00000000000028
  0
ARC
  5
1EF2
330
21
100
AcDbEntity
  8
0
  6
Continuous
100
AcDbCircle
 10
670.6803365446591
 20
-2.238783409726011
 30
0.0
 40
2.0
100
AcDbArc
 50
0.0
 51
60.00000000000028
  0
ARC
  5
1EF3
330
21
100
AcDbEntity
  8
0
  6
Continuous
100
AcDbCircle
 10
668.9731568676593
 20
-19.83241682142602
 30
0.0
 40
0.4
100
AcDbArc
 50
270.0
 51
299.9999999959988
  0
ARC
  5
1EF4
330
21
100
AcDbEntity
  8
0
  6
Continuous
100
AcDbCircle
 10
689.3803365446593
 20
51.40189775357396
 30
0.0
 40
0.4
100
AcDbArc
 50
0.0
 51
44.99999999330182
  0
ARC
  5
1EF5
330
21
100
AcDbEntity
  8
0
  6
Continuous
100
AcDbCircle
 10
689.3803365446593
 20
8.133268603473965
 30
0.0
 40
0.4
100
AcDbArc
 50
315.0000000050976
 51
0.0
  0
ARC
  5
1EF6
330
21
100
AcDbEntity
  8
0
  6
Continuous
100
AcDbCircle
 10
687.4146511197591
 20
53.36758317857396
 30
0.0
 40
0.4
100
AcDbArc
 50
44.99999999969831
 51
90.0
  0
ARC
  5
1EF7
330
21
100
AcDbEntity
  8
0
  6
Continuous
100
AcDbCircle
 10
687.4146511197591
 20
6.167583178573977
 30
0.0
 40
0.4
100
AcDbArc
 50
270.0
 51
315.0000000003029
  0
ARC
  5
1EF8
330
21
100
AcDbEntity
  8
0
  6
Continuous
100
AcDbCircle
 10
600.1460219696591
 20
53.36758317857396
 30
0.0
 40
0.4
100
AcDbArc
 50
90.0
 51
135.0000000001969
  0
ARC
  5
1EF9
330
21
100
AcDbEntity
  8
0
  6
Continuous
100
AcDbCircle
 10
598.1803365446592
 20
51.40189775357396
 30
0.0
 40
0.4
100
AcDbArc
 50
135.000000002402
 51
180.0
  0
CIRCLE
  5
1EFA
330
21
100
AcDbEntity
  8
0
  6
Continuous
100
AcDbCircle
 10
646.6131459625592
 20
35.81435593907398
 30
0.0
 40
0.328409678
  0
LINE
  5
1EFB
330
21
100
AcDbEntity
  8
0
  6
Continuous
100
AcDbLine
 10
689.6631792571593
 20
51.68474046607395
 30
0.0
 11
687.6974938321591
 21
53.65042589097396
 31
0.0
  0
LINE
  5
1EFC
330
21
100
AcDbEntity
  8
0
  6
Continuous
100
AcDbLine
 10
669.1731568676592
 20
-20.17882698302603
 30
0.0
 11
672.664042105359
 21
-18.16336345132603
 31
0.0
  0
LINE
  5
1EFD
330
21
100
AcDbEntity
  8
0
  6
Continuous
100
AcDbLine
 10
689.7803365446594
 20
51.40189775357396
 30
0.0
 11
689.7803365446594
 21
8.133268603473965
 31
0.0
  0
LINE
  5
1EFE
330
21
100
AcDbEntity
  8
0
  6
Continuous
100
AcDbLine
 10
689.6631792571593
 20
51.68474046607395
 30
0.0
 11
689.6631792571593
 21
7.85042589097398
 31
0.0
  0
LINE
  5
1EFF
330
21
100
AcDbEntity
  8
0
  6
Continuous
100
AcDbLine
 10
689.2803365446594
 20
7.467583941473975
 30
0.0
 11
689.2803365446594
 21
52.06758241557395
 31
0.0
  0
LINE
  5
1F00
330
21
100
AcDbEntity
  8
0
  6
Continuous
100
AcDbLine
 10
687.6974938321591
 20
53.65042589097396
 30
0.0
 11
687.6974938321591
 21
5.884740466073964
 31
0.0
  0
LINE
  5
1F01
330
21
100
AcDbEntity
  8
0
  6
Continuous
100
AcDbLine
 10
687.4146511197591
 20
53.767583178574
 30
0.0
 11
687.4146511197591
 21
5.767583178573971
 31
0.0
  0
LINE
  5
1F02
330
21
100
AcDbEntity
  8
0
  6
Continuous
100
AcDbLine
 10
610.7803365446594
 20
53.767583178574
 30
0.0
 11
600.1460219696591
 21
53.767583178574
 31
0.0
  0
LINE
  5
1F03
330
21
100
AcDbEntity
  8
0
  6
Continuous
100
AcDbLine
 10
687.4146511197591
 20
53.767583178574
 30
0.0
 11
676.7803365446594
 21
53.767583178574
 31
0.0
  0
LINE
  5
1F04
330
21
100
AcDbEntity
  8
0
  6
Continuous
100
AcDbLine
 10
689.6631792571593
 20
7.85042589097398
 30
0.0
 11
687.6974938321591
 21
5.884740466073964
 31
0.0
  0
LINE
  5
1F05
330
21
100
AcDbEntity
  8
0
  6
Continuous
100
AcDbLine
 10
598.2803365446594
 20
52.06758317857396
 30
0.0
 11
612.4803365446592
 21
52.06758317857396
 31
0.0
  0
LINE
  5
1F06
330
21
100
AcDbEntity
  8
0
  6
Continuous
100
AcDbLine
 10
689.2803365446594
 20
52.06758317857396
 30
0.0
 11
675.0803365446593
 21
52.06758317857396
 31
0.0
  0
LINE
  5
1F07
330
21
100
AcDbEntity
  8
0
  6
Continuous
100
AcDbLine
 10
624.4108532466591
 20
49.76758317857397
 30
0.0
 11
616.0229772317593
 21
49.76758317857397
 31
0.0
  0
LINE
  5
1F08
330
21
100
AcDbEntity
  8
0
  6
Continuous
100
AcDbLine
 10
671.5376958575594
 20
49.76758317857397
 30
0.0
 11
663.1498198426593
 21
49.76758317857397
 31
0.0
  0
LINE
  5
1F09
330
21
100
AcDbEntity
  8
0
  6
Continuous
100
AcDbLine
 10
676.7803365446594
 20
5.767583178573971
 30
0.0
 11
676.7803365446594
 21
53.767583178574
 31
0.0
  0
LINE
  5
1F0A
330
21
100
AcDbEntity
  8
0
  6
Continuous
100
AcDbLine
 10
659.5442685671591
 20
48.76758317857397
 30
0.0
 11
628.0164045221592
 21
48.76758317857397
 31
0.0
  0
LINE
  5
1F0B
330
21
100
AcDbEntity
  8
0
  6
Continuous
100
AcDbLine
 10
675.0803357817592
 20
7.467583941473975
 30
0.0
 11
675.0803357817592
 21
52.06758241557395
 31
0.0
  0
LINE
  5
1F0C
330
21
100
AcDbEntity
  8
0
  6
Continuous
100
AcDbLine
 10
673.6590162010593
 20
8.888903522073974
 30
0.0
 11
673.6590162010593
 21
50.64626283497398
 31
0.0
  0
LINE
  5
1F0D
330
21
100
AcDbEntity
  8
0
  6
Continuous
100
AcDbLine
 10
672.6803365446592
 20
-18.15395585242604
 30
0.0
 11
672.6803365446592
 21
-2.238783409726011
 31
0.0
  0
LINE
  5
1F0E
330
21
100
AcDbEntity
  8
0
  6
Continuous
100
AcDbLine
 10
672.6586106255592
 20
-18.15395585242604
 30
0.0
 11
672.6586106255592
 21
-2.238783409726011
 31
0.0
  0
LINE
  5
1F0F
330
21
100
AcDbEntity
  8
0
  6
Continuous
100
AcDbLine
 10
672.3921649569592
 20
-18.27827963462602
 30
0.0
 11
672.3921649569592
 21
-2.238714927926025
 31
0.0
  0
LWPOLYLINE
  5
1F10
330
21
100
AcDbEntity
  8
0
  6
Continuous
100
AcDbPolyline
 90
        5
 70
     0
 43
0.0
 10
672.6586106255592
 20
-2.238783409726011
 10
672.5904858338593
 20
-1.72104196622601
 10
672.3907416493591
 20
-1.238573325826024
 10
672.0730313265591
 20
-0.824336477026037
 10
671.6593623874591
 20
-0.5067326021260215
  0
LINE
  5
1F11
330
21
100
AcDbEntity
  8
0
  6
Continuous
100
AcDbLine
 10
671.5376958575594
 20
9.767583178573972
 30
0.0
 11
671.5376958575594
 21
49.76758317857397
 31
0.0
  0
LINE
  5
1F12
330
21
100
AcDbEntity
  8
0
  6
Continuous
100
AcDbLine
 10
656.3170825339591
 20
-2.238783409726011
 30
0.0
 11
656.7831325707593
 21
-0.5067326021260215
 31
0.0
  0
LINE
  5
1F13
330
21
100
AcDbEntity
  8
0
  6
Continuous
100
AcDbLine
 10
663.1498198426593
 20
11.94304701627396
 30
0.0
 11
663.1498198426593
 21
49.76758317857397
 31
0.0
  0
LINE
  5
1F14
330
21
100
AcDbEntity
  8
0
  6
Continuous
100
AcDbLine
 10
661.0895048280593
 20
15.84541045577398
 30
0.0
 11
661.0895048280593
 21
49.19615460707396
 31
0.0
  0
LINE
  5
1F15
330
21
100
AcDbEntity
  8
0
  6
Continuous
100
AcDbLine
 10
676.7803365446594
 20
5.767583178573971
 30
0.0
 11
673.6590162010593
 21
8.888903522073974
 31
0.0
  0
LINE
  5
1F16
330
21
100
AcDbEntity
  8
0
  6
CENTER
100
AcDbLine
 10
593.5213533187593
 20
29.76758317857397
 30
0.0
 11
698.4816128746815
 21
29.76758317857397
 31
0.0
  0
LINE
  5
1F17
330
21
100
AcDbEntity
  8
0
  6
Continuous
100
AcDbLine
 10
652.9351167167592
 20
-1.430493032826035
 30
0.0
 11
653.2941386457592
 21
0.3016105424739806
 31
0.0
  0
LINE
  5
1F18
330
21
100
AcDbEntity
  8
0
  6
Continuous
100
AcDbLine
 10
659.8554189676592
 20
-2.238731051726034
 30
0.0
 11
659.8554189676592
 21
-18.27827963462602
 31
0.0
  0
LINE
  5
1F19
330
21
100
AcDbEntity
  8
0
  6
Continuous
100
AcDbLine
 10
659.5442685671591
 20
16.15348947527397
 30
0.0
 11
659.5442685671591
 21
48.76758317857397
 31
0.0
  0
LINE
  5
1F1A
330
21
100
AcDbEntity
  8
0
  6
Continuous
100
AcDbLine
 10
659.1897645627591
 20
-2.238783409726011
 30
0.0
 11
659.1897645627591
 21
-18.15395585242604
 31
0.0
  0
LINE
  5
1F1B
330
21
100
AcDbEntity
  8
0
  6
Continuous
100
AcDbLine
 10
657.2491826075593
 20
-18.15395585242604
 30
0.0
 11
657.2491826075593
 21
-2.238783409726011
 31
0.0
  0
LINE
  5
1F1C
330
21
100
AcDbEntity
  8
0
  6
Continuous
100
AcDbLine
 10
656.3170825339591
 20
-18.27827963462602
 30
0.0
 11
656.3170825339591
 21
-2.238842115926019
 31
0.0
  0
LWPOLYLINE
  5
1F1D
330
21
100
AcDbEntity
  8
0
  6
Continuous
100
AcDbPolyline
 90
        5
 70
     0
 43
0.0
 10
659.1897645627591
 20
-2.238783409726011
 10
659.1534279864593
 20
-1.721145319526016
 10
659.0468945352593
 20
-1.238783409726011
 10
658.8774242878591
 20
-0.8245698473260176
 10
658.6565663613591
 20
-0.5067326021260215
  0
LWPOLYLINE
  5
1F1E
330
21
100
AcDbEntity
  8
0
  6
Continuous
100
AcDbPolyline
 90
        5
 70
     0
 43
0.0
 10
657.2491826075593
 20
-2.238783409726011
 10
657.2174091597592
 20
-1.72104196622601
 10
657.1242483404591
 20
-1.238573325826024
 10
656.9760680365594
 20
-0.824336477026037
 10
656.7831325707593
 20
-0.5067326021260215
  0
LINE
  5
1F22
330
21
100
AcDbEntity
  8
0
  6
Continuous
100
AcDbLine
 10
613.9016568882591
 20
50.64626283497398
 30
0.0
 11
610.7803365446594
 21
53.767583178574
 31
0.0
  0
LWPOLYLINE
  5
1F23
330
21
100
AcDbEntity
  8
0
  6
Continuous
100
AcDbPolyline
 90
        5
 70
     0
 43
0.0
 10
662.7199781383592
 20
5.765659388573965
 10
662.1459496186592
 20
6.242415257673968
 10
661.7054820448593
 20
6.863735601273987
 10
661.4285925525591
 20
7.58727846597398
 10
661.3341507031591
 20
8.363735601273987
  0
LINE
  5
1F24
330
21
100
AcDbEntity
  8
0
  6
Continuous
100
AcDbLine
 10
667.4941766754591
 20
3.910147925273975
 30
0.0
 11
667.0449459148592
 21
4.169511425773976
 31
0.0
  0
LINE
  5
1F25
330
21
100
AcDbEntity
  8
0
  6
Continuous
100
AcDbLine
 10
647.2172850164593
 20
24.44842641867399
 30
0.0
 11
647.6583139204593
 21
26.48196110867397
 31
0.0
  0
LINE
  5
1F2C
330
21
100
AcDbEntity
  8
0
  6
Continuous
100
AcDbLine
 10
671.6803365446592
 20
-0.5067326021260215
 30
0.0
 11
670.2803365446594
 21
0.3015577747739826
 31
0.0
  0
LWPOLYLINE
  5
1F2D
330
21
100
AcDbEntity
  8
0
  6
Continuous
100
AcDbPolyline
 90
        4
 70
     0
 43
0.0
 10
659.5442685671591
 20
16.15327824997396
 10
660.0824390130592
 20
16.11840702257396
 10
660.6031490685593
 20
16.01492470157399
 10
661.0895048252592
 20
15.84618866607397
  0
LINE
  5
1F2E
330
21
100
AcDbEntity
  8
0
  6
Continuous
100
AcDbLine
 10
676.7803365446594
 20
53.767583178574
 30
0.0
 11
673.6590162010593
 21
50.64626283497398
 31
0.0
  0
LINE
  5
1F31
330
21
100
AcDbEntity
  8
0
  6
Continuous
100
AcDbLine
 10
671.5376958575594
 20
9.767583178573972
 30
0.0
 11
668.5449536374592
 21
9.767583178573972
 31
0.0
  0
LINE
  5
1F32
330
21
100
AcDbEntity
  8
0
  6
Continuous
100
AcDbLine
 10
643.780336544659
 20
8.363735601273959
 30
0.0
 11
661.3348159381591
 21
8.363735601273987
 31
0.0
  0
LINE
  5
1F33
330
21
100
AcDbEntity
  8
0
  6
Continuous
100
AcDbLine
 10
689.2803365446594
 20
7.467583178573988
 30
0.0
 11
675.0803365446593
 21
7.467583178573988
 31
0.0
  0
LINE
  5
1F34
330
21
100
AcDbEntity
  8
0
  6
Continuous
100
AcDbLine
 10
687.4146511197591
 20
5.767583178573971
 30
0.0
 11
676.7803365446594
 21
5.767583178573971
 31
0.0
  0
LINE
  5
1F35
330
21
100
AcDbEntity
  8
0
  6
Continuous
100
AcDbLine
 10
643.780336544659
 20
5.765659389873974
 30
0.0
 11
662.7183275958591
 21
5.765659389873974
 31
0.0
  0
LINE
  5
1F36
330
21
100
AcDbEntity
  8
0
  6
Continuous
100
AcDbLine
 10
643.7803365446594
 20
3.910147925273975
 30
0.0
 11
667.4941766754591
 21
3.910147925273975
 31
0.0
  0
LINE
  5
1F37
330
21
100
AcDbEntity
  8
0
  6
Continuous
100
AcDbLine
 10
643.7803365446594
 20
2.105852849974013
 30
0.0
 11
668.8872566100592
 21
2.105852849973985
 31
0.0
  0
LINE
  5
1F38
330
21
100
AcDbEntity
  8
0
  6
Continuous
100
AcDbLine
 10
669.9569271112591
 20
0.3015577747739826
 30
0.0
 11
670.2803365446594
 21
0.3015577747739826
 31
0.0
  0
LINE
  5
1F39
330
21
100
AcDbEntity
  8
0
  6
Continuous
100
AcDbLine
 10
653.2941277039593
 20
0.3015577747739826
 30
0.0
 11
660.4431359519592
 21
0.3015577747739826
 31
0.0
  0
LINE
  5
1F3A
330
21
100
AcDbEntity
  8
0
  6
Continuous
100
AcDbLine
 10
658.6563386760593
 20
-0.5067326021260215
 30
0.0
 11
656.7830107689592
 21
-0.5067326021260215
 31
0.0
  0
LINE
  5
1F3B
330
21
100
AcDbEntity
  8
0
  6
Continuous
100
AcDbLine
 10
671.6803365446592
 20
-0.5067326021260215
 30
0.0
 11
671.6593759815592
 21
-0.5067326021260215
 31
0.0
  0
LINE
  5
1F3C
330
21
100
AcDbEntity
  8
0
  6
Continuous
100
AcDbLine
 10
659.8554189676592
 20
-2.238783409726011
 30
0.0
 11
656.3170825339591
 21
-2.238783409726011
 31
0.0
  0
LINE
  5
1F3D
330
21
100
AcDbEntity
  8
0
  6
Continuous
100
AcDbLine
 10
672.6803365446592
 20
-2.238783409726011
 30
0.0
 11
672.3921649569592
 21
-2.238783409726011
 31
0.0
  0
LINE
  5
1F3E
330
21
100
AcDbEntity
  8
0
  6
Continuous
100
AcDbLine
 10
628.0164045221592
 20
48.76758317857397
 30
0.0
 11
628.0164045221592
 21
29.767583178574
 31
0.0
  0
LINE
  5
1F3F
330
21
100
AcDbEntity
  8
0
  6
Continuous
100
AcDbLine
 10
626.4711682612592
 20
49.19615460707396
 30
0.0
 11
626.4711682612592
 21
29.76758317857397
 31
0.0
  0
LINE
  5
1F40
330
21
100
AcDbEntity
  8
0
  6
Continuous
100
AcDbLine
 10
624.4108532466591
 20
49.76758317857397
 30
0.0
 11
624.4108532466591
 21
29.76758317857394
 31
0.0
  0
LINE
  5
1F4A
330
21
100
AcDbEntity
  8
0
  6
Continuous
100
AcDbLine
 10
616.0229772317593
 20
29.76758317857394
 30
0.0
 11
616.0229772317593
 21
49.76758317857397
 31
0.0
  0
LINE
  5
1F4B
330
21
100
AcDbEntity
  8
0
  6
Continuous
100
AcDbLine
 10
613.9016568882594
 20
29.767583178574
 30
0.0
 11
613.9016568882591
 21
50.64626283497398
 31
0.0
  0
LINE
  5
1F4C
330
21
100
AcDbEntity
  8
0
  6
Continuous
100
AcDbLine
 10
612.4803373075592
 20
52.06758241557395
 30
0.0
 11
612.4803373075592
 21
29.76758317857403
 31
0.0
  0
LINE
  5
1F4D
330
21
100
AcDbEntity
  8
0
  6
Continuous
100
AcDbLine
 10
610.7803365446594
 20
29.76758317857397
 30
0.0
 11
610.7803365446594
 21
53.767583178574
 31
0.0
  0
LINE
  5
1F4E
330
21
100
AcDbEntity
  8
0
  6
Continuous
100
AcDbLine
 10
672.6586106255592
 20
-18.15395585242604
 30
0.0
 11
672.6803365446592
 21
-18.15395585242604
 31
0.0
  0
LINE
  5
1F4F
330
21
100
AcDbEntity
  8
0
  6
Continuous
100
AcDbLine
 10
657.2491826075593
 20
-18.15395585242604
 30
0.0
 11
659.1897645627591
 21
-18.15395585242604
 31
0.0
  0
LINE
  5
1F50
330
21
100
AcDbEntity
  8
0
  6
Continuous
100
AcDbLine
 10
669.1731568676592
 20
-20.17882698302603
 30
0.0
 11
643.780336544659
 21
-20.17882698302603
 31
0.0
  0
LINE
  5
1F51
330
21
100
AcDbEntity
  8
0
  6
Continuous
100
AcDbLine
 10
668.9731568676593
 20
-20.23241682142603
 30
0.0
 11
643.780336544659
 21
-20.23241682142606
 31
0.0
  0
LINE
  5
1F52
330
21
100
AcDbEntity
  8
0
  6
Continuous
100
AcDbLine
 10
600.1460219696591
 20
53.767583178574
 30
0.0
 11
600.1460219696591
 21
29.76758317857397
 31
0.0
  0
LINE
  5
1F53
330
21
100
AcDbEntity
  8
0
  6
Continuous
100
AcDbLine
 10
599.8631792571594
 20
53.65042589097396
 30
0.0
 11
599.8631792571591
 21
29.76758317857397
 31
0.0
  0
LINE
  5
1F54
330
21
100
AcDbEntity
  8
0
  6
Continuous
100
AcDbLine
 10
598.2803365446594
 20
52.06758241557395
 30
0.0
 11
598.2803365446594
 21
29.76758317857403
 31
0.0
  0
LINE
  5
1F55
330
21
100
AcDbEntity
  8
0
  6
Continuous
100
AcDbLine
 10
597.8974938321591
 20
51.68474046607395
 30
0.0
 11
597.8974938321591
 21
29.76758317857397
 31
0.0
  0
LINE
  5
1F56
330
21
100
AcDbEntity
  8
0
  6
Continuous
100
AcDbLine
 10
597.7803365446594
 20
51.40189775357396
 30
0.0
 11
597.780336544659
 21
29.76758317857394
 31
0.0
  0
LINE
  5
1F57
330
21
100
AcDbEntity
  8
0
  6
Continuous
100
AcDbLine
 10
599.8631792571594
 20
53.65042589097396
 30
0.0
 11
597.8974938321591
 21
51.68474046607395
 31
0.0
  0
LINE
  5
2009
330
21
100
AcDbEntity
  8
0
100
AcDbLine
 10
597.780336544659
 20
29.76758317857394
 30
0.0
 11
597.780336544659
 21
8.434161741591822
 31
0.0
  0
LWPOLYLINE
  5
200F
330
21
100
AcDbEntity
  8
0
100
AcDbPolyline
 90
        2
 70
   128
 43
0.0
 10
598.067873968449
 20
7.980195230518887
 10
597.7803365446589
 20
8.434161741592192
  0
LINE
  5
2010
330
21
100
AcDbEntity
  8
0
100
AcDbLine
 10
598.067873968449
 20
7.980195230518887
 30
0.0
 11
598.1545830689499
 21
7.85042589097398
 31
0.0
  0
LWPOLYLINE
  5
2011
330
21
100
AcDbEntity
  8
0
100
AcDbPolyline
 90
        2
 70
   128
 43
0.0
 10
599.0374257814498
 20
9.767583178573972
 10
597.7803365446589
 20
9.255038601527417
  0
MTEXT
  5
2E3E
330
21
100
AcDbEntity
  8
0
100
AcDbMText
 10
2320.303926075331
 20
185.571951966812
 30
0.0
 40
0.18
 41
14.68390410115808
 71
     9
 72
     1
  1
\A1;
 73
     1
 44
1.0
  0
ENDSEC
  0
SECTION
  2
OBJECTS
  0
DICTIONARY
  5
232
330
0
100
AcDbDictionary
281
     1
  3
ACAD_COLOR
350
2B7
  3
ACAD_GROUP
350
233
  3
ACAD_LAYOUT
350
274
  3
ACAD_MATERIAL
350
2B6
  3
ACAD_MLINESTYLE
350
234
  3
ACAD_PLOTSETTINGS
350
275
  3
ACAD_PLOTSTYLENAME
350
272
  3
ACDBHEADERROUNDTRIPXREC
350
5E34
  3
AcDbVariableDictionary
350
2AE
  0
DICTIONARY
  5
2B7
102
{ACAD_REACTORS
330
232
102
}
330
232
100
AcDbDictionary
281
     1
  0
DICTIONARY
  5
233
102
{ACAD_REACTORS
330
232
102
}
330
232
100
AcDbDictionary
281
     1
  0
DICTIONARY
  5
274
102
{ACAD_REACTORS
330
232
102
}
330
232
100
AcDbDictionary
281
     1
  3
Layout1
350
277
  3
Model
350
276
  0
DICTIONARY
  5
2B6
102
{ACAD_REACTORS
330
232
102
}
330
232
100
AcDbDictionary
281
     1
  0
DICTIONARY
  5
234
102
{ACAD_REACTORS
330
232
102
}
330
232
100
AcDbDictionary
281
     1
  3
STANDARD
350
235
  0
DICTIONARY
  5
275
102
{ACAD_REACTORS
330
232
102
}
330
232
100
AcDbDictionary
281
     1
  0
ACDBDICTIONARYWDFLT
  5
272
102
{ACAD_REACTORS
330
232
102
}
330
232
100
AcDbDictionary
281
     1
  3
Normal
350
273
100
AcDbDictionaryWithDefault
340
273
  0
DICTIONARY
  5
5E34
102
{ACAD_REACTORS
330
232
102
}
330
232
100
AcDbDictionary
281
     1
  3
COLORDICT
350
5E35
  3
MATERIALDICT
350
5E36
  0
DICTIONARY
  5
2AE
102
{ACAD_REACTORS
330
232
102
}
330
232
100
AcDbDictionary
281
     1
  0
LAYOUT
  5
277
102
{ACAD_REACTORS
330
274
102
}
330
274
100
AcDbPlotSettings
  1

  2
\\alderaan\HP LaserJet 5Si/5Si MX PS Tecnico
  4

  6

 40
0.0
 41
0.0
 42
0.0
 43
0.0
 44
0.0
 45
0.0
 46
0.0
 47
0.0
 48
0.0
 49
0.0
140
0.0
141
0.0
142
1.0
143
1.0
 70
   688
 72
     0
 73
     0
 74
     5
  7

 75
    16
147
1.0
148
0.0
149
0.0
100
AcDbLayout
  1
Layout1
 70
     0
 71
     1
 10
0.0
 20
0.0
 11
12.0
 21
9.0
 12
0.0
 22
0.0
 32
0.0
 14
1.000000000000000E+20
 24
1.000000000000000E+20
 34
1.000000000000000E+20
 15
-1.000000000000000E+20
 25
-1.000000000000000E+20
 35
-1.000000000000000E+20
146
0.0
 13
0.0
 23
0.0
 33
0.0
 16
1.0
 26
0.0
 36
0.0
 17
0.0
 27
1.0
 37
0.0
 76
     0
330
22
  0
LAYOUT
  5
276
102
{ACAD_REACTORS
330
274
102
}
330
274
100
AcDbPlotSettings
  1

  2
\\alderaan\HP LaserJet 4050 Ricerca
  4
A4
  6

 40
5.027083396911621
 41
5.069430828094482
 42
5.365737915039062
 43
5.365753173828125
 44
209.8886566162109
 45
297.0530090332031
 46
0.0
 47
0.0
 48
70.15568666023683
 49
-413.5017910393744
140
1567.471881557387
141
355.5977189696187
142
1.0
143
5.224086096996019
 70
 11952
 72
     1
 73
     1
 74
     4
  7

 75
     0
147
0.1914210411989621
148
-70.15568666023683
149
413.5017910393744
100
AcDbLayout
  1
Model
 70
     1
 71
     0
 10
0.0
 20
0.0
 11
12.0
 21
9.0
 12
0.0
 22
0.0
 32
0.0
 14
0.0
 24
0.0
 34
0.0
 15
0.0
 25
0.0
 35
0.0
146
0.0
 13
0.0
 23
0.0
 33
0.0
 16
1.0
 26
0.0
 36
0.0
 17
0.0
 27
1.0
 37
0.0
 76
     0
330
21
  0
MLINESTYLE
  5
235
102
{ACAD_REACTORS
330
234
102
}
330
234
100
AcDbMlineStyle
  2
STANDARD
 70
     0
  3

 62
     0
 51
90.00000000000019
 52
90.00000000000019
 71
     2
 49
0.5
 62
   256
  6
BYLAYER
 49
-0.5
 62
   256
  6
BYLAYER
  0
ACDBPLACEHOLDER
  5
273
102
{ACAD_REACTORS
330
272
102
}
330
272
  0
XRECORD
  5
5E35
102
{ACAD_REACTORS
330
5E34
102
}
330
5E34
100
AcDbXrecord
280
     1
340
2B7
  0
XRECORD
  5
5E36
102
{ACAD_REACTORS
330
5E34
102
}
330
5E34
100
AcDbXrecord
280
     1
340
2B6
  0
ENDSEC
  0
EOF
