  0
SECTION
  2
HEADER
  9
$ACADVER
  1
AC1015
  9
$ACADMAINTVER
 70
     6
  9
$DWGCODEPAGE
  3
ANSI_1252
  9
$INSBASE
 10
0.0
 20
0.0
 30
0.0
  9
$EXTMIN
 10
80.46286980856489
 20
-370.773169833776
 30
-18.8
  9
$EXTMAX
 10
1760.060663696097
 20
334.946701594559
 30
1.038894055499999
  9
$LIMMIN
 10
0.0
 20
0.0
  9
$LIMMAX
 10
420.0
 20
297.0
  9
$ORTHOMODE
 70
     0
  9
$REGENMODE
 70
     1
  9
$FILLMODE
 70
     1
  9
$QTEXTMODE
 70
     0
  9
$MIRRTEXT
 70
     1
  9
$LTSCALE
 40
23.1
  9
$ATTMODE
 70
     1
  9
$TEXTSIZE
 40
35.06651165617814
  9
$TRACEWID
 40
0.05
  9
$TEXTSTYLE
  7
STANDARD
  9
$CLAYER
  8
0
  9
$CELTYPE
  6
BYLAYER
  9
$CECOLOR
 62
   256
  9
$CELTSCALE
 40
1.0
  9
$DISPSILH
 70
     0
  9
$DIMSCALE
 40
1.0
  9
$DIMASZ
 40
0.18
  9
$DIMEXO
 40
0.0625
  9
$DIMDLI
 40
0.38
  9
$DIMRND
 40
0.0
  9
$DIMDLE
 40
0.0
  9
$DIMEXE
 40
0.18
  9
$DIMTP
 40
0.003
  9
$DIMTM
 40
0.003
  9
$DIMTXT
 40
1.5
  9
$DIMCEN
 40
0.09
  9
$DIMTSZ
 40
0.0
  9
$DIMTOL
 70
     1
  9
$DIMLIM
 70
     0
  9
$DIMTIH
 70
     1
  9
$DIMTOH
 70
     1
  9
$DIMSE1
 70
     0
  9
$DIMSE2
 70
     0
  9
$DIMTAD
 70
     0
  9
$DIMZIN
 70
     0
  9
$DIMBLK
  1

  9
$DIMASO
 70
     1
  9
$DIMSHO
 70
     1
  9
$DIMPOST
  1

  9
$DIMAPOST
  1

  9
$DIMALT
 70
     0
  9
$DIMALTD
 70
     2
  9
$DIMALTF
 40
25.4
  9
$DIMLFAC
 40
1.0
  9
$DIMTOFL
 70
     0
  9
$DIMTVP
 40
0.0
  9
$DIMTIX
 70
     0
  9
$DIMSOXD
 70
     0
  9
$DIMSAH
 70
     0
  9
$DIMBLK1
  1

  9
$DIMBLK2
  1

  9
$DIMSTYLE
  2
STANDARD
  9
$DIMCLRD
 70
     0
  9
$DIMCLRE
 70
     0
  9
$DIMCLRT
 70
     0
  9
$DIMTFAC
 40
1.0
  9
$DIMGAP
 40
0.09
  9
$DIMJUST
 70
     0
  9
$DIMSD1
 70
     0
  9
$DIMSD2
 70
     0
  9
$DIMTOLJ
 70
     1
  9
$DIMTZIN
 70
     0
  9
$DIMALTZ
 70
     0
  9
$DIMALTTZ
 70
     0
  9
$DIMUPT
 70
     0
  9
$DIMDEC
 70
     4
  9
$DIMTDEC
 70
     4
  9
$DIMALTU
 70
     2
  9
$DIMALTTD
 70
     2
  9
$DIMTXSTY
  7
STANDARD
  9
$DIMAUNIT
 70
     0
  9
$DIMADEC
 70
     0
  9
$DIMALTRND
 40
0.0
  9
$DIMAZIN
 70
     0
  9
$DIMDSEP
 70
    46
  9
$DIMATFIT
 70
     0
  9
$DIMFRAC
 70
     0
  9
$DIMLDRBLK
  1

  9
$DIMLUNIT
 70
     2
  9
$DIMLWD
 70
    -2
  9
$DIMLWE
 70
    -2
  9
$DIMTMOVE
 70
     0
  9
$LUNITS
 70
     2
  9
$LUPREC
 70
     4
  9
$SKETCHINC
 40
0.1
  9
$FILLETRAD
 40
0.0
  9
$AUNITS
 70
     0
  9
$AUPREC
 70
     0
  9
$MENU
  1
acad
  9
$ELEVATION
 40
0.0
  9
$PELEVATION
 40
0.0
  9
$THICKNESS
 40
0.0
  9
$LIMCHECK
 70
     0
  9
$CHAMFERA
 40
0.0
  9
$CHAMFERB
 40
0.0
  9
$CHAMFERC
 40
0.0
  9
$CHAMFERD
 40
0.0
  9
$SKPOLY
 70
     0
  9
$TDCREATE
 40
2444972.041666667
  9
$TDUCREATE
 40
2444972.0
  9
$TDUPDATE
 40
2453410.422101829
  9
$TDUUPDATE
 40
2453410.380435162
  9
$TDINDWG
 40
2.3154473032
  9
$TDUSRTIMER
 40
2.3154473032
  9
$USRTIMER
 70
     1
  9
$ANGBASE
 50
0.0
  9
$ANGDIR
 70
     0
  9
$PDMODE
 70
     0
  9
$PDSIZE
 40
0.0
  9
$PLINEWID
 40
0.0
  9
$SPLFRAME
 70
     0
  9
$SPLINETYPE
 70
     6
  9
$SPLINESEGS
 70
     8
  9
$HANDSEED
  5
5E37
  9
$SURFTAB1
 70
     6
  9
$SURFTAB2
 70
     6
  9
$SURFTYPE
 70
     6
  9
$SURFU
 70
     6
  9
$SURFV
 70
     6
  9
$UCSBASE
  2

  9
$UCSNAME
  2

  9
$UCSORG
 10
0.0
 20
0.0
 30
0.0
  9
$UCSXDIR
 10
1.0
 20
0.0
 30
0.0
  9
$UCSYDIR
 10
0.0
 20
1.0
 30
0.0
  9
$UCSORTHOREF
  2

  9
$UCSORTHOVIEW
 70
     0
  9
$UCSORGTOP
 10
0.0
 20
0.0
 30
0.0
  9
$UCSORGBOTTOM
 10
0.0
 20
0.0
 30
0.0
  9
$UCSORGLEFT
 10
0.0
 20
0.0
 30
0.0
  9
$UCSORGRIGHT
 10
0.0
 20
0.0
 30
0.0
  9
$UCSORGFRONT
 10
0.0
 20
0.0
 30
0.0
  9
$UCSORGBACK
 10
0.0
 20
0.0
 30
0.0
  9
$PUCSBASE
  2

  9
$PUCSNAME
  2

  9
$PUCSORG
 10
0.0
 20
0.0
 30
0.0
  9
$PUCSXDIR
 10
1.0
 20
0.0
 30
0.0
  9
$PUCSYDIR
 10
0.0
 20
1.0
 30
0.0
  9
$PUCSORTHOREF
  2

  9
$PUCSORTHOVIEW
 70
     0
  9
$PUCSORGTOP
 10
0.0
 20
0.0
 30
0.0
  9
$PUCSORGBOTTOM
 10
0.0
 20
0.0
 30
0.0
  9
$PUCSORGLEFT
 10
0.0
 20
0.0
 30
0.0
  9
$PUCSORGRIGHT
 10
0.0
 20
0.0
 30
0.0
  9
$PUCSORGFRONT
 10
0.0
 20
0.0
 30
0.0
  9
$PUCSORGBACK
 10
0.0
 20
0.0
 30
0.0
  9
$USERI1
 70
     0
  9
$USERI2
 70
     0
  9
$USERI3
 70
     0
  9
$USERI4
 70
     0
  9
$USERI5
 70
     0
  9
$USERR1
 40
0.0
  9
$USERR2
 40
0.0
  9
$USERR3
 40
0.0
  9
$USERR4
 40
0.0
  9
$USERR5
 40
0.0
  9
$WORLDVIEW
 70
     1
  9
$SHADEDGE
 70
     3
  9
$SHADEDIF
 70
    70
  9
$TILEMODE
 70
     1
  9
$MAXACTVP
 70
    16
  9
$PINSBASE
 10
0.0
 20
0.0
 30
0.0
  9
$PLIMCHECK
 70
     0
  9
$PEXTMIN
 10
1.000000000000000E+20
 20
1.000000000000000E+20
 30
1.000000000000000E+20
  9
$PEXTMAX
 10
-1.000000000000000E+20
 20
-1.000000000000000E+20
 30
-1.000000000000000E+20
  9
$PLIMMIN
 10
0.0
 20
0.0
  9
$PLIMMAX
 10
12.0
 20
9.0
  9
$UNITMODE
 70
     0
  9
$VISRETAIN
 70
     0
  9
$PLINEGEN
 70
     1
  9
$PSLTSCALE
 70
     0
  9
$TREEDEPTH
 70
  3020
  9
$CMLSTYLE
  2
STANDARD
  9
$CMLJUST
 70
     0
  9
$CMLSCALE
 40
1.0
  9
$PROXYGRAPHICS
 70
     1
  9
$MEASUREMENT
 70
     0
  9
$CELWEIGHT
370
    -1
  9
$ENDCAPS
280
     0
  9
$JOINSTYLE
280
     0
  9
$LWDISPLAY
290
     0
  9
$INSUNITS
 70
     0
  9
$HYPERLINKBASE
  1

  9
$STYLESHEET
  1

  9
$XEDIT
290
     1
  9
$CEPSNTYPE
380
     0
  9
$PSTYLEMODE
290
     1
  9
$FINGERPRINTGUID
  2
{9C19D7CE-BE25-492F-B456-B99F77E59DF7}
  9
$VERSIONGUID
  2
{2A341395-D892-4E2F-9CAB-139AD5D99E52}
  9
$EXTNAMES
290
     1
  9
$PSVPSCALE
 40
0.0
  9
$OLESTARTUP
290
     0
  0
ENDSEC
  0
SECTION
  2
CLASSES
  0
CLASS
  1
IMAGE
  2
AcDbRasterImage
  3
ISM
 90
      127
280
     0
281
     1
  0
CLASS
  1
DICTIONARYVAR
  2
AcDbDictionaryVar
  3
ObjectDBX Classes
 90
        0
280
     0
281
     0
  0
CLASS
  1
RASTERVARIABLES
  2
AcDbRasterVariables
  3
ISM
 90
        0
280
     0
281
     0
  0
CLASS
  1
IMAGEDEF
  2
AcDbRasterImageDef
  3
ISM
 90
        0
280
     0
281
     0
  0
CLASS
  1
IMAGEDEF_REACTOR
  2
AcDbRasterImageDefReactor
  3
ISM
 90
        1
280
     0
281
     0
  0
CLASS
  1
IDBUFFER
  2
AcDbIdBuffer
  3
ObjectDBX Classes
 90
        0
280
     0
281
     0
  0
CLASS
  1
SPATIAL_FILTER
  2
AcDbSpatialFilter
  3
ObjectDBX Classes
 90
        0
280
     0
281
     0
  0
CLASS
  1
SORTENTSTABLE
  2
AcDbSortentsTable
  3
ObjectDBX Classes
 90
        0
280
     0
281
     0
  0
CLASS
  1
LAYER_INDEX
  2
AcDbLayerIndex
  3
ObjectDBX Classes
 90
        0
280
     0
281
     0
  0
CLASS
  1
SPATIAL_INDEX
  2
AcDbSpatialIndex
  3
AutoCAD 2000
 90
        0
280
     0
281
     0
  0
CLASS
  1
OBJECT_PTR
  2
CAseDLPNTableRecord
  3
ASE-LPNTableRecord
 90
        1
280
     0
281
     0
  0
CLASS
  1
PLOTSETTINGS
  2
AcDbPlotSettings
  3
ObjectDBX Classes
 90
        0
280
     0
281
     0
  0
CLASS
  1
ACDBDICTIONARYWDFLT
  2
AcDbDictionaryWithDefault
  3
ObjectDBX Classes
 90
        0
280
     0
281
     0
  0
CLASS
  1
WIPEOUT
  2
AcDbWipeout
  3
WipeOut|AutoCAD Express Tool|expresstools@autodesk.com
 90
      127
280
     0
281
     1
  0
CLASS
  1
WIPEOUTVARIABLES
  2
AcDbWipeoutVariables
  3
WipeOut|AutoCAD Express Tool|expresstools@autodesk.com
 90
        0
280
     0
281
     0
  0
CLASS
  1
RTEXT
  2
RText
  3
RText|AutoCAD Express Tool|expresstools@autodesk.com
 90
        0
280
     0
281
     1
  0
CLASS
  1
ARCALIGNEDTEXT
  2
AcDbArcAlignedText
  3
ATEXT|AutoCAD Express Tool|expresstools@autodesk.com
 90
        0
280
     0
281
     1
  0
CLASS
  1
ACDBPLACEHOLDER
  2
AcDbPlaceHolder
  3
ObjectDBX Classes
 90
        0
280
     0
281
     0
  0
CLASS
  1
LAYOUT
  2
AcDbLayout
  3
ObjectDBX Classes
 90
        0
280
     0
281
     0
  0
ENDSEC
  0
SECTION
  2
TABLES
  0
TABLE
  2
VPORT
  5
6
330
0
100
AcDbSymbolTable
 70
     1
  0
VPORT
  5
5E2D
330
6
100
AcDbSymbolTableRecord
100
AcDbViewportTableRecord
  2
*Active
 70
     0
 10
0.0
 20
0.0
 11
1.0
 21
1.0
 12
889.4408174235126
 22
28.382950374144
 13
0.0
 23
0.0
 14
1.0
 24
1.0
 15
0.0
 25
0.0
 16
0.0
 26
0.0
 36
1.0
 17
0.0
 27
0.0
 37
0.0
 40
239.6389244034299
 41
1.888667992047713
 42
50.0
 43
0.0
 44
0.0
 50
0.0
 51
0.0
 71
     0
 72
   100
 73
     1
 74
     1
 75
     0
 76
     0
 77
     0
 78
     0
281
     0
 65
     1
110
0.0
120
0.0
130
0.0
111
1.0
121
0.0
131
0.0
112
0.0
122
1.0
132
0.0
 79
     0
146
0.0
  0
ENDTAB
  0
TABLE
  2
LTYPE
  5
3
330
0
100
AcDbSymbolTable
 70
     2
  0
LTYPE
  5
C
330
3
100
AcDbSymbolTableRecord
100
AcDbLinetypeTableRecord
  2
BYBLOCK
 70
     0
  3

 72
    65
 73
     0
 40
0.0
  0
LTYPE
  5
D
330
3
100
AcDbSymbolTableRecord
100
AcDbLinetypeTableRecord
  2
BYLAYER
 70
     0
  3

 72
    65
 73
     0
 40
0.0
  0
LTYPE
  5
E
330
3
100
AcDbSymbolTableRecord
100
AcDbLinetypeTableRecord
  2
CONTINUOUS
 70
     0
  3
Solid line
 72
    65
 73
     0
 40
0.0
  0
LTYPE
  5
F
330
3
100
AcDbSymbolTableRecord
100
AcDbLinetypeTableRecord
  2
CENTER
 70
     0
  3
____ _ ____ _ ____ _ ____ _ ____ _ ____ _ ____
 72
    65
 73
     4
 40
0.6
 49
0.375
 74
     0
 49
-0.075
 74
     0
 49
0.075
 74
     0
 49
-0.075
 74
     0
  0
ENDTAB
  0
TABLE
  2
LAYER
  5
1
330
0
100
AcDbSymbolTable
 70
     2
  0
LAYER
  5
14
330
1
100
AcDbSymbolTableRecord
100
AcDbLayerTableRecord
  2
0
 70
     0
 62
     7
  6
CONTINUOUS
370
    -3
390
273
  0
LAYER
  5
27A
330
1
100
AcDbSymbolTableRecord
100
AcDbLayerTableRecord
  2
Defpoints
 70
     0
 62
     7
  6
CONTINUOUS
290
     0
370
    -3
390
273
  0
ENDTAB
  0
TABLE
  2
STYLE
  5
2
330
0
100
AcDbSymbolTable
 70
     1
  0
STYLE
  5
1B
330
2
100
AcDbSymbolTableRecord
100
AcDbTextStyleTableRecord
  2
STANDARD
 70
     0
 40
0.0
 41
1.0
 50
0.0
 71
     0
 42
35.06651165617814
  3
VERDANA.TTF
  4

1001
ACAD
1000
Verdana
1071
       34
  0
ENDTAB
  0
TABLE
  2
VIEW
  5
4
330
0
100
AcDbSymbolTable
 70
     0
  0
ENDTAB
  0
TABLE
  2
UCS
  5
5
330
0
100
AcDbSymbolTable
 70
     0
  0
ENDTAB
  0
TABLE
  2
APPID
  5
7
330
0
100
AcDbSymbolTable
 70
     1
  0
APPID
  5
19
330
7
100
AcDbSymbolTableRecord
100
AcDbRegAppTableRecord
  2
ACAD
 70
     0
  0
ENDTAB
  0
TABLE
  2
DIMSTYLE
  5
8
330
0
100
AcDbSymbolTable
 70
     1
100
AcDbDimStyleTable
  0
DIMSTYLE
105
28
330
8
100
AcDbSymbolTableRecord
100
AcDbDimStyleTableRecord
  2
STANDARD
 70
     0
 47
0.003
 48
0.003
 71
     1
140
1.5
289
     0
340
1B
  0
ENDTAB
  0
TABLE
  2
BLOCK_RECORD
  5
23
330
0
100
AcDbSymbolTable
 70
     0
  0
BLOCK_RECORD
  5
21
330
23
100
AcDbSymbolTableRecord
100
AcDbBlockTableRecord
  2
*MODEL_SPACE
340
276
  0
BLOCK_RECORD
  5
22
330
23
100
AcDbSymbolTableRecord
100
AcDbBlockTableRecord
  2
*PAPER_SPACE
340
277
  0
ENDTAB
  0
ENDSEC
  0
SECTION
  2
BLOCKS
  0
BLOCK
  5
24
330
21
100
AcDbEntity
  8
0
100
AcDbBlockBegin
  2
*MODEL_SPACE
 70
     0
 71
     0
 10
0.0
 20
0.0
 30
0.0
  3
*MODEL_SPACE
  1

  0
ENDBLK
  5
25
330
21
100
AcDbEntity
  8
0
100
AcDbBlockEnd
  0
BLOCK
  5
26
330
22
100
AcDbEntity
 67
     1
  8
0
100
AcDbBlockBegin
  2
*PAPER_SPACE
 70
     0
 71
     0
 10
0.0
 20
0.0
 30
0.0
  3
*PAPER_SPACE
  1

  0
ENDBLK
  5
27
330
22
100
AcDbEntity
 67
     1
  8
0
100
AcDbBlockEnd
  0
ENDSEC
  0
SECTION
  2
ENTITIES
  0
LINE
  5
2129
330
21
100
AcDbEntity
  8
0
  6
Continuous
100
AcDbLine
 10
886.3003162032446
 20
-17.41208938835916
 30
0.0
 11
864.5660016282446
 21
-17.41208938835916
 31
0.0
  0
LINE
  5
212A
330
21
100
AcDbEntity
  8
0
  6
Continuous
100
AcDbLine
 10
886.3003162032446
 20
-16.41208938835916
 30
0.0
 11
866.3003162032445
 21
-16.41208938835916
 31
0.0
  0
LINE
  5
212B
330
21
100
AcDbEntity
  8
0
  6
Continuous
100
AcDbLine
 10
866.3003162032445
 20
-12.01208938835918
 30
0.0
 11
886.3003162032446
 21
-12.01208938835924
 31
0.0
  0
LINE
  5
212C
330
21
100
AcDbEntity
  8
0
  6
Continuous
100
AcDbLine
 10
886.3003162032446
 20
-11.01208938835913
 30
0.0
 11
867.3003162032445
 21
-11.01208938835918
 31
0.0
  0
LINE
  5
212D
330
21
100
AcDbEntity
  8
0
  6
Continuous
100
AcDbLine
 10
886.3003162032446
 20
-10.01208938835918
 30
0.0
 11
870.3003162032446
 21
-10.01208938835918
 31
0.0
  0
LINE
  5
212E
330
21
100
AcDbEntity
  8
0
  6
Continuous
100
AcDbLine
 10
843.5660016282448
 20
3.587910611640836
 30
0.0
 11
854.3003162032446
 21
3.587910611640836
 31
0.0
  0
LINE
  5
212F
330
21
100
AcDbEntity
  8
0
  6
Continuous
100
AcDbLine
 10
841.7003162032447
 20
5.287910611640825
 30
0.0
 11
856.0003162032446
 21
5.287910611640825
 31
0.0
  0
LINE
  5
2130
330
21
100
AcDbEntity
  8
0
  6
Continuous
100
AcDbLine
 10
842.3003162032445
 20
7.587910611640836
 30
0.0
 11
846.7003162032447
 21
7.587910611640836
 31
0.0
  0
LINE
  5
2131
330
21
100
AcDbEntity
  8
0
  6
Continuous
100
AcDbLine
 10
859.5429568903446
 20
7.587910611640836
 30
0.0
 11
863.3003162032446
 21
7.587910611640836
 31
0.0
  0
LINE
  5
2132
330
21
100
AcDbEntity
  8
0
  6
Continuous
100
AcDbLine
 10
886.3003162032446
 20
8.58791061164078
 30
0.0
 11
870.3003162032446
 21
8.587910611640837
 31
0.0
  0
LINE
  5
2133
330
21
100
AcDbEntity
  8
0
  6
Continuous
100
AcDbLine
 10
886.3003162032446
 20
8.987910611640814
 30
0.0
 11
870.8003162032445
 21
8.987910611640814
 31
0.0
  0
LINE
  5
2134
330
21
100
AcDbEntity
  8
0
  6
Continuous
100
AcDbLine
 10
848.7003162032447
 20
11.58791061164083
 30
0.0
 11
867.3003162032445
 21
11.58791061164083
 31
0.0
  0
LINE
  5
2135
330
21
100
AcDbEntity
  8
0
  6
Continuous
100
AcDbLine
 10
867.7003162032447
 20
12.58791061164084
 30
0.0
 11
870.8003162032445
 21
12.58791061164084
 31
0.0
  0
LINE
  5
2136
330
21
100
AcDbEntity
  8
0
  6
CENTER
100
AcDbLine
 10
886.3003162032446
 20
-24.42176679465916
 30
0.0
 11
886.3003162032446
 21
-19.42176679465916
 31
0.0
  0
LINE
  5
2137
330
21
100
AcDbEntity
  8
0
  6
Continuous
100
AcDbLine
 10
862.3003162032446
 20
-4.412089388359163
 30
0.0
 11
865.4216365468446
 21
-1.290769044759201
 31
0.0
  0
LINE
  5
2138
330
21
100
AcDbEntity
  8
0
  6
Continuous
100
AcDbLine
 10
890.2054410412446
 20
27.58791061164084
 30
0.0
 11
882.3951913653445
 21
27.58791061164084
 31
0.0
  0
LINE
  5
2139
330
21
100
AcDbEntity
  8
0
  6
Continuous
100
AcDbLine
 10
868.1220063506447
 20
12.58791061164084
 30
0.0
 11
870.8003162032445
 21
9.909600759040814
 31
0.0
  0
LINE
  5
213A
330
21
100
AcDbEntity
  8
0
  6
Continuous
100
AcDbLine
 10
854.3003162032446
 20
3.587910611640836
 30
0.0
 11
857.4216365468446
 21
6.709230955240798
 31
0.0
  0
LINE
  5
213B
330
21
100
AcDbEntity
  8
0
  6
Continuous
100
AcDbLine
 10
870.8003162032445
 20
8.987910611640814
 30
0.0
 11
870.8003162032445
 21
12.58791061164084
 31
0.0
  0
LINE
  5
213C
330
21
100
AcDbEntity
  8
0
  6
Continuous
100
AcDbLine
 10
870.3003162032446
 20
-10.01208938835918
 30
0.0
 11
870.3003162032446
 21
8.587910611640837
 31
0.0
  0
LINE
  5
213D
330
21
100
AcDbEntity
  8
0
  6
Continuous
100
AcDbLine
 10
867.7003162032447
 20
12.58791061164084
 30
0.0
 11
867.7003162032447
 21
27.58791061164084
 31
0.0
  0
LINE
  5
213E
330
21
100
AcDbEntity
  8
0
  6
Continuous
100
AcDbLine
 10
867.3003162032445
 20
11.58791061164083
 30
0.0
 11
867.3003162032445
 21
27.58791061164078
 31
0.0
  0
LINE
  5
213F
330
21
100
AcDbEntity
  8
0
  6
Continuous
100
AcDbLine
 10
864.8892325821448
 20
11.58791061164083
 30
0.0
 11
870.3003162032446
 21
6.176826990540803
 31
0.0
  0
LINE
  5
2140
330
21
100
AcDbEntity
  8
0
  6
Continuous
100
AcDbLine
 10
866.3003162032445
 20
4.587910611640836
 30
0.0
 11
866.3003162032445
 21
0.8305512987408292
 31
0.0
  0
LINE
  5
2141
330
21
100
AcDbEntity
  8
0
  6
Continuous
100
AcDbLine
 10
866.3003162032445
 20
-16.41208938835916
 30
0.0
 11
866.3003162032445
 21
-12.01208938835918
 31
0.0
  0
LINE
  5
2142
330
21
100
AcDbEntity
  8
0
  6
Continuous
100
AcDbLine
 10
864.0003162032446
 20
-2.712089388359174
 30
0.0
 11
864.0003162032446
 21
-17.01208938835918
 31
0.0
  0
LINE
  5
2143
330
21
100
AcDbEntity
  8
0
  6
Continuous
100
AcDbLine
 10
860.6564588137446
 20
11.58791061164083
 30
0.0
 11
870.3003162032446
 21
1.944053222140837
 31
0.0
  0
LINE
  5
2144
330
21
100
AcDbEntity
  8
0
  6
Continuous
100
AcDbLine
 10
856.4236850453447
 20
11.58791061164083
 30
0.0
 11
860.4236850453447
 21
7.587910611640836
 31
0.0
  0
LINE
  5
2145
330
21
100
AcDbEntity
  8
0
  6
Continuous
100
AcDbLine
 10
866.3003162032445
 20
1.711279453740814
 30
0.0
 11
870.3003162032446
 21
-2.288720546259185
 31
0.0
  0
LINE
  5
2146
330
21
100
AcDbEntity
  8
0
  6
Continuous
100
AcDbLine
 10
862.3003162032446
 20
-4.412089388359163
 30
0.0
 11
862.3003162032446
 21
-15.1464039633592
 31
0.0
  0
LINE
  5
2147
330
21
100
AcDbEntity
  8
0
  6
Continuous
100
AcDbLine
 10
852.1909112769446
 20
11.58791061164083
 30
0.0
 11
857.2456137401445
 21
6.533208148540836
 31
0.0
  0
LINE
  5
2148
330
21
100
AcDbEntity
  8
0
  6
Continuous
100
AcDbLine
 10
865.2456137401445
 20
-1.466791851459163
 30
0.0
 11
870.3003162032446
 21
-6.521494314659207
 31
0.0
  0
LINE
  5
2149
330
21
100
AcDbEntity
  8
0
  6
Continuous
100
AcDbLine
 10
848.1367700677447
 20
11.40927805244081
 30
0.0
 11
855.1292268558448
 21
4.416821264240809
 31
0.0
  0
LINE
  5
214A
330
21
100
AcDbEntity
  8
0
  6
Continuous
100
AcDbLine
 10
863.1292268558448
 20
-3.58317873575919
 30
0.0
 11
870.1216836440447
 21
-10.5756355238592
 31
0.0
  0
LINE
  5
214B
330
21
100
AcDbEntity
  8
0
  6
Continuous
100
AcDbLine
 10
847.4112410926446
 20
7.902033259140807
 30
0.0
 11
851.7253637401446
 21
3.587910611640836
 31
0.0
  0
LINE
  5
214C
330
21
100
AcDbEntity
  8
0
  6
Continuous
100
AcDbLine
 10
862.3003162032446
 20
-6.987041851459196
 30
0.0
 11
866.6144388507445
 21
-11.30116449895917
 31
0.0
  0
LINE
  5
214D
330
21
100
AcDbEntity
  8
0
  6
Continuous
100
AcDbLine
 10
843.4925899716446
 20
7.587910611640836
 30
0.0
 11
847.4925899716448
 21
3.587910611640836
 31
0.0
  0
LINE
  5
214E
330
21
100
AcDbEntity
  8
0
  6
Continuous
100
AcDbLine
 10
862.3003162032446
 20
-11.2198156199592
 30
0.0
 11
866.3003162032445
 21
-15.2198156199592
 31
0.0
  0
LINE
  5
214F
330
21
100
AcDbEntity
  8
0
  6
Continuous
100
AcDbLine
 10
848.7003162032447
 20
11.58791061164083
 30
0.0
 11
848.7003162032447
 21
27.58791061164078
 31
0.0
  0
LINE
  5
2150
330
21
100
AcDbEntity
  8
0
  6
Continuous
100
AcDbLine
 10
847.7003162032447
 20
8.587910611640837
 30
0.0
 11
847.7003162032447
 21
27.58791061164078
 31
0.0
  0
LINE
  5
2151
330
21
100
AcDbEntity
  8
0
  6
Continuous
100
AcDbLine
 10
846.7003162032447
 20
27.58791061164078
 30
0.0
 11
846.7003162032447
 21
7.587910611640836
 31
0.0
  0
LINE
  5
2152
330
21
100
AcDbEntity
  8
0
  6
Continuous
100
AcDbLine
 10
841.4174734908447
 20
5.57075332414081
 30
0.0
 11
843.2831589157446
 21
3.705067899240816
 31
0.0
  0
LINE
  5
2153
330
21
100
AcDbEntity
  8
0
  6
Continuous
100
AcDbLine
 10
862.4174734908446
 20
-15.42924667585919
 30
0.0
 11
864.2831589157447
 21
-17.29493210075918
 31
0.0
  0
LINE
  5
2154
330
21
100
AcDbEntity
  8
0
  6
Continuous
100
AcDbLine
 10
842.3003162032445
 20
7.587910611640836
 30
0.0
 11
842.3003162032445
 21
27.58791061164078
 31
0.0
  0
LINE
  5
2155
330
21
100
AcDbEntity
  8
0
  6
Continuous
100
AcDbLine
 10
841.3003162032445
 20
5.853596036640794
 30
0.0
 11
841.3003162032445
 21
27.58791061164089
 31
0.0
  0
ARC
  5
2156
330
21
100
AcDbEntity
  8
0
  6
Continuous
100
AcDbCircle
 10
869.3003162032447
 20
-10.01208938835918
 30
0.0
 40
1.0
100
AcDbArc
 50
270.0
 51
0.0
  0
ARC
  5
2157
330
21
100
AcDbEntity
  8
0
  6
Continuous
100
AcDbCircle
 10
842.3003162032445
 20
6.587910611640836
 30
0.0
 40
1.0
100
AcDbArc
 50
90.0
 51
179.999999999899
  0
ARC
  5
2158
330
21
100
AcDbEntity
  8
0
  6
Continuous
100
AcDbCircle
 10
848.7003162032447
 20
10.58791061164083
 30
0.0
 40
1.0
100
AcDbArc
 50
90.0
 51
180.0
  0
ARC
  5
2159
330
21
100
AcDbEntity
  8
0
  6
Continuous
100
AcDbCircle
 10
846.7003162032447
 20
8.587910611640837
 30
0.0
 40
1.0
100
AcDbArc
 50
270.0
 51
359.9999999997004
  0
ARC
  5
215A
330
21
100
AcDbEntity
  8
0
  6
Continuous
100
AcDbCircle
 10
841.7003162032447
 20
5.853596036640794
 30
0.0
 40
0.4
100
AcDbArc
 50
180.0
 51
225.0000000033025
  0
ARC
  5
215B
330
21
100
AcDbEntity
  8
0
  6
Continuous
100
AcDbCircle
 10
867.7003162032447
 20
12.1879106116408
 30
0.0
 40
0.4
100
AcDbArc
 50
90.0
 51
179.9999999937989
  0
ARC
  5
215C
330
21
100
AcDbEntity
  8
0
  6
Continuous
100
AcDbCircle
 10
870.4003162032448
 20
8.987910611640814
 30
0.0
 40
0.4
100
AcDbArc
 50
270.0000000063054
 51
0.0
  0
ARC
  5
215D
330
21
100
AcDbEntity
  8
0
  6
Continuous
100
AcDbCircle
 10
867.3003162032445
 20
-12.01208938835918
 30
0.0
 40
1.0
100
AcDbArc
 50
90.00000000029965
 51
180.0
  0
ARC
  5
215E
330
21
100
AcDbEntity
  8
0
  6
Continuous
100
AcDbCircle
 10
865.3003162032446
 20
-16.41208938835916
 30
0.0
 40
1.0
100
AcDbArc
 50
270.0000000001042
 51
0.0
  0
ARC
  5
215F
330
21
100
AcDbEntity
  8
0
  6
Continuous
100
AcDbCircle
 10
864.5660016282446
 20
-17.01208938835918
 30
0.0
 40
0.4
100
AcDbArc
 50
224.9999999973954
 51
269.9999999997004
  0
ARC
  5
2160
330
21
100
AcDbEntity
  8
0
  6
Continuous
100
AcDbCircle
 10
862.7003162032448
 20
-15.1464039633592
 30
0.0
 40
0.4
100
AcDbArc
 50
180.0
 51
225.0000000045023
  0
ARC
  5
2161
330
21
100
AcDbEntity
  8
0
  6
Continuous
100
AcDbCircle
 10
863.3003162032446
 20
0.8305512987408292
 30
0.0
 40
3.0
100
AcDbArc
 50
314.9999999998031
 51
0.0
  0
ARC
  5
2162
330
21
100
AcDbEntity
  8
0
  6
Continuous
100
AcDbCircle
 10
859.5429568903446
 20
4.587910611640836
 30
0.0
 40
3.0
100
AcDbArc
 50
90.0
 51
134.9999999999954
  0
ARC
  5
2163
330
21
100
AcDbEntity
  8
0
  6
Continuous
100
AcDbCircle
 10
843.5660016282448
 20
3.987910611640813
 30
0.0
 40
0.4
100
AcDbArc
 50
224.9999999919972
 51
270.0000000001042
  0
ARC
  5
2164
330
21
100
AcDbEntity
  8
0
  6
Continuous
100
AcDbCircle
 10
863.3003228951448
 20
4.587917303540791
 30
0.0
 40
2.9999991271
100
AcDbArc
 50
359.9998715590006
 51
90.00012881200456
  0
SPLINE
  5
2165
330
21
100
AcDbEntity
  8
0
  6
Continuous
100
AcDbSpline
210
0.0
220
0.0
230
1.0
 70
     8
 71
     3
 72
    23
 73
    19
 74
    17
 42
0.0000000001
 43
0.0000000001
 44
0.0000000001
 40
0.0
 40
0.0
 40
0.0
 40
0.0
 40
0.1635501871133182
 40
0.653498669082284
 40
1.478564615805512
 40
2.686331391142841
 40
4.320517790289515
 40
6.123267198227402
 40
7.87295082164393
 40
9.520504274208504
 40
11.05185869239857
 40
12.4744167590214
 40
13.80835264277685
 40
15.08034450388422
 40
16.28038492941166
 40
17.40495058917221
 40
18.39906856263723
 40
19.22199807908113
 40
19.22199807908113
 40
19.22199807908113
 40
19.22199807908113
 10
870.8003162032445
 20
12.58791061164084
 30
0.0
 10
870.8382252786673
 20
12.627089378426
 30
0.0
 10
870.9896988463365
 20
12.78363626108194
 30
0.0
 10
871.3322096279424
 20
13.13802636226961
 30
0.0
 10
871.9159683496455
 20
13.74332344132953
 30
0.0
 10
872.7628114004849
 20
14.62478474207446
 30
0.0
 10
873.8318647238447
 20
15.74468094946782
 30
0.0
 10
875.0193208839778
 20
17.00125859380573
 30
0.0
 10
876.2006886189229
 20
18.26967163351345
 30
0.0
 10
877.30844418433
 20
19.48292805972965
 30
0.0
 10
878.3272497752539
 20
20.62960008783163
 30
0.0
 10
879.2563206426778
 20
21.71585521150216
 30
0.0
 10
880.1016079119952
 20
22.7596280988856
 30
0.0
 10
880.8596200655543
 20
23.77729165876364
 30
0.0
 10
881.515898937701
 20
24.78281128185778
 30
0.0
 10
882.0198749202541
 20
25.76875282439012
 30
0.0
 10
882.3392752232496
 20
26.70663791448209
 30
0.0
 10
882.3777612727093
 20
27.31320166047086
 30
0.0
 10
882.3951913653445
 20
27.58791061164084
 30
0.0
 11
870.8003162032445
 21
12.58791061164084
 31
0.0
 11
870.9140377904445
 21
12.70545236724081
 31
0.0
 11
871.2545326501446
 21
13.05774878434079
 31
0.0
 11
871.8272593173447
 21
13.6516494335408
 31
0.0
 11
872.6639415578446
 21
14.52266229914079
 31
0.0
 11
873.7921192007448
 21
15.70493992864084
 31
0.0
 11
875.0298605357448
 21
17.01562746404079
 31
0.0
 11
876.2217054161446
 21
18.29660309344081
 31
0.0
 11
877.3316988293448
 21
19.51411982914084
 31
0.0
 11
878.3475803493448
 21
20.65999551674082
 31
0.0
 11
879.2704956139445
 21
21.74253829524082
 31
0.0
 11
880.1073242287447
 21
22.78133703004079
 31
0.0
 11
880.8630251995445
 21
23.80450824614081
 31
0.0
 11
881.5107057021446
 21
24.81475919984081
 31
0.0
 11
882.0138515139447
 21
25.8204888927408
 31
0.0
 11
882.3103273452447
 21
26.76936856194084
 31
0.0
 11
882.3951913653445
 21
27.58791061164084
 31
0.0
  0
SPLINE
  5
2167
330
21
100
AcDbEntity
  8
0
  6
Continuous
100
AcDbSpline
210
0.0
220
0.0
230
1.0
 70
     8
 71
     3
 72
    13
 73
     9
 74
     0
 42
0.0000000001
 43
0.0000000001
 40
8.064600138751901
 40
8.064600138751901
 40
8.064600138751901
 40
8.064600138751901
 40
8.825273792183698
 40
10.55201596911984
 40
12.18102457789944
 40
13.67029968540243
 40
14.99389124741936
 40
16.1291079842236
 40
16.1291079842236
 40
16.1291079842236
 40
16.1291079842236
 10
869.8494200269903
 20
27.58791061164084
 30
0.0
 10
869.8494197267446
 20
27.84148530313576
 30
0.0
 10
869.842252298266
 20
28.67067905568132
 30
0.0
 10
869.7916108767682
 20
30.04223970649383
 30
0.0
 10
869.670838167369
 20
31.65308347661607
 30
0.0
 10
869.5109087501043
 20
33.12526094695966
 30
0.0
 10
869.3364775183127
 20
34.42976096118343
 30
0.0
 10
869.2163547886115
 20
35.24051655538329
 30
0.0
 10
869.1608948597946
 20
35.6148374491408
 30
0.0
  0
SPLINE
  5
2168
330
21
100
AcDbEntity
  8
0
  6
Continuous
100
AcDbSpline
210
0.0
220
0.0
230
1.0
 70
     8
 71
     3
 72
    13
 73
     9
 74
     0
 42
0.0000000001
 43
0.0000000001
 40
9.199680495670428
 40
9.199680495670428
 40
9.199680495670428
 40
9.199680495670428
 40
10.05864986625797
 40
12.01233800885561
 40
13.86501251889123
 40
15.56902962997279
 40
17.09074988376008
 40
18.39935403453506
 40
18.39935403453506
 40
18.39935403453506
 40
18.39935403453506
 10
873.0714163379085
 20
27.58791061164084
 30
0.0
 10
873.071416541296
 20
27.87424330025533
 30
0.0
 10
873.0656797227343
 20
28.81182715587113
 30
0.0
 10
873.0249867381983
 20
30.36660491958475
 30
0.0
 10
872.9281873533556
 20
32.20104051864865
 30
0.0
 10
872.800250609597
 20
33.88911665168871
 30
0.0
 10
872.6608373770082
 20
35.39416327110871
 30
0.0
 10
872.56494909668
 20
36.3327208534771
 30
0.0
 10
872.5206150261946
 20
36.7666641661408
 30
0.0
  0
SPLINE
  5
2169
330
21
100
AcDbEntity
  8
0
  6
Continuous
100
AcDbSpline
210
0.0
220
0.0
230
1.0
 70
     8
 71
     3
 72
    11
 73
     7
 74
     5
 42
0.0000000001
 43
0.0000000001
 44
0.0000000001
 40
0.0
 40
0.0
 40
0.0
 40
0.0
 40
0.9843959281142459
 40
1.913408942326139
 40
2.774944400444462
 40
3.553060759939977
 40
3.553060759939977
 40
3.553060759939977
 40
3.553060759939977
 10
869.1608948597946
 20
35.6148374491408
 30
0.0
 10
869.1190932786744
 20
35.9405314753857
 30
0.0
 10
869.0378419073162
 20
36.57359571760884
 30
0.0
 10
869.0194808382209
 20
37.4996714142803
 30
0.0
 10
869.073365839233
 20
38.35664762177161
 30
0.0
 10
869.1863322287866
 20
38.89202866263153
 30
0.0
 10
869.2399417785946
 20
39.14610013194084
 30
0.0
 11
869.1608948597946
 21
35.6148374491408
 31
0.0
 11
869.0536448643948
 21
36.59337348924083
 31
0.0
 11
869.0323352553946
 21
37.52214207244083
 31
0.0
 11
869.0968078172945
 21
38.3812617581408
 31
0.0
 11
869.2399417785946
 21
39.14610013194084
 31
0.0
  0
SPLINE
  5
216A
330
21
100
AcDbEntity
  8
0
  6
Continuous
100
AcDbSpline
210
0.0
220
0.0
230
1.0
 70
     8
 71
     3
 72
    12
 73
     8
 74
     6
 42
0.0000000001
 43
0.0000000001
 44
0.0000000001
 40
0.0
 40
0.0
 40
0.0
 40
0.0
 40
0.5899433526053984
 40
1.285183228683884
 40
2.046511325582346
 40
2.828246492618108
 40
3.582843507086813
 40
3.582843507086813
 40
3.582843507086813
 40
3.582843507086813
 10
872.5206002729946
 20
36.7666641611408
 30
0.0
 10
872.3553827639248
 20
36.65950244102049
 30
0.0
 10
871.9954587630803
 20
36.4260521532135
 30
0.0
 10
871.3670210463511
 20
36.15388326702944
 30
0.0
 10
870.6610027479728
 20
35.9125134343478
 30
0.0
 10
869.9173307271933
 20
35.72261898450516
 30
0.0
 10
869.4100333670115
 20
35.65053868570582
 30
0.0
 10
869.1608652000946
 20
35.61513515844081
 30
0.0
 11
872.5206002729946
 21
36.7666641611408
 31
0.0
 11
872.0176303422948
 21
36.45835521204083
 31
0.0
 11
871.3845449540947
 21
36.17102025674081
 31
0.0
 11
870.6643447612945
 21
35.92417586564079
 31
0.0
 11
869.9059474633946
 21
35.73458839264083
 31
0.0
 11
869.1608652000946
 21
35.61513515844081
 31
0.0
  0
SPLINE
  5
216B
330
21
100
AcDbEntity
  8
0
  6
Continuous
100
AcDbSpline
210
0.0
220
0.0
230
1.0
 70
     8
 71
     3
 72
    11
 73
     7
 74
     5
 42
0.0000000001
 43
0.0000000001
 44
0.0000000001
 40
0.0
 40
0.0
 40
0.0
 40
0.0
 40
0.7338858622486923
 40
1.402536817382647
 40
2.014968370568306
 40
2.575590615240986
 40
2.575590615240986
 40
2.575590615240986
 40
2.575590615240986
 10
872.5206002729946
 20
36.7666641611408
 30
0.0
 10
872.4915026411204
 20
37.01004648477275
 30
0.0
 10
872.4358938576548
 20
37.47517694599735
 30
0.0
 10
872.4774687860523
 20
38.14829273156058
 30
0.0
 10
872.5978942409583
 20
38.75429502883264
 30
0.0
 10
872.7549949388988
 20
39.11343957222749
 30
0.0
 10
872.8300760187947
 20
39.2850808221408
 30
0.0
 11
872.5206002729946
 21
36.7666641611408
 31
0.0
 11
872.4564561880947
 21
37.49774144514083
 31
0.0
 11
872.4942481265946
 21
38.1653235518408
 31
0.0
 11
872.6231958248947
 21
38.76402623134083
 31
0.0
 11
872.8300760187947
 21
39.2850808221408
 31
0.0
  0
SPLINE
  5
216C
330
21
100
AcDbEntity
  8
0
  6
Continuous
100
AcDbSpline
210
0.0
220
0.0
230
1.0
 70
     8
 71
     3
 72
    13
 73
     9
 74
     7
 42
0.0000000001
 43
0.0000000001
 44
0.0000000001
 40
0.0
 40
0.0
 40
0.0
 40
0.0
 40
0.5921090760341041
 40
1.21305244059594
 40
1.868408753604247
 40
2.555716543297057
 40
3.265755637615002
 40
3.978985150133355
 40
3.978985150133355
 40
3.978985150133355
 40
3.978985150133355
 10
873.5424709434946
 20
40.66902039034078
 30
0.0
 10
873.3742964678377
 20
40.56322480835696
 30
0.0
 10
873.029757823864
 20
40.34648165388735
 30
0.0
 10
872.4093524765464
 20
40.21492297971174
 30
0.0
 10
871.7506645166293
 20
40.22511570631335
 30
0.0
 10
871.0818199501263
 20
40.39078097638711
 30
0.0
 10
870.4366909164907
 20
40.6873266247825
 30
0.0
 10
870.0645562238171
 20
40.98393454630899
 30
0.0
 10
869.8780717863947
 20
41.13257094724082
 30
0.0
 11
873.5424709434946
 21
40.66902039034078
 31
0.0
 11
873.0240677652945
 21
40.38292372354084
 31
0.0
 11
872.4197528351947
 21
40.24018575644084
 31
0.0
 11
871.7644572281948
 21
40.24910564694079
 31
0.0
 11
871.0960457490946
 21
40.4091621756408
 31
0.0
 11
870.4533228117945
 21
40.7109282130408
 31
0.0
 11
869.8780717863947
 21
41.13257094724082
 31
0.0
  0
SPLINE
  5
216D
330
21
100
AcDbEntity
  8
0
  6
Continuous
100
AcDbSpline
210
0.0
220
0.0
230
1.0
 70
     8
 71
     3
 72
    10
 73
     6
 74
     4
 42
0.0000000001
 43
0.0000000001
 44
0.0000000001
 40
0.0
 40
0.0
 40
0.0
 40
0.0
 40
0.7877677280037886
 40
1.48269816708345
 40
2.088105955583607
 40
2.088105955583607
 40
2.088105955583607
 40
2.088105955583607
 10
869.2399417785946
 20
39.14610013194084
 30
0.0
 10
869.3078988068824
 20
39.39979601858009
 30
0.0
 10
869.4358042258293
 20
39.87729009804666
 30
0.0
 10
869.6554592476502
 20
40.53815540933725
 30
0.0
 10
869.8073533688978
 20
40.94411901377068
 30
0.0
 10
869.8780718035946
 20
41.13312639874084
 30
0.0
 11
869.2399417785946
 21
39.14610013194084
 31
0.0
 11
869.4517351583947
 21
39.90486330814082
 31
0.0
 11
869.6691911432948
 21
40.5648945269408
 31
0.0
 11
869.8780718035946
 21
41.13312639874084
 31
0.0
  0
SPLINE
  5
216E
330
21
100
AcDbEntity
  8
0
  6
Continuous
100
AcDbSpline
210
0.0
220
0.0
230
1.0
 70
     8
 71
     3
 72
    13
 73
     9
 74
     7
 42
0.0000000001
 43
0.0000000001
 44
0.0000000001
 40
0.0
 40
0.0
 40
0.0
 40
0.0
 40
0.504602178104961
 40
1.064120240812835
 40
1.689407210742022
 40
2.374546801110086
 40
3.102046818185346
 40
3.847653994842475
 40
3.847653994842475
 40
3.847653994842475
 40
3.847653994842475
 10
872.8300271684947
 20
39.2851214288408
 30
0.0
 10
872.7100222583799
 20
39.16497297376073
 30
0.0
 10
872.4569522967524
 20
38.91160030019585
 30
0.0
 10
871.9179350028859
 20
38.70577163106946
 30
0.0
 10
871.2982652053765
 20
38.61802285796517
 30
0.0
 10
870.6163210010188
 20
38.66630607027474
 30
0.0
 10
869.9119012626858
 20
38.83328231927281
 30
0.0
 10
869.4657522740155
 20
39.04097013644736
 30
0.0
 10
869.2399357894947
 20
39.14609047504081
 30
0.0
 11
872.8300271684947
 21
39.2851214288408
 31
0.0
 11
872.4505741832948
 21
38.95249733144084
 31
0.0
 11
871.9356618851945
 21
38.73357773944082
 31
0.0
 11
871.3171319796948
 21
38.6419014024408
 31
0.0
 11
870.6332344882947
 21
38.6831382736408
 31
0.0
 11
869.9262623532947
 21
38.85473860924083
 31
0.0
 11
869.2399357894947
 21
39.14609047504081
 31
0.0
  0
SPLINE
  5
216F
330
21
100
AcDbEntity
  8
0
  6
Continuous
100
AcDbSpline
210
0.0
220
0.0
230
1.0
 70
     8
 71
     3
 72
    10
 73
     6
 74
     4
 42
0.0000000001
 43
0.0000000001
 44
0.0000000001
 40
0.0
 40
0.0
 40
0.0
 40
0.0
 40
0.5909879082803163
 40
1.109944876227289
 40
1.558931808665082
 40
1.558931808665082
 40
1.558931808665082
 40
1.558931808665082
 10
872.8300302047946
 20
39.28514881324082
 30
0.0
 10
872.905956123849
 20
39.46702390552095
 30
0.0
 10
873.0485539395513
 20
39.80860674327663
 30
0.0
 10
873.2932496728381
 20
40.2679141581083
 30
0.0
 10
873.4635747983081
 20
40.54196789502308
 30
0.0
 10
873.5425811906946
 20
40.66908946334081
 30
0.0
 11
872.8300302047946
 21
39.28514881324082
 31
0.0
 11
873.0667731828946
 21
39.82664624634083
 31
0.0
 11
873.3095195125947
 21
40.28532974724083
 31
0.0
 11
873.5425811906946
 21
40.66908946334081
 31
0.0
  0
SPLINE
  5
2170
330
21
100
AcDbEntity
  8
0
  6
Continuous
100
AcDbSpline
210
0.0
220
0.0
230
1.0
 70
     8
 71
     3
 72
    11
 73
     7
 74
     5
 42
0.0000000001
 43
0.0000000001
 44
0.0000000001
 40
0.0
 40
0.0
 40
0.0
 40
0.0
 40
0.7972113807347494
 40
1.534899905886124
 40
2.223547015404719
 40
2.870029478594402
 40
2.870029478594402
 40
2.870029478594402
 40
2.870029478594402
 10
902.8754873418947
 20
17.12558446824079
 30
0.0
 10
902.7760227845314
 20
16.87882300321133
 30
0.0
 10
902.5845200746791
 20
16.40372422940687
 30
0.0
 10
902.2126703322731
 20
15.76039570030437
 30
0.0
 10
901.8156460310412
 20
15.19331992715985
 30
0.0
 10
901.5186688833605
 20
14.86138962016028
 30
0.0
 10
901.3748697181947
 20
14.7006658021408
 30
0.0
 11
902.8754873418947
 21
17.12558446824079
 31
0.0
 11
902.5595096007945
 21
16.3936664040408
 31
0.0
 11
902.1951957319947
 21
15.75221510804079
 31
0.0
 11
901.7965961275947
 21
15.19065193544082
 31
0.0
 11
901.3748697181947
 21
14.7006658021408
 31
0.0
  0
SPLINE
  5
2171
330
21
100
AcDbEntity
  8
0
  6
Continuous
100
AcDbSpline
210
0.0
220
0.0
230
1.0
 70
     8
 71
     3
 72
    12
 73
     8
 74
     6
 42
0.0000000001
 43
0.0000000001
 44
0.0000000001
 40
0.0
 40
0.0
 40
0.0
 40
0.0
 40
0.4374974760099509
 40
0.9515910059362378
 40
1.555029156019725
 40
2.237453323597053
 40
2.974552535946616
 40
2.974552535946616
 40
2.974552535946616
 40
2.974552535946616
 10
900.1043526581948
 20
16.5719116542408
 30
0.0
 10
900.1992305673782
 20
16.68496722317815
 30
0.0
 10
900.4055973923123
 20
16.93087187056711
 30
0.0
 10
900.8977851364031
 20
17.13790117833996
 30
0.0
 10
901.4873066428056
 20
17.24924414992862
 30
0.0
 10
902.1671124194254
 20
17.25311740114383
 30
0.0
 10
902.6333760896631
 20
17.16918398355945
 30
0.0
 10
902.8754873425945
 20
17.1256008648408
 30
0.0
 11
900.1043526581948
 21
16.5719116542408
 31
0.0
 11
900.4090297867946
 21
16.88587962844082
 31
0.0
 11
900.8721093457946
 21
17.10914959854079
 31
0.0
 11
901.4638512592948
 21
17.22738287974079
 31
0.0
 11
902.1462524197945
 21
17.23298650734079
 31
0.0
 11
902.8754873425945
 21
17.1256008648408
 31
0.0
  0
SPLINE
  5
2172
330
21
100
AcDbEntity
  8
0
  6
Continuous
100
AcDbSpline
210
0.0
220
0.0
230
1.0
 70
     8
 71
     3
 72
    10
 73
     6
 74
     4
 42
0.0000000001
 43
0.0000000001
 44
0.0000000001
 40
0.0
 40
0.0
 40
0.0
 40
0.0
 40
0.7585619324014054
 40
1.430719290640845
 40
2.034013329857642
 40
2.034013329857642
 40
2.034013329857642
 40
2.034013329857642
 10
900.1043528891946
 20
16.57191240054084
 30
0.0
 10
900.0295453760839
 20
16.33012571259187
 30
0.0
 10
899.888451356571
 20
15.87409323338001
 30
0.0
 10
899.5915436425117
 20
15.2608195388282
 30
0.0
 10
899.3533431114331
 20
14.90830604060717
 30
0.0
 10
899.2406732277945
 20
14.7415656280408
 30
0.0
 11
900.1043528891946
 21
16.57191240054084
 31
0.0
 11
899.8608852717946
 21
15.85348375094082
 31
0.0
 11
899.5670440272947
 21
15.2489567976408
 31
0.0
 11
899.2406732277945
 21
14.7415656280408
 31
0.0
  0
SPLINE
  5
2173
330
21
100
AcDbEntity
  8
0
  6
Continuous
100
AcDbSpline
210
0.0
220
0.0
230
1.0
 70
     8
 71
     3
 72
    11
 73
     7
 74
     5
 42
0.0000000001
 43
0.0000000001
 44
0.0000000001
 40
0.0
 40
0.0
 40
0.0
 40
0.0
 40
0.6638768964057588
 40
1.316410573230709
 40
1.952961489805905
 40
2.573661821682429
 40
2.573661821682429
 40
2.573661821682429
 40
2.573661821682429
 10
902.9607041449947
 20
19.66077110674081
 30
0.0
 10
903.008345944163
 20
19.44424268612369
 30
0.0
 10
903.1028155190081
 20
19.01488552088937
 30
0.0
 10
903.1260673497709
 20
18.36146677505526
 30
0.0
 10
903.0632784988661
 20
17.72428198837763
 30
0.0
 10
902.9375560526521
 20
17.32346590103984
 30
0.0
 10
902.8754873418947
 20
17.12558446824079
 30
0.0
 11
902.9607041449947
 21
19.66077110674081
 31
0.0
 11
903.0835894745947
 21
19.00836653184081
 31
0.0
 11
903.1114651484947
 21
18.35642853924082
 31
0.0
 11
903.0411252608946
 21
17.7237758939408
 31
0.0
 11
902.8754873418947
 21
17.12558446824079
 31
0.0
  0
SPLINE
  5
2174
330
21
100
AcDbEntity
  8
0
  6
Continuous
100
AcDbSpline
210
0.0
220
0.0
230
1.0
 70
     8
 71
     3
 72
    12
 73
     8
 74
     6
 42
0.0000000001
 43
0.0000000001
 44
0.0000000001
 40
0.0
 40
0.0
 40
0.0
 40
0.0
 40
0.4642234178507701
 40
1.018750878946712
 40
1.646479892453687
 40
2.322358878388431
 40
3.016995085723
 40
3.016995085723
 40
3.016995085723
 40
3.016995085723
 10
900.2648832563945
 20
18.40915706304082
 30
0.0
 10
900.3753147694226
 20
18.5182147074707
 30
0.0
 10
900.617659719365
 20
18.757544665518
 30
0.0
 10
901.0925086507879
 20
19.04127281086205
 30
0.0
 10
901.6549332328556
 20
19.30068254027894
 30
0.0
 10
902.2871874881137
 20
19.51649456561314
 30
0.0
 10
902.734213866791
 20
19.61195026910903
 30
0.0
 10
902.9607861147948
 20
19.66033133644083
 30
0.0
 11
900.2648832563945
 21
18.40915706304082
 31
0.0
 11
900.6068642367947
 21
18.72308761384079
 31
0.0
 11
901.0751112437947
 21
19.02014896364079
 31
0.0
 11
901.6445070656946
 21
19.28440662654083
 31
0.0
 11
902.2845087825947
 21
19.50168572354079
 31
0.0
 11
902.9607861147948
 21
19.66033133644083
 31
0.0
  0
SPLINE
  5
2175
330
21
100
AcDbEntity
  8
0
  6
Continuous
100
AcDbSpline
210
0.0
220
0.0
230
1.0
 70
     8
 71
     3
 72
    11
 73
     7
 74
     5
 42
0.0000000001
 43
0.0000000001
 44
0.0000000001
 40
0.0
 40
0.0
 40
0.0
 40
0.0
 40
0.4820957819984472
 40
0.9552761676125245
 40
1.41537184770019
 40
1.860324364335566
 40
1.860324364335566
 40
1.860324364335566
 40
1.860324364335566
 10
900.2648832563945
 20
18.40915706304082
 30
0.0
 10
900.2822013821262
 20
18.2492015013729
 30
0.0
 10
900.3165173695236
 20
17.93224843593634
 30
0.0
 10
900.2994178958821
 20
17.45947561449661
 30
0.0
 10
900.2356395634434
 20
17.00296669761672
 30
0.0
 10
900.1476167765259
 20
16.7139802098217
 30
0.0
 10
900.1043417766945
 20
16.57190461044081
 30
0.0
 11
900.2648832563945
 21
18.40915706304082
 31
0.0
 11
900.3051584168948
 21
17.92874655684079
 31
0.0
 11
900.2910563502948
 21
17.4557763579408
 31
0.0
 11
900.2230142727947
 21
17.00073975444081
 31
0.0
 11
900.1043417766945
 21
16.57190461044081
 31
0.0
  0
SPLINE
  5
2176
330
21
100
AcDbEntity
  8
0
  6
Continuous
100
AcDbSpline
210
0.0
220
0.0
230
1.0
 70
     8
 71
     3
 72
    16
 73
    12
 74
    10
 42
0.0000000001
 43
0.0000000001
 44
0.0000000001
 40
0.0
 40
0.0
 40
0.0
 40
0.0
 40
1.812519970037212
 40
3.822445012259139
 40
5.690566916365098
 40
7.383951752564617
 40
9.016699088526991
 40
10.71578881739161
 40
12.5816046303889
 40
14.55761896869359
 40
16.300943920718
 40
16.300943920718
 40
16.300943920718
 40
16.300943920718
 10
902.9607301251946
 20
35.51513969514082
 30
0.0
 10
902.7985246746518
 20
34.93310853892198
 30
0.0
 10
902.4564476627356
 20
33.70565608220644
 30
0.0
 10
901.8928453530377
 20
31.89437755006484
 30
0.0
 10
901.4258456900573
 20
30.09530457607086
 30
0.0
 10
901.1667051855405
 20
28.37823296459439
 30
0.0
 10
901.1750969358923
 20
26.69588443608336
 30
0.0
 10
901.4480904017601
 20
24.98006720837388
 30
0.0
 10
901.9194711567244
 20
23.19286846309775
 30
0.0
 10
902.4729411938447
 20
21.41523809109289
 30
0.0
 10
902.8050421299618
 20
20.22068215666583
 30
0.0
 10
902.9607041449947
 20
19.66077110674081
 30
0.0
 11
902.9607301251946
 21
35.51513969514082
 31
0.0
 11
902.4659061029947
 21
33.77147177124084
 31
0.0
 11
901.8946569232946
 21
31.84443439484079
 31
0.0
 11
901.4444473274945
 21
30.03137323524084
 31
0.0
 11
901.2081311166946
 21
28.3545587398408
 31
0.0
 11
901.2156741849947
 21
26.72182882794084
 31
0.0
 11
901.4656931078945
 21
25.04123475294079
 31
0.0
 11
901.9228040795947
 21
23.23227974864079
 31
0.0
 11
902.4857050632947
 21
21.33813742354079
 31
0.0
 11
902.9607041449947
 21
19.66077110674081
 31
0.0
  0
SPLINE
  5
2177
330
21
100
AcDbEntity
  8
0
  6
Continuous
100
AcDbSpline
210
0.0
220
0.0
230
1.0
 70
     8
 71
     3
 72
    12
 73
     8
 74
     6
 42
0.0000000001
 43
0.0000000001
 44
0.0000000001
 40
0.0
 40
0.0
 40
0.0
 40
0.0
 40
0.4642450743859639
 40
1.01880075129633
 40
1.646558791106038
 40
2.322462793395943
 40
3.017115939153144
 40
3.017115939153144
 40
3.017115939153144
 40
3.017115939153144
 10
900.2648673888945
 20
36.76666432024081
 30
0.0
 10
900.375292269324
 20
36.65758984767759
 30
0.0
 10
900.6176232219834
 20
36.41822240852567
 30
0.0
 10
901.0924537771914
 20
36.13441420228724
 30
0.0
 10
901.6548626462051
 20
35.87490497934295
 30
0.0
 10
902.2871024038418
 20
35.65897833461298
 30
0.0
 10
902.7341252581098
 20
35.5634393410889
 30
0.0
 10
902.9606943087946
 20
35.51501636034084
 30
0.0
 11
900.2648673888945
 21
36.76666432024081
 31
0.0
 11
900.6068290308947
 21
36.45268068294081
 31
0.0
 11
901.0750589759945
 21
36.15553977814079
 31
0.0
 11
901.6444399726948
 21
35.89118123914079
 31
0.0
 11
902.2844287214946
 21
35.67378615704081
 31
0.0
 11
902.9606943087946
 21
35.51501636034084
 31
0.0
  0
SPLINE
  5
2178
330
21
100
AcDbEntity
  8
0
  6
Continuous
100
AcDbSpline
210
0.0
220
0.0
230
1.0
 70
     8
 71
     3
 72
    16
 73
    12
 74
    10
 42
0.0000000001
 43
0.0000000001
 44
0.0000000001
 40
0.0
 40
0.0
 40
0.0
 40
0.0
 40
2.028934462491157
 40
4.27163944111096
 40
6.378565443360767
 40
8.322389650625125
 40
10.21288994023765
 40
12.16134801665303
 40
14.2637568655016
 40
16.4682364884271
 40
18.42019585184377
 40
18.42019585184377
 40
18.42019585184377
 40
18.42019585184377
 10
900.2648700365947
 20
36.76666431954084
 30
0.0
 10
900.2000622506035
 20
36.09345931378442
 30
0.0
 10
900.0636184670068
 20
34.67611976551154
 30
0.0
 10
899.8363571317398
 20
32.56209746749332
 30
0.0
 10
899.649595252253
 20
30.47236389950702
 30
0.0
 10
899.5472447442853
 20
28.49387668164992
 30
0.0
 10
899.5505412270534
 20
26.56528964595297
 30
0.0
 10
899.6584318582507
 20
24.58709018378685
 30
0.0
 10
899.8470964465446
 20
22.51031300033815
 30
0.0
 10
900.0702297926678
 20
20.43598384393119
 30
0.0
 10
900.2026720785974
 20
19.056836416095
 30
0.0
 10
900.2648700227948
 20
18.40915705784079
 30
0.0
 11
900.2648700365947
 21
36.76666431954084
 31
0.0
 11
900.0668933982947
 21
34.74741190744083
 31
0.0
 11
899.8384036587949
 21
32.51637670824084
 31
0.0
 11
899.6583971489947
 21
30.41715427234084
 31
0.0
 11
899.5638639461947
 21
28.47563012304079
 31
0.0
 11
899.5668833484947
 21
26.58513224464082
 31
0.0
 11
899.6668839049945
 21
24.63924202054079
 31
0.0
 11
899.8496526192946
 21
22.54479255474081
 31
0.0
 11
900.0748051606947
 21
20.35184094994082
 31
0.0
 11
900.2648700227948
 21
18.40915705784079
 31
0.0
  0
SPLINE
  5
2179
330
21
100
AcDbEntity
  8
0
  6
Continuous
100
AcDbSpline
210
0.0
220
0.0
230
1.0
 70
     8
 71
     3
 72
    11
 73
     7
 74
     5
 42
0.0000000001
 43
0.0000000001
 44
0.0000000001
 40
0.0
 40
0.0
 40
0.0
 40
0.0
 40
0.62075334666169
 40
1.257304134007159
 40
1.909811475216771
 40
2.573567656386516
 40
2.573567656386516
 40
2.573567656386516
 40
2.573567656386516
 10
902.8754857930946
 20
38.05023636664083
 30
0.0
 10
902.9375570648756
 20
37.8523373460855
 30
0.0
 10
903.0632792491097
 20
37.45150300826306
 30
0.0
 10
903.1260743957853
 20
36.81430942534908
 30
0.0
 10
903.1028009385966
 20
36.16094125890348
 30
0.0
 10
903.0083561060827
 20
35.73162985379338
 30
0.0
 10
902.9607301251946
 20
35.51513969514082
 30
0.0
 11
902.8754857930946
 21
38.05023636664083
 31
0.0
 11
903.0411309699946
 21
37.45199194104083
 31
0.0
 11
903.1114680717946
 21
36.8193391160408
 31
0.0
 11
903.0835806645946
 21
36.16742798494079
 31
0.0
 11
902.9607301251946
 21
35.51513969514082
 31
0.0
  0
SPLINE
  5
217A
330
21
100
AcDbEntity
  8
0
  6
Continuous
100
AcDbSpline
210
0.0
220
0.0
230
1.0
 70
     8
 71
     3
 72
    12
 73
     8
 74
     6
 42
0.0000000001
 43
0.0000000001
 44
0.0000000001
 40
0.0
 40
0.0
 40
0.0
 40
0.0
 40
0.4374996090158614
 40
0.9515976468752837
 40
1.555042540788658
 40
2.237474587437291
 40
2.974581289315182
 40
2.974581289315182
 40
2.974581289315182
 40
2.974581289315182
 10
900.1043255871946
 20
38.60395375194082
 30
0.0
 10
900.1992033686197
 20
38.49089710220346
 30
0.0
 10
900.405570349719
 20
38.24498958677576
 30
0.0
 10
900.8977621068741
 20
38.03795752413328
 30
0.0
 10
901.4872893262116
 20
37.9266112347989
 30
0.0
 10
902.1671024519783
 20
37.92273434944526
 30
0.0
 10
902.6333717695375
 20
38.00666521315702
 30
0.0
 10
902.8754857936947
 20
38.05024697674083
 30
0.0
 11
900.1043255871946
 21
38.60395375194082
 31
0.0
 11
900.4090026305945
 21
38.28998272284082
 31
0.0
 11
900.8720856021946
 21
38.06670945094083
 31
0.0
 11
901.4638336971948
 21
37.94847268824083
 31
0.0
 11
902.1462427066946
 21
37.94286536744079
 31
0.0
 11
902.8754857936947
 21
38.05024697674083
 31
0.0
  0
SPLINE
  5
217B
330
21
100
AcDbEntity
  8
0
  6
Continuous
100
AcDbSpline
210
0.0
220
0.0
230
1.0
 70
     8
 71
     3
 72
    11
 73
     7
 74
     5
 42
0.0000000001
 43
0.0000000001
 44
0.0000000001
 40
0.0
 40
0.0
 40
0.0
 40
0.0
 40
0.4450116288302043
 40
0.9051078553988955
 40
1.378372589403302
 40
1.860404356746678
 40
1.860404356746678
 40
1.860404356746678
 40
1.860404356746678
 10
900.1043255871946
 20
38.60395375194082
 30
0.0
 10
900.1476140449959
 20
38.46186093280542
 30
0.0
 10
900.2356583132033
 20
38.17285876193338
 30
0.0
 10
900.2993909606206
 20
37.71629501521477
 30
0.0
 10
900.3165320094424
 20
37.24351755214882
 30
0.0
 10
900.2822065594174
 20
36.92655773430004
 30
0.0
 10
900.2648863270946
 20
36.76662340924082
 30
0.0
 11
900.1043255871946
 21
38.60395375194082
 31
0.0
 11
900.2230241291948
 21
38.17506448194081
 31
0.0
 11
900.2910419594945
 21
37.72002370084084
 31
0.0
 11
900.3051618328946
 21
37.2469696472408
 31
0.0
 11
900.2648863270946
 21
36.76662340924082
 31
0.0
  0
SPLINE
  5
217C
330
21
100
AcDbEntity
  8
0
  6
Continuous
100
AcDbSpline
210
0.0
220
0.0
230
1.0
 70
     8
 71
     3
 72
    17
 73
    13
 74
    11
 42
0.0000000001
 43
0.0000000001
 44
0.0000000001
 40
0.0
 40
0.0
 40
0.0
 40
0.0
 40
0.7082199526333136
 40
1.437954115155365
 40
2.187621452043766
 40
2.96397612122685
 40
3.780504007583259
 40
4.652499597270633
 40
5.591753254525563
 40
6.602288610230975
 40
7.712750797822888
 40
8.956350642872785
 40
8.956350642872785
 40
8.956350642872785
 40
8.956350642872785
 10
895.9181771136945
 20
42.77704476654082
 30
0.0
 10
896.1543272713059
 20
42.77112520588037
 30
0.0
 10
896.6338013240621
 20
42.75910626094674
 30
0.0
 10
897.3575597839321
 20
42.65816043382429
 30
0.0
 10
898.0908545695154
 20
42.48738314023233
 30
0.0
 10
898.8304295980381
 20
42.23221640946684
 30
0.0
 10
899.575400111903
 20
41.88169195789439
 30
0.0
 10
900.3211806787899
 20
41.41842834168953
 30
0.0
 10
901.0547402584607
 20
40.82497668117977
 30
0.0
 10
901.7534660289655
 20
40.07850168944335
 30
0.0
 10
902.4053856955895
 20
39.15693344477857
 30
0.0
 10
902.7129868067281
 20
38.43278713480038
 30
0.0
 10
902.8754857930946
 20
38.05023636664083
 30
0.0
 11
895.9181771136945
 21
42.77704476654082
 31
0.0
 11
896.6257209583945
 21
42.74610596994079
 31
0.0
 11
897.3488897456945
 21
42.64843891804082
 31
0.0
 11
898.0787307599946
 21
42.47716951084083
 31
0.0
 11
898.8126459087945
 21
42.22399935714082
 31
0.0
 11
899.5513596939948
 21
41.87612045184079
 31
0.0
 11
900.2920826541947
 21
41.41600546114079
 31
0.0
 11
901.0218938937946
 21
40.82475848464082
 31
0.0
 11
901.7140089487945
 21
40.08844438334079
 31
0.0
 11
902.3465405564946
 21
39.17573959244084
 31
0.0
 11
902.8754857930946
 21
38.05023636664083
 31
0.0
  0
SPLINE
  5
217D
330
21
100
AcDbEntity
  8
0
  6
Continuous
100
AcDbSpline
210
0.0
220
0.0
230
1.0
 70
     8
 71
     3
 72
    17
 73
    13
 74
    11
 42
0.0000000001
 43
0.0000000001
 44
0.0000000001
 40
0.0
 40
0.0
 40
0.0
 40
0.0
 40
0.4433824959772799
 40
0.8983067046869531
 40
1.36631346390022
 40
1.854570885764216
 40
2.375041770085221
 40
2.941639237681861
 40
3.566780741325685
 40
4.257762577980601
 40
5.038548883707219
 40
5.936448961350765
 40
5.936448961350765
 40
5.936448961350765
 40
5.936448961350765
 10
895.9181771136945
 20
42.18674501254082
 30
0.0
 10
896.0660684686566
 20
42.18285103829749
 30
0.0
 10
896.365700946107
 20
42.1749617255655
 30
0.0
 10
896.8162010471847
 20
42.09839991464055
 30
0.0
 10
897.2690408660648
 20
41.96755915003379
 30
0.0
 10
897.7220328059992
 20
41.77135106218225
 30
0.0
 10
898.1743523422621
 20
41.50172608348621
 30
0.0
 10
898.6228485567447
 20
41.14604720036519
 30
0.0
 10
899.0590961283496
 20
40.69197022387764
 30
0.0
 10
899.4693182148913
 20
40.12390238470107
 30
0.0
 10
899.8457522129972
 20
39.42475409927276
 30
0.0
 10
900.0142343751425
 20
38.88996102660124
 30
0.0
 10
900.1043525460945
 20
38.60390953644083
 30
0.0
 11
895.9181771136945
 21
42.18674501254082
 31
0.0
 11
896.3610123317947
 21
42.16472213014083
 31
0.0
 11
896.8099081513946
 21
42.09090764094082
 31
0.0
 11
897.2593037978948
 21
41.9602405847408
 31
0.0
 11
897.7075132901946
 21
41.7665822231408
 31
0.0
 11
898.1548315404946
 21
41.50050643624081
 31
0.0
 11
898.5993704631947
 21
41.14919768814082
 31
0.0
 11
899.0331269500945
 21
40.69902304464079
 31
0.0
 11
899.4398189257948
 21
40.14040194274082
 31
0.0
 11
899.8059071350947
 21
39.45075951494084
 31
0.0
 11
900.1043525460945
 21
38.60390953644083
 31
0.0
  0
SPLINE
  5
217E
330
21
100
AcDbEntity
  8
0
  6
Continuous
100
AcDbSpline
210
0.0
220
0.0
230
1.0
 70
     8
 71
     3
 72
    11
 73
     7
 74
     5
 42
0.0000000001
 43
0.0000000001
 44
0.0000000001
 40
0.0
 40
0.0
 40
0.0
 40
0.0
 40
0.4302176095108399
 40
0.9166346938310389
 40
1.470350325321876
 40
2.086963997044978
 40
2.086963997044978
 40
2.086963997044978
 40
2.086963997044978
 10
873.5424709434946
 20
40.66902039034078
 30
0.0
 10
873.4121522059965
 20
40.60587715412526
 30
0.0
 10
873.1344911493452
 20
40.47134225895507
 30
0.0
 10
872.6332456122982
 20
40.45663054250474
 30
0.0
 10
872.0864817197696
 20
40.55115126826958
 30
0.0
 10
871.7262042635118
 20
40.70448481908518
 30
0.0
 10
871.5363841807945
 20
40.78527196464079
 30
0.0
 11
873.5424709434946
 21
40.66902039034078
 31
0.0
 11
873.1438440639946
 21
40.50720629184081
 31
0.0
 11
872.6586626004946
 21
40.47255766424081
 31
0.0
 11
872.1130501494947
 21
40.56694015134081
 31
0.0
 11
871.5363841807945
 21
40.78527196464079
 31
0.0
  0
SPLINE
  5
217F
330
21
100
AcDbEntity
  8
0
  6
Continuous
100
AcDbSpline
210
0.0
220
0.0
230
1.0
 70
     8
 71
     3
 72
    14
 73
    10
 74
     8
 42
0.0000000001
 43
0.0000000001
 44
0.0000000001
 40
0.0
 40
0.0
 40
0.0
 40
0.0
 40
0.634597320595499
 40
1.209629436228995
 40
1.737029198738709
 40
2.230732036418673
 40
2.702872841376735
 40
3.160703457358931
 40
3.605655428084783
 40
3.605655428084783
 40
3.605655428084783
 40
3.605655428084783
 10
873.5425811906946
 20
40.66908946334081
 30
0.0
 10
873.683752060643
 20
40.82708534637769
 30
0.0
 10
873.9528430799167
 20
41.12824714571377
 30
0.0
 10
874.4089985565054
 20
41.4891541922749
 30
0.0
 10
874.8653366941596
 20
41.76501073777392
 30
0.0
 10
875.3230166356809
 20
41.96463093913088
 30
0.0
 10
875.7796086034887
 20
42.0974526901329
 30
0.0
 10
876.2329155913729
 20
42.1748534449296
 30
0.0
 10
876.534040625475
 20
42.18281903437662
 30
0.0
 10
876.6824552928946
 20
42.18674501254082
 30
0.0
 11
873.5425811906946
 21
40.66908946334081
 31
0.0
 11
873.9794604302947
 21
41.12936143654081
 31
0.0
 11
874.4284943023947
 21
41.48856961534079
 31
0.0
 11
874.8805817994947
 21
41.7601711699408
 31
0.0
 11
875.3332122935946
 21
41.95732118324082
 31
0.0
 11
875.7863511837948
 21
42.08991864134083
 31
0.0
 11
876.2380569044946
 21
42.1645565326408
 31
0.0
 11
876.6824552928946
 21
42.18674501254082
 31
0.0
  0
SPLINE
  5
2180
330
21
100
AcDbEntity
  8
0
  6
Continuous
100
AcDbSpline
210
0.0
220
0.0
230
1.0
 70
     8
 71
     3
 72
    14
 73
    10
 74
     8
 42
0.0000000001
 43
0.0000000001
 44
0.0000000001
 40
0.0
 40
0.0
 40
0.0
 40
0.0
 40
0.952092591080463
 40
1.836169189756858
 40
2.66308173955724
 40
3.447906333672357
 40
4.204159759180394
 40
4.938569717663909
 40
5.649355440309929
 40
5.649355440309929
 40
5.649355440309929
 40
5.649355440309929
 10
871.5363841807945
 20
40.78559549694079
 30
0.0
 10
871.7762301019025
 20
40.99412955727145
 30
0.0
 10
872.2387877299661
 20
41.39630033370773
 30
0.0
 10
872.9966257795319
 20
41.86514958213454
 30
0.0
 10
873.7485530520787
 20
42.22407070775342
 30
0.0
 10
874.4958317001583
 20
42.48355944217447
 30
0.0
 10
875.2352592080401
 20
42.65690719386235
 30
0.0
 10
875.9635638863633
 20
42.7589278044671
 30
0.0
 10
876.4454505826498
 20
42.77107195158186
 30
0.0
 10
876.6824552928946
 20
42.77704476654082
 30
0.0
 11
871.5363841807945
 21
40.78559549694079
 31
0.0
 11
872.2720442251945
 21
41.38998328724079
 31
0.0
 11
873.0205233585946
 21
41.8604834670408
 31
0.0
 11
873.7672997723946
 21
42.2156022539408
 31
0.0
 11
874.5085964639947
 21
42.4733402188408
 31
0.0
 11
875.2446118582948
 21
42.6471233680408
 31
0.0
 11
875.9723538473947
 21
42.74586335194084
 31
0.0
 11
876.6824552928946
 21
42.77704476654082
 31
0.0
  0
SPLINE
  5
2181
330
21
100
AcDbEntity
  8
0
  6
Continuous
100
AcDbSpline
210
0.0
220
0.0
230
1.0
 70
     8
 71
     3
 72
    11
 73
     7
 74
     5
 42
0.0000000001
 43
0.0000000001
 44
0.0000000001
 40
0.0
 40
0.0
 40
0.0
 40
0.0
 40
0.454627050799768
 40
0.9717125793055084
 40
1.562564009326348
 40
2.220413280387459
 40
2.220413280387459
 40
2.220413280387459
 40
2.220413280387459
 10
899.2406167116947
 20
14.74148537244082
 30
0.0
 10
899.3745724495363
 20
14.81569148776862
 30
0.0
 10
899.6608872988212
 20
14.97429845054958
 30
0.0
 10
900.1933891471166
 20
15.01091969341318
 30
0.0
 10
900.7793518806124
 20
14.93103224325259
 30
0.0
 10
901.1687307652676
 20
14.77943379800852
 30
0.0
 10
901.3738660832945
 20
14.69956764064079
 30
0.0
 11
899.2406167116947
 21
14.74148537244082
 31
0.0
 11
899.6522974879948
 21
14.93437055524083
 31
0.0
 11
900.1660920234947
 21
14.9926167489408
 31
0.0
 11
900.7515234186946
 21
14.91277005914082
 31
0.0
 11
901.3738660832945
 21
14.69956764064079
 31
0.0
  0
SPLINE
  5
2182
330
21
100
AcDbEntity
  8
0
  6
Continuous
100
AcDbSpline
210
0.0
220
0.0
230
1.0
 70
     8
 71
     3
 72
    11
 73
     7
 74
     0
 42
0.0000000001
 43
0.0000000001
 40
9.199470563460919
 40
9.199470563460919
 40
9.199470563460919
 40
9.199470563460919
 40
10.57658476775547
 40
13.18462420391412
 40
15.81807883700727
 40
18.3989646747126
 40
18.3989646747126
 40
18.3989646747126
 40
18.3989646747126
 10
886.3003162032946
 20
14.35902516653959
 30
0.0
 10
886.7593819675635
 20
14.35902600719044
 30
0.0
 10
888.0878455467291
 20
14.34598518520863
 30
0.0
 10
890.2929216332957
 20
14.26163820722701
 30
0.0
 10
892.8938525517478
 20
14.07036334263159
 30
0.0
 10
894.6231421433618
 20
13.89500475992395
 30
0.0
 10
895.4790699526947
 20
13.80820941444079
 30
0.0
  0
SPLINE
  5
2183
330
21
100
AcDbEntity
  8
0
  6
Continuous
100
AcDbSpline
210
0.0
220
0.0
230
1.0
 70
     8
 71
     3
 72
    11
 73
     7
 74
     0
 42
0.0000000001
 43
0.0000000001
 40
8.064145230090436
 40
8.064145230090436
 40
8.064145230090436
 40
8.064145230090436
 40
9.282868629956411
 40
11.58268009806898
 40
13.88530041276953
 40
16.12842173245348
 40
16.12842173245348
 40
16.12842173245348
 40
16.12842173245348
 10
886.3003162032946
 20
11.13704670498418
 30
0.0
 10
886.7066058776263
 20
11.13704823026421
 30
0.0
 10
887.8795886857378
 20
11.12077879614315
 30
0.0
 10
889.8180158376437
 20
11.01611139673758
 30
0.0
 10
892.0883000449366
 20
10.77751156696109
 30
0.0
 10
893.5875344631263
 20
10.55719297939293
 30
0.0
 10
894.3273399683945
 20
10.44847555534079
 30
0.0
  0
SPLINE
  5
2184
330
21
100
AcDbEntity
  8
0
  6
Continuous
100
AcDbSpline
210
0.0
220
0.0
230
1.0
 70
     8
 71
     3
 72
    11
 73
     7
 74
     5
 42
0.0000000001
 43
0.0000000001
 44
0.0000000001
 40
0.0
 40
0.0
 40
0.0
 40
0.0
 40
0.7340596786238188
 40
1.404263151763867
 40
2.016287052934771
 40
2.57555993276057
 40
2.57555993276057
 40
2.57555993276057
 40
2.57555993276057
 10
895.4790699486945
 20
13.80818809374079
 30
0.0
 10
895.7225105688267
 20
13.77910062741856
 30
0.0
 10
896.1882147921332
 20
13.72345602749848
 30
0.0
 10
896.861784132899
 20
13.76514712366041
 30
0.0
 10
897.4676525978799
 20
13.88585585368216
 30
0.0
 10
897.8262443157337
 20
14.04274099888976
 30
0.0
 10
897.9974653298945
 20
14.11765079834083
 30
0.0
 11
895.4790699486945
 21
13.80818809374079
 31
0.0
 11
896.2103235588949
 21
13.74406501404081
 31
0.0
 11
896.8794486504945
 21
13.78206905594083
 31
0.0
 11
897.4776980251947
 21
13.91118505524082
 31
0.0
 11
897.9974653298945
 21
14.11765079834083
 31
0.0
  0
SPLINE
  5
2185
330
21
100
AcDbEntity
  8
0
  6
Continuous
100
AcDbSpline
210
0.0
220
0.0
230
1.0
 70
     8
 71
     3
 72
    12
 73
     8
 74
     6
 42
0.0000000001
 43
0.0000000001
 44
0.0000000001
 40
0.0
 40
0.0
 40
0.0
 40
0.0
 40
0.7545964010944485
 40
1.536331932264505
 40
2.297661007482061
 40
2.992902049207323
 40
3.582846239649109
 40
3.582846239649109
 40
3.582846239649109
 40
3.582846239649109
 10
894.3275058074945
 20
10.44846070804084
 30
0.0
 10
894.3629128249739
 20
10.69762816665013
 30
0.0
 10
894.4350002766248
 20
11.20492441480005
 30
0.0
 10
894.624903601188
 20
11.94859434843497
 30
0.0
 10
894.8662807904087
 20
12.65461101040117
 30
0.0
 10
895.1384551493934
 20
13.28304731220012
 30
0.0
 10
895.3719073605535
 20
13.64297082953566
 30
0.0
 10
895.4790699486945
 20
13.80818809374079
 30
0.0
 11
894.3275058074945
 21
10.44846070804084
 31
0.0
 11
894.4469691863947
 21
11.19354072364081
 31
0.0
 11
894.6365657950947
 21
11.9519361130408
 31
0.0
 11
894.8834177073948
 21
12.67213476214078
 31
0.0
 11
895.1707580692946
 21
13.3052189765408
 31
0.0
 11
895.4790699486945
 21
13.80818809374079
 31
0.0
  0
SPLINE
  5
2186
330
21
100
AcDbEntity
  8
0
  6
Continuous
100
AcDbSpline
210
0.0
220
0.0
230
1.0
 70
     8
 71
     3
 72
    11
 73
     7
 74
     5
 42
0.0000000001
 43
0.0000000001
 44
0.0000000001
 40
0.0
 40
0.0
 40
0.0
 40
0.0
 40
0.9847128551640139
 40
1.91533231106431
 40
2.776052320797916
 40
3.552963784013552
 40
3.552963784013552
 40
3.552963784013552
 40
3.552963784013552
 10
894.3273399683945
 20
10.44847555534079
 30
0.0
 10
894.6531396184457
 20
10.40666383560438
 30
0.0
 10
895.2868417107908
 20
10.32533724646488
 30
0.0
 10
896.2132955063705
 20
10.30711345922893
 30
0.0
 10
897.0701226342244
 20
10.36110539405417
 30
0.0
 10
897.6048328554066
 20
10.47398428057054
 30
0.0
 10
897.8585056182945
 20
10.52753534034082
 30
0.0
 11
894.3273399683945
 21
10.44847555534079
 31
0.0
 11
895.3061934849948
 21
10.34121325924082
 31
0.0
 11
896.2365709562945
 21
10.31999221784082
 31
0.0
 11
897.0948673278947
 21
10.3845388959408
 31
0.0
 11
897.8585056182945
 21
10.52753534034082
 31
0.0
  0
SPLINE
  5
2187
330
21
100
AcDbEntity
  8
0
  6
Continuous
100
AcDbSpline
210
0.0
220
0.0
230
1.0
 70
     8
 71
     3
 72
    14
 73
    10
 74
     8
 42
0.0000000001
 43
0.0000000001
 44
0.0000000001
 40
0.0
 40
0.0
 40
0.0
 40
0.0
 40
0.617630310412102
 40
1.229624237375321
 40
1.825959478503252
 40
2.399033569102037
 40
2.944939120201761
 40
3.463813682139063
 40
3.960941002061623
 40
3.960941002061623
 40
3.960941002061623
 40
3.960941002061623
 10
899.6340393854946
 20
11.08595568524083
 30
0.0
 10
899.5085537379948
 20
11.24972014164175
 30
0.0
 10
899.2587276025098
 20
11.57575456938349
 30
0.0
 10
898.9921253853145
 20
12.12750240363323
 30
0.0
 10
898.8200531487526
 20
12.69816880899494
 30
0.0
 10
898.7556684325563
 20
13.27033795464352
 30
0.0
 10
898.8040001793546
 20
13.81672905769376
 30
0.0
 10
898.9544673296106
 20
14.3229996278881
 30
0.0
 10
899.1466044652552
 20
14.60399500058743
 30
0.0
 10
899.2406167116947
 20
14.74148537244082
 30
0.0
 11
899.6340393854946
 21
11.08595568524083
 31
0.0
 11
899.2753171237946
 21
11.5887335082408
 31
0.0
 11
899.0051552829946
 21
12.13786841554082
 31
0.0
 11
898.8357658540946
 21
12.70964017174083
 31
0.0
 11
898.7743257920946
 21
13.27941120654083
 31
0.0
 11
898.8235013320945
 21
13.82309736324083
 31
0.0
 11
898.9811469822946
 21
14.3174440634408
 31
0.0
 11
899.2406167116947
 21
14.74148537244082
 31
0.0
  0
SPLINE
  5
2188
330
21
100
AcDbEntity
  8
0
  6
Continuous
100
AcDbSpline
210
0.0
220
0.0
230
1.0
 70
     8
 71
     3
 72
    10
 73
     6
 74
     4
 42
0.0000000001
 43
0.0000000001
 44
0.0000000001
 40
0.0
 40
0.0
 40
0.0
 40
0.0
 40
0.4872764829390931
 40
0.9569529214167402
 40
1.392640870925377
 40
1.392640870925377
 40
1.392640870925377
 40
1.392640870925377
 10
897.9975556196945
 20
14.1176224254408
 30
0.0
 10
898.1477462134401
 20
14.17959239257211
 30
0.0
 10
898.4427026344579
 20
14.30129402021626
 30
0.0
 10
898.8567094512623
 20
14.51256929218626
 30
0.0
 10
899.1159291102044
 20
14.6671681260016
 30
0.0
 10
899.2406732277945
 20
14.7415656280408
 30
0.0
 11
897.9975556196945
 21
14.1176224254408
 31
0.0
 11
898.4454122907946
 21
14.30961923004082
 31
0.0
 11
898.8641415656946
 21
14.5223673233408
 31
0.0
 11
899.2406732277945
 21
14.7415656280408
 31
0.0
  0
SPLINE
  5
2189
330
21
100
AcDbEntity
  8
0
  6
Continuous
100
AcDbSpline
210
0.0
220
0.0
230
1.0
 70
     8
 71
     3
 72
    13
 73
     9
 74
     7
 42
0.0000000001
 43
0.0000000001
 44
0.0000000001
 40
0.0
 40
0.0
 40
0.0
 40
0.0
 40
0.7456047027446092
 40
1.473101953179012
 40
2.158239694555577
 40
2.783526122981193
 40
3.34304432574142
 40
3.847645925489905
 40
3.847645925489905
 40
3.847645925489905
 40
3.847645925489905
 10
897.8585003819945
 20
10.52753209324083
 30
0.0
 10
897.7533793791679
 20
10.75334736147381
 30
0.0
 10
897.5456902993988
 20
11.19949384025425
 30
0.0
 10
897.3787118187795
 20
11.90391061387786
 30
0.0
 10
897.3304255762462
 20
12.5858528101639
 30
0.0
 10
897.4181703054139
 20
13.20552232801986
 30
0.0
 10
897.6239935838275
 20
13.7445410635241
 30
0.0
 10
897.87736286866
 20
13.99761413585714
 30
0.0
 10
897.9975096285945
 20
14.11762043294084
 30
0.0
 11
897.8585003819945
 21
10.52753209324083
 31
0.0
 11
897.5671464761946
 21
11.21385510344083
 31
0.0
 11
897.3955438543947
 21
11.92082383654082
 31
0.0
 11
897.3543037683946
 21
12.60471928174081
 31
0.0
 11
897.4459758741945
 21
13.22324926694079
 31
0.0
 11
897.6648905723946
 21
13.7381637978408
 31
0.0
 11
897.9975096285945
 21
14.11762043294084
 31
0.0
  0
SPLINE
  5
218A
330
21
100
AcDbEntity
  8
0
  6
Continuous
100
AcDbSpline
210
0.0
220
0.0
230
1.0
 70
     8
 71
     3
 72
    10
 73
     6
 74
     4
 42
0.0000000001
 43
0.0000000001
 44
0.0000000001
 40
0.0
 40
0.0
 40
0.0
 40
0.0
 40
0.6495103810621764
 40
1.27640234154733
 40
1.861947439908206
 40
1.861947439908206
 40
1.861947439908206
 40
1.861947439908206
 10
897.8585056182945
 20
10.52753534034082
 30
0.0
 10
898.0678092921869
 20
10.58301138314709
 30
0.0
 10
898.4791278903804
 20
10.6920315820574
 30
0.0
 10
899.0704538263602
 20
10.88148464256244
 30
0.0
 10
899.45050037726
 20
11.01898295315262
 30
0.0
 10
899.6340434266947
 20
11.08538760584082
 30
0.0
 11
897.8585056182945
 21
10.52753534034082
 31
0.0
 11
898.4848752293947
 21
10.69936329324082
 31
0.0
 11
899.0822469480947
 21
10.88946999964082
 31
0.0
 11
899.6340434266947
 21
11.08538760584082
 31
0.0
  0
SPLINE
  5
218B
330
21
100
AcDbEntity
  8
0
  6
Continuous
100
AcDbSpline
210
0.0
220
0.0
230
1.0
 70
     8
 71
     3
 72
    14
 73
    10
 74
     8
 42
0.0000000001
 43
0.0000000001
 44
0.0000000001
 40
0.0
 40
0.0
 40
0.0
 40
0.0
 40
0.4999540018662639
 40
1.061795016893976
 40
1.66700051995294
 40
2.293878000896468
 40
2.919275865959252
 40
3.520137877248905
 40
4.075068913084171
 40
4.075068913084171
 40
4.075068913084171
 40
4.075068913084171
 10
899.6340393854946
 20
11.08595568524083
 30
0.0
 10
899.6549521498118
 20
11.25150047988151
 30
0.0
 10
899.6993663736374
 20
11.60308210012269
 30
0.0
 10
899.853715201283
 20
12.13883847763791
 30
0.0
 10
900.0658919537989
 20
12.69825680877353
 30
0.0
 10
900.3353684800201
 20
13.25676284375237
 30
0.0
 10
900.6494092273083
 20
13.78913024908176
 30
0.0
 10
900.9900290303281
 20
14.27719037614558
 30
0.0
 10
901.2493555935453
 20
14.56255533384377
 30
0.0
 10
901.3738660832945
 20
14.69956764064079
 30
0.0
 11
899.6340393854946
 21
11.08595568524083
 31
0.0
 11
899.7087272620946
 21
11.58029941694082
 31
0.0
 11
899.8566472427947
 21
12.1223187943408
 31
0.0
 11
900.0712961353947
 21
12.6881805741408
 31
0.0
 11
900.3432363207947
 21
13.25300259184081
 31
0.0
 11
900.6605099288947
 21
13.79194595364083
 31
0.0
 11
901.0091643014945
 21
14.28130807424082
 31
0.0
 11
901.3738660832945
 21
14.69956764064079
 31
0.0
  0
SPLINE
  5
218C
330
21
100
AcDbEntity
  8
0
  6
Continuous
100
AcDbSpline
210
0.0
220
0.0
230
1.0
 70
     8
 71
     3
 72
    11
 73
     7
 74
     5
 42
0.0000000001
 43
0.0000000001
 44
0.0000000001
 40
0.0
 40
0.0
 40
0.0
 40
0.0
 40
1.057126117448266
 40
2.060895666894337
 40
2.979478373811111
 40
3.788823112998713
 40
3.788823112998713
 40
3.788823112998713
 40
3.788823112998713
 10
899.6340434266947
 20
11.08538760584082
 30
0.0
 10
899.9670274995832
 20
10.96972540590553
 30
0.0
 10
900.6161888641867
 20
10.74423885067267
 30
0.0
 10
901.5268773485327
 20
10.34598867139718
 30
0.0
 10
902.3418806947507
 20
9.938456349979994
 30
0.0
 10
902.8375901119781
 20
9.644867851860994
 30
0.0
 10
903.0697756761947
 20
9.507353798840825
 30
0.0
 11
899.6340434266947
 21
11.08538760584082
 31
0.0
 11
900.6279330829947
 21
10.7252501608408
 31
0.0
 11
901.5490872810946
 21
10.32646669614081
 31
0.0
 11
902.3688709629945
 21
9.912040702340789
 31
0.0
 11
903.0697756761947
 21
9.507353798840825
 31
0.0
  0
SPLINE
  5
218D
330
21
100
AcDbEntity
  8
0
  6
Continuous
100
AcDbSpline
210
0.0
220
0.0
230
1.0
 70
     8
 71
     3
 72
    11
 73
     7
 74
     5
 42
0.0000000001
 43
0.0000000001
 44
0.0000000001
 40
0.0
 40
0.0
 40
0.0
 40
0.0
 40
1.389901600856681
 40
2.726633006645595
 40
3.955715867992736
 40
5.036023675165449
 40
5.036023675165449
 40
5.036023675165449
 40
5.036023675165449
 10
901.3748697181947
 20
14.7006658021408
 30
0.0
 10
901.7924786702652
 20
14.49946240142418
 30
0.0
 10
902.6117210913725
 20
14.1047525650551
 30
0.0
 10
903.7402901181258
 20
13.41975421014943
 30
0.0
 10
904.7347683557721
 20
12.71780086044176
 30
0.0
 10
905.314161018588
 20
12.21029158567504
 30
0.0
 10
905.5851945970946
 20
11.97288427334081
 30
0.0
 11
901.3748697181947
 21
14.7006658021408
 31
0.0
 11
902.6169567148947
 21
14.07692999854083
 31
0.0
 11
903.7622615535948
 21
13.38763494004081
 31
0.0
 11
904.7610447228946
 21
12.67134110314083
 31
0.0
 11
905.5851945970946
 21
11.97288427334081
 31
0.0
  0
SPLINE
  5
218E
330
21
100
AcDbEntity
  8
0
  6
Continuous
100
AcDbSpline
210
0.0
220
0.0
230
1.0
 70
     8
 71
     3
 72
    13
 73
     9
 74
     7
 42
0.0000000001
 43
0.0000000001
 44
0.0000000001
 40
0.0
 40
0.0
 40
0.0
 40
0.0
 40
1.649133084658716
 40
2.923685484175416
 40
3.864421281844643
 40
4.511767194849408
 40
4.8958471256137
 40
5.025969299821976
 40
5.025969299821976
 40
5.025969299821976
 40
5.025969299821976
 10
905.5851945970946
 20
11.97288427334081
 30
0.0
 10
905.9899629603085
 20
11.60093598314563
 30
0.0
 10
906.7075614361327
 20
10.94152296971222
 30
0.0
 10
907.6597779366186
 20
10.07399976240395
 30
0.0
 10
908.366301064142
 20
9.432638237927353
 30
0.0
 10
908.8536670958033
 20
8.99146647003246
 30
0.0
 10
909.1409146465858
 20
8.731852757969145
 30
0.0
 10
909.26812483972
 20
8.61697992603057
 30
0.0
 10
909.3003162032946
 20
8.587910611640837
 30
0.0
 11
905.5851945970946
 21
11.97288427334081
 31
0.0
 11
906.8003953487945
 21
10.8580178849408
 31
0.0
 11
907.7423276935947
 21
9.999386836740825
 31
0.0
 11
908.4388872446945
 21
9.367098427240819
 31
0.0
 11
908.9187969770946
 21
8.93265236634079
 31
0.0
 11
909.2037452799946
 21
8.675122061540833
 31
0.0
 11
909.3003162032946
 21
8.587910611640837
 31
0.0
  0
SPLINE
  5
218F
330
21
100
AcDbEntity
  8
0
  6
Continuous
100
AcDbSpline
210
0.0
220
0.0
230
1.0
 70
     8
 71
     3
 72
    12
 73
     8
 74
     6
 42
0.0000000001
 43
0.0000000001
 44
0.0000000001
 40
0.0
 40
0.0
 40
0.0
 40
0.0
 40
0.703640005384256
 40
1.440841830502781
 40
2.191771030041145
 40
2.934301794932146
 40
3.647697840486035
 40
3.647697840486035
 40
3.647697840486035
 40
3.647697840486035
 10
903.0697715311947
 20
9.507353798840825
 30
0.0
 10
903.1554236899015
 20
9.726522481699565
 30
0.0
 10
903.3308133951385
 20
10.17531363027364
 30
0.0
 10
903.7631054690987
 20
10.77353679486763
 30
0.0
 10
904.2954168725752
 20
11.29506984648715
 30
0.0
 10
904.906065253991
 20
11.71813693738237
 30
0.0
 10
905.3618584595297
 20
11.88911081367446
 30
0.0
 10
905.5851945970946
 20
11.97288706284081
 30
0.0
 11
903.0697715311947
 21
9.507353798840825
 31
0.0
 11
903.3526740634947
 21
10.15161726544079
 31
0.0
 11
903.7755171651949
 21
10.75549659304079
 31
0.0
 11
904.3117958271945
 21
11.28113892334079
 31
0.0
 11
904.9278945779947
 21
11.69559551464078
 31
0.0
 11
905.5851945970946
 21
11.97288706284081
 31
0.0
  0
SPLINE
  5
2190
330
21
100
AcDbEntity
  8
0
  6
Continuous
100
AcDbSpline
210
0.0
220
0.0
230
1.0
 70
     8
 71
     3
 72
    13
 73
     9
 74
     7
 42
0.0000000001
 43
0.0000000001
 44
0.0000000001
 40
0.0
 40
0.0
 40
0.0
 40
0.0
 40
1.668209753930408
 40
2.956374305538697
 40
3.906587461130946
 40
4.560199505121011
 40
4.947903684379816
 40
5.079233955852383
 40
5.079233955852383
 40
5.079233955852383
 40
5.079233955852383
 10
903.0697756761947
 20
9.507353798840825
 30
0.0
 10
903.4216602688347
 20
9.076782399550629
 30
0.0
 10
904.0452644443556
 20
8.313730739792449
 30
0.0
 10
904.8735519209165
 20
7.308911969490708
 30
0.0
 10
905.4880278922361
 20
6.566140882118524
 30
0.0
 10
905.9118893373415
 20
6.05523052032329
 30
0.0
 10
906.1616953374717
 20
5.754588136509512
 30
0.0
 10
906.2723240393309
 20
5.621568348356934
 30
0.0
 10
906.3003162032948
 20
5.587910611640836
 30
0.0
 11
903.0697756761947
 21
9.507353798840825
 31
0.0
 11
904.1264534486948
 21
8.216479727440799
 31
0.0
 11
904.9455404723946
 21
7.222264278140812
 31
0.0
 11
905.5512492269947
 21
6.490129081840791
 31
0.0
 11
905.9685632434947
 21
5.987080659040827
 31
0.0
 11
906.2163435571946
 21
5.688887019340825
 31
0.0
 11
906.3003162032948
 21
5.587910611640836
 31
0.0
  0
SPLINE
  5
2191
330
21
100
AcDbEntity
  8
0
  6
Continuous
100
AcDbSpline
210
0.0
220
0.0
230
1.0
 70
     8
 71
     3
 72
    14
 73
    10
 74
     8
 42
0.0000000001
 43
0.0000000001
 44
0.0000000001
 40
0.0
 40
0.0
 40
0.0
 40
0.0
 40
0.6697525382948537
 40
1.339804408476206
 40
2.009180696558365
 40
2.677737543722041
 40
3.347019986816054
 40
4.017004819748513
 40
4.686212193021387
 40
4.686212193021387
 40
4.686212193021387
 40
4.686212193021387
 10
877.1215626455946
 20
39.75524826364079
 30
0.0
 10
876.8978491080634
 20
39.74079677725542
 30
0.0
 10
876.4503220489153
 20
39.71188734569516
 30
0.0
 10
875.8125487821294
 20
39.48101408748074
 30
0.0
 10
875.2409437219283
 20
39.12452905633211
 30
0.0
 10
874.7632719083163
 20
38.64674726182054
 30
0.0
 10
874.4069515417708
 20
38.07510436237614
 30
0.0
 10
874.176278119891
 20
37.43751624130358
 30
0.0
 10
874.1474061536801
 20
36.99019496347167
 30
0.0
 10
874.1329785512945
 20
36.7666641693408
 30
0.0
 11
877.1215626455946
 21
39.75524826364079
 31
0.0
 11
876.4559779463946
 21
39.68064618094081
 31
0.0
 11
875.8233164980948
 21
39.45994502424083
 31
0.0
 11
875.2563461682946
 21
39.10412307414083
 31
0.0
 11
874.7836612713948
 21
38.63132581724079
 31
0.0
 11
874.4280190543944
 21
38.06435350564084
 31
0.0
 11
874.2074586867948
 21
37.4317139553408
 31
0.0
 11
874.1329785512945
 21
36.7666641693408
 31
0.0
  0
SPLINE
  5
2192
330
21
100
AcDbEntity
  8
0
  6
Continuous
100
AcDbSpline
210
0.0
220
0.0
230
1.0
 70
     8
 71
     3
 72
    12
 73
     8
 74
     6
 42
0.0000000001
 43
0.0000000001
 44
0.0000000001
 40
0.0
 40
0.0
 40
0.0
 40
0.0
 40
1.034813482263167
 40
2.068418205691487
 40
3.101750857731338
 40
4.134165768722157
 40
5.167131672754623
 40
5.167131672754623
 40
5.167131672754623
 40
5.167131672754623
 10
877.1215626455946
 20
41.74763765984079
 30
0.0
 10
876.7761226669595
 20
41.72582456201138
 30
0.0
 10
876.0856462158605
 20
41.68222384608894
 30
0.0
 10
875.0944726654834
 20
41.34897198628715
 30
0.0
 10
874.1948548834746
 20
40.83253065191548
 30
0.0
 10
873.4080164771827
 20
40.14534788407896
 30
0.0
 10
873.0227265575635
 20
39.57193282788686
 30
0.0
 10
872.8300302047946
 20
39.28514881324082
 30
0.0
 11
877.1215626455946
 21
41.74763765984079
 31
0.0
 11
876.0926281763946
 21
41.6374886645408
 31
0.0
 11
875.1095264037946
 21
41.3183497778408
 31
0.0
 11
874.2133702778946
 21
40.80387862434082
 31
0.0
 11
873.4429279020947
 21
40.11663842324082
 31
0.0
 11
872.8300302047946
 21
39.28514881324082
 31
0.0
  0
SPLINE
  5
2193
330
21
100
AcDbEntity
  8
0
  6
Continuous
100
AcDbSpline
210
0.0
220
0.0
230
1.0
 70
     8
 71
     3
 72
    13
 73
     9
 74
     7
 42
0.0000000001
 43
0.0000000001
 44
0.0000000001
 40
0.0
 40
0.0
 40
0.0
 40
0.0
 40
0.9876381741591823
 40
1.974615296388494
 40
2.961474179017712
 40
3.949083298202416
 40
4.937008281776658
 40
5.926026737185705
 40
5.926026737185705
 40
5.926026737185705
 40
5.926026737185705
 10
900.1043525460945
 20
38.60390953644083
 30
0.0
 10
899.964616281315
 20
38.90319922863144
 30
0.0
 10
899.6852372808743
 20
39.50157829063369
 30
0.0
 10
899.0527432850821
 20
40.27198263885952
 30
0.0
 10
898.2931028864794
 20
40.91107190922678
 30
0.0
 10
897.4191902165184
 20
41.38267783124512
 30
0.0
 10
896.4691989087768
 20
41.68788258556437
 30
0.0
 10
895.809234488413
 20
41.72771195837597
 30
0.0
 10
895.4790697609947
 20
41.74763765984079
 30
0.0
 11
900.1043525460945
 21
38.60390953644083
 31
0.0
 11
899.6495330305947
 21
39.48058984954082
 31
0.0
 11
899.0315283379946
 21
40.25013129724084
 31
0.0
 11
898.2743093430947
 21
40.88298977114084
 31
0.0
 11
897.4067191303948
 21
41.35485733214079
 31
0.0
 11
896.4629434751946
 21
41.64689035394082
 31
0.0
 11
895.4790697609947
 21
41.74763765984079
 31
0.0
  0
SPLINE
  5
2194
330
21
100
AcDbEntity
  8
0
  6
Continuous
100
AcDbSpline
210
0.0
220
0.0
230
1.0
 70
     8
 71
     3
 72
    14
 73
    10
 74
     8
 42
0.0000000001
 43
0.0000000001
 44
0.0000000001
 40
0.0
 40
0.0
 40
0.0
 40
0.0
 40
0.6697525382948114
 40
1.339804408570789
 40
2.009180696652734
 40
2.67773754381657
 40
3.34701998691045
 40
4.017004819810105
 40
4.68621219308289
 40
4.68621219308289
 40
4.68621219308289
 40
4.68621219308289
 10
898.4676538552947
 20
36.7666641693408
 30
0.0
 10
898.4532023689048
 20
36.99037770687072
 30
0.0
 10
898.4242929373337
 20
37.43790476604794
 30
0.0
 10
898.1934196791602
 20
38.0756780328815
 30
0.0
 10
897.8369346479846
 20
38.64728309310879
 30
0.0
 10
897.359152853472
 20
39.12495490671071
 30
0.0
 10
896.7875099540506
 20
39.48127527329121
 30
0.0
 10
896.1499218329361
 20
39.71194869501609
 30
0.0
 10
895.702600555122
 20
39.74082066124546
 30
0.0
 10
895.4790697609947
 20
39.75524826364079
 30
0.0
 11
898.4676538552947
 21
36.7666641693408
 31
0.0
 11
898.3930517725946
 21
37.4322488685408
 31
0.0
 11
898.1723506158946
 21
38.06491031694083
 31
0.0
 11
897.8165286657948
 21
38.6318806467408
 31
0.0
 11
897.3437314088947
 21
39.10456554364083
 31
0.0
 11
896.7767590972946
 21
39.4602077606408
 31
0.0
 11
896.1441195469946
 21
39.68076812814081
 31
0.0
 11
895.4790697609947
 21
39.75524826364079
 31
0.0
  0
SPLINE
  5
2195
330
21
100
AcDbEntity
  8
0
  6
Continuous
100
AcDbSpline
210
0.0
220
0.0
230
1.0
 70
     8
 71
     3
 72
    11
 73
     7
 74
     5
 42
0.0000000001
 43
0.0000000001
 44
0.0000000001
 40
0.0
 40
0.0
 40
0.0
 40
0.0
 40
0.8225784668737877
 40
1.644802594760639
 40
2.46724614142417
 40
3.290199547574713
 40
3.290199547574713
 40
3.290199547574713
 40
3.290199547574713
 10
897.9975556196945
 20
14.1176224254408
 30
0.0
 10
898.2276651823335
 20
14.26800730192319
 30
0.0
 10
898.6877851841936
 20
14.56871227416866
 30
0.0
 10
899.2699401667999
 20
15.15648767679571
 30
0.0
 10
899.7628656511698
 20
15.82103233572132
 30
0.0
 10
899.9905002974548
 20
16.32156734530607
 30
0.0
 10
900.1043528891946
 20
16.57191240054084
 30
0.0
 11
897.9975556196945
 21
14.1176224254408
 31
0.0
 11
898.6698707172945
 21
14.59157151944083
 31
0.0
 11
899.2550097748946
 21
15.16920877564081
 31
0.0
 11
899.7375180777947
 21
15.8352411510408
 31
0.0
 11
900.1043528891946
 21
16.57191240054084
 31
0.0
  0
SPLINE
  5
2196
330
21
100
AcDbEntity
  8
0
  6
Continuous
100
AcDbSpline
210
0.0
220
0.0
230
1.0
 70
     8
 71
     3
 72
    14
 73
    10
 74
     8
 42
0.0000000001
 43
0.0000000001
 44
0.0000000001
 40
0.0
 40
0.0
 40
0.0
 40
0.0
 40
0.6697525382838298
 40
1.339804408592383
 40
2.009180696589899
 40
2.677737543753615
 40
3.34701998676285
 40
4.017004819695371
 40
4.686212192968201
 40
4.686212192968201
 40
4.686212192968201
 40
4.686212192968201
 10
895.4790697609947
 20
15.42057295974081
 30
0.0
 10
895.7027832985284
 20
15.43502444608024
 30
0.0
 10
896.1503103577275
 20
15.46393387755158
 30
0.0
 10
896.7880836244972
 20
15.69480713588205
 30
0.0
 10
897.3596886846785
 20
16.05129216707383
 30
0.0
 10
897.8373604982403
 20
16.52907396154817
 30
0.0
 10
898.1936808648454
 20
17.10071686092177
 30
0.0
 10
898.4243542866944
 20
17.73830498198064
 30
0.0
 10
898.4532262529077
 20
18.18562625981082
 30
0.0
 10
898.4676538552947
 20
18.40915705394081
 30
0.0
 11
895.4790697609947
 21
15.42057295974081
 31
0.0
 11
896.1446544601948
 21
15.4951750423408
 31
0.0
 11
896.7773159085945
 21
15.71587619914083
 31
0.0
 11
897.3442862382947
 21
16.07169814924083
 31
0.0
 11
897.8169711351947
 21
16.54449540614081
 31
0.0
 11
898.1726133521947
 21
17.11146771764083
 31
0.0
 11
898.3931737197947
 21
17.74410726794082
 31
0.0
 11
898.4676538552947
 21
18.40915705394081
 31
0.0
  0
SPLINE
  5
2197
330
21
100
AcDbEntity
  8
0
  6
Continuous
100
AcDbSpline
210
0.0
220
0.0
230
1.0
 70
     8
 71
     3
 72
    11
 73
     7
 74
     5
 42
0.0000000001
 43
0.0000000001
 44
0.0000000001
 40
0.0
 40
0.0
 40
0.0
 40
0.0
 40
0.8525021021316438
 40
1.594761192231473
 40
2.012715939679574
 40
2.435950700244637
 40
2.435950700244637
 40
2.435950700244637
 40
2.435950700244637
 10
887.3492451752948
 20
30.6439618180408
 30
0.0
 10
887.6351987488447
 20
30.62981729569913
 30
0.0
 10
888.170127238449
 20
30.60335737817313
 30
0.0
 10
888.8187345128918
 20
30.9038016278155
 30
0.0
 10
889.1228083651575
 20
31.35339513961442
 30
0.0
 10
889.1885021445712
 20
31.62752230358943
 30
0.0
 10
889.2215552089947
 20
31.7654462119408
 30
0.0
 11
887.3492451752948
 21
30.6439618180408
 31
0.0
 11
888.2011023556946
 21
30.67711567664082
 31
0.0
 11
888.8614048110946
 21
31.0161573027408
 31
0.0
 11
889.0981337582946
 21
31.3606069746408
 31
0.0
 11
889.2215552089947
 21
31.7654462119408
 31
0.0
  0
SPLINE
  5
2198
330
21
100
AcDbEntity
  8
0
  6
Continuous
100
AcDbSpline
210
0.0
220
0.0
230
1.0
 70
     8
 71
     3
 72
    11
 73
     7
 74
     5
 42
0.0000000001
 43
0.0000000001
 44
0.0000000001
 40
0.0
 40
0.0
 40
0.0
 40
0.0
 40
0.1133348161122794
 40
0.2266682088062875
 40
0.3400014426353012
 40
0.4533361567354736
 40
0.4533361567354736
 40
0.4533361567354736
 40
0.4533361567354736
 10
887.3671057385946
 20
30.96147153654084
 30
0.0
 10
887.3291917547936
 20
30.95035267332872
 30
0.0
 10
887.2533642633688
 20
30.92811508655082
 30
0.0
 10
887.2039850901296
 20
30.81138921316392
 30
0.0
 10
887.2399592911504
 20
30.68985923504033
 30
0.0
 10
887.312816388647
 20
30.65926102364858
 30
0.0
 10
887.3492451752948
 20
30.6439618180408
 30
0.0
 11
887.3671057385946
 21
30.96147153654084
 31
0.0
 11
887.2640909114945
 21
30.91421980704081
 31
0.0
 11
887.2182105882945
 21
30.8105884708408
 31
0.0
 11
887.2521775388944
 21
30.7024650776408
 31
0.0
 11
887.3492451752948
 21
30.6439618180408
 31
0.0
  0
SPLINE
  5
2199
330
21
100
AcDbEntity
  8
0
  6
Continuous
100
AcDbSpline
210
0.0
220
0.0
230
1.0
 70
     8
 71
     3
 72
     9
 73
     5
 74
     3
 42
0.0000000001
 43
0.0000000001
 44
0.0000000001
 40
0.0
 40
0.0
 40
0.0
 40
0.0
 40
0.9444512605351025
 40
1.888902543355169
 40
1.888902543355169
 40
1.888902543355169
 40
1.888902543355169
 10
888.9684890076946
 20
31.87113123344079
 30
0.0
 10
888.7534010217713
 20
31.6283152866555
 30
0.0
 10
888.3232250448491
 20
31.1426833873555
 30
0.0
 10
887.6858121765195
 20
31.02187548728749
 30
0.0
 10
887.3671057385946
 20
30.96147153654084
 30
0.0
 11
888.9684890076946
 21
31.87113123344079
 31
0.0
 11
888.2714158282947
 21
31.23388939074084
 31
0.0
 11
887.3671057385946
 21
30.96147153654084
 31
0.0
  0
SPLINE
  5
219A
330
21
100
AcDbEntity
  8
0
  6
Continuous
100
AcDbSpline
210
0.0
220
0.0
230
1.0
 70
     8
 71
     3
 72
    11
 73
     7
 74
     5
 42
0.0000000001
 43
0.0000000001
 44
0.0000000001
 40
0.0
 40
0.0
 40
0.0
 40
0.0
 40
0.0935285689529401
 40
0.1870563008018275
 40
0.2805843016234959
 40
0.3741131171257338
 40
0.3741131171257338
 40
0.3741131171257338
 40
0.3741131171257338
 10
889.2215552089947
 20
31.7654462119408
 30
0.0
 10
889.2209748312849
 20
31.79788854348639
 30
0.0
 10
889.2198140810598
 20
31.86277291621058
 30
0.0
 10
889.1419209350071
 20
31.9305868988714
 30
0.0
 10
889.0389349293698
 20
31.93830834128318
 30
0.0
 10
888.9919710497663
 20
31.89352366773784
 30
0.0
 10
888.9684890076946
 20
31.87113123344079
 30
0.0
 11
889.2215552089947
 21
31.7654462119408
 31
0.0
 11
889.2071219518946
 21
31.85785440584084
 31
0.0
 11
889.1377389039947
 21
31.92057146324084
 31
0.0
 11
889.0443585868947
 21
31.92582534904079
 31
0.0
 11
888.9684890076946
 21
31.87113123344079
 31
0.0
  0
SPLINE
  5
219B
330
21
100
AcDbEntity
  8
0
  6
Continuous
100
AcDbSpline
210
0.0
220
0.0
230
1.0
 70
     8
 71
     3
 72
    18
 73
    14
 74
    12
 42
0.0000000001
 43
0.0000000001
 44
0.0000000001
 40
0.0
 40
0.0
 40
0.0
 40
0.0
 40
0.0900324074676199
 40
0.1635718012363856
 40
0.2329054066006871
 40
0.356035451020977
 40
1.274869230063466
 40
2.229042304086207
 40
3.189203465686017
 40
3.365708486165621
 40
3.615046362785267
 40
4.002632999509676
 40
4.292516871724778
 40
4.292516871724778
 40
4.292516871724778
 40
4.292516871724778
 10
887.9079487426947
 20
33.91935200604081
 30
0.0
 10
887.920426457207
 20
33.89029312561011
 30
0.0
 10
887.9430960969014
 20
33.83749865362323
 30
0.0
 10
887.8932628158461
 20
33.7594363424151
 30
0.0
 10
887.7994939178745
 20
33.75703688683323
 30
0.0
 10
887.4377250367629
 20
33.71375211303554
 30
0.0
 10
886.7876509618682
 20
33.4209730165834
 30
0.0
 10
886.2506119442958
 20
32.60499291079971
 30
0.0
 10
886.169348142781
 20
31.85808519893224
 30
0.0
 10
886.3378599045605
 20
31.42625668547607
 30
0.0
 10
886.2989925220153
 20
31.13125165934595
 30
0.0
 10
885.9074237222212
 20
30.97616248057518
 30
0.0
 10
885.751186249668
 20
31.16181101632339
 30
0.0
 10
885.6843335631949
 20
31.24124844674083
 30
0.0
 11
887.9079487426947
 21
33.91935200604081
 31
0.0
 11
887.9279109515946
 21
33.8315605223408
 31
0.0
 11
887.8871186353947
 21
33.77037204814082
 31
0.0
 11
887.8191314417946
 21
33.75677460944081
 31
0.0
 11
887.6967544933945
 21
33.74317717074081
 31
0.0
 11
886.8605120122948
 21
33.36244888664083
 31
0.0
 11
886.3234131828946
 21
32.57379744104083
 31
0.0
 11
886.2690234279947
 21
31.61517801144083
 31
0.0
 11
886.3166144635947
 21
31.4452100274408
 31
0.0
 11
886.2690234279947
 21
31.20045613054083
 31
0.0
 11
885.9086913019947
 21
31.05768302404084
 31
0.0
 11
885.6843335631949
 21
31.24124844674083
 31
0.0
  0
SPLINE
  5
219C
330
21
100
AcDbEntity
  8
0
  6
Continuous
100
AcDbSpline
210
0.0
220
0.0
230
1.0
 70
     8
 71
     3
 72
    14
 73
    10
 74
     8
 42
0.0000000001
 43
0.0000000001
 44
0.0000000001
 40
0.0
 40
0.0
 40
0.0
 40
0.0
 40
0.4129907242347327
 40
1.42827879487031
 40
1.692293298307793
 40
1.994205433669435
 40
3.830035915152446
 40
4.158914082097656
 40
4.290350896560879
 40
4.290350896560879
 40
4.290350896560879
 40
4.290350896560879
 10
885.6843335631949
 20
31.24124844674083
 30
0.0
 10
885.6356996326869
 20
31.36793171919229
 30
0.0
 10
885.4675050278698
 20
31.80605059472511
 30
0.0
 10
885.3125573480247
 20
32.43111591638387
 30
0.0
 10
885.6187436591183
 20
32.88402309412833
 30
0.0
 10
886.3127477768212
 20
33.30238246282563
 30
0.0
 10
886.9322065215793
 20
33.78522707936291
 30
0.0
 10
887.7373594302117
 20
34.02841274592267
 30
0.0
 10
887.8700583366654
 20
33.94357600727424
 30
0.0
 10
887.9079487426947
 20
33.91935200604081
 30
0.0
 11
885.6843335631949
 21
31.24124844674083
 31
0.0
 11
885.5415604566946
 21
31.62877545014084
 31
0.0
 11
885.4735732630948
 21
32.64178463464083
 31
0.0
 11
885.6231450889948
 21
32.8593436540408
 31
0.0
 11
885.8678989858947
 21
33.03611035744081
 31
0.0
 11
887.4655980351947
 21
33.9403400321408
 31
0.0
 11
887.7919365643948
 21
33.98113234824081
 31
0.0
 11
887.9079487426947
 21
33.91935200604081
 31
0.0
  0
SPLINE
  5
219D
330
21
100
AcDbEntity
  8
0
  6
Continuous
100
AcDbSpline
210
0.0
220
0.0
230
1.0
 70
     8
 71
     3
 72
    10
 73
     6
 74
     4
 42
0.0000000001
 43
0.0000000001
 44
0.0000000001
 40
0.0
 40
0.0
 40
0.0
 40
0.0
 40
0.9018566394311364
 40
1.352842493960295
 40
1.80411367003875
 40
1.80411367003875
 40
1.80411367003875
 40
1.80411367003875
 10
890.8417802137947
 20
36.41960571304082
 30
0.0
 10
890.8940783273883
 20
36.12369438620155
 30
0.0
 10
890.9725288341876
 20
35.67980851799433
 30
0.0
 10
891.07343728159
 20
35.08608977524213
 30
0.0
 10
891.1622834589578
 20
34.79839855585863
 30
0.0
 10
891.2067205955946
 20
34.65450745774081
 30
0.0
 11
890.8417802137947
 21
36.41960571304082
 31
0.0
 11
890.9974378822946
 21
35.53128364964084
 31
0.0
 11
891.0830104442945
 21
35.08849072104084
 31
0.0
 11
891.2067205955946
 21
34.65450745774081
 31
0.0
  0
SPLINE
  5
219E
330
21
100
AcDbEntity
  8
0
  6
Continuous
100
AcDbSpline
210
0.0
220
0.0
230
1.0
 70
     8
 71
     3
 72
    14
 73
    10
 74
     8
 42
0.0000000001
 43
0.0000000001
 44
0.0000000001
 40
0.0
 40
0.0
 40
0.0
 40
0.0
 40
0.1971906303999833
 40
0.3944503656982642
 40
0.5903299888365798
 40
0.7870697248749625
 40
0.9831665530372312
 40
1.179458802846533
 40
1.569060756389845
 40
1.569060756389845
 40
1.569060756389845
 40
1.569060756389845
 10
889.6310956671946
 20
36.92455014914083
 30
0.0
 10
889.6879781751807
 20
36.95777795100197
 30
0.0
 10
889.8017631254668
 20
37.02424519931337
 30
0.0
 10
889.9924879486269
 20
37.08170460043656
 30
0.0
 10
890.1917197104135
 20
37.08600021888169
 30
0.0
 10
890.3833847342179
 20
37.03113249542911
 30
0.0
 10
890.550516158979
 20
36.92399203485496
 30
0.0
 10
890.7303958273992
 20
36.72985095258203
 30
0.0
 10
890.7972945700255
 20
36.54351409601938
 30
0.0
 10
890.8417802137947
 20
36.41960571304082
 30
0.0
 11
889.6310956671946
 21
36.92455014914083
 31
0.0
 11
889.8051556823945
 21
37.01721759664082
 31
0.0
 11
889.9943856640945
 21
37.0729259191408
 31
0.0
 11
890.1902383486946
 21
37.07617441044084
 31
0.0
 11
890.3794683690946
 21
37.02233647664082
 31
0.0
 11
890.5452016002946
 21
36.91752015114082
 31
0.0
 11
890.6783107797947
 21
36.77325444604083
 31
0.0
 11
890.8417802137947
 21
36.41960571304082
 31
0.0
  0
SPLINE
  5
219F
330
21
100
AcDbEntity
  8
0
  6
Continuous
100
AcDbSpline
210
0.0
220
0.0
230
1.0
 70
     8
 71
     3
 72
    15
 73
    11
 74
     9
 42
0.0000000001
 43
0.0000000001
 44
0.0000000001
 40
0.0
 40
0.0
 40
0.0
 40
0.0
 40
0.7420146924628348
 40
1.214581619557881
 40
1.789756484428177
 40
3.674019684930825
 40
4.541650766575518
 40
5.328676197607227
 40
6.756177783491092
 40
7.666261252314042
 40
7.666261252314042
 40
7.666261252314042
 40
7.666261252314042
 10
884.2472460637946
 20
32.2435220718408
 30
0.0
 10
884.2021688569378
 20
32.48970036753339
 30
0.0
 10
884.1283833275329
 20
32.89266224432569
 30
0.0
 10
884.3831858626502
 20
33.49522968755464
 30
0.0
 10
885.3882755421912
 20
33.77135837371569
 30
0.0
 10
886.3997758584964
 20
34.09163329359505
 30
0.0
 10
887.509323444631
 20
34.58857699376389
 30
0.0
 10
888.1320198700381
 20
35.42844836783166
 30
0.0
 10
888.8130084626164
 20
36.21281388699922
 30
0.0
 10
889.4018457805303
 20
36.72510263728918
 30
0.0
 10
889.6310956671946
 20
36.92455014914083
 30
0.0
 11
884.2472460637946
 21
32.2435220718408
 31
0.0
 11
884.2040900034946
 21
32.9842807088408
 31
0.0
 11
884.4112987308946
 21
33.40899713644081
 31
0.0
 11
884.9343046464946
 21
33.64835239004083
 31
0.0
 11
886.7211179932947
 21
34.24647100074083
 31
0.0
 11
887.4838711962947
 21
34.65998187744083
 31
0.0
 11
888.0070731286947
 21
35.24791790034084
 31
0.0
 11
888.9553773970947
 21
36.31491358554081
 31
0.0
 11
889.6310956671946
 21
36.92455014914083
 31
0.0
  0
SPLINE
  5
21A0
330
21
100
AcDbEntity
  8
0
  6
Continuous
100
AcDbSpline
210
0.0
220
0.0
230
1.0
 70
     8
 71
     3
 72
    11
 73
     7
 74
     5
 42
0.0000000001
 43
0.0000000001
 44
0.0000000001
 40
0.0
 40
0.0
 40
0.0
 40
0.0
 40
0.7211258205532037
 40
1.442237220540765
 40
2.16336131538435
 40
2.884484992238835
 40
2.884484992238835
 40
2.884484992238835
 40
2.884484992238835
 10
884.6070239243948
 20
29.39675830064084
 30
0.0
 10
884.6210061251127
 20
29.63694395189097
 30
0.0
 10
884.648970246942
 20
30.11731045132794
 30
0.0
 10
884.5666499090935
 20
30.83939884849336
 30
0.0
 10
884.3362147616136
 20
31.52612331274118
 30
0.0
 10
884.2769022906709
 20
32.00438919834425
 30
0.0
 10
884.2472460637946
 20
32.2435220718408
 30
0.0
 11
884.6070239243948
 21
29.39675830064084
 31
0.0
 11
884.6282590603946
 21
30.11757139574081
 31
0.0
 11
884.5419650791946
 21
30.83350086154081
 31
0.0
 11
884.3597926925949
 21
31.53123518184083
 31
0.0
 11
884.2472460637946
 21
32.2435220718408
 31
0.0
  0
SPLINE
  5
21A1
330
21
100
AcDbEntity
  8
0
  6
Continuous
100
AcDbSpline
210
0.0
220
0.0
230
1.0
 70
     8
 71
     3
 72
    11
 73
     7
 74
     5
 42
0.0000000001
 43
0.0000000001
 44
0.0000000001
 40
0.0
 40
0.0
 40
0.0
 40
0.0
 40
0.3878308862672019
 40
0.7813826432846991
 40
1.17040582292608
 40
1.559919621202185
 40
1.559919621202185
 40
1.559919621202185
 40
1.559919621202185
 10
884.6833324404947
 20
27.84206064914082
 30
0.0
 10
884.6916846069366
 20
27.97162758367651
 30
0.0
 10
884.7085121421405
 20
28.2326726870313
 30
0.0
 10
884.6344533890192
 20
28.61779623786636
 30
0.0
 10
884.5958021665474
 20
29.00715433256098
 30
0.0
 10
884.6032817672799
 20
29.26683576257723
 30
0.0
 10
884.6070239243948
 20
29.39675830064084
 30
0.0
 11
884.6833324404947
 21
27.84206064914082
 31
0.0
 11
884.6920630485946
 21
28.22979325394084
 31
0.0
 11
884.6401636041946
 21
28.61990789494081
 31
0.0
 11
884.6040961319948
 21
29.0072555059408
 31
0.0
 11
884.6070239243948
 21
29.39675830064084
 31
0.0
  0
SPLINE
  5
21A2
330
21
100
AcDbEntity
  8
0
  6
Continuous
100
AcDbSpline
210
0.0
220
0.0
230
1.0
 70
     8
 71
     3
 72
    17
 73
    13
 74
    11
 42
0.0000000001
 43
0.0000000001
 44
0.0000000001
 40
0.0
 40
0.0
 40
0.0
 40
0.0
 40
0.4489361004715706
 40
0.6737886890586285
 40
0.8984770302235695
 40
1.124019338319818
 40
1.239994698740239
 40
1.353698208754501
 40
1.464443142530785
 40
1.576876643176536
 40
1.692437945276581
 40
1.807171317115287
 40
1.807171317115287
 40
1.807171317115287
 40
1.807171317115287
 10
887.0310681422948
 20
21.8965830071408
 30
0.0
 10
887.0718924824436
 20
21.75181060774927
 30
0.0
 10
887.1331639609493
 20
21.53452800317498
 30
0.0
 10
887.142200717429
 20
21.23358713370787
 30
0.0
 10
887.1214013050536
 20
21.00929414005281
 30
0.0
 10
887.0849102154689
 20
20.82348317995311
 30
0.0
 10
887.0364712281455
 20
20.67934590261587
 30
0.0
 10
886.9838072577824
 20
20.57803406815488
 30
0.0
 10
886.9077023319364
 20
20.49302778879443
 30
0.0
 10
886.8081881589101
 20
20.43669010526062
 30
0.0
 10
886.6985172301423
 20
20.40200214452137
 30
0.0
 10
886.6220424165445
 20
20.39379007922755
 30
0.0
 10
886.5839424766946
 20
20.38969880814079
 30
0.0
 11
887.0310681422948
 21
21.8965830071408
 31
0.0
 11
887.1293489749946
 21
21.45853677644084
 31
0.0
 11
887.1376060522946
 21
21.23383584794084
 31
0.0
 11
887.1176557182947
 21
21.01003496584082
 31
0.0
 11
887.0715989473946
 21
20.78924523194081
 31
0.0
 11
887.0334013512946
 21
20.67974076684084
 31
0.0
 11
886.9792478663946
 21
20.57976132764082
 31
0.0
 11
886.9043542158946
 21
20.49818080624084
 31
0.0
 11
886.8076534642947
 21
20.44082004694081
 31
0.0
 11
886.6975518077948
 21
20.40571962274083
 31
0.0
 11
886.5839424766946
 21
20.38969880814079
 31
0.0
  0
SPLINE
  5
21A3
330
21
100
AcDbEntity
  8
0
  6
Continuous
100
AcDbSpline
210
0.0
220
0.0
230
1.0
 70
    24
 71
     3
 72
     8
 73
     4
 74
     2
 42
0.0000000001
 43
0.0000000001
 44
0.0000000001
 40
0.0
 40
0.0
 40
0.0
 40
0.0
 40
0.7218640600092526
 40
0.7218640600092526
 40
0.7218640600092526
 40
0.7218640600092526
 10
886.8953759663945
 20
22.60557902584082
 30
0.0
 10
886.9406066916945
 20
22.36924701960748
 30
0.0
 10
886.9858374169946
 20
22.13291501337414
 30
0.0
 10
887.0310681422948
 20
21.8965830071408
 30
0.0
 11
886.8953759663945
 21
22.60557902584082
 31
0.0
 11
887.0310681422948
 21
21.8965830071408
 31
0.0
  0
SPLINE
  5
21A4
330
21
100
AcDbEntity
  8
0
  6
Continuous
100
AcDbSpline
210
0.0
220
0.0
230
1.0
 70
    24
 71
     3
 72
     8
 73
     4
 74
     2
 42
0.0000000001
 43
0.0000000001
 44
0.0000000001
 40
0.0
 40
0.0
 40
0.0
 40
0.0
 40
0.9080242580119051
 40
0.9080242580119051
 40
0.9080242580119051
 40
0.9080242580119051
 10
886.6421880351948
 20
23.4775904504408
 30
0.0
 10
886.7265840122611
 20
23.18691997557414
 30
0.0
 10
886.8109799893277
 20
22.89624950070748
 30
0.0
 10
886.8953759663945
 20
22.60557902584082
 30
0.0
 11
886.6421880351948
 21
23.4775904504408
 31
0.0
 11
886.8953759663945
 21
22.60557902584082
 31
0.0
  0
SPLINE
  5
21A5
330
21
100
AcDbEntity
  8
0
  6
Continuous
100
AcDbSpline
210
0.0
220
0.0
230
1.0
 70
     8
 71
     3
 72
    28
 73
    24
 74
    22
 42
0.0000000001
 43
0.0000000001
 44
0.0000000001
 40
0.0
 40
0.0
 40
0.0
 40
0.0
 40
0.106994751597645
 40
0.2141854776102553
 40
0.4279423706955475
 40
0.6418948339378721
 40
0.8558210640552304
 40
0.9629554212369662
 40
1.070131687195802
 40
1.284593448755742
 40
1.498597694000665
 40
1.712688999066245
 40
1.925149857355557
 40
2.142931317576224
 40
2.252707404820152
 40
2.35936661201411
 40
2.465124684830671
 40
2.57291554278309
 40
2.680139471541795
 40
2.787449845977002
 40
3.002643040551751
 40
3.217400074817687
 40
3.431485070646858
 40
3.431485070646858
 40
3.431485070646858
 40
3.431485070646858
 10
889.0092465256946
 20
24.94489043174082
 30
0.0
 10
888.9776499694358
 20
24.96267803101604
 30
0.0
 10
888.9143989838301
 20
24.99828580980345
 30
0.0
 10
888.7682431819312
 20
24.99919563249276
 30
0.0
 10
888.5920975240753
 20
24.97444897077978
 30
0.0
 10
888.3884644537784
 20
24.90130107558863
 30
0.0
 10
888.2380999683508
 20
24.80467804222677
 30
0.0
 10
888.1144985635469
 20
24.73316789900923
 30
0.0
 10
887.9849528254426
 20
24.6724103697398
 30
0.0
 10
887.8157101199574
 20
24.61378536865617
 30
0.0
 10
887.6063372012561
 20
24.5675828420899
 30
0.0
 10
887.3953189511424
 20
24.53380920769155
 30
0.0
 10
887.1810682973005
 20
24.51728894992106
 30
0.0
 10
887.0012258320774
 20
24.50785654849771
 30
0.0
 10
886.8577730817046
 20
24.48717136205105
 30
0.0
 10
886.7544482350749
 20
24.45446211751494
 30
0.0
 10
886.664685084919
 20
24.39359784023815
 30
0.0
 10
886.5970730739105
 20
24.30892239961624
 30
0.0
 10
886.5527088941345
 20
24.21011238110307
 30
0.0
 10
886.5198474302939
 20
24.0700861637998
 30
0.0
 10
886.5182796959708
 20
23.88860859404077
 30
0.0
 10
886.5666078550519
 20
23.6782228396138
 30
0.0
 10
886.6170209759514
 20
23.54439800785768
 30
0.0
 10
886.6421880351948
 20
23.4775904504408
 30
0.0
 11
889.0092465256946
 21
24.94489043174082
 31
0.0
 11
888.9119863582946
 21
24.9894812010408
 31
0.0
 11
888.8050765655945
 21
24.99723671314081
 31
0.0
 11
888.5934374833945
 21
24.96722157984084
 31
0.0
 11
888.3923414601948
 21
24.8941733356408
 31
0.0
 11
888.2070057852947
 21
24.78733177284079
 31
0.0
 11
888.1137874771946
 21
24.7345291448408
 31
0.0
 11
888.0168732451945
 21
24.6887647086408
 31
0.0
 11
887.8145048832946
 21
24.61776546024083
 31
0.0
 11
887.6059818912947
 21
24.56964084294083
 31
0.0
 11
887.3944502841945
 21
24.53663378154079
 31
0.0
 11
887.1827834288946
 21
24.51828279594082
 31
0.0
 11
886.9656417800948
 21
24.50160140594079
 31
0.0
 11
886.8572822803947
 21
24.4840227781408
 31
0.0
 11
886.7563210045945
 21
24.44962790544082
 31
0.0
 11
886.6688976088946
 21
24.39011387474079
 31
0.0
 11
886.6009059096946
 21
24.30647179264082
 31
0.0
 11
886.5559987805946
 21
24.2091048544408
 31
0.0
 11
886.5307235907947
 21
24.10481352574084
 31
0.0
 11
886.5266749086946
 21
23.88965842084082
 31
0.0
 11
886.5712308265948
 21
23.67957426164082
 31
0.0
 11
886.6421880351948
 21
23.4775904504408
 31
0.0
  0
SPLINE
  5
21A6
330
21
100
AcDbEntity
  8
0
  6
Continuous
100
AcDbSpline
210
0.0
220
0.0
230
1.0
 70
     8
 71
     3
 72
    13
 73
     9
 74
     7
 42
0.0000000001
 43
0.0000000001
 44
0.0000000001
 40
0.0
 40
0.0
 40
0.0
 40
0.0
 40
0.0869781660915188
 40
0.1749839334096967
 40
0.2218535856624652
 40
0.270529116854674
 40
0.316476660112745
 40
0.3591864518331905
 40
0.3591864518331905
 40
0.3591864518331905
 40
0.3591864518331905
 10
888.9356805989946
 20
24.6140930877408
 30
0.0
 10
888.9506936168089
 20
24.63889200505842
 30
0.0
 10
888.9808970233368
 20
24.68878282584183
 30
0.0
 10
889.0132745322758
 20
24.75561812938415
 30
0.0
 10
889.0303096088801
 20
24.81469755709346
 30
0.0
 10
889.03716235705
 20
24.86109468392882
 30
0.0
 10
889.0356102526646
 20
24.908768027732
 30
0.0
 10
889.0178178427063
 20
24.93314639508244
 30
0.0
 10
889.0092465256946
 20
24.94489043174082
 30
0.0
 11
888.9356805989946
 21
24.6140930877408
 31
0.0
 11
888.9795667890948
 21
24.6891877193408
 31
0.0
 11
889.0162269234947
 21
24.76919427924082
 31
0.0
 11
889.0291217054945
 21
24.8142552257408
 31
0.0
 11
889.0357987840946
 21
24.8624706170408
 31
0.0
 11
889.0310638638945
 21
24.90817354104081
 31
0.0
 11
889.0092465256946
 21
24.94489043174082
 31
0.0
  0
SPLINE
  5
21A7
330
21
100
AcDbEntity
  8
0
  6
Continuous
100
AcDbSpline
210
0.0
220
0.0
230
1.0
 70
     8
 71
     3
 72
    10
 73
     6
 74
     4
 42
0.0000000001
 43
0.0000000001
 44
0.0000000001
 40
0.0
 40
0.0
 40
0.0
 40
0.0
 40
1.241134952801677
 40
2.091691992359074
 40
2.47008928774975
 40
2.47008928774975
 40
2.47008928774975
 40
2.47008928774975
 10
888.8744929900948
 20
22.22743901614081
 30
0.0
 10
888.7532227016727
 20
22.62630577787327
 30
0.0
 10
888.5488451755782
 20
23.29851826342988
 30
0.0
 10
888.6628814141216
 20
24.15087845924917
 30
0.0
 10
888.8714591356927
 20
24.50504466342701
 30
0.0
 10
888.9356805989946
 20
24.6140930877408
 30
0.0
 11
888.8744929900948
 21
22.22743901614081
 31
0.0
 11
888.6166389031945
 21
23.44149306804081
 31
0.0
 11
888.7574112518946
 21
24.28031988174081
 31
0.0
 11
888.9356805989946
 21
24.6140930877408
 31
0.0
  0
SPLINE
  5
21A8
330
21
100
AcDbEntity
  8
0
  6
Continuous
100
AcDbSpline
210
0.0
220
0.0
230
1.0
 70
     8
 71
     3
 72
    23
 73
    19
 74
    17
 42
0.0000000001
 43
0.0000000001
 44
0.0000000001
 40
0.0
 40
0.0
 40
0.0
 40
0.0
 40
0.1346459741810424
 40
0.2682873104623003
 40
0.3331705722420693
 40
0.3981845216675866
 40
0.4642935308965611
 40
0.5307761020691821
 40
0.6619731585510844
 40
0.792465901039408
 40
1.053725381786007
 40
1.183927333401959
 40
1.314613738542804
 40
1.445423504702605
 40
1.576190419017883
 40
1.706591128366081
 40
1.837071906281244
 40
2.098764468577059
 40
2.098764468577059
 40
2.098764468577059
 40
2.098764468577059
 10
889.2503890630946
 20
20.52436434624082
 30
0.0
 10
889.2060919833472
 20
20.5168229597371
 30
0.0
 10
889.117828338934
 20
20.50179645549478
 30
0.0
 10
889.0050443161869
 20
20.50958215777784
 30
0.0
 10
888.9216833712021
 20
20.53936438577159
 30
0.0
 10
888.8668732162554
 20
20.57612661656112
 30
0.0
 10
888.8212517854014
 20
20.6242634171517
 30
0.0
 10
888.7736610155487
 20
20.69874034527132
 30
0.0
 10
888.741176116865
 20
20.80566388633133
 30
0.0
 10
888.7438532630204
 20
20.98201942394847
 30
0.0
 10
888.7993631742741
 20
21.14862440536977
 30
0.0
 10
888.826965614662
 20
21.32062278472595
 30
0.0
 10
888.8409275532097
 20
21.45043750687824
 30
0.0
 10
888.8586259798843
 20
21.58004650384971
 30
0.0
 10
888.8836094663393
 20
21.70832286772227
 30
0.0
 10
888.9043299399232
 20
21.83724362117449
 30
0.0
 10
888.9137838194793
 20
22.01199272453011
 30
0.0
 10
888.8902181070907
 20
22.14121232673465
 30
0.0
 10
888.8744929900948
 20
22.22743901614081
 30
0.0
 11
889.2503890630946
 21
20.52436434624082
 31
0.0
 11
889.1168539617947
 21
20.50710412944079
 31
0.0
 11
888.9837660062946
 21
20.51925332134084
 31
0.0
 11
888.9229134478946
 21
20.5417656245408
 31
0.0
 11
888.8687513501945
 21
20.57772783794082
 31
0.0
 11
888.8230012188946
 21
20.62544918104084
 31
0.0
 11
888.7871569098948
 21
20.68144130354079
 31
0.0
 11
888.7479540205948
 21
20.80664434304083
 31
0.0
 11
888.7475840427946
 21
20.9371365610408
 31
0.0
 11
888.8039750108947
 21
21.19223766844084
 31
0.0
 11
888.8258211369945
 21
21.3205937940408
 31
0.0
 11
888.8415419337945
 21
21.45033119434083
 31
0.0
 11
888.8598458400948
 21
21.57985401834082
 31
0.0
 11
888.8829236291947
 21
21.70856843684084
 31
0.0
 11
888.9020564619945
 21
21.8375578926408
 31
0.0
 11
888.9080160334946
 21
21.9679025009408
 31
0.0
 11
888.8744929900948
 21
22.22743901614081
 31
0.0
  0
SPLINE
  5
21A9
330
21
100
AcDbEntity
  8
0
  6
Continuous
100
AcDbSpline
210
0.0
220
0.0
230
1.0
 70
     8
 71
     3
 72
     9
 73
     5
 74
     3
 42
0.0000000001
 43
0.0000000001
 44
0.0000000001
 40
0.0
 40
0.0
 40
0.0
 40
0.0
 40
0.3454712489175321
 40
0.6909600996696994
 40
0.6909600996696994
 40
0.6909600996696994
 40
0.6909600996696994
 10
889.9350097687948
 20
20.5852732963408
 30
0.0
 10
889.8193411120888
 20
20.59274827713764
 30
0.0
 10
889.5879979053339
 20
20.60769861958321
 30
0.0
 10
889.3629272550254
 20
20.55214290910551
 30
0.0
 10
889.2503890630946
 20
20.52436434624082
 30
0.0
 11
889.9350097687948
 21
20.5852732963408
 31
0.0
 11
889.5895718578946
 21
20.59007262354084
 31
0.0
 11
889.2503890630946
 21
20.52436434624082
 31
0.0
  0
SPLINE
  5
21AA
330
21
100
AcDbEntity
  8
0
  6
Continuous
100
AcDbSpline
210
0.0
220
0.0
230
1.0
 70
     8
 71
     3
 72
     9
 73
     5
 74
     3
 42
0.0000000001
 43
0.0000000001
 44
0.0000000001
 40
0.0
 40
0.0
 40
0.0
 40
0.0
 40
0.3470043749129317
 40
0.6940049083618987
 40
0.6940049083618987
 40
0.6940049083618987
 40
0.6940049083618987
 10
890.6186331692948
 20
20.46668197184084
 30
0.0
 10
890.5053544610685
 20
20.49024702933505
 30
0.0
 10
890.2787982986529
 20
20.53737688344979
 30
0.0
 10
890.0496055225375
 20
20.56930788429208
 30
0.0
 10
889.9350097687948
 20
20.5852732963408
 30
0.0
 11
890.6186331692948
 21
20.46668197184084
 31
0.0
 11
890.2781378838946
 21
20.53357738894084
 31
0.0
 11
889.9350097687948
 21
20.5852732963408
 31
0.0
  0
SPLINE
  5
21AB
330
21
100
AcDbEntity
  8
0
  6
Continuous
100
AcDbSpline
210
0.0
220
0.0
230
1.0
 70
     8
 71
     3
 72
     9
 73
     5
 74
     3
 42
0.0000000001
 43
0.0000000001
 44
0.0000000001
 40
0.0
 40
0.0
 40
0.0
 40
0.0
 40
0.1734679221869438
 40
0.3469771969985013
 40
0.3469771969985013
 40
0.3469771969985013
 40
0.3469771969985013
 10
890.9603275394948
 20
20.40679965954081
 30
0.0
 10
890.9030733773393
 20
20.41499916797471
 30
0.0
 10
890.7885514043383
 20
20.43140013950472
 30
0.0
 10
890.6752770809744
 20
20.45492042668219
 30
0.0
 10
890.6186331692948
 20
20.46668197184084
 30
0.0
 11
890.9603275394948
 21
20.40679965954081
 31
0.0
 11
890.7888768910948
 21
20.43317758954083
 31
0.0
 11
890.6186331692948
 21
20.46668197184084
 31
0.0
  0
SPLINE
  5
21AC
330
21
100
AcDbEntity
  8
0
  6
Continuous
100
AcDbSpline
210
0.0
220
0.0
230
1.0
 70
     8
 71
     3
 72
    13
 73
     9
 74
     7
 42
0.0000000001
 43
0.0000000001
 44
0.0000000001
 40
0.0
 40
0.0
 40
0.0
 40
0.0
 40
0.038954894492641
 40
0.0836071561409484
 40
0.1326169817325392
 40
0.178663137652076
 40
0.2617600169532369
 40
0.342932903618041
 40
0.342932903618041
 40
0.342932903618041
 40
0.342932903618041
 10
891.2813718250944
 20
20.45736890104081
 30
0.0
 10
891.2750896756044
 20
20.44545741837143
 30
0.0
 10
891.2616065777764
 20
20.41989233330625
 30
0.0
 10
891.2164047716406
 20
20.40607823450011
 30
0.0
 10
891.1711914752402
 20
20.39872292464902
 30
0.0
 10
891.1116739299281
 20
20.39416377359024
 30
0.0
 10
891.0415068319305
 20
20.39627639206556
 30
0.0
 10
890.9871751857119
 20
20.40331940055177
 30
0.0
 10
890.9603275394948
 20
20.40679965954081
 30
0.0
 11
891.2813718250944
 21
20.45736890104081
 31
0.0
 11
891.2592660148945
 21
20.4252937243408
 31
0.0
 11
891.2182565563948
 21
20.40762882174079
 31
0.0
 11
891.1699681717946
 21
20.3992505810408
 31
0.0
 11
891.1240593419947
 21
20.39569701644081
 31
0.0
 11
891.0409860243946
 21
20.39767571614084
 31
0.0
 11
890.9603275394948
 21
20.40679965954081
 31
0.0
  0
SPLINE
  5
21AD
330
21
100
AcDbEntity
  8
0
  6
Continuous
100
AcDbSpline
210
0.0
220
0.0
230
1.0
 70
     8
 71
     3
 72
    13
 73
     9
 74
     7
 42
0.0000000001
 43
0.0000000001
 44
0.0000000001
 40
0.0
 40
0.0
 40
0.0
 40
0.0
 40
0.0710365866962257
 40
0.1434325209040133
 40
0.1821725801404335
 40
0.2220312178738387
 40
0.2594055417619264
 40
0.2942661849608728
 40
0.2942661849608728
 40
0.2942661849608728
 40
0.2942661849608728
 10
891.1151298434949
 20
20.68519448034084
 30
0.0
 10
891.1340442253636
 20
20.67090429878886
 30
0.0
 10
891.1722349324198
 20
20.64205048050307
 30
0.0
 10
891.2150377730185
 20
20.59872175029189
 30
0.0
 10
891.2472488633905
 20
20.55988556197536
 30
0.0
 10
891.2692211780408
 20
20.52840268269121
 30
0.0
 10
891.2862135270158
 20
20.49347940873195
 30
0.0
 10
891.2829478452759
 20
20.46912321590948
 30
0.0
 10
891.2813718250944
 20
20.45736890104081
 30
0.0
 11
891.1151298434949
 21
20.68519448034084
 31
0.0
 11
891.1707716304948
 21
20.64103354524082
 31
0.0
 11
891.2219253331945
 21
20.58980396404081
 31
0.0
 11
891.2465545449948
 21
20.55990088534082
 31
0.0
 11
891.2689128602947
 21
20.5269036621408
 31
0.0
 11
891.2827889700947
 21
20.49220072764081
 31
0.0
 11
891.2813718250944
 21
20.45736890104081
 31
0.0
  0
SPLINE
  5
21AE
330
21
100
AcDbEntity
  8
0
  6
Continuous
100
AcDbSpline
210
0.0
220
0.0
230
1.0
 70
     8
 71
     3
 72
    10
 73
     6
 74
     4
 42
0.0000000001
 43
0.0000000001
 44
0.0000000001
 40
0.0
 40
0.0
 40
0.0
 40
0.0
 40
0.0870346470017955
 40
0.1745247343515901
 40
0.3492111028795356
 40
0.3492111028795356
 40
0.3492111028795356
 40
0.3492111028795356
 10
890.7953908544946
 20
20.81865738564079
 30
0.0
 10
890.8238548715797
 20
20.81298815779443
 30
0.0
 10
890.8809318540402
 20
20.80162003581143
 30
0.0
 10
890.9916362494139
 20
20.76361140964956
 30
0.0
 10
891.0657490166509
 20
20.71655070441573
 30
0.0
 10
891.1151298434949
 20
20.68519448034084
 30
0.0
 11
890.7953908544946
 21
20.81865738564079
 31
0.0
 11
890.8803475854948
 21
20.79975279264079
 31
0.0
 11
890.9629916091946
 21
20.77103902014079
 31
0.0
 11
891.1151298434949
 21
20.68519448034084
 31
0.0
  0
SPLINE
  5
21AF
330
21
100
AcDbEntity
  8
0
  6
Continuous
100
AcDbSpline
210
0.0
220
0.0
230
1.0
 70
     8
 71
     3
 72
    21
 73
    17
 74
    15
 42
0.0000000001
 43
0.0000000001
 44
0.0000000001
 40
0.0
 40
0.0
 40
0.0
 40
0.0
 40
0.2585020563655016
 40
0.3885099965187458
 40
0.5191818112247947
 40
0.6487507249116474
 40
0.7778859500780142
 40
0.908238618031932
 40
1.038781548626672
 40
1.168301512088135
 40
1.297843023188905
 40
1.427730638190287
 40
1.557542359601102
 40
1.686937011122767
 40
1.81615610545069
 40
2.075088664622939
 40
2.075088664622939
 40
2.075088664622939
 40
2.075088664622939
 10
889.7372646750946
 20
22.26875385174083
 30
0.0
 10
889.7189262154145
 20
22.18447108930915
 30
0.0
 10
889.6913648296111
 20
22.05780015988093
 30
0.0
 10
889.6739206474745
 20
21.88536865848811
 30
0.0
 10
889.6733705068962
 20
21.75503073551183
 30
0.0
 10
889.6917444789158
 20
21.62578588837126
 30
0.0
 10
889.7370709394789
 20
21.5032048024968
 30
0.0
 10
889.8053739477678
 20
21.39183132293516
 30
0.0
 10
889.8895486878927
 20
21.2920537205844
 30
0.0
 10
889.9853624437475
 20
21.20397992692811
 30
0.0
 10
890.0888549113669
 20
21.12568535453917
 30
0.0
 10
890.196761177396
 20
21.05357243912767
 30
0.0
 10
890.3077645701903
 20
20.98634365492888
 30
0.0
 10
890.4231588157118
 20
20.92737319678064
 30
0.0
 10
890.5837556233794
 20
20.86311083574653
 30
0.0
 10
890.7107044243044
 20
20.83644555814523
 30
0.0
 10
890.7953908544946
 20
20.81865738564079
 30
0.0
 11
889.7372646750946
 21
22.26875385174083
 31
0.0
 11
889.6886720606946
 21
22.01486003344081
 31
0.0
 11
889.6760300795946
 21
21.88546820674083
 31
0.0
 11
889.6765576012947
 21
21.75479745684083
 31
0.0
 11
889.6962630190945
 21
21.62673575334082
 31
0.0
 11
889.7406962104946
 21
21.50548560744079
 31
0.0
 11
889.8079770981947
 21
21.39383839434083
 31
0.0
 11
889.8917562426944
 21
21.29372589924082
 31
0.0
 11
889.9866623736945
 21
21.20558823854083
 31
0.0
 11
890.0894834067946
 21
21.12679205684083
 31
0.0
 11
890.1973061076945
 21
21.05436928624084
 31
0.0
 11
890.3086503669946
 21
20.98763444574081
 31
0.0
 11
890.4240669890945
 21
20.92913676044083
 31
0.0
 11
890.5442257803948
 21
20.88160320164082
 31
0.0
 11
890.7953908544946
 21
20.81865738564079
 31
0.0
  0
SPLINE
  5
21B0
330
21
100
AcDbEntity
  8
0
  6
Continuous
100
AcDbSpline
210
0.0
220
0.0
230
1.0
 70
     8
 71
     3
 72
    14
 73
    10
 74
     8
 42
0.0000000001
 43
0.0000000001
 44
0.0000000001
 40
0.0
 40
0.0
 40
0.0
 40
0.0
 40
0.3454078795509802
 40
0.6908651094333692
 40
1.036338004503232
 40
1.381776479004452
 40
1.726299327174379
 40
2.073507051569468
 40
2.764425210217556
 40
2.764425210217556
 40
2.764425210217556
 40
2.764425210217556
 10
889.8772540631948
 20
26.83782415094083
 30
0.0
 10
889.9770725662529
 20
26.77679048402917
 30
0.0
 10
890.1767238339897
 20
26.65471442998876
 30
0.0
 10
890.3475257862814
 20
26.34030515337379
 30
0.0
 10
890.4344326641833
 20
26.00567999194343
 30
0.0
 10
890.4565338471605
 20
25.65790336568301
 30
0.0
 10
890.3990786606644
 20
25.31523610252328
 30
0.0
 10
890.2796334637003
 20
24.87015041488444
 30
0.0
 10
890.2187885374538
 20
24.52920357131919
 30
0.0
 10
890.1782935790947
 20
24.30228854184083
 30
0.0
 11
889.8772540631948
 21
26.83782415094083
 31
0.0
 11
890.1552657032945
 21
26.63284578324084
 31
0.0
 11
890.3335401269947
 21
26.33694220514082
 31
0.0
 11
890.4236368656947
 21
26.0034244411408
 31
0.0
 11
890.4432811526946
 21
25.65854498154079
 31
0.0
 11
890.3939092997946
 21
25.31757810184081
 31
0.0
 11
890.3125519341947
 21
24.98003672224081
 31
0.0
 11
890.1782935790947
 21
24.30228854184083
 31
0.0
  0
SPLINE
  5
21B1
330
21
100
AcDbEntity
  8
0
  6
Continuous
100
AcDbSpline
210
0.0
220
0.0
230
1.0
 70
     8
 71
     3
 72
    14
 73
    10
 74
     8
 42
0.0000000001
 43
0.0000000001
 44
0.0000000001
 40
0.0
 40
0.0
 40
0.0
 40
0.0
 40
0.3843221060322807
 40
0.5766428767415242
 40
0.7683065895508923
 40
0.9601481996520229
 40
1.154929323505829
 40
1.349490672844779
 40
1.540711257177264
 40
1.540711257177264
 40
1.540711257177264
 40
1.540711257177264
 10
888.3487224741946
 20
26.80218955524083
 30
0.0
 10
888.4751281776123
 20
26.82385883402762
 30
0.0
 10
888.6647892647872
 20
26.85637175758939
 30
0.0
 10
888.9206033660429
 20
26.87196013706165
 30
0.0
 10
889.1121632807135
 20
26.88301133505083
 30
0.0
 10
889.3047107876109
 20
26.89430787955394
 30
0.0
 10
889.4979461080711
 20
26.90127060500555
 30
0.0
 10
889.6931323983147
 20
26.89668116272692
 30
0.0
 10
889.8162355212508
 20
26.85732956354238
 30
0.0
 10
889.8772540631948
 20
26.83782415094083
 30
0.0
 11
888.3487224741946
 21
26.80218955524083
 31
0.0
 11
888.7289776663946
 21
26.85795217704083
 31
0.0
 11
888.9207943373946
 21
26.87186776444082
 31
0.0
 11
889.1121321105946
 21
26.88304073874082
 31
0.0
 11
889.3036866728946
 21
26.89353135494082
 31
0.0
 11
889.4983813008947
 21
26.89933549464081
 31
0.0
 11
889.6925775242946
 21
26.8874214074408
 31
0.0
 11
889.8772540631948
 21
26.83782415094083
 31
0.0
  0
SPLINE
  5
21B2
330
21
100
AcDbEntity
  8
0
  6
Continuous
100
AcDbSpline
210
0.0
220
0.0
230
1.0
 70
    24
 71
     3
 72
     8
 73
     4
 74
     2
 42
0.0000000001
 43
0.0000000001
 44
0.0000000001
 40
0.0
 40
0.0
 40
0.0
 40
0.0
 40
0.3469178470511451
 40
0.3469178470511451
 40
0.3469178470511451
 40
0.3469178470511451
 10
888.0085240618946
 20
26.7342408034408
 30
0.0
 10
888.1219235326612
 20
26.75689038737414
 30
0.0
 10
888.2353230034279
 20
26.77953997130749
 30
0.0
 10
888.3487224741946
 20
26.80218955524083
 30
0.0
 11
888.0085240618946
 21
26.7342408034408
 31
0.0
 11
888.3487224741946
 21
26.80218955524083
 31
0.0
  0
SPLINE
  5
21B3
330
21
100
AcDbEntity
  8
0
  6
Continuous
100
AcDbSpline
210
0.0
220
0.0
230
1.0
 70
     8
 71
     3
 72
    21
 73
    17
 74
    15
 42
0.0000000001
 43
0.0000000001
 44
0.0000000001
 40
0.0
 40
0.0
 40
0.0
 40
0.0
 40
0.1067971599818013
 40
0.2144463481907654
 40
0.316080279585954
 40
0.4173719649974552
 40
0.5212018556240792
 40
0.6234478687583481
 40
0.7262914171905137
 40
0.8293433441280085
 40
0.9316776558776588
 40
1.034028580506591
 40
1.238924570977561
 40
1.341283280234128
 40
1.443751504981231
 40
1.648824739717881
 40
1.648824739717881
 40
1.648824739717881
 40
1.648824739717881
 10
886.8801714615948
 20
27.09807974964082
 30
0.0
 10
886.8625177909313
 20
27.0671067453949
 30
0.0
 10
886.8270696085393
 20
27.00491363413456
 30
0.0
 10
886.7912209117799
 20
26.9052598888823
 30
0.0
 10
886.7834160785669
 20
26.79891238106066
 30
0.0
 10
886.8282958761656
 20
26.70282036851031
 30
0.0
 10
886.9031667441162
 20
26.63044246471876
 30
0.0
 10
886.9979140137186
 20
26.585266154192
 30
0.0
 10
887.1013660258655
 20
26.57353112457605
 30
0.0
 10
887.2039744570648
 20
26.58415903260103
 30
0.0
 10
887.304034261534
 20
26.60689572184513
 30
0.0
 10
887.4384373025487
 20
26.63141318933855
 30
0.0
 10
887.5746101809305
 20
26.64301349217487
 30
0.0
 10
887.7101323649457
 20
26.66020411160827
 30
0.0
 10
887.8443488617006
 20
26.68650019446813
 30
0.0
 10
887.9428452201703
 20
26.71514201204698
 30
0.0
 10
888.0085240618946
 20
26.7342408034408
 30
0.0
 11
886.8801714615948
 21
27.09807974964082
 31
0.0
 11
886.8299700007947
 21
27.00381710214083
 31
0.0
 11
886.7954272306947
 21
26.90186051944079
 31
0.0
 11
886.7921339806946
 21
26.80027995774083
 31
0.0
 11
886.8327905171946
 21
26.70750576104081
 31
0.0
 11
886.9068545106948
 21
26.63473783504083
 31
0.0
 11
886.9992101925944
 21
26.59086671444084
 31
0.0
 11
887.1011505349946
 21
26.5772666392408
 31
0.0
 11
887.2038126819946
 21
26.58622114754081
 31
0.0
 11
887.3041823744948
 21
26.60617700354084
 31
0.0
 11
887.4049340533948
 21
26.6241995164408
 31
0.0
 11
887.6084685695946
 21
26.64778060264081
 31
0.0
 11
887.7099258864946
 21
26.6613348716408
 31
0.0
 11
887.8105074983945
 21
26.6809072100408
 31
0.0
 11
888.0085240618946
 21
26.7342408034408
 31
0.0
  0
SPLINE
  5
21B4
330
21
100
AcDbEntity
  8
0
  6
Continuous
100
AcDbSpline
210
0.0
220
0.0
230
1.0
 70
     8
 71
     3
 72
     9
 73
     5
 74
     3
 42
0.0000000001
 43
0.0000000001
 44
0.0000000001
 40
0.0
 40
0.0
 40
0.0
 40
0.0
 40
0.3302378139245529
 40
0.6603372001339112
 40
0.6603372001339112
 40
0.6603372001339112
 40
0.6603372001339112
 10
887.2929942271946
 20
27.60596696944083
 30
0.0
 10
887.2071797137357
 20
27.53511555455189
 30
0.0
 10
887.035586658189
 20
27.39344242397579
 30
0.0
 10
886.9319692866256
 20
27.19652021402946
 30
0.0
 10
886.8801714615948
 20
27.09807974964082
 30
0.0
 11
887.2929942271946
 21
27.60596696944083
 31
0.0
 11
887.0525517334947
 21
27.37959466334081
 31
0.0
 11
886.8801714615948
 21
27.09807974964082
 31
0.0
  0
SPLINE
  5
21B5
330
21
100
AcDbEntity
  8
0
  6
Continuous
100
AcDbSpline
210
0.0
220
0.0
230
1.0
 70
     8
 71
     3
 72
    22
 73
    18
 74
    16
 42
0.0000000001
 43
0.0000000001
 44
0.0000000001
 40
0.0
 40
0.0
 40
0.0
 40
0.0
 40
0.2153918739509585
 40
0.3239533546580877
 40
0.4317467440979503
 40
0.5402177205122305
 40
0.650654933078103
 40
0.704383715566926
 40
0.7567725181880372
 40
0.8633479617404763
 40
0.9767680546930201
 40
1.091937953797882
 40
1.202810864308326
 40
1.310335424185059
 40
1.416902955195192
 40
1.524802862850028
 40
1.741696880099132
 40
1.741696880099132
 40
1.741696880099132
 40
1.741696880099132
 10
887.8396128221945
 20
28.8743654229408
 30
0.0
 10
887.8319218692895
 20
28.80115108845535
 30
0.0
 10
887.8203545341423
 20
28.691035377818
 30
0.0
 10
887.8803460530897
 20
28.55712185463852
 30
0.0
 10
887.9377223407453
 20
28.46566105646932
 30
0.0
 10
887.9977639388087
 20
28.37470877495738
 30
0.0
 10
888.0356596118099
 20
28.29111994260518
 30
0.0
 10
888.0501728453124
 20
28.21997237596361
 30
0.0
 10
888.0485822463653
 20
28.14844075412441
 30
0.0
 10
888.0163310259077
 20
28.06125760768218
 30
0.0
 10
887.9512564919319
 20
27.96979913547366
 30
0.0
 10
887.8729883142119
 20
27.88775157481009
 30
0.0
 10
887.7886201850262
 20
27.81499777328363
 30
0.0
 10
887.6980328980189
 20
27.75503906513204
 30
0.0
 10
887.6006945615318
 20
27.70870843539686
 30
0.0
 10
887.4626873332813
 20
27.66767995757879
 30
0.0
 10
887.3609400251614
 20
27.63067709656769
 30
0.0
 10
887.2929942271946
 20
27.60596696944083
 30
0.0
 11
887.8396128221945
 21
28.8743654229408
 31
0.0
 11
887.8415528265945
 21
28.65898228584081
 31
0.0
 11
887.8825056857946
 21
28.55844145624081
 31
0.0
 11
887.9379864903947
 21
28.46602232874079
 31
0.0
 11
887.9949954971946
 21
28.37374055444082
 31
0.0
 11
888.0381944397946
 21
28.27210281894082
 31
0.0
 11
888.0482360575948
 21
28.21932073884079
 31
0.0
 11
888.0470723066946
 21
28.16694486344079
 31
0.0
 11
888.0132303380946
 21
28.06588524574079
 31
0.0
 11
887.9495473173946
 21
27.9720311549408
 31
0.0
 11
887.8706853829946
 21
27.88809724664083
 31
0.0
 11
887.7863192329947
 21
27.81615869634084
 31
0.0
 11
887.6964948762948
 21
27.75705610824082
 31
0.0
 11
887.6001635925948
 21
27.7114828436408
 31
0.0
 11
887.4977972373947
 21
27.67737244354083
 31
0.0
 11
887.2929942271946
 21
27.60596696944083
 31
0.0
  0
SPLINE
  5
21B6
330
21
100
AcDbEntity
  8
0
  6
Continuous
100
AcDbSpline
210
0.0
220
0.0
230
1.0
 70
     8
 71
     3
 72
     9
 73
     5
 74
     3
 42
0.0000000001
 43
0.0000000001
 44
0.0000000001
 40
0.0
 40
0.0
 40
0.0
 40
0.0
 40
0.3347850975811785
 40
0.6699669612215724
 40
0.6699669612215724
 40
0.6699669612215724
 40
0.6699669612215724
 10
888.1832284715947
 20
29.43295461384082
 30
0.0
 10
888.0968398207509
 20
29.35785014248213
 30
0.0
 10
887.9239601367143
 20
29.20755219070983
 30
0.0
 10
887.8677396919419
 20
28.98547151887289
 30
0.0
 10
887.8396128221945
 20
28.8743654229408
 30
0.0
 11
888.1832284715947
 21
29.43295461384082
 31
0.0
 11
887.9531927952946
 21
29.1897167689408
 31
0.0
 11
887.8396128221945
 21
28.8743654229408
 31
0.0
  0
SPLINE
  5
21B7
330
21
100
AcDbEntity
  8
0
  6
Continuous
100
AcDbSpline
210
0.0
220
0.0
230
1.0
 70
     8
 71
     3
 72
    14
 73
    10
 74
     8
 42
0.0000000001
 43
0.0000000001
 44
0.0000000001
 40
0.0
 40
0.0
 40
0.0
 40
0.0
 40
0.4333885284497146
 40
0.6500573050881385
 40
0.8668227705862351
 40
1.084009393203967
 40
1.302012114599984
 40
1.519146320589148
 40
1.734879723188436
 40
1.734879723188436
 40
1.734879723188436
 40
1.734879723188436
 10
889.6710758737947
 20
30.30877926434084
 30
0.0
 10
889.5586909410177
 20
30.21790220619887
 30
0.0
 10
889.3901201512122
 20
30.08159196346718
 30
0.0
 10
889.1520543503769
 20
29.9175211251779
 30
0.0
 10
888.9659014389954
 20
29.80589655682359
 30
0.0
 10
888.770530553922
 20
29.70999002218502
 30
0.0
 10
888.5687788033648
 20
29.62915782019495
 30
0.0
 10
888.367371196329
 20
29.54698178261976
 30
0.0
 10
888.2444768136197
 20
29.47088158078217
 30
0.0
 10
888.1832284715947
 20
29.43295461384082
 30
0.0
 11
889.6710758737947
 21
30.30877926434084
 31
0.0
 11
889.3294931083946
 21
30.04204563134084
 31
0.0
 11
889.1508381576946
 21
29.91945783684082
 31
0.0
 11
888.9645543920947
 21
29.80861729504079
 31
0.0
 11
888.7697332337946
 21
29.7126238300408
 31
0.0
 11
888.5684925157947
 21
29.62879447984079
 31
0.0
 11
888.3697190647946
 21
29.54140810454084
 31
0.0
 11
888.1832284715947
 21
29.43295461384082
 31
0.0
  0
SPLINE
  5
21B8
330
21
100
AcDbEntity
  8
0
  6
Continuous
100
AcDbSpline
210
0.0
220
0.0
230
1.0
 70
     8
 71
     3
 72
    11
 73
     7
 74
     5
 42
0.0000000001
 43
0.0000000001
 44
0.0000000001
 40
0.0
 40
0.0
 40
0.0
 40
0.0
 40
0.1730341426648669
 40
0.3460203246685294
 40
0.52211813702451
 40
0.6980545872057902
 40
0.6980545872057902
 40
0.6980545872057902
 40
0.6980545872057902
 10
890.0411934429947
 20
30.87570328704084
 30
0.0
 10
890.0334901042825
 20
30.81792925580783
 30
0.0
 10
890.0180855620272
 20
30.70239720683309
 30
0.0
 10
889.924363144671
 20
30.55112705320816
 30
0.0
 10
889.8062821752626
 20
30.42181770358366
 30
0.0
 10
889.7161308667122
 20
30.34644722821711
 30
0.0
 10
889.6710758737947
 20
30.30877926434084
 30
0.0
 11
890.0411934429947
 21
30.87570328704084
 31
0.0
 11
890.0064032966948
 21
30.7062026668408
 31
0.0
 11
889.9210296423946
 21
30.55575148434082
 31
0.0
 11
889.8034993157946
 21
30.42461391594083
 31
0.0
 11
889.6710758737947
 21
30.30877926434084
 31
0.0
  0
SPLINE
  5
21B9
330
21
100
AcDbEntity
  8
0
  6
Continuous
100
AcDbSpline
210
0.0
220
0.0
230
1.0
 70
     8
 71
     3
 72
     9
 73
     5
 74
     3
 42
0.0000000001
 43
0.0000000001
 44
0.0000000001
 40
0.0
 40
0.0
 40
0.0
 40
0.0
 40
0.3455620670134169
 40
0.6911347873554795
 40
0.6911347873554795
 40
0.6911347873554795
 40
0.6911347873554795
 10
889.9145356790945
 20
31.55458948764084
 30
0.0
 10
889.9423241088954
 20
31.44268964069185
 30
0.0
 10
889.9979018251861
 20
31.21888649703488
 30
0.0
 10
890.0267627554352
 20
30.99009886590257
 30
0.0
 10
890.0411934429947
 20
30.87570328704084
 30
0.0
 11
889.9145356790945
 21
31.55458948764084
 31
0.0
 11
889.9912219778945
 21
31.21764386334081
 31
0.0
 11
890.0411934429947
 21
30.87570328704084
 31
0.0
  0
SPLINE
  5
21BA
330
21
100
AcDbEntity
  8
0
  6
Continuous
100
AcDbSpline
210
0.0
220
0.0
230
1.0
 70
    24
 71
     3
 72
     8
 73
     4
 74
     2
 42
0.0000000001
 43
0.0000000001
 44
0.0000000001
 40
0.0
 40
0.0
 40
0.0
 40
0.0
 40
1.041039879996363
 40
1.041039879996363
 40
1.041039879996363
 40
1.041039879996363
 10
889.7648078987947
 20
32.58480578704081
 30
0.0
 10
889.8147171588948
 20
32.24140035390749
 30
0.0
 10
889.8646264189947
 20
31.89799492077417
 30
0.0
 10
889.9145356790945
 20
31.55458948764084
 30
0.0
 11
889.7648078987947
 21
32.58480578704081
 31
0.0
 11
889.9145356790945
 21
31.55458948764084
 31
0.0
  0
SPLINE
  5
21BB
330
21
100
AcDbEntity
  8
0
  6
Continuous
100
AcDbSpline
210
0.0
220
0.0
230
1.0
 70
     8
 71
     3
 72
     9
 73
     5
 74
     3
 42
0.0000000001
 43
0.0000000001
 44
0.0000000001
 40
0.0
 40
0.0
 40
0.0
 40
0.0
 40
0.3471176591171958
 40
0.695675110422856
 40
0.695675110422856
 40
0.695675110422856
 40
0.695675110422856
 10
889.7364580310945
 20
33.27686228314082
 30
0.0
 10
889.7249726421426
 20
33.16109774833751
 30
0.0
 10
889.7019542245616
 20
32.92908850473648
 30
0.0
 10
889.7438277864148
 20
32.69972492575255
 30
0.0
 10
889.7648078987947
 20
32.58480578704081
 30
0.0
 11
889.7364580310945
 21
33.27686228314082
 31
0.0
 11
889.7181577772947
 21
32.93022735994083
 31
0.0
 11
889.7648078987947
 21
32.58480578704081
 31
0.0
  0
SPLINE
  5
21BC
330
21
100
AcDbEntity
  8
0
  6
Continuous
100
AcDbSpline
210
0.0
220
0.0
230
1.0
 70
     8
 71
     3
 72
    14
 73
    10
 74
     8
 42
0.0000000001
 43
0.0000000001
 44
0.0000000001
 40
0.0
 40
0.0
 40
0.0
 40
0.0
 40
0.4248448291090942
 40
0.6383067239902295
 40
0.8543818511155975
 40
1.066982497219544
 40
1.282086364123696
 40
1.506323809263166
 40
1.726994364807368
 40
1.726994364807368
 40
1.726994364807368
 40
1.726994364807368
 10
891.0425758881947
 20
33.54139749464082
 30
0.0
 10
890.9361465043289
 20
33.63806817531869
 30
0.0
 10
890.7762420246293
 20
33.7833107233304
 30
0.0
 10
890.5014264890471
 20
33.87354529877661
 30
0.0
 10
890.2860024386315
 20
33.89035883631716
 30
0.0
 10
890.0717361276123
 20
33.83359036674171
 30
0.0
 10
889.9062022711654
 20
33.68398826730008
 30
0.0
 10
889.790704615609
 20
33.49303024607474
 30
0.0
 10
889.7544433219805
 20
33.34853211688943
 30
0.0
 10
889.7364580310945
 20
33.27686228314082
 30
0.0
 11
891.0425758881947
 21
33.54139749464082
 31
0.0
 11
890.7031713813946
 21
33.79693165984082
 31
0.0
 11
890.5008004347947
 21
33.8648432239408
 31
0.0
 11
890.2851258763947
 21
33.87799409544084
 31
0.0
 11
890.0809090325948
 21
33.81887966884079
 31
0.0
 11
889.9168324422946
 21
33.67978061754082
 31
0.0
 11
889.8006464936948
 21
33.48799100064082
 31
0.0
 11
889.7364580310945
 21
33.27686228314082
 31
0.0
  0
SPLINE
  5
21BD
330
21
100
AcDbEntity
  8
0
  6
Continuous
100
AcDbSpline
210
0.0
220
0.0
230
1.0
 70
     8
 71
     3
 72
     9
 73
     5
 74
     3
 42
0.0000000001
 43
0.0000000001
 44
0.0000000001
 40
0.0
 40
0.0
 40
0.0
 40
0.0
 40
0.1742804973602672
 40
0.697041421374821
 40
0.697041421374821
 40
0.697041421374821
 40
0.697041421374821
 10
891.5298034902946
 20
33.04840605494081
 30
0.0
 10
891.4809183568078
 20
33.08024025014852
 30
0.0
 10
891.2854004219507
 20
33.20756231436109
 30
0.0
 10
891.1466412542925
 20
33.39832842449906
 30
0.0
 10
891.0425758881947
 20
33.54139749464082
 30
0.0
 11
891.5298034902946
 21
33.04840605494081
 31
0.0
 11
891.3866963328946
 21
33.14787481014082
 31
0.0
 11
891.0425758881947
 21
33.54139749464082
 31
0.0
  0
SPLINE
  5
21BE
330
21
100
AcDbEntity
  8
0
  6
Continuous
100
AcDbSpline
210
0.0
220
0.0
230
1.0
 70
     8
 71
     3
 72
    17
 73
    13
 74
    11
 42
0.0000000001
 43
0.0000000001
 44
0.0000000001
 40
0.0
 40
0.0
 40
0.0
 40
0.0
 40
0.1276090459443303
 40
0.2552169562592578
 40
0.3173865857604157
 40
0.3793003665801373
 40
0.4419402743322645
 40
0.5050211279703185
 40
0.6296913558666348
 40
0.7540030503404632
 40
0.880288484714168
 40
1.00607721303979
 40
1.00607721303979
 40
1.00607721303979
 40
1.00607721303979
 10
892.0744788066947
 20
33.51328228694081
 30
0.0
 10
892.0910755447834
 20
33.47394138661753
 30
0.0
 10
892.1242688732613
 20
33.3952599360769
 30
0.0
 10
892.1329028715879
 20
33.28725616438091
 30
0.0
 10
892.1166189569671
 20
33.20438326251698
 30
0.0
 10
892.089932470249
 20
33.14747210611704
 30
0.0
 10
892.0516623305553
 20
33.09748828431221
 30
0.0
 10
891.9895788492202
 20
33.04124670688222
 30
0.0
 10
891.8957517106074
 20
32.99124220100474
 30
0.0
 10
891.7697594634897
 20
32.97385061285277
 30
0.0
 10
891.6437970613814
 20
32.99370386542973
 30
0.0
 10
891.5677513986095
 20
33.03019596070117
 30
0.0
 10
891.5298034902946
 20
33.04840605494081
 30
0.0
 11
892.0744788066947
 21
33.51328228694081
 31
0.0
 11
892.1177063234948
 21
33.39321792754083
 31
0.0
 11
892.1267974591946
 21
33.26593426784081
 31
0.0
 11
892.1141658744945
 21
33.20506140114082
 31
0.0
 11
892.0881576215948
 21
33.14887521924084
 31
0.0
 11
892.0503794870947
 21
33.09890952504082
 31
0.0
 11
892.0037323213946
 21
33.05644499834079
 31
0.0
 11
891.8934545180945
 21
32.99829457424079
 31
0.0
 11
891.7704885418945
 21
32.98005269714082
 31
0.0
 11
891.6457175869945
 21
32.9995519214408
 31
0.0
 11
891.5298034902946
 21
33.04840605494081
 31
0.0
  0
SPLINE
  5
21BF
330
21
100
AcDbEntity
  8
0
  6
Continuous
100
AcDbSpline
210
0.0
220
0.0
230
1.0
 70
     8
 71
     3
 72
    11
 73
     7
 74
     5
 42
0.0000000001
 43
0.0000000001
 44
0.0000000001
 40
0.0
 40
0.0
 40
0.0
 40
0.0
 40
0.3600644446719332
 40
0.7200322214625745
 40
1.080000255465722
 40
1.439975420732069
 40
1.439975420732069
 40
1.439975420732069
 40
1.439975420732069
 10
891.2067205955946
 20
34.65450745774081
 30
0.0
 10
891.2622917927104
 20
34.54779112521612
 30
0.0
 10
891.3734192675299
 20
34.33438711070949
 30
0.0
 10
891.604812086559
 20
34.05554280749222
 30
0.0
 10
891.8745963627775
 20
33.81461136867372
 30
0.0
 10
892.0078508854131
 20
33.61372597746271
 30
0.0
 10
892.0744788066947
 20
33.51328228694081
 30
0.0
 11
891.2067205955946
 21
34.65450745774081
 31
0.0
 11
891.3842224009946
 21
34.34123519054083
 31
0.0
 11
891.6112137480945
 21
34.06185779584081
 31
0.0
 11
891.8629442374948
 21
33.80454719324081
 31
0.0
 11
892.0744788066947
 21
33.51328228694081
 31
0.0
  0
SPLINE
  5
21C0
330
21
100
AcDbEntity
  8
0
  6
Continuous
100
AcDbSpline
210
0.0
220
0.0
230
1.0
 70
     8
 71
     3
 72
     9
 73
     5
 74
     3
 42
0.0000000001
 43
0.0000000001
 44
0.0000000001
 40
0.0
 40
0.0
 40
0.0
 40
0.0
 40
3.158231882797313
 40
6.316463775435571
 40
6.316463775435571
 40
6.316463775435571
 40
6.316463775435571
 10
892.3370194076946
 20
32.53652448104083
 30
0.0
 10
892.8822415585837
 20
31.62355356994656
 30
0.0
 10
893.9726858620604
 20
29.79761174491323
 30
0.0
 10
894.3061489853101
 20
27.69715115895579
 30
0.0
 10
894.4728805471946
 20
26.64692086434082
 30
0.0
 11
892.3370194076946
 21
32.53652448104083
 31
0.0
 11
893.7834405658945
 21
29.72898205774084
 31
0.0
 11
894.4728805471946
 21
26.64692086434082
 31
0.0
  0
SPLINE
  5
21C1
330
21
100
AcDbEntity
  8
0
  6
Continuous
100
AcDbSpline
210
0.0
220
0.0
230
1.0
 70
     8
 71
     3
 72
    11
 73
     7
 74
     5
 42
0.0000000001
 43
0.0000000001
 44
0.0000000001
 40
0.0
 40
0.0
 40
0.0
 40
0.0
 40
0.0848384952043829
 40
0.169675470115919
 40
0.2545123713991224
 40
0.3393510447685244
 40
0.3393510447685244
 40
0.3393510447685244
 40
0.3393510447685244
 10
892.1429262109946
 20
32.4163638674408
 30
0.0
 10
892.134821598871
 20
32.44494707103729
 30
0.0
 10
892.1186125198569
 20
32.50211296602364
 30
0.0
 10
892.1768316714404
 20
32.57843780700299
 30
0.0
 10
892.2711096804048
 20
32.59652696604661
 30
0.0
 10
892.3150493456296
 20
32.55652544863427
 30
0.0
 10
892.3370194076946
 20
32.53652448104083
 30
0.0
 11
892.1429262109946
 21
32.4163638674408
 31
0.0
 11
892.1323681145946
 21
32.50054282484081
 31
0.0
 11
892.1828414552946
 21
32.56873193094083
 31
0.0
 11
892.2663809873947
 21
32.58351186314082
 31
0.0
 11
892.3370194076946
 21
32.53652448104083
 31
0.0
  0
SPLINE
  5
21C2
330
21
100
AcDbEntity
  8
0
  6
Continuous
100
AcDbSpline
210
0.0
220
0.0
230
1.0
 70
     8
 71
     3
 72
    15
 73
    11
 74
     9
 42
0.0000000001
 43
0.0000000001
 44
0.0000000001
 40
0.0
 40
0.0
 40
0.0
 40
0.0
 40
0.3890681941741119
 40
0.8130068210397393
 40
1.261850964095888
 40
1.525417037466805
 40
1.79292819179965
 40
4.308203670871933
 40
6.72112827216752
 40
7.596849517647144
 40
7.596849517647144
 40
7.596849517647144
 40
7.596849517647144
 10
894.4728805471946
 20
26.64692086434082
 30
0.0
 10
894.4547318276632
 20
26.51063617854046
 30
0.0
 10
894.4168078004791
 20
26.22585222339308
 30
0.0
 10
893.9590254783816
 20
26.03223492165792
 30
0.0
 10
893.5639066192193
 20
26.23735375517774
 30
0.0
 10
893.4838007888387
 20
26.56820883497962
 30
0.0
 10
893.460065336462
 20
27.57809602158256
 30
0.0
 10
893.4305653341808
 20
29.33107246301904
 30
0.0
 10
892.7724532529842
 20
31.18023880063853
 30
0.0
 10
892.275308921995
 20
32.1564201691338
 30
0.0
 10
892.1429262109946
 20
32.4163638674408
 30
0.0
 11
894.4728805471946
 21
26.64692086434082
 31
0.0
 11
894.3595722070947
 21
26.27471758684084
 31
0.0
 11
893.9711655745945
 21
26.1048227747408
 31
0.0
 11
893.5746945853946
 21
26.31523147104082
 31
0.0
 11
893.4937970054946
 21
26.56607535994084
 31
0.0
 11
893.4776329963947
 21
26.83309772324083
 31
0.0
 11
893.2917066782946
 21
29.34149205824082
 31
0.0
 11
892.5312645667945
 21
31.63145557904079
 31
0.0
 11
892.1429262109946
 21
32.4163638674408
 31
0.0
  0
SPLINE
  5
21C3
330
21
100
AcDbEntity
  8
0
  6
Continuous
100
AcDbSpline
210
0.0
220
0.0
230
1.0
 70
     8
 71
     3
 72
     9
 73
     5
 74
     3
 42
0.0000000001
 43
0.0000000001
 44
0.0000000001
 40
0.0
 40
0.0
 40
0.0
 40
0.0
 40
2.099774506360833
 40
4.199549034275776
 40
4.199549034275776
 40
4.199549034275776
 40
4.199549034275776
 10
894.4910667013946
 20
28.22326590584083
 30
0.0
 10
894.4358211268777
 20
28.93420109653649
 30
0.0
 10
894.3253299772767
 20
30.35607148522554
 30
0.0
 10
893.5243525931921
 20
31.53605408148366
 30
0.0
 10
893.1238638990945
 20
32.12604538264083
 30
0.0
 11
894.4910667013946
 21
28.22326590584083
 31
0.0
 11
894.1527084209948
 21
30.29559953044083
 31
0.0
 11
893.1238638990945
 21
32.12604538264083
 31
0.0
  0
SPLINE
  5
21C4
330
21
100
AcDbEntity
  8
0
  6
Continuous
100
AcDbSpline
210
0.0
220
0.0
230
1.0
 70
     8
 71
     3
 72
    18
 73
    14
 74
    12
 42
0.0000000001
 43
0.0000000001
 44
0.0000000001
 40
0.0
 40
0.0
 40
0.0
 40
0.0
 40
0.0399291135071029
 40
0.0799186345070851
 40
0.1602806135784845
 40
0.2407244686969601
 40
0.3208728018313959
 40
0.4822081743034078
 40
0.6454570205387646
 40
0.8085390885761268
 40
0.9707720216892768
 40
1.13047365969622
 40
1.290145592907213
 40
1.290145592907213
 40
1.290145592907213
 40
1.290145592907213
 10
895.2906708332946
 20
28.25247374934082
 30
0.0
 10
895.2913901293413
 20
28.23917695532941
 30
0.0
 10
895.2928298096352
 20
28.2125632510075
 30
0.0
 10
895.2900483760054
 20
28.15908929703236
 30
0.0
 10
895.2750321200869
 20
28.09330819051849
 30
0.0
 10
895.2423392575324
 20
28.0194500454553
 30
0.0
 10
895.1805536816642
 20
27.93085466021746
 30
0.0
 10
895.0690746733433
 20
27.84798448728633
 30
0.0
 10
894.9073434773781
 20
27.8062878040522
 30
0.0
 10
894.7421631549637
 20
27.8357445887914
 30
0.0
 10
894.6029211309738
 20
27.92471240648893
 30
0.0
 10
894.5080326260529
 20
28.06242626999913
 30
0.0
 10
894.4967216589379
 20
28.16965601835756
 30
0.0
 10
894.4910667013946
 20
28.22326590584083
 30
0.0
 11
895.2906708332946
 21
28.25247374934082
 31
0.0
 11
895.2921231516945
 21
28.21257105674084
 31
0.0
 11
895.2899858787946
 21
28.17263869074082
 31
0.0
 11
895.2725925890948
 21
28.09418156134081
 31
0.0
 11
895.2400327955947
 21
28.02062156084082
 31
0.0
 11
895.1939138155946
 21
27.95507161814084
 31
0.0
 11
895.0650945610945
 21
27.85793922354083
 31
0.0
 11
894.9067613831946
 21
27.81818006644079
 31
0.0
 11
894.7460460481947
 21
27.8458629494408
 31
0.0
 11
894.6095573930946
 21
27.93355771334081
 31
0.0
 11
894.5209325737947
 21
28.06641197404082
 31
0.0
 11
894.4910667013946
 21
28.22326590584083
 31
0.0
  0
SPLINE
  5
21C5
330
21
100
AcDbEntity
  8
0
  6
Continuous
100
AcDbSpline
210
0.0
220
0.0
230
1.0
 70
     8
 71
     3
 72
     9
 73
     5
 74
     3
 42
0.0000000001
 43
0.0000000001
 44
0.0000000001
 40
0.0
 40
0.0
 40
0.0
 40
0.0
 40
2.293945445258255
 40
4.587890824559762
 40
4.587890824559762
 40
4.587890824559762
 40
4.587890824559762
 10
893.3241755871947
 20
32.31320144144081
 30
0.0
 10
893.8391156988911
 20
31.72706472561615
 30
0.0
 10
894.8689959074784
 20
30.55479131081974
 30
0.0
 10
895.1501125260363
 20
29.01991292914518
 30
0.0
 10
895.2906708332946
 20
28.25247374934082
 30
0.0
 11
893.3241755871947
 21
32.31320144144081
 31
0.0
 11
894.6818050193947
 21
30.46414004964083
 31
0.0
 11
895.2906708332946
 21
28.25247374934082
 31
0.0
  0
SPLINE
  5
21C6
330
21
100
AcDbEntity
  8
0
  6
Continuous
100
AcDbSpline
210
0.0
220
0.0
230
1.0
 70
     8
 71
     3
 72
    11
 73
     7
 74
     5
 42
0.0000000001
 43
0.0000000001
 44
0.0000000001
 40
0.0
 40
0.0
 40
0.0
 40
0.0
 40
0.1010135618057857
 40
0.2020255336097787
 40
0.3030373571486978
 40
0.4040507087414693
 40
0.4040507087414693
 40
0.4040507087414693
 40
0.4040507087414693
 10
893.1238638990945
 20
32.12604538264083
 30
0.0
 10
893.108145399342
 20
32.15770048412208
 30
0.0
 10
893.0767086472536
 20
32.22101018881814
 30
0.0
 10
893.1272011634585
 20
32.32324798927281
 30
0.0
 10
893.2326283253638
 20
32.3666898366947
 30
0.0
 10
893.2936596793771
 20
32.33103099642946
 30
0.0
 10
893.3241755871947
 20
32.31320144144081
 30
0.0
 11
893.1238638990945
 21
32.12604538264083
 31
0.0
 11
893.0929832895946
 21
32.22222296644082
 31
0.0
 11
893.1363569377947
 21
32.31344875824084
 31
0.0
 11
893.2303144378947
 21
32.3505348293408
 31
0.0
 11
893.3241755871947
 21
32.31320144144081
 31
0.0
  0
ARC
  5
21C7
330
21
100
AcDbEntity
  8
0
  6
Continuous
100
AcDbCircle
 10
868.2197593904945
 20
44.58791061164084
 30
0.0
 40
3.0
100
AcDbArc
 50
56.44269023810327
 51
90.0
  0
ARC
  5
21C8
330
21
100
AcDbEntity
  8
0
  6
Continuous
100
AcDbCircle
 10
915.1480573231949
 20
49.58791061164084
 30
0.0
 40
3.0
100
AcDbArc
 50
270.0
 51
314.9999999999954
  0
ARC
  5
21C9
330
21
100
AcDbEntity
  8
0
  6
Continuous
100
AcDbCircle
 10
915.1480573231949
 20
5.587910611640836
 30
0.0
 40
3.0
100
AcDbArc
 50
44.99999999989867
 51
90.0
  0
ARC
  5
21CA
330
21
100
AcDbEntity
  8
0
  6
Continuous
100
AcDbCircle
 10
859.5429568903948
 20
50.58791061164083
 30
0.0
 40
3.0
100
AcDbArc
 50
225.0000000000046
 51
270.0
  0
ARC
  5
21CB
330
21
100
AcDbEntity
  8
0
  6
Continuous
100
AcDbCircle
 10
909.3003162032946
 20
0.8305512987408292
 30
0.0
 40
3.0
100
AcDbArc
 50
180.0
 51
225.0000000000046
  0
ARC
  5
21CC
330
21
100
AcDbEntity
  8
0
  6
Continuous
100
AcDbCircle
 10
909.3003110554946
 20
5.587915869640823
 30
0.0
 40
2.999999284999999
100
AcDbArc
 50
89.99990075019454
 51
180.0001018498996
  0
ARC
  5
21CD
330
21
100
AcDbEntity
  8
0
  6
Continuous
100
AcDbCircle
 10
871.5363841807945
 20
49.58791061164084
 30
0.0
 40
3.0
100
AcDbArc
 50
236.4426902381033
 51
270.0
  0
ARC
  5
21CE
330
21
100
AcDbEntity
  8
0
  6
Continuous
100
AcDbCircle
 10
941.9003162032946
 20
45.0222251867408
 30
0.0
 40
0.4
100
AcDbArc
 50
0.0
 51
44.99999999070292
  0
ARC
  5
21CF
330
21
100
AcDbEntity
  8
0
  6
Continuous
100
AcDbCircle
 10
941.9003162032946
 20
10.1535960366408
 30
0.0
 40
0.4
100
AcDbArc
 50
315.0000000071023
 51
0.0
  0
ARC
  5
21D0
330
21
100
AcDbEntity
  8
0
  6
Continuous
100
AcDbCircle
 10
939.4869530011947
 20
47.43558838884081
 30
0.0
 40
0.4
100
AcDbArc
 50
44.99999999940123
 51
88.21099999999653
  0
ARC
  5
21D1
330
21
100
AcDbEntity
  8
0
  6
Continuous
100
AcDbCircle
 10
939.4869530011947
 20
7.740232834440803
 30
0.0
 40
0.4
100
AcDbArc
 50
271.7890000000035
 51
315.0000000005999
  0
ARC
  5
21D2
330
21
100
AcDbEntity
  8
0
  6
Continuous
100
AcDbCircle
 10
843.5660016282945
 20
51.1879106116408
 30
0.0
 40
0.4
100
AcDbArc
 50
90.0
 51
135.000000000198
  0
ARC
  5
21D3
330
21
100
AcDbEntity
  8
0
  6
Continuous
100
AcDbCircle
 10
841.7003162032949
 20
49.3222251867408
 30
0.0
 40
0.4
100
AcDbArc
 50
135.0000000024987
 51
180.0
  0
ARC
  5
21D4
330
21
100
AcDbEntity
  8
0
  6
Continuous
100
AcDbCircle
 10
909.9003162032946
 20
-15.1464039633592
 30
0.0
 40
0.4
100
AcDbArc
 50
314.9999999996983
 51
0.0
  0
ARC
  5
21D5
330
21
100
AcDbEntity
  8
0
  6
Continuous
100
AcDbCircle
 10
908.0346307783948
 20
-17.01208938835918
 30
0.0
 40
0.4
100
AcDbArc
 50
270.0
 51
314.999999993197
  0
CIRCLE
  5
21D6
330
21
100
AcDbEntity
  8
0
  6
Continuous
100
AcDbCircle
 10
889.1331256211946
 20
33.63468337224083
 30
0.0
 40
0.328409678
  0
ARC
  5
21D7
330
21
100
AcDbEntity
  8
0
  6
Continuous
100
AcDbCircle
 10
886.3003162032946
 20
27.58791061164084
 30
0.0
 40
10.999690002
100
AcDbArc
 50
270.0
 51
179.8435235050845
  0
LINE
  5
21D8
330
21
100
AcDbEntity
  8
0
  6
Continuous
100
AcDbLine
 10
942.1831589157946
 20
45.30506789924084
 30
0.0
 11
939.7697957135946
 21
47.7184311013408
 31
0.0
  0
LINE
  5
21D9
330
21
100
AcDbEntity
  8
0
  6
Continuous
100
AcDbLine
 10
942.3003162032946
 20
45.0222251867408
 30
0.0
 11
942.3003162032946
 21
10.1535960366408
 31
0.0
  0
LINE
  5
21DA
330
21
100
AcDbEntity
  8
0
  6
Continuous
100
AcDbLine
 10
942.1831589157946
 20
45.30506789924084
 30
0.0
 11
942.1831589157946
 21
9.870753324140821
 31
0.0
  0
LINE
  5
21DB
330
21
100
AcDbEntity
  8
0
  6
Continuous
100
AcDbLine
 10
942.0537456160946
 20
9.741341550340792
 30
0.0
 11
942.0537456160946
 21
45.43447967294082
 31
0.0
  0
LINE
  5
21DC
330
21
100
AcDbEntity
  8
0
  6
Continuous
100
AcDbLine
 10
939.7697957135946
 20
47.7184311013408
 30
0.0
 11
939.7697957135946
 21
7.457390122040806
 31
0.0
  0
LINE
  5
21DD
330
21
100
AcDbEntity
  8
0
  6
Continuous
100
AcDbLine
 10
939.4994405479947
 20
47.8353934178408
 30
0.0
 11
939.4994405479947
 21
7.340427805540798
 31
0.0
  0
LINE
  5
21DE
330
21
100
AcDbEntity
  8
0
  6
Continuous
100
AcDbLine
 10
942.1831589157946
 20
9.870753324140821
 30
0.0
 11
939.7697957135946
 21
7.457390122040806
 31
0.0
  0
LINE
  5
21DF
330
21
100
AcDbEntity
  8
0
  6
Continuous
100
AcDbLine
 10
854.3003162032945
 20
51.58791061164084
 30
0.0
 11
843.5660016282945
 21
51.58791061164084
 31
0.0
  0
LINE
  5
21E0
330
21
100
AcDbEntity
  8
0
  6
Continuous
100
AcDbLine
 10
908.3174734907947
 20
-17.29493210075918
 30
0.0
 11
910.1831589157946
 21
-15.42924667585919
 31
0.0
  0
LINE
  5
21E1
330
21
100
AcDbEntity
  8
0
  6
Continuous
100
AcDbLine
 10
939.4994405479947
 20
47.8353934178408
 30
0.0
 11
918.3003162032946
 21
48.4975288046408
 31
0.0
  0
LINE
  5
21E2
330
21
100
AcDbEntity
  8
0
  6
Continuous
100
AcDbLine
 10
919.3003162032946
 20
46.14516332974079
 30
0.0
 11
942.0537461966945
 21
45.43448061824079
 31
0.0
  0
LINE
  5
21E3
330
21
100
AcDbEntity
  8
0
  6
Continuous
100
AcDbLine
 10
841.7003162032949
 20
49.88791061164079
 30
0.0
 11
856.0003162032947
 21
49.88791061164079
 31
0.0
  0
LINE
  5
21E4
330
21
100
AcDbEntity
  8
0
  6
Continuous
100
AcDbLine
 10
868.2197593904945
 20
47.58791061164084
 30
0.0
 11
859.5429568903948
 21
47.58791061164084
 31
0.0
  0
LINE
  5
21E5
330
21
100
AcDbEntity
  8
0
  6
Continuous
100
AcDbLine
 10
915.1480573231949
 20
46.58791061164083
 30
0.0
 11
871.5363841807945
 21
46.58791061164083
 31
0.0
  0
LINE
  5
21E6
330
21
100
AcDbEntity
  8
0
  6
Continuous
100
AcDbLine
 10
876.6824552928946
 20
42.77704476654082
 30
0.0
 11
895.9181771136945
 21
42.77704476654082
 31
0.0
  0
LINE
  5
21E7
330
21
100
AcDbEntity
  8
0
  6
Continuous
100
AcDbLine
 10
876.6824552928946
 20
42.18674501254082
 30
0.0
 11
895.9181771136945
 21
42.18674501254082
 31
0.0
  0
LINE
  5
21E8
330
21
100
AcDbEntity
  8
0
  6
Continuous
100
AcDbLine
 10
919.3003162032946
 20
6.709526975240805
 30
0.0
 11
919.3003162032946
 21
48.46629424814079
 31
0.0
  0
LINE
  5
21E9
330
21
100
AcDbEntity
  8
0
  6
Continuous
100
AcDbLine
 10
918.3003162032946
 20
6.678292418640808
 30
0.0
 11
918.3003162032946
 21
48.4975288046408
 31
0.0
  0
LINE
  5
21EA
330
21
100
AcDbEntity
  8
0
  6
Continuous
100
AcDbLine
 10
917.2693776666946
 20
7.709230955240798
 30
0.0
 11
917.2693776666946
 21
47.4665902681408
 31
0.0
  0
LINE
  5
21EB
330
21
100
AcDbEntity
  8
0
  6
Continuous
100
AcDbLine
 10
895.4790697609947
 20
41.74763765984079
 30
0.0
 11
877.1215626455946
 21
41.74763765984079
 31
0.0
  0
LINE
  5
21EC
330
21
100
AcDbEntity
  8
0
  6
Continuous
100
AcDbLine
 10
895.4790697609947
 20
39.75524826364079
 30
0.0
 11
877.1215626455946
 21
39.75524826364079
 31
0.0
  0
LINE
  5
21ED
330
21
100
AcDbEntity
  8
0
  6
Continuous
100
AcDbLine
 10
915.1480573231949
 20
8.587910611640837
 30
0.0
 11
915.1480573231949
 21
46.58791061164083
 31
0.0
  0
LINE
  5
21EE
330
21
100
AcDbEntity
  8
0
  6
Continuous
100
AcDbLine
 10
898.4676538552947
 20
36.7666641693408
 30
0.0
 11
900.2648700365947
 21
36.76666431954084
 31
0.0
  0
LINE
  5
21EF
330
21
100
AcDbEntity
  8
0
  6
Continuous
100
AcDbLine
 10
874.1329785512945
 20
36.7666641693408
 30
0.0
 11
872.5206150261946
 21
36.7666641661408
 31
0.0
  0
LINE
  5
21F0
330
21
100
AcDbEntity
  8
0
  6
Continuous
100
AcDbLine
 10
910.3003162032946
 20
-15.1464039633592
 30
0.0
 11
910.3003162032946
 21
-4.412089388359163
 31
0.0
  0
LWPOLYLINE
  5
21F1
330
21
100
AcDbEntity
  8
0
  6
Continuous
100
AcDbPolyline
 90
        4
 70
     0
 43
0.0
 10
869.8780717863947
 20
41.13257094724082
 10
870.3945509238947
 20
40.94210828284082
 10
870.9544120402948
 20
40.82485703574081
 10
871.5363841807945
 20
40.78527196464079
  0
LINE
  5
21F2
330
21
100
AcDbEntity
  8
0
  6
Continuous
100
AcDbLine
 10
908.6003162032946
 20
-17.01208938835918
 30
0.0
 11
908.6003162032946
 21
-2.712089388359174
 31
0.0
  0
LINE
  5
21F3
330
21
100
AcDbEntity
  8
0
  6
Continuous
100
AcDbLine
 10
906.3003162032948
 20
0.8305512987408292
 30
0.0
 11
906.3003162032948
 21
5.587910611640836
 31
0.0
  0
LINE
  5
21F4
330
21
100
AcDbEntity
  8
0
  6
Continuous
100
AcDbLine
 10
918.3003162032946
 20
6.678292418640808
 30
0.0
 11
917.2693776666946
 21
7.709230955240798
 31
0.0
  0
LINE
  5
21F5
330
21
100
AcDbEntity
  8
0
  6
CENTER
100
AcDbLine
 10
829.9016826443677
 20
27.58791061164087
 30
0.0
 11
954.7372469482697
 21
27.60332095315059
 31
0.0
  0
LINE
  5
21F6
330
21
100
AcDbEntity
  8
0
  6
Continuous
100
AcDbLine
 10
876.6824552928946
 20
42.18674501254082
 30
0.0
 11
877.1215626455946
 21
41.74763765984079
 31
0.0
  0
LINE
  5
21F7
330
21
100
AcDbEntity
  8
0
  6
Continuous
100
AcDbLine
 10
898.4676538552947
 20
18.40915705394081
 30
0.0
 11
898.4676538552947
 21
36.7666641693408
 31
0.0
  0
LINE
  5
21F8
330
21
100
AcDbEntity
  8
0
  6
Continuous
100
AcDbLine
 10
898.4676538552947
 20
18.40915705394081
 30
0.0
 11
900.2648700227948
 21
18.40915705784079
 31
0.0
  0
LINE
  5
21F9
330
21
100
AcDbEntity
  8
0
  6
Continuous
100
AcDbLine
 10
895.9181771136945
 20
42.18674501254082
 30
0.0
 11
895.9181771136945
 21
42.77704476654082
 31
0.0
  0
LINE
  5
21FA
330
21
100
AcDbEntity
  8
0
  6
Continuous
100
AcDbLine
 10
895.4790697609947
 20
39.75524826364079
 30
0.0
 11
895.4790697609947
 21
41.74763765984079
 31
0.0
  0
LINE
  5
21FB
330
21
100
AcDbEntity
  8
0
  6
Continuous
100
AcDbLine
 10
895.4790697609947
 20
15.42057295974081
 30
0.0
 11
895.4790699526947
 21
13.80820941444079
 31
0.0
  0
LINE
  5
21FC
330
21
100
AcDbEntity
  8
0
  6
Continuous
100
AcDbLine
 10
857.4216365468947
 20
48.4665902681408
 30
0.0
 11
854.3003162032945
 21
51.58791061164084
 31
0.0
  0
LINE
  5
21FD
330
21
100
AcDbEntity
  8
0
  6
Continuous
100
AcDbLine
 10
910.3003162032946
 20
-4.412089388359163
 30
0.0
 11
907.1789958596946
 21
-1.290769044759201
 31
0.0
  0
LINE
  5
21FE
330
21
100
AcDbEntity
  8
0
  6
Continuous
100
AcDbLine
 10
886.3003162032946
 20
15.42057295974086
 30
0.0
 11
895.4790697609947
 21
15.42057295974081
 31
0.0
  0
LINE
  5
21FF
330
21
100
AcDbEntity
  8
0
  6
Continuous
100
AcDbLine
 10
918.3003162032946
 20
48.4975288046408
 30
0.0
 11
917.2693776666946
 21
47.4665902681408
 31
0.0
  0
LINE
  5
2200
330
21
100
AcDbEntity
  8
0
  6
Continuous
100
AcDbLine
 10
890.1782935790947
 20
24.30228854184083
 30
0.0
 11
889.7372646750946
 21
22.26875385174083
 31
0.0
  0
LINE
  5
2201
330
21
100
AcDbEntity
  8
0
  6
Continuous
100
AcDbLine
 10
903.0697756761947
 20
9.507353798840825
 30
0.0
 11
886.3003162032946
 21
9.507353798840882
 31
0.0
  0
LINE
  5
2202
330
21
100
AcDbEntity
  8
0
  6
CENTER
100
AcDbLine
 10
886.3003162032946
 20
62.40724967935967
 30
0.0
 11
886.3003162032944
 21
-30.65372762208918
 31
0.0
  0
LINE
  5
2203
330
21
100
AcDbEntity
  8
0
  6
Continuous
100
AcDbLine
 10
915.1480573231949
 20
8.587910611640837
 30
0.0
 11
909.3003162032946
 21
8.587910611640837
 31
0.0
  0
LINE
  5
2204
330
21
100
AcDbEntity
  8
0
  6
Continuous
100
AcDbLine
 10
919.3003162032946
 20
9.03065789354082
 30
0.0
 11
942.0537461966945
 21
9.741340605140806
 31
0.0
  0
LINE
  5
2205
330
21
100
AcDbEntity
  8
0
  6
Continuous
100
AcDbLine
 10
939.4994405479947
 20
7.340427805540798
 30
0.0
 11
918.3003162032946
 21
6.678292418640808
 31
0.0
  0
LINE
  5
2206
330
21
100
AcDbEntity
  8
0
  6
Continuous
100
AcDbLine
 10
895.9181771136945
 20
42.18674501254082
 30
0.0
 11
895.4790697609947
 21
41.74763765984079
 31
0.0
  0
LINE
  5
2207
330
21
100
AcDbEntity
  8
0
  6
Continuous
100
AcDbLine
 10
877.1215626455946
 20
39.75524826364079
 30
0.0
 11
877.1215626490945
 21
41.74763765984079
 31
0.0
  0
LINE
  5
2208
330
21
100
AcDbEntity
  8
0
  6
Continuous
100
AcDbLine
 10
876.6824552928946
 20
42.18674501254082
 30
0.0
 11
876.6824552928946
 21
42.77704476654082
 31
0.0
  0
LINE
  5
2209
330
21
100
AcDbEntity
  8
0
  6
Continuous
100
AcDbLine
 10
886.3003162032946
 20
0.8305512987408292
 30
0.0
 11
906.3003162032948
 21
0.8305512987408292
 31
0.0
  0
LINE
  5
220A
330
21
100
AcDbEntity
  8
0
  6
Continuous
100
AcDbLine
 10
886.3003162032946
 20
-1.290769044759201
 30
0.0
 11
907.1789958596946
 21
-1.290769044759201
 31
0.0
  0
LINE
  5
220B
330
21
100
AcDbEntity
  8
0
  6
Continuous
100
AcDbLine
 10
886.3003162032946
 20
-2.712088625359172
 30
0.0
 11
908.6003154403948
 21
-2.712088625359172
 31
0.0
  0
LINE
  5
220C
330
21
100
AcDbEntity
  8
0
  6
Continuous
100
AcDbLine
 10
874.1329785512945
 20
36.7666641693408
 30
0.0
 11
874.1329785512945
 21
27.58791061164084
 31
0.0
  0
LINE
  5
220D
330
21
100
AcDbEntity
  8
0
  6
Continuous
100
AcDbLine
 10
886.3003162032946
 20
-4.412089388359163
 30
0.0
 11
910.3003162032946
 21
-4.412089388359163
 31
0.0
  0
LINE
  5
220E
330
21
100
AcDbEntity
  8
0
  6
Continuous
100
AcDbLine
 10
871.5363841807945
 20
46.58791061164083
 30
0.0
 11
871.5363841807945
 21
40.78559549694079
 31
0.0
  0
LINE
  5
220F
330
21
100
AcDbEntity
  8
0
  6
Continuous
100
AcDbLine
 10
869.8780717855946
 20
47.08791061164084
 30
0.0
 11
869.8780718035946
 21
41.13312639874084
 31
0.0
  0
LINE
  5
2210
330
21
100
AcDbEntity
  8
0
  6
Continuous
100
AcDbLine
 10
868.2197593904945
 20
47.58791061164084
 30
0.0
 11
868.2197593904945
 21
27.58791061164084
 31
0.0
  0
LINE
  5
2211
330
21
100
AcDbEntity
  8
0
  6
Continuous
100
AcDbLine
 10
910.3003162032946
 20
-15.1464039633592
 30
0.0
 11
886.3003162032946
 21
-15.1464039633592
 31
0.0
  0
LINE
  5
2212
330
21
100
AcDbEntity
  8
0
  6
Continuous
100
AcDbLine
 10
910.1831589157946
 20
-15.42924667585919
 30
0.0
 11
886.3003162032946
 21
-15.42924667585919
 31
0.0
  0
LINE
  5
2213
330
21
100
AcDbEntity
  8
0
  6
Continuous
100
AcDbLine
 10
886.3003162032946
 20
-17.01208786245917
 30
0.0
 11
908.6003154403948
 21
-17.01208786245917
 31
0.0
  0
LINE
  5
2214
330
21
100
AcDbEntity
  8
0
  6
Continuous
100
AcDbLine
 10
908.3174734907947
 20
-17.29493210075918
 30
0.0
 11
886.3003162032946
 21
-17.29493210075918
 31
0.0
  0
LINE
  5
2215
330
21
100
AcDbEntity
  8
0
  6
Continuous
100
AcDbLine
 10
908.0346307783948
 20
-17.41208938835916
 30
0.0
 11
864.5660016282446
 21
-17.41208938835919
 31
0.0
  0
LINE
  5
2216
330
21
100
AcDbEntity
  8
0
  6
Continuous
100
AcDbLine
 10
859.5429568903948
 20
27.58791061164084
 30
0.0
 11
859.5429568903948
 21
47.58791061164084
 31
0.0
  0
LINE
  5
2217
330
21
100
AcDbEntity
  8
0
  6
Continuous
100
AcDbLine
 10
857.4216365468947
 20
27.58791061164084
 30
0.0
 11
857.4216365468947
 21
48.4665902681408
 31
0.0
  0
LINE
  5
2218
330
21
100
AcDbEntity
  8
0
  6
Continuous
100
AcDbLine
 10
856.0003169661948
 20
49.88790984874083
 30
0.0
 11
856.0003169661948
 21
27.58791061164084
 31
0.0
  0
LINE
  5
2219
330
21
100
AcDbEntity
  8
0
  6
Continuous
100
AcDbLine
 10
854.3003162032945
 20
27.58791061164084
 30
0.0
 11
854.3003162032945
 21
51.58791061164084
 31
0.0
  0
LINE
  5
221A
330
21
100
AcDbEntity
  8
0
  6
Continuous
100
AcDbLine
 10
843.5660016282945
 20
51.58791061164084
 30
0.0
 11
843.5660016282945
 21
27.58791061164084
 31
0.0
  0
LINE
  5
221B
330
21
100
AcDbEntity
  8
0
  6
Continuous
100
AcDbLine
 10
843.2831589157947
 20
51.47075332414079
 30
0.0
 11
843.2831589157947
 21
27.58791061164084
 31
0.0
  0
LINE
  5
221C
330
21
100
AcDbEntity
  8
0
  6
Continuous
100
AcDbLine
 10
841.7003177291947
 20
49.88790984874083
 30
0.0
 11
841.7003177291947
 21
27.58791061164084
 31
0.0
  0
LINE
  5
221D
330
21
100
AcDbEntity
  8
0
  6
Continuous
100
AcDbLine
 10
841.4174734907946
 20
49.60506789924079
 30
0.0
 11
841.4174734907946
 21
27.58791061164084
 31
0.0
  0
LINE
  5
221E
330
21
100
AcDbEntity
  8
0
  6
Continuous
100
AcDbLine
 10
841.3003162032946
 20
49.3222251867408
 30
0.0
 11
841.3003162032946
 21
27.58791061164078
 31
0.0
  0
LINE
  5
221F
330
21
100
AcDbEntity
  8
0
  6
Continuous
100
AcDbLine
 10
843.2831589157947
 20
51.47075332414079
 30
0.0
 11
841.4174734907946
 21
49.60506789924079
 31
0.0
  0
MTEXT
  5
2E3E
330
21
100
AcDbEntity
  8
0
100
AcDbMText
 10
2320.303926075331
 20
185.571951966812
 30
0.0
 40
0.18
 41
14.68390410115808
 71
     9
 72
     1
  1
\A1;
 73
     1
 44
1.0
  0
ENDSEC
  0
SECTION
  2
OBJECTS
  0
DICTIONARY
  5
232
330
0
100
AcDbDictionary
281
     1
  3
ACAD_COLOR
350
2B7
  3
ACAD_GROUP
350
233
  3
ACAD_LAYOUT
350
274
  3
ACAD_MATERIAL
350
2B6
  3
ACAD_MLINESTYLE
350
234
  3
ACAD_PLOTSETTINGS
350
275
  3
ACAD_PLOTSTYLENAME
350
272
  3
ACDBHEADERROUNDTRIPXREC
350
5E34
  3
AcDbVariableDictionary
350
2AE
  0
DICTIONARY
  5
2B7
102
{ACAD_REACTORS
330
232
102
}
330
232
100
AcDbDictionary
281
     1
  0
DICTIONARY
  5
233
102
{ACAD_REACTORS
330
232
102
}
330
232
100
AcDbDictionary
281
     1
  0
DICTIONARY
  5
274
102
{ACAD_REACTORS
330
232
102
}
330
232
100
AcDbDictionary
281
     1
  3
Layout1
350
277
  3
Model
350
276
  0
DICTIONARY
  5
2B6
102
{ACAD_REACTORS
330
232
102
}
330
232
100
AcDbDictionary
281
     1
  0
DICTIONARY
  5
234
102
{ACAD_REACTORS
330
232
102
}
330
232
100
AcDbDictionary
281
     1
  3
STANDARD
350
235
  0
DICTIONARY
  5
275
102
{ACAD_REACTORS
330
232
102
}
330
232
100
AcDbDictionary
281
     1
  0
ACDBDICTIONARYWDFLT
  5
272
102
{ACAD_REACTORS
330
232
102
}
330
232
100
AcDbDictionary
281
     1
  3
Normal
350
273
100
AcDbDictionaryWithDefault
340
273
  0
DICTIONARY
  5
5E34
102
{ACAD_REACTORS
330
232
102
}
330
232
100
AcDbDictionary
281
     1
  3
COLORDICT
350
5E35
  3
MATERIALDICT
350
5E36
  0
DICTIONARY
  5
2AE
102
{ACAD_REACTORS
330
232
102
}
330
232
100
AcDbDictionary
281
     1
  0
LAYOUT
  5
277
102
{ACAD_REACTORS
330
274
102
}
330
274
100
AcDbPlotSettings
  1

  2
\\alderaan\HP LaserJet 5Si/5Si MX PS Tecnico
  4

  6

 40
0.0
 41
0.0
 42
0.0
 43
0.0
 44
0.0
 45
0.0
 46
0.0
 47
0.0
 48
0.0
 49
0.0
140
0.0
141
0.0
142
1.0
143
1.0
 70
   688
 72
     0
 73
     0
 74
     5
  7

 75
    16
147
1.0
148
0.0
149
0.0
100
AcDbLayout
  1
Layout1
 70
     0
 71
     1
 10
0.0
 20
0.0
 11
12.0
 21
9.0
 12
0.0
 22
0.0
 32
0.0
 14
1.000000000000000E+20
 24
1.000000000000000E+20
 34
1.000000000000000E+20
 15
-1.000000000000000E+20
 25
-1.000000000000000E+20
 35
-1.000000000000000E+20
146
0.0
 13
0.0
 23
0.0
 33
0.0
 16
1.0
 26
0.0
 36
0.0
 17
0.0
 27
1.0
 37
0.0
 76
     0
330
22
  0
LAYOUT
  5
276
102
{ACAD_REACTORS
330
274
102
}
330
274
100
AcDbPlotSettings
  1

  2
\\alderaan\HP LaserJet 4050 Ricerca
  4
A4
  6

 40
5.027083396911621
 41
5.069430828094482
 42
5.365737915039062
 43
5.365753173828125
 44
209.8886566162109
 45
297.0530090332031
 46
0.0
 47
0.0
 48
70.15568666023683
 49
-413.5017910393744
140
1567.471881557387
141
355.5977189696187
142
1.0
143
5.224086096996019
 70
 11952
 72
     1
 73
     1
 74
     4
  7

 75
     0
147
0.1914210411989621
148
-70.15568666023683
149
413.5017910393744
100
AcDbLayout
  1
Model
 70
     1
 71
     0
 10
0.0
 20
0.0
 11
12.0
 21
9.0
 12
0.0
 22
0.0
 32
0.0
 14
0.0
 24
0.0
 34
0.0
 15
0.0
 25
0.0
 35
0.0
146
0.0
 13
0.0
 23
0.0
 33
0.0
 16
1.0
 26
0.0
 36
0.0
 17
0.0
 27
1.0
 37
0.0
 76
     0
330
21
  0
MLINESTYLE
  5
235
102
{ACAD_REACTORS
330
234
102
}
330
234
100
AcDbMlineStyle
  2
STANDARD
 70
     0
  3

 62
     0
 51
90.00000000000019
 52
90.00000000000019
 71
     2
 49
0.5
 62
   256
  6
BYLAYER
 49
-0.5
 62
   256
  6
BYLAYER
  0
ACDBPLACEHOLDER
  5
273
102
{ACAD_REACTORS
330
272
102
}
330
272
  0
XRECORD
  5
5E35
102
{ACAD_REACTORS
330
5E34
102
}
330
5E34
100
AcDbXrecord
280
     1
340
2B7
  0
XRECORD
  5
5E36
102
{ACAD_REACTORS
330
5E34
102
}
330
5E34
100
AcDbXrecord
280
     1
340
2B6
  0
ENDSEC
  0
EOF
