  0
SECTION
  2
HEADER
  9
$ACADVER
  1
AC1015
  9
$ACADMAINTVER
 70
     6
  9
$DWGCODEPAGE
  3
ANSI_1252
  9
$INSBASE
 10
0.0
 20
0.0
 30
0.0
  9
$EXTMIN
 10
80.46286980856489
 20
-370.773169833776
 30
-18.8
  9
$EXTMAX
 10
1760.060663696097
 20
334.946701594559
 30
1.038894055499999
  9
$LIMMIN
 10
0.0
 20
0.0
  9
$LIMMAX
 10
420.0
 20
297.0
  9
$ORTHOMODE
 70
     0
  9
$REGENMODE
 70
     1
  9
$FILLMODE
 70
     1
  9
$QTEXTMODE
 70
     0
  9
$MIRRTEXT
 70
     1
  9
$LTSCALE
 40
23.1
  9
$ATTMODE
 70
     1
  9
$TEXTSIZE
 40
35.06651165617814
  9
$TRACEWID
 40
0.05
  9
$TEXTSTYLE
  7
STANDARD
  9
$CLAYER
  8
0
  9
$CELTYPE
  6
BYLAYER
  9
$CECOLOR
 62
   256
  9
$CELTSCALE
 40
1.0
  9
$DISPSILH
 70
     0
  9
$DIMSCALE
 40
1.0
  9
$DIMASZ
 40
0.18
  9
$DIMEXO
 40
0.0625
  9
$DIMDLI
 40
0.38
  9
$DIMRND
 40
0.0
  9
$DIMDLE
 40
0.0
  9
$DIMEXE
 40
0.18
  9
$DIMTP
 40
0.003
  9
$DIMTM
 40
0.003
  9
$DIMTXT
 40
1.5
  9
$DIMCEN
 40
0.09
  9
$DIMTSZ
 40
0.0
  9
$DIMTOL
 70
     1
  9
$DIMLIM
 70
     0
  9
$DIMTIH
 70
     1
  9
$DIMTOH
 70
     1
  9
$DIMSE1
 70
     0
  9
$DIMSE2
 70
     0
  9
$DIMTAD
 70
     0
  9
$DIMZIN
 70
     0
  9
$DIMBLK
  1

  9
$DIMASO
 70
     1
  9
$DIMSHO
 70
     1
  9
$DIMPOST
  1

  9
$DIMAPOST
  1

  9
$DIMALT
 70
     0
  9
$DIMALTD
 70
     2
  9
$DIMALTF
 40
25.4
  9
$DIMLFAC
 40
1.0
  9
$DIMTOFL
 70
     0
  9
$DIMTVP
 40
0.0
  9
$DIMTIX
 70
     0
  9
$DIMSOXD
 70
     0
  9
$DIMSAH
 70
     0
  9
$DIMBLK1
  1

  9
$DIMBLK2
  1

  9
$DIMSTYLE
  2
STANDARD
  9
$DIMCLRD
 70
     0
  9
$DIMCLRE
 70
     0
  9
$DIMCLRT
 70
     0
  9
$DIMTFAC
 40
1.0
  9
$DIMGAP
 40
0.09
  9
$DIMJUST
 70
     0
  9
$DIMSD1
 70
     0
  9
$DIMSD2
 70
     0
  9
$DIMTOLJ
 70
     1
  9
$DIMTZIN
 70
     0
  9
$DIMALTZ
 70
     0
  9
$DIMALTTZ
 70
     0
  9
$DIMUPT
 70
     0
  9
$DIMDEC
 70
     4
  9
$DIMTDEC
 70
     4
  9
$DIMALTU
 70
     2
  9
$DIMALTTD
 70
     2
  9
$DIMTXSTY
  7
STANDARD
  9
$DIMAUNIT
 70
     0
  9
$DIMADEC
 70
     0
  9
$DIMALTRND
 40
0.0
  9
$DIMAZIN
 70
     0
  9
$DIMDSEP
 70
    46
  9
$DIMATFIT
 70
     0
  9
$DIMFRAC
 70
     0
  9
$DIMLDRBLK
  1

  9
$DIMLUNIT
 70
     2
  9
$DIMLWD
 70
    -2
  9
$DIMLWE
 70
    -2
  9
$DIMTMOVE
 70
     0
  9
$LUNITS
 70
     2
  9
$LUPREC
 70
     4
  9
$SKETCHINC
 40
0.1
  9
$FILLETRAD
 40
0.0
  9
$AUNITS
 70
     0
  9
$AUPREC
 70
     0
  9
$MENU
  1
acad
  9
$ELEVATION
 40
0.0
  9
$PELEVATION
 40
0.0
  9
$THICKNESS
 40
0.0
  9
$LIMCHECK
 70
     0
  9
$CHAMFERA
 40
0.0
  9
$CHAMFERB
 40
0.0
  9
$CHAMFERC
 40
0.0
  9
$CHAMFERD
 40
0.0
  9
$SKPOLY
 70
     0
  9
$TDCREATE
 40
2444972.041666667
  9
$TDUCREATE
 40
2444972.0
  9
$TDUPDATE
 40
2453410.422616528
  9
$TDUUPDATE
 40
2453410.380949861
  9
$TDINDWG
 40
2.3154330093
  9
$TDUSRTIMER
 40
2.3154330093
  9
$USRTIMER
 70
     1
  9
$ANGBASE
 50
0.0
  9
$ANGDIR
 70
     0
  9
$PDMODE
 70
     0
  9
$PDSIZE
 40
0.0
  9
$PLINEWID
 40
0.0
  9
$SPLFRAME
 70
     0
  9
$SPLINETYPE
 70
     6
  9
$SPLINESEGS
 70
     8
  9
$HANDSEED
  5
5E37
  9
$SURFTAB1
 70
     6
  9
$SURFTAB2
 70
     6
  9
$SURFTYPE
 70
     6
  9
$SURFU
 70
     6
  9
$SURFV
 70
     6
  9
$UCSBASE
  2

  9
$UCSNAME
  2

  9
$UCSORG
 10
0.0
 20
0.0
 30
0.0
  9
$UCSXDIR
 10
1.0
 20
0.0
 30
0.0
  9
$UCSYDIR
 10
0.0
 20
1.0
 30
0.0
  9
$UCSORTHOREF
  2

  9
$UCSORTHOVIEW
 70
     0
  9
$UCSORGTOP
 10
0.0
 20
0.0
 30
0.0
  9
$UCSORGBOTTOM
 10
0.0
 20
0.0
 30
0.0
  9
$UCSORGLEFT
 10
0.0
 20
0.0
 30
0.0
  9
$UCSORGRIGHT
 10
0.0
 20
0.0
 30
0.0
  9
$UCSORGFRONT
 10
0.0
 20
0.0
 30
0.0
  9
$UCSORGBACK
 10
0.0
 20
0.0
 30
0.0
  9
$PUCSBASE
  2

  9
$PUCSNAME
  2

  9
$PUCSORG
 10
0.0
 20
0.0
 30
0.0
  9
$PUCSXDIR
 10
1.0
 20
0.0
 30
0.0
  9
$PUCSYDIR
 10
0.0
 20
1.0
 30
0.0
  9
$PUCSORTHOREF
  2

  9
$PUCSORTHOVIEW
 70
     0
  9
$PUCSORGTOP
 10
0.0
 20
0.0
 30
0.0
  9
$PUCSORGBOTTOM
 10
0.0
 20
0.0
 30
0.0
  9
$PUCSORGLEFT
 10
0.0
 20
0.0
 30
0.0
  9
$PUCSORGRIGHT
 10
0.0
 20
0.0
 30
0.0
  9
$PUCSORGFRONT
 10
0.0
 20
0.0
 30
0.0
  9
$PUCSORGBACK
 10
0.0
 20
0.0
 30
0.0
  9
$USERI1
 70
     0
  9
$USERI2
 70
     0
  9
$USERI3
 70
     0
  9
$USERI4
 70
     0
  9
$USERI5
 70
     0
  9
$USERR1
 40
0.0
  9
$USERR2
 40
0.0
  9
$USERR3
 40
0.0
  9
$USERR4
 40
0.0
  9
$USERR5
 40
0.0
  9
$WORLDVIEW
 70
     1
  9
$SHADEDGE
 70
     3
  9
$SHADEDIF
 70
    70
  9
$TILEMODE
 70
     1
  9
$MAXACTVP
 70
    16
  9
$PINSBASE
 10
0.0
 20
0.0
 30
0.0
  9
$PLIMCHECK
 70
     0
  9
$PEXTMIN
 10
1.000000000000000E+20
 20
1.000000000000000E+20
 30
1.000000000000000E+20
  9
$PEXTMAX
 10
-1.000000000000000E+20
 20
-1.000000000000000E+20
 30
-1.000000000000000E+20
  9
$PLIMMIN
 10
0.0
 20
0.0
  9
$PLIMMAX
 10
12.0
 20
9.0
  9
$UNITMODE
 70
     0
  9
$VISRETAIN
 70
     0
  9
$PLINEGEN
 70
     1
  9
$PSLTSCALE
 70
     0
  9
$TREEDEPTH
 70
  3020
  9
$CMLSTYLE
  2
STANDARD
  9
$CMLJUST
 70
     0
  9
$CMLSCALE
 40
1.0
  9
$PROXYGRAPHICS
 70
     1
  9
$MEASUREMENT
 70
     0
  9
$CELWEIGHT
370
    -1
  9
$ENDCAPS
280
     0
  9
$JOINSTYLE
280
     0
  9
$LWDISPLAY
290
     0
  9
$INSUNITS
 70
     0
  9
$HYPERLINKBASE
  1

  9
$STYLESHEET
  1

  9
$XEDIT
290
     1
  9
$CEPSNTYPE
380
     0
  9
$PSTYLEMODE
290
     1
  9
$FINGERPRINTGUID
  2
{9C19D7CE-BE25-492F-B456-B99F77E59DF7}
  9
$VERSIONGUID
  2
{33CF2824-EDBA-426C-B158-6F58E0772583}
  9
$EXTNAMES
290
     1
  9
$PSVPSCALE
 40
0.0
  9
$OLESTARTUP
290
     0
  0
ENDSEC
  0
SECTION
  2
CLASSES
  0
CLASS
  1
IMAGE
  2
AcDbRasterImage
  3
ISM
 90
      127
280
     0
281
     1
  0
CLASS
  1
DICTIONARYVAR
  2
AcDbDictionaryVar
  3
ObjectDBX Classes
 90
        0
280
     0
281
     0
  0
CLASS
  1
RASTERVARIABLES
  2
AcDbRasterVariables
  3
ISM
 90
        0
280
     0
281
     0
  0
CLASS
  1
IMAGEDEF
  2
AcDbRasterImageDef
  3
ISM
 90
        0
280
     0
281
     0
  0
CLASS
  1
IMAGEDEF_REACTOR
  2
AcDbRasterImageDefReactor
  3
ISM
 90
        1
280
     0
281
     0
  0
CLASS
  1
IDBUFFER
  2
AcDbIdBuffer
  3
ObjectDBX Classes
 90
        0
280
     0
281
     0
  0
CLASS
  1
SPATIAL_FILTER
  2
AcDbSpatialFilter
  3
ObjectDBX Classes
 90
        0
280
     0
281
     0
  0
CLASS
  1
SORTENTSTABLE
  2
AcDbSortentsTable
  3
ObjectDBX Classes
 90
        0
280
     0
281
     0
  0
CLASS
  1
LAYER_INDEX
  2
AcDbLayerIndex
  3
ObjectDBX Classes
 90
        0
280
     0
281
     0
  0
CLASS
  1
SPATIAL_INDEX
  2
AcDbSpatialIndex
  3
AutoCAD 2000
 90
        0
280
     0
281
     0
  0
CLASS
  1
OBJECT_PTR
  2
CAseDLPNTableRecord
  3
ASE-LPNTableRecord
 90
        1
280
     0
281
     0
  0
CLASS
  1
PLOTSETTINGS
  2
AcDbPlotSettings
  3
ObjectDBX Classes
 90
        0
280
     0
281
     0
  0
CLASS
  1
ACDBDICTIONARYWDFLT
  2
AcDbDictionaryWithDefault
  3
ObjectDBX Classes
 90
        0
280
     0
281
     0
  0
CLASS
  1
WIPEOUT
  2
AcDbWipeout
  3
WipeOut|AutoCAD Express Tool|expresstools@autodesk.com
 90
      127
280
     0
281
     1
  0
CLASS
  1
WIPEOUTVARIABLES
  2
AcDbWipeoutVariables
  3
WipeOut|AutoCAD Express Tool|expresstools@autodesk.com
 90
        0
280
     0
281
     0
  0
CLASS
  1
RTEXT
  2
RText
  3
RText|AutoCAD Express Tool|expresstools@autodesk.com
 90
        0
280
     0
281
     1
  0
CLASS
  1
ARCALIGNEDTEXT
  2
AcDbArcAlignedText
  3
ATEXT|AutoCAD Express Tool|expresstools@autodesk.com
 90
        0
280
     0
281
     1
  0
CLASS
  1
ACDBPLACEHOLDER
  2
AcDbPlaceHolder
  3
ObjectDBX Classes
 90
        0
280
     0
281
     0
  0
CLASS
  1
LAYOUT
  2
AcDbLayout
  3
ObjectDBX Classes
 90
        0
280
     0
281
     0
  0
ENDSEC
  0
SECTION
  2
TABLES
  0
TABLE
  2
VPORT
  5
6
330
0
100
AcDbSymbolTable
 70
     1
  0
VPORT
  5
5E2D
330
6
100
AcDbSymbolTableRecord
100
AcDbViewportTableRecord
  2
*Active
 70
     0
 10
0.0
 20
0.0
 11
1.0
 21
1.0
 12
1177.185904591
 22
27.01080506306011
 13
0.0
 23
0.0
 14
1.0
 24
1.0
 15
0.0
 25
0.0
 16
0.0
 26
0.0
 36
1.0
 17
0.0
 27
0.0
 37
0.0
 40
238.091665862349
 41
1.888667992047713
 42
50.0
 43
0.0
 44
0.0
 50
0.0
 51
0.0
 71
     0
 72
   100
 73
     1
 74
     1
 75
     0
 76
     0
 77
     0
 78
     0
281
     0
 65
     1
110
0.0
120
0.0
130
0.0
111
1.0
121
0.0
131
0.0
112
0.0
122
1.0
132
0.0
 79
     0
146
0.0
  0
ENDTAB
  0
TABLE
  2
LTYPE
  5
3
330
0
100
AcDbSymbolTable
 70
     2
  0
LTYPE
  5
C
330
3
100
AcDbSymbolTableRecord
100
AcDbLinetypeTableRecord
  2
BYBLOCK
 70
     0
  3

 72
    65
 73
     0
 40
0.0
  0
LTYPE
  5
D
330
3
100
AcDbSymbolTableRecord
100
AcDbLinetypeTableRecord
  2
BYLAYER
 70
     0
  3

 72
    65
 73
     0
 40
0.0
  0
LTYPE
  5
E
330
3
100
AcDbSymbolTableRecord
100
AcDbLinetypeTableRecord
  2
CONTINUOUS
 70
     0
  3
Solid line
 72
    65
 73
     0
 40
0.0
  0
LTYPE
  5
F
330
3
100
AcDbSymbolTableRecord
100
AcDbLinetypeTableRecord
  2
CENTER
 70
     0
  3
____ _ ____ _ ____ _ ____ _ ____ _ ____ _ ____
 72
    65
 73
     4
 40
0.6
 49
0.375
 74
     0
 49
-0.075
 74
     0
 49
0.075
 74
     0
 49
-0.075
 74
     0
  0
ENDTAB
  0
TABLE
  2
LAYER
  5
1
330
0
100
AcDbSymbolTable
 70
     2
  0
LAYER
  5
14
330
1
100
AcDbSymbolTableRecord
100
AcDbLayerTableRecord
  2
0
 70
     0
 62
     7
  6
CONTINUOUS
370
    -3
390
273
  0
LAYER
  5
27A
330
1
100
AcDbSymbolTableRecord
100
AcDbLayerTableRecord
  2
Defpoints
 70
     0
 62
     7
  6
CONTINUOUS
290
     0
370
    -3
390
273
  0
ENDTAB
  0
TABLE
  2
STYLE
  5
2
330
0
100
AcDbSymbolTable
 70
     1
  0
STYLE
  5
1B
330
2
100
AcDbSymbolTableRecord
100
AcDbTextStyleTableRecord
  2
STANDARD
 70
     0
 40
0.0
 41
1.0
 50
0.0
 71
     0
 42
35.06651165617814
  3
VERDANA.TTF
  4

1001
ACAD
1000
Verdana
1071
       34
  0
ENDTAB
  0
TABLE
  2
VIEW
  5
4
330
0
100
AcDbSymbolTable
 70
     0
  0
ENDTAB
  0
TABLE
  2
UCS
  5
5
330
0
100
AcDbSymbolTable
 70
     0
  0
ENDTAB
  0
TABLE
  2
APPID
  5
7
330
0
100
AcDbSymbolTable
 70
     1
  0
APPID
  5
19
330
7
100
AcDbSymbolTableRecord
100
AcDbRegAppTableRecord
  2
ACAD
 70
     0
  0
ENDTAB
  0
TABLE
  2
DIMSTYLE
  5
8
330
0
100
AcDbSymbolTable
 70
     1
100
AcDbDimStyleTable
  0
DIMSTYLE
105
28
330
8
100
AcDbSymbolTableRecord
100
AcDbDimStyleTableRecord
  2
STANDARD
 70
     0
 47
0.003
 48
0.003
 71
     1
140
1.5
289
     0
340
1B
  0
ENDTAB
  0
TABLE
  2
BLOCK_RECORD
  5
23
330
0
100
AcDbSymbolTable
 70
     0
  0
BLOCK_RECORD
  5
21
330
23
100
AcDbSymbolTableRecord
100
AcDbBlockTableRecord
  2
*MODEL_SPACE
340
276
  0
BLOCK_RECORD
  5
22
330
23
100
AcDbSymbolTableRecord
100
AcDbBlockTableRecord
  2
*PAPER_SPACE
340
277
  0
ENDTAB
  0
ENDSEC
  0
SECTION
  2
BLOCKS
  0
BLOCK
  5
24
330
21
100
AcDbEntity
  8
0
100
AcDbBlockBegin
  2
*MODEL_SPACE
 70
     0
 71
     0
 10
0.0
 20
0.0
 30
0.0
  3
*MODEL_SPACE
  1

  0
ENDBLK
  5
25
330
21
100
AcDbEntity
  8
0
100
AcDbBlockEnd
  0
BLOCK
  5
26
330
22
100
AcDbEntity
 67
     1
  8
0
100
AcDbBlockBegin
  2
*PAPER_SPACE
 70
     0
 71
     0
 10
0.0
 20
0.0
 30
0.0
  3
*PAPER_SPACE
  1

  0
ENDBLK
  5
27
330
22
100
AcDbEntity
 67
     1
  8
0
100
AcDbBlockEnd
  0
ENDSEC
  0
SECTION
  2
ENTITIES
  0
SPLINE
  5
2649
330
21
100
AcDbEntity
  8
0
  6
Continuous
100
AcDbSpline
210
0.0
220
0.0
230
1.0
 70
    24
 71
     3
 72
    18
 73
    14
 74
    12
 42
0.0000000001
 43
0.0000000001
 44
0.0000000001
 40
0.0
 40
0.0
 40
0.0
 40
0.0
 40
0.1563005065721309
 40
0.6274253333500688
 40
1.421278610160626
 40
2.576279424223714
 40
4.136612183653162
 40
6.094962660756824
 40
8.451442676977271
 40
11.2521716606208
 40
14.52576127648567
 40
18.21284680595149
 40
21.92031021678234
 40
21.92031021678234
 40
21.92031021678234
 40
21.92031021678234
 10
1119.811423668534
 20
14.63501144008566
 30
0.0
 10
1119.848264051234
 20
14.67185182278564
 30
0.0
 10
1119.996149620534
 20
14.81973739208553
 30
0.0
 10
1120.331148201601
 20
15.15473597315236
 30
0.0
 10
1120.901542702601
 20
15.72513047415232
 30
0.0
 10
1121.728665975367
 20
16.55225374691905
 30
0.0
 10
1122.830263870468
 20
17.65385164201885
 30
0.0
 10
1124.215053129334
 20
19.03864090088577
 30
0.0
 10
1125.892206582034
 20
20.71579435358562
 30
0.0
 10
1127.879364872701
 20
22.70295264425223
 30
0.0
 10
1130.180149890534
 20
25.00373766208578
 30
0.0
 10
1132.694654262434
 20
27.51824203398531
 30
0.0
 10
1134.437566162267
 20
29.26115393381895
 30
0.0
 10
1135.311423668533
 20
30.13501144008567
 30
0.0
 11
1119.811423668534
 21
14.63501144008566
 31
0.0
 11
1119.921944816634
 21
14.74553258818562
 31
0.0
 11
1120.255080376434
 21
15.07866814798567
 31
0.0
 11
1120.816419411734
 21
15.64000718328563
 31
0.0
 11
1121.633128319634
 21
16.45671609118565
 31
0.0
 11
1122.736450194734
 21
17.56003796628565
 31
0.0
 11
1124.121213097034
 21
18.94480086858564
 31
0.0
 11
1125.787496096234
 21
20.61108386778565
 31
0.0
 11
1127.767910552834
 21
22.59149832438564
 31
0.0
 11
1130.082687969034
 21
24.90627574058564
 31
0.0
 11
1132.689851149734
 21
27.51343892128566
 31
0.0
 11
1135.311423668533
 21
30.13501144008567
 31
0.0
  0
ARC
  5
264A
330
21
100
AcDbEntity
  8
0
  6
Continuous
100
AcDbCircle
 10
1112.311428397734
 20
7.135016169285648
 30
0.0
 40
2.9999993831
100
AcDbArc
 50
359.9999086729003
 51
90.0000909559969
  0
ARC
  5
264B
330
21
100
AcDbEntity
  8
0
  6
Continuous
100
AcDbCircle
 10
1111.711423668534
 20
-13.49930313501434
 30
0.0
 40
0.4
100
AcDbArc
 50
180.0
 51
225.000000003793
  0
ARC
  5
264C
330
21
100
AcDbEntity
  8
0
  6
Continuous
100
AcDbCircle
 10
1112.311423668534
 20
2.377652127185655
 30
0.0
 40
3.0
100
AcDbArc
 50
314.999999999795
 51
0.0
  0
ARC
  5
264D
330
21
100
AcDbEntity
  8
0
  6
Continuous
100
AcDbCircle
 10
1108.554064355633
 20
7.135011440085662
 30
0.0
 40
3.0
100
AcDbArc
 50
90.0
 51
135.0000000000046
  0
ARC
  5
264E
330
21
100
AcDbEntity
  8
0
  6
Continuous
100
AcDbCircle
 10
1092.677109093434
 20
6.535011440085639
 30
0.0
 40
0.4
100
AcDbArc
 50
224.9999999943071
 51
270.0000000001042
  0
ARC
  5
264F
330
21
100
AcDbEntity
  8
0
  6
Continuous
100
AcDbCircle
 10
1090.711423668534
 20
8.500696864985656
 30
0.0
 40
0.4
100
AcDbArc
 50
180.0
 51
224.999999997598
  0
ARC
  5
2650
330
21
100
AcDbEntity
  8
0
  6
Continuous
100
AcDbCircle
 10
1113.677109093434
 20
-15.46498855991436
 30
0.0
 40
0.4
100
AcDbArc
 50
224.9999999974069
 51
269.9999999997916
  0
ARC
  5
2651
330
21
100
AcDbEntity
  8
0
  6
Continuous
100
AcDbCircle
 10
1095.711423668534
 20
11.13501144008566
 30
0.0
 40
1.0
100
AcDbArc
 50
270.0
 51
0.0
  0
ARC
  5
2652
330
21
100
AcDbEntity
  8
0
  6
Continuous
100
AcDbCircle
 10
1097.711423668534
 20
13.13501144008566
 30
0.0
 40
1.0
100
AcDbArc
 50
90.0
 51
180.0
  0
ARC
  5
2653
330
21
100
AcDbEntity
  8
0
  6
Continuous
100
AcDbCircle
 10
1091.311423668534
 20
9.135011440085663
 30
0.0
 40
1.0
100
AcDbArc
 50
90.0
 51
180.0
  0
ARC
  5
2654
330
21
100
AcDbEntity
  8
0
  6
Continuous
100
AcDbCircle
 10
1116.711423668534
 20
14.23501144008563
 30
0.0
 40
0.4
100
AcDbArc
 50
90.0
 51
179.9999999937011
  0
ARC
  5
2655
330
21
100
AcDbEntity
  8
0
  6
Continuous
100
AcDbCircle
 10
1116.311423668534
 20
-10.46498855991436
 30
0.0
 40
1.0
100
AcDbArc
 50
90.00000000010421
 51
180.0
  0
ARC
  5
2656
330
21
100
AcDbEntity
  8
0
  6
Continuous
100
AcDbCircle
 10
1114.311423668533
 20
-14.86498855991434
 30
0.0
 40
1.0
100
AcDbArc
 50
270.0
 51
0.0
  0
ARC
  5
2657
330
21
100
AcDbEntity
  8
0
  6
Continuous
100
AcDbCircle
 10
1118.311423668534
 20
-8.46498855991436
 30
0.0
 40
1.0
100
AcDbArc
 50
270.0
 51
0.0
  0
ARC
  5
2658
330
21
100
AcDbEntity
  8
0
  6
Continuous
100
AcDbCircle
 10
1119.411423668534
 20
10.53501144008564
 30
0.0
 40
0.4
100
AcDbArc
 50
270.0000000063054
 51
0.0
  0
LINE
  5
2659
330
21
100
AcDbEntity
  8
0
  6
Continuous
100
AcDbLine
 10
1118.724447703434
 20
-9.36704058811435
 30
0.0
 11
1119.213475696334
 21
-8.878012595314345
 31
0.0
  0
LINE
  5
265A
330
21
100
AcDbEntity
  8
0
  6
Continuous
100
AcDbLine
 10
1112.868961700134
 20
-15.22252659151436
 30
0.0
 11
1115.311423668534
 21
-12.78006462311438
 31
0.0
  0
LINE
  5
265B
330
21
100
AcDbEntity
  8
0
  6
Continuous
100
AcDbLine
 10
1111.311423668533
 20
-11.37505617241433
 30
0.0
 11
1119.311423668533
 21
-3.375056172414332
 31
0.0
  0
LINE
  5
265C
330
21
100
AcDbEntity
  8
0
  6
Continuous
100
AcDbLine
 10
1111.311423668533
 20
-5.970047721714337
 30
0.0
 11
1119.311423668533
 21
2.029952278285662
 31
0.0
  0
LINE
  5
265D
330
21
100
AcDbEntity
  8
0
  6
Continuous
100
AcDbLine
 10
1111.311423668533
 20
-2.864988559914337
 30
0.0
 11
1114.432744012133
 21
0.2563317836856243
 31
0.0
  0
LINE
  5
265E
330
21
100
AcDbEntity
  8
0
  6
Continuous
100
AcDbLine
 10
1115.311423668534
 20
3.434960728985657
 30
0.0
 11
1119.311423668533
 21
7.434960728985657
 31
0.0
  0
LINE
  5
265F
330
21
100
AcDbEntity
  8
0
  6
Continuous
100
AcDbLine
 10
1119.811423668534
 20
14.63501144008566
 30
0.0
 11
1116.711423668534
 21
14.63501144008566
 31
0.0
  0
LINE
  5
2660
330
21
100
AcDbEntity
  8
0
  6
Continuous
100
AcDbLine
 10
1116.311423668534
 20
14.13501144008566
 30
0.0
 11
1097.711423668534
 21
14.13501144008566
 31
0.0
  0
LINE
  5
2661
330
21
100
AcDbEntity
  8
0
  6
Continuous
100
AcDbLine
 10
1114.968595482534
 20
8.497140993685633
 30
0.0
 11
1119.811423668534
 21
13.33996917958566
 31
0.0
  0
LINE
  5
2662
330
21
100
AcDbEntity
  8
0
  6
Continuous
100
AcDbLine
 10
1135.311423668534
 20
10.53501144008564
 30
0.0
 11
1119.811423668534
 21
10.53501144008564
 31
0.0
  0
LINE
  5
2663
330
21
100
AcDbEntity
  8
0
  6
Continuous
100
AcDbLine
 10
1095.711423668534
 20
10.13501144008566
 30
0.0
 11
1091.311423668534
 21
10.13501144008566
 31
0.0
  0
LINE
  5
2664
330
21
100
AcDbEntity
  8
0
  6
Continuous
100
AcDbLine
 10
1112.311423668534
 20
10.13501144008566
 30
0.0
 11
1108.554064355633
 21
10.13501144008566
 31
0.0
  0
LINE
  5
2665
330
21
100
AcDbEntity
  8
0
  6
Continuous
100
AcDbLine
 10
1135.311423668534
 20
10.13501144008566
 30
0.0
 11
1119.311423668533
 21
10.13501144008566
 31
0.0
  0
LINE
  5
2666
330
21
100
AcDbEntity
  8
0
  6
Continuous
100
AcDbLine
 10
1111.201457478334
 20
10.13501144008566
 30
0.0
 11
1115.201457478334
 21
14.13501144008566
 31
0.0
  0
LINE
  5
2667
330
21
100
AcDbEntity
  8
0
  6
Continuous
100
AcDbLine
 10
1090.811423668534
 20
7.835011440085651
 30
0.0
 11
1105.011423668534
 21
7.835011440085651
 31
0.0
  0
LINE
  5
2668
330
21
100
AcDbEntity
  8
0
  6
Continuous
100
AcDbLine
 10
1103.311423668533
 20
6.135011440085662
 30
0.0
 11
1092.677109093434
 21
6.135011440085662
 31
0.0
  0
LINE
  5
2669
330
21
100
AcDbEntity
  8
0
  6
Continuous
100
AcDbLine
 10
1106.432744012133
 20
9.256331783685624
 30
0.0
 11
1103.311423668533
 21
6.135011440085662
 31
0.0
  0
LINE
  5
266A
330
21
100
AcDbEntity
  8
0
  6
Continuous
100
AcDbLine
 10
1101.796449027634
 20
6.135011440085662
 30
0.0
 11
1109.796449027634
 21
14.13501144008566
 31
0.0
  0
LINE
  5
266B
330
21
100
AcDbEntity
  8
0
  6
Continuous
100
AcDbLine
 10
1096.391440576934
 20
6.135011440085662
 30
0.0
 11
1104.391440576934
 21
14.13501144008566
 31
0.0
  0
LINE
  5
266C
330
21
100
AcDbEntity
  8
0
  6
Continuous
100
AcDbLine
 10
1119.811423668534
 20
14.63501144008566
 30
0.0
 11
1119.811423668534
 21
10.53501144008564
 31
0.0
  0
LINE
  5
266D
330
21
100
AcDbEntity
  8
0
  6
Continuous
100
AcDbLine
 10
1119.311423668533
 20
10.13501144008566
 30
0.0
 11
1119.311423668533
 21
-8.46498855991436
 31
0.0
  0
LINE
  5
266E
330
21
100
AcDbEntity
  8
0
  6
Continuous
100
AcDbLine
 10
1096.711423668534
 20
11.86000298228563
 30
0.0
 11
1098.986432126234
 21
14.13501144008566
 31
0.0
  0
LINE
  5
266F
330
21
100
AcDbEntity
  8
0
  6
Continuous
100
AcDbLine
 10
1091.748927897434
 20
6.897507211185626
 30
0.0
 11
1094.986432126234
 21
10.13501144008566
 31
0.0
  0
LINE
  5
2670
330
21
100
AcDbEntity
  8
0
  6
Continuous
100
AcDbLine
 10
1116.711423668534
 20
14.63501144008566
 30
0.0
 11
1116.711423668534
 21
30.13501144008572
 31
0.0
  0
LINE
  5
2671
330
21
100
AcDbEntity
  8
0
  6
Continuous
100
AcDbLine
 10
1116.311423668534
 20
14.13501144008566
 30
0.0
 11
1116.311423668534
 21
30.13501144008572
 31
0.0
  0
LINE
  5
2672
330
21
100
AcDbEntity
  8
0
  6
Continuous
100
AcDbLine
 10
1115.311423668534
 20
2.377652127185655
 30
0.0
 11
1115.311423668534
 21
7.135011440085662
 31
0.0
  0
LINE
  5
2673
330
21
100
AcDbEntity
  8
0
  6
Continuous
100
AcDbLine
 10
1115.311423668534
 20
-10.46498855991436
 30
0.0
 11
1115.311423668534
 21
-14.86498855991434
 31
0.0
  0
LINE
  5
2674
330
21
100
AcDbEntity
  8
0
  6
Continuous
100
AcDbLine
 10
1113.011423668534
 20
-15.36498855991434
 30
0.0
 11
1113.011423668534
 21
-1.164988559914348
 31
0.0
  0
LINE
  5
2675
330
21
100
AcDbEntity
  8
0
  6
Continuous
100
AcDbLine
 10
1111.311423668533
 20
-13.49930313501434
 30
0.0
 11
1111.311423668533
 21
-2.864988559914337
 31
0.0
  0
LINE
  5
2676
330
21
100
AcDbEntity
  8
0
  6
Continuous
100
AcDbLine
 10
1135.311423668534
 20
-8.46498855991436
 30
0.0
 11
1119.311423668533
 21
-8.46498855991436
 31
0.0
  0
LINE
  5
2677
330
21
100
AcDbEntity
  8
0
  6
Continuous
100
AcDbLine
 10
1135.311423668533
 20
-9.46498855991436
 30
0.0
 11
1116.311423668534
 21
-9.46498855991436
 31
0.0
  0
LINE
  5
2678
330
21
100
AcDbEntity
  8
0
  6
Continuous
100
AcDbLine
 10
1115.311423668534
 20
-10.46498855991436
 30
0.0
 11
1135.311423668533
 21
-10.46498855991436
 31
0.0
  0
LINE
  5
2679
330
21
100
AcDbEntity
  8
0
  6
Continuous
100
AcDbLine
 10
1135.311423668533
 20
-14.86498855991434
 30
0.0
 11
1115.311423668534
 21
-14.86498855991434
 31
0.0
  0
LINE
  5
267A
330
21
100
AcDbEntity
  8
0
  6
Continuous
100
AcDbLine
 10
1113.677109093434
 20
-15.86498855991434
 30
0.0
 11
1135.311423668534
 21
-15.86498855991434
 31
0.0
  0
LINE
  5
267B
330
21
100
AcDbEntity
  8
0
  6
Continuous
100
AcDbLine
 10
1092.394266381034
 20
6.252168727585655
 30
0.0
 11
1090.428580956034
 21
8.217854152585659
 31
0.0
  0
LINE
  5
267C
330
21
100
AcDbEntity
  8
0
  6
Continuous
100
AcDbLine
 10
1113.394266381034
 20
-15.74783127241434
 30
0.0
 11
1111.428580956034
 21
-13.78214584741434
 31
0.0
  0
LINE
  5
267D
330
21
100
AcDbEntity
  8
0
  6
Continuous
100
AcDbLine
 10
1097.711423668534
 20
14.13501144008566
 30
0.0
 11
1097.711423668534
 21
30.13501144008572
 31
0.0
  0
LINE
  5
267E
330
21
100
AcDbEntity
  8
0
  6
Continuous
100
AcDbLine
 10
1096.711423668534
 20
11.13501144008566
 30
0.0
 11
1096.711423668534
 21
30.13501144008572
 31
0.0
  0
LINE
  5
267F
330
21
100
AcDbEntity
  8
0
  6
Continuous
100
AcDbLine
 10
1095.711423668534
 20
30.13501144008572
 30
0.0
 11
1095.711423668534
 21
10.13501144008566
 31
0.0
  0
LINE
  5
2680
330
21
100
AcDbEntity
  8
0
  6
Continuous
100
AcDbLine
 10
1091.311423668534
 20
10.13501144008566
 30
0.0
 11
1091.311423668534
 21
30.13501144008572
 31
0.0
  0
LINE
  5
2681
330
21
100
AcDbEntity
  8
0
  6
Continuous
100
AcDbLine
 10
1090.311423668534
 20
8.500696864985656
 30
0.0
 11
1090.311423668534
 21
30.13501144008572
 31
0.0
  0
ARC
  5
2682
330
21
100
AcDbEntity
  8
0
  6
Continuous
100
AcDbCircle
 10
1135.311423668534
 20
30.21369704608563
 30
0.0
 40
10.6330336686
100
AcDbArc
 50
270.0
 51
180.561865240287
  0
SPLINE
  5
2683
330
21
100
AcDbEntity
  8
0
  6
Continuous
100
AcDbSpline
210
0.0
220
0.0
230
1.0
 70
     8
 71
     3
 72
    10
 73
     6
 74
     4
 42
0.0000000001
 43
0.0000000001
 44
0.0000000001
 40
0.0
 40
0.0
 40
0.0
 40
0.0
 40
0.1985974277627862
 40
0.4270421960873682
 40
0.6822839021339455
 40
0.6822839021339455
 40
0.6822839021339455
 40
0.6822839021339455
 10
1183.357286481634
 20
46.28877946908565
 30
0.0
 10
1183.331932969586
 20
46.22744155571783
 30
0.0
 10
1183.277415549166
 20
46.09554721286011
 30
0.0
 10
1183.240329553349
 20
45.86927666156613
 30
0.0
 10
1183.235507369419
 20
45.70815112663411
 30
0.0
 10
1183.232962699434
 20
45.62312506408566
 30
0.0
 11
1183.357286481634
 21
46.28877946908565
 31
0.0
 11
1183.287996479734
 21
46.10266167318562
 31
0.0
 11
1183.246575116934
 21
45.87800352648563
 31
0.0
 11
1183.232962699434
 21
45.62312506408566
 31
0.0
  0
SPLINE
  5
2684
330
21
100
AcDbEntity
  8
0
  6
Continuous
100
AcDbSpline
210
0.0
220
0.0
230
1.0
 70
     8
 71
     3
 72
    10
 73
     6
 74
     4
 42
0.0000000001
 43
0.0000000001
 44
0.0000000001
 40
0.0
 40
0.0
 40
0.0
 40
0.0
 40
0.0399367743324477
 40
0.1388279405100422
 40
0.2942257026706607
 40
0.2942257026706607
 40
0.2942257026706607
 40
0.2942257026706607
 10
1183.232962699434
 20
59.09197112698561
 30
0.0
 10
1183.237334516826
 20
59.07938861330499
 30
0.0
 10
1183.252531798404
 20
59.03564936570879
 30
0.0
 10
1183.296946084857
 20
58.94794139171034
 30
0.0
 10
1183.334398838846
 20
58.87195889766302
 30
0.0
 10
1183.357286481634
 20
58.82552545828563
 30
0.0
 11
1183.232962699434
 21
59.09197112698561
 31
0.0
 11
1183.246554754334
 21
59.05441847078563
 31
0.0
 11
1183.288275140634
 21
58.96475871328565
 31
0.0
 11
1183.357286481634
 21
58.82552545828563
 31
0.0
  0
SPLINE
  5
2685
330
21
100
AcDbEntity
  8
0
  6
Continuous
100
AcDbSpline
210
0.0
220
0.0
230
1.0
 70
     8
 71
     3
 72
    10
 73
     6
 74
     4
 42
0.0000000001
 43
0.0000000001
 44
0.0000000001
 40
0.0
 40
0.0
 40
0.0
 40
0.0
 40
0.2925677569425784
 40
0.6108481915686379
 40
0.9424234205509032
 40
0.9424234205509032
 40
0.9424234205509032
 40
0.9424234205509032
 10
1183.232962699434
 20
43.68254310888565
 30
0.0
 10
1183.235853090677
 20
43.58501858849318
 30
0.0
 10
1183.241887898758
 20
43.38139848510966
 30
0.0
 10
1183.284293996335
 20
43.06941473736509
 30
0.0
 10
1183.332626059581
 20
42.85820723551544
 30
0.0
 10
1183.357286481634
 20
42.75044303538564
 30
0.0
 11
1183.232962699434
 21
43.68254310888565
 31
0.0
 11
1183.246554754334
 21
43.39029125098565
 31
0.0
 11
1183.288275140634
 21
43.07475703028567
 31
0.0
 11
1183.357286481634
 21
42.75044303538564
 31
0.0
  0
SPLINE
  5
2686
330
21
100
AcDbEntity
  8
0
  6
Continuous
100
AcDbSpline
210
0.0
220
0.0
230
1.0
 70
     8
 71
     3
 72
    10
 73
     6
 74
     4
 42
0.0000000001
 43
0.0000000001
 44
0.0000000001
 40
0.0
 40
0.0
 40
0.0
 40
0.0
 40
0.2551526994568371
 40
0.4837212427730699
 40
0.6822838921898551
 40
0.6822838921898551
 40
0.6822838921898551
 40
0.6822838921898551
 10
1183.232962699434
 20
14.80426902798561
 30
0.0
 10
1183.235505838688
 20
14.71927273557655
 30
0.0
 10
1183.240327149545
 20
14.55813584663617
 30
0.0
 10
1183.277406986129
 20
14.331862776819
 30
0.0
 10
1183.331936888601
 20
14.19994152582191
 30
0.0
 10
1183.357286481634
 20
14.13861462308566
 30
0.0
 11
1183.232962699434
 21
14.80426902798561
 31
0.0
 11
1183.246565051034
 21
14.54947916148566
 31
0.0
 11
1183.288005530834
 21
14.32469867828561
 31
0.0
 11
1183.357286481634
 21
14.13861462308566
 31
0.0
  0
SPLINE
  5
2687
330
21
100
AcDbEntity
  8
0
  6
Continuous
100
AcDbSpline
210
0.0
220
0.0
230
1.0
 70
     8
 71
     3
 72
     9
 73
     5
 74
     3
 42
0.0000000001
 43
0.0000000001
 44
0.0000000001
 40
0.0
 40
0.0
 40
0.0
 40
0.0
 40
0.9605128931622573
 40
1.961495927159785
 40
1.961495927159785
 40
1.961495927159785
 40
1.961495927159785
 10
1164.777449072234
 20
46.87649645338561
 30
0.0
 10
1164.898631458678
 20
46.58001931533846
 30
0.0
 10
1165.146102116433
 20
45.97457330527929
 30
0.0
 10
1165.43719172376
 20
45.38883514336584
 30
0.0
 10
1165.585739449134
 20
45.08992350438567
 30
0.0
 11
1164.777449072234
 21
46.87649645338561
 31
0.0
 11
1165.151455631733
 21
45.99179078968567
 31
0.0
 11
1165.585739449134
 21
45.08992350438567
 31
0.0
  0
SPLINE
  5
2688
330
21
100
AcDbEntity
  8
0
  6
Continuous
100
AcDbSpline
210
0.0
220
0.0
230
1.0
 70
     8
 71
     3
 72
    11
 73
     7
 74
     5
 42
0.0000000001
 43
0.0000000001
 44
0.0000000001
 40
0.0
 40
0.0
 40
0.0
 40
0.0
 40
0.5378975965980718
 40
1.078513115745269
 40
1.61095995248695
 40
2.126280873142565
 40
2.126280873142565
 40
2.126280873142565
 40
2.126280873142565
 10
1166.509499879834
 20
47.97976237758561
 30
0.0
 10
1166.331944911646
 20
47.94895706368226
 30
0.0
 10
1165.975937814444
 20
47.88719078086275
 30
0.0
 10
1165.491104337229
 20
47.64276470647853
 30
0.0
 10
1165.068785174724
 20
47.31205382879561
 30
0.0
 10
1164.873497519909
 20
47.02009137154082
 30
0.0
 10
1164.777449695034
 20
46.87649622728563
 30
0.0
 11
1166.509499879834
 21
47.97976237758561
 31
0.0
 11
1165.984650056734
 21
47.86200632628563
 31
0.0
 11
1165.498200333934
 21
47.62614236818561
 31
0.0
 11
1165.085741196034
 21
47.28942721628564
 31
0.0
 11
1164.777449695034
 21
46.87649622728563
 31
0.0
  0
SPLINE
  5
2689
330
21
100
AcDbEntity
  8
0
  6
Continuous
100
AcDbSpline
210
0.0
220
0.0
230
1.0
 70
     8
 71
     3
 72
     9
 73
     5
 74
     3
 42
0.0000000001
 43
0.0000000001
 44
0.0000000001
 40
0.0
 40
0.0
 40
0.0
 40
0.0
 40
0.917128433629639
 40
1.87484397523462
 40
1.87484397523462
 40
1.87484397523462
 40
1.87484397523462
 10
1166.509499879834
 20
47.97976237758561
 30
0.0
 10
1166.630808336186
 20
47.69902281758295
 30
0.0
 10
1166.87879370028
 20
47.12511969411533
 30
0.0
 10
1167.169384091564
 20
46.57155412106331
 30
0.0
 10
1167.317824675234
 20
46.28877946908565
 30
0.0
 11
1166.509499879834
 21
47.97976237758561
 31
0.0
 11
1166.883620335034
 21
47.14241033168562
 31
0.0
 11
1167.317824675234
 21
46.28877946908565
 31
0.0
  0
SPLINE
  5
268A
330
21
100
AcDbEntity
  8
0
  6
Continuous
100
AcDbSpline
210
0.0
220
0.0
230
1.0
 70
     8
 71
     3
 72
    12
 73
     8
 74
     6
 42
0.0000000001
 43
0.0000000001
 44
0.0000000001
 40
0.0
 40
0.0
 40
0.0
 40
0.0
 40
0.4377327530264067
 40
0.8814195567557372
 40
1.3244390682207
 40
1.760467791456905
 40
2.183869318097923
 40
2.183869318097923
 40
2.183869318097923
 40
2.183869318097923
 10
1167.317790256734
 20
46.28877946908565
 30
0.0
 10
1167.174114267232
 20
46.26102381134276
 30
0.0
 10
1166.884808004204
 20
46.20513496277919
 30
0.0
 10
1166.479751235278
 20
46.01927063382157
 30
0.0
 10
1166.115906160081
 20
45.76800348012301
 30
0.0
 10
1165.804797959439
 20
45.45877338434354
 30
0.0
 10
1165.658040205464
 20
45.21166549070433
 30
0.0
 10
1165.585739449134
 20
45.08992686278562
 30
0.0
 11
1167.317790256734
 21
46.28877946908565
 31
0.0
 11
1166.891630679334
 21
46.18878958128564
 31
0.0
 11
1166.486376733634
 21
46.00815951928561
 31
0.0
 11
1166.122067050734
 21
45.75607869398564
 31
0.0
 11
1165.816847178934
 21
45.44469167218565
 31
0.0
 11
1165.585739449134
 21
45.08992686278562
 31
0.0
  0
SPLINE
  5
268B
330
21
100
AcDbEntity
  8
0
  6
Continuous
100
AcDbSpline
210
0.0
220
0.0
230
1.0
 70
    24
 71
     3
 72
     8
 73
     4
 74
     2
 42
0.0000000001
 43
0.0000000001
 44
0.0000000001
 40
0.0
 40
0.0
 40
0.0
 40
0.0
 40
1.024608050857699
 40
1.024608050857699
 40
1.024608050857699
 40
1.024608050857699
 10
1166.093691693434
 20
48.91620522688564
 30
0.0
 10
1166.232294422234
 20
48.60405761045229
 30
0.0
 10
1166.370897151034
 20
48.29190999401895
 30
0.0
 10
1166.509499879834
 20
47.97976237758561
 30
0.0
 11
1166.093691693434
 21
48.91620522688564
 31
0.0
 11
1166.509499879834
 21
47.97976237758561
 31
0.0
  0
SPLINE
  5
268C
330
21
100
AcDbEntity
  8
0
  6
Continuous
100
AcDbSpline
210
0.0
220
0.0
230
1.0
 70
     8
 71
     3
 72
    21
 73
    17
 74
    15
 42
0.0000000001
 43
0.0000000001
 44
0.0000000001
 40
0.0
 40
0.0
 40
0.0
 40
0.0
 40
0.3865060432626002
 40
0.8174732315360056
 40
1.286097852282938
 40
1.785503007582106
 40
2.311512394378115
 40
2.868747104591718
 40
3.463268331915509
 40
4.099977351565828
 40
4.787656039850097
 40
5.548591297514425
 40
6.418082264985612
 40
7.418236694676178
 40
8.541220867265054
 40
8.754355728824651
 40
8.754355728824651
 40
8.754355728824651
 40
8.754355728824651
 10
1166.509499879834
 20
57.13454254978566
 30
0.0
 10
1166.459319462224
 20
57.01587645627025
 30
0.0
 10
1166.353186197665
 20
56.76489369253144
 30
0.0
 10
1166.176152608151
 20
56.37441400749339
 30
0.0
 10
1165.978952040357
 20
55.95183272691276
 30
0.0
 10
1165.766453025141
 20
55.50143079720742
 30
0.0
 10
1165.545635561109
 20
55.02229785028145
 30
0.0
 10
1165.324930309136
 20
54.50830354321512
 30
0.0
 10
1165.118425480432
 20
53.94858023185023
 30
0.0
 10
1164.952039608413
 20
53.32954082189184
 30
0.0
 10
1164.869644079944
 20
52.63585806657844
 30
0.0
 10
1164.928105695282
 20
51.8601440077622
 30
0.0
 10
1165.158820774831
 20
51.01012062621066
 30
0.0
 10
1165.540100925026
 20
50.08708057363646
 30
0.0
 10
1165.875278451969
 20
49.38416335460184
 30
0.0
 10
1166.063644019447
 20
48.98058343567556
 30
0.0
 10
1166.093691693434
 20
48.91620522688564
 30
0.0
 11
1166.509499879834
 21
57.13454254978566
 31
0.0
 11
1166.357529426734
 21
56.77916682908565
 31
0.0
 11
1166.180653483234
 21
56.38616858738564
 31
0.0
 11
1165.983002096334
 21
55.96126511078566
 31
0.0
 11
1165.770895452834
 21
55.50914092328563
 31
0.0
 11
1165.552029700034
 21
55.03082757698561
 31
0.0
 11
1165.334170994434
 21
54.51794542028565
 31
0.0
 11
1165.131551893134
 21
53.95901699058564
 31
0.0
 11
1164.970906070934
 21
53.34290718258566
 31
0.0
 11
1164.893670350234
 21
52.65957957318565
 31
0.0
 11
1164.947558769534
 21
51.90055486698563
 31
0.0
 11
1165.163414692434
 21
51.05828367368562
 31
0.0
 11
1165.532018399134
 21
50.12853091588564
 31
0.0
 11
1166.003464112834
 21
49.10929964138566
 31
0.0
 11
1166.093691693434
 21
48.91620522688564
 31
0.0
  0
SPLINE
  5
268D
330
21
100
AcDbEntity
  8
0
  6
Continuous
100
AcDbSpline
210
0.0
220
0.0
230
1.0
 70
     8
 71
     3
 72
    21
 73
    17
 74
    15
 42
0.0000000001
 43
0.0000000001
 44
0.0000000001
 40
0.0
 40
0.0
 40
0.0
 40
0.0
 40
0.2782641765824936
 40
0.5973765697730145
 40
0.9555277685633266
 40
1.351015387130225
 40
1.784681148747991
 40
2.265889066646507
 40
2.80797147326243
 40
3.425977738754968
 40
4.137734059085242
 40
4.965151978362867
 40
5.932151535401964
 40
7.05223443539793
 40
8.321975680574512
 40
9.745934197497862
 40
9.745934197497862
 40
9.745934197497862
 40
9.745934197497862
 10
1164.777449072234
 20
56.39028761258564
 30
0.0
 10
1164.747164168323
 20
56.30261585500276
 30
0.0
 10
1164.682148641581
 20
56.11440242971009
 30
0.0
 10
1164.575661323799
 20
55.81421951861288
 30
0.0
 10
1164.45687428773
 20
55.47694202283013
 30
0.0
 10
1164.328945782669
 20
55.10240662570362
 30
0.0
 10
1164.195973551795
 20
54.6863044664702
 30
0.0
 10
1164.063085985889
 20
54.21905900948513
 30
0.0
 10
1163.939100164795
 20
53.68588311956948
 30
0.0
 10
1163.840401234044
 20
53.06909683420546
 30
0.0
 10
1163.793486073962
 20
52.35027955090696
 30
0.0
 10
1163.829888812039
 20
51.51404703880888
 30
0.0
 10
1163.96791249216
 20
50.55127238234034
 30
0.0
 10
1164.196872929084
 20
49.45568901185131
 30
0.0
 10
1164.490532409605
 20
48.21878204947099
 30
0.0
 10
1164.678228253576
 20
47.34068237586161
 30
0.0
 10
1164.777449072234
 20
46.87649645338561
 30
0.0
 11
1164.777449072234
 21
56.39028761258564
 31
0.0
 11
1164.686256267034
 21
56.12739062848564
 31
0.0
 11
1164.580119036534
 21
55.82644610238563
 31
0.0
 11
1164.461516518434
 21
55.48850272858564
 31
0.0
 11
1164.334242027334
 21
55.11405425368562
 31
0.0
 11
1164.202908854934
 21
54.70075340608563
 31
0.0
 11
1164.072183733334
 21
54.23764218528564
 31
0.0
 11
1163.950614206934
 21
53.70936745958565
 31
0.0
 11
1163.854242452734
 21
53.09892153308564
 31
0.0
 11
1163.807940457234
 21
52.38867285498563
 31
0.0
 11
1163.840387817734
 21
51.56189139538563
 31
0.0
 11
1163.970004336434
 21
50.60361810378563
 31
0.0
 11
1164.191280682834
 21
49.50560968788565
 31
0.0
 11
1164.474276582534
 21
48.26780673488562
 31
0.0
 11
1164.777449072234
 21
46.87649645338561
 31
0.0
  0
SPLINE
  5
268E
330
21
100
AcDbEntity
  8
0
  6
Continuous
100
AcDbSpline
210
0.0
220
0.0
230
1.0
 70
     8
 71
     3
 72
    11
 73
     7
 74
     5
 42
0.0000000001
 43
0.0000000001
 44
0.0000000001
 40
0.0
 40
0.0
 40
0.0
 40
0.0
 40
0.5249265132084332
 40
1.029770971681903
 40
1.5127155879244
 40
1.978403912889302
 40
1.978403912889302
 40
1.978403912889302
 40
1.978403912889302
 10
1166.509499879834
 20
57.13454259268562
 30
0.0
 10
1166.333605189834
 20
57.14098871366592
 30
0.0
 10
1165.988544993258
 20
57.15363434709924
 30
0.0
 10
1165.497679907877
 20
57.01218898502054
 30
0.0
 10
1165.068999043475
 20
56.76586481039112
 30
0.0
 10
1164.873446629023
 20
56.51395253825935
 30
0.0
 10
1164.777449038834
 20
56.39028763168565
 30
0.0
 11
1166.509499879834
 21
57.13454259268562
 31
0.0
 11
1165.984649971034
 21
57.12557501208564
 31
0.0
 11
1165.498200079434
 21
56.99054008988563
 31
0.0
 11
1165.085740735534
 21
56.73931749538562
 31
0.0
 11
1164.777449038834
 21
56.39028763168565
 31
0.0
  0
SPLINE
  5
268F
330
21
100
AcDbEntity
  8
0
  6
Continuous
100
AcDbSpline
210
0.0
220
0.0
230
1.0
 70
     8
 71
     3
 72
     9
 73
     5
 74
     3
 42
0.0000000001
 43
0.0000000001
 44
0.0000000001
 40
0.0
 40
0.0
 40
0.0
 40
0.0
 40
0.9587148811395418
 40
1.874842244847763
 40
1.874842244847763
 40
1.874842244847763
 40
1.874842244847763
 10
1167.317820779934
 20
58.82552545828563
 30
0.0
 10
1167.169229764704
 20
58.54245322125949
 30
0.0
 10
1166.8786483645
 20
57.98888323005488
 30
0.0
 10
1166.630671757535
 20
57.41497730361613
 30
0.0
 10
1166.509499879834
 20
57.13454254978566
 30
0.0
 11
1167.317820779934
 21
58.82552545828563
 31
0.0
 11
1166.883188317734
 21
57.97099117218564
 31
0.0
 11
1166.509499879834
 21
57.13454254978566
 31
0.0
  0
SPLINE
  5
2690
330
21
100
AcDbEntity
  8
0
  6
Continuous
100
AcDbSpline
210
0.0
220
0.0
230
1.0
 70
     8
 71
     3
 72
    10
 73
     6
 74
     4
 42
0.0000000001
 43
0.0000000001
 44
0.0000000001
 40
0.0
 40
0.0
 40
0.0
 40
0.0
 40
0.1553977621606249
 40
0.2542889282475724
 40
0.2942257025800136
 40
0.2942257025800136
 40
0.2942257025800136
 40
0.2942257025800136
 10
1183.357286481634
 20
1.601868633785642
 30
0.0
 10
1183.334398838855
 20
1.555435194404136
 30
0.0
 10
1183.296946084894
 20
1.479452700377183
 30
0.0
 10
1183.252531798389
 20
1.391744726436068
 30
0.0
 10
1183.237334516825
 20
1.348005478866748
 30
0.0
 10
1183.232962699434
 20
1.335422965185642
 30
0.0
 11
1183.357286481634
 21
1.601868633785642
 31
0.0
 11
1183.288275140634
 21
1.46263537878562
 31
0.0
 11
1183.246554754334
 21
1.37297562138562
 31
0.0
 11
1183.232962699434
 21
1.335422965185642
 31
0.0
  0
SPLINE
  5
2691
330
21
100
AcDbEntity
  8
0
  6
Continuous
100
AcDbSpline
210
0.0
220
0.0
230
1.0
 70
     8
 71
     3
 72
    10
 73
     6
 74
     4
 42
0.0000000001
 43
0.0000000001
 44
0.0000000001
 40
0.0
 40
0.0
 40
0.0
 40
0.0
 40
0.3315752290800041
 40
0.6498556637061341
 40
0.9424234206487054
 40
0.9424234206487054
 40
0.9424234206487054
 40
0.9424234206487054
 10
1183.357286481634
 20
17.67695105678561
 30
0.0
 10
1183.332626059582
 20
17.56918685662226
 30
0.0
 10
1183.284293996345
 20
17.35797935473731
 30
0.0
 10
1183.241887898756
 20
17.04599560696191
 30
0.0
 10
1183.235853090677
 20
16.84237550357817
 30
0.0
 10
1183.232962699434
 20
16.74485098318561
 30
0.0
 11
1183.357286481634
 21
17.67695105678561
 31
0.0
 11
1183.288275140634
 21
17.35263706178566
 31
0.0
 11
1183.246554754334
 21
17.03710284108561
 31
0.0
 11
1183.232962699434
 21
16.74485098318561
 31
0.0
  0
SPLINE
  5
2692
330
21
100
AcDbEntity
  8
0
  6
Continuous
100
AcDbSpline
210
0.0
220
0.0
230
1.0
 70
     8
 71
     3
 72
    15
 73
    11
 74
     9
 42
0.0000000001
 43
0.0000000001
 44
0.0000000001
 40
0.0
 40
0.0
 40
0.0
 40
0.0
 40
3.283704499439923
 40
6.45473412590653
 40
9.575328783905581
 40
12.67876395354223
 40
15.78210648951416
 40
18.90248399888971
 40
22.07252348154215
 40
25.3555941004699
 40
25.3555941004699
 40
25.3555941004699
 40
25.3555941004699
 10
1183.357286481634
 20
17.67695105678561
 30
0.0
 10
1183.610236483874
 20
18.74216547073949
 30
0.0
 10
1184.107456928615
 20
20.83604323298282
 30
0.0
 10
1184.626841211992
 20
23.98795652059818
 30
0.0
 10
1184.950854738648
 20
27.10479546739801
 30
0.0
 10
1185.058628807504
 20
30.21463435981147
 30
0.0
 10
1184.95072583317
 20
33.3243959712878
 30
0.0
 10
1184.626643701883
 20
36.44079152281631
 30
0.0
 10
1184.107291783735
 20
39.59208568711891
 30
0.0
 10
1183.61019061746
 20
41.68543505003385
 30
0.0
 10
1183.357286481634
 20
42.75044303538564
 30
0.0
 11
1183.357286481634
 21
17.67695105678561
 31
0.0
 11
1184.078065546234
 21
20.88057287898565
 31
0.0
 11
1184.598005130834
 21
24.00868600358567
 31
0.0
 11
1184.915565502634
 21
27.11308069978563
 31
0.0
 11
1185.022748523434
 21
30.21466443268562
 31
0.0
 11
1184.915438866834
 21
33.31615109768566
 31
0.0
 11
1184.597787726734
 21
36.42031822498566
 31
0.0
 11
1184.077943336534
 21
39.54744344338562
 31
0.0
 11
1183.357286481634
 21
42.75044303538564
 31
0.0
  0
SPLINE
  5
2693
330
21
100
AcDbEntity
  8
0
  6
Continuous
100
AcDbSpline
210
0.0
220
0.0
230
1.0
 70
     8
 71
     3
 72
    15
 73
    11
 74
     9
 42
0.0000000001
 43
0.0000000001
 44
0.0000000001
 40
0.0
 40
0.0
 40
0.0
 40
0.0
 40
1.756508085630291
 40
3.404722301594916
 40
4.989071125934558
 40
6.543562558152889
 40
8.098014308993964
 40
9.68226985504835
 40
11.32998531073562
 40
13.08615953304453
 40
13.08615953304453
 40
13.08615953304453
 40
13.08615953304453
 10
1183.357286481634
 20
46.28877946908565
 30
0.0
 10
1183.609032669178
 20
46.81788607572182
 30
0.0
 10
1184.097004154241
 20
47.84347831652777
 30
0.0
 10
1184.622328971108
 20
49.42609974518025
 30
0.0
 10
1184.949522494698
 20
50.99184815493451
 30
0.0
 10
1185.059045891518
 20
52.55762457557886
 30
0.0
 10
1184.949391978335
 20
54.12335987088667
 30
0.0
 10
1184.622131094682
 20
55.68887756321522
 30
0.0
 10
1184.096843801531
 20
57.27118173492019
 30
0.0
 10
1183.608987143916
 20
58.29652069549178
 30
0.0
 10
1183.357286481634
 20
58.82552545828563
 30
0.0
 11
1183.357286481634
 21
46.28877946908565
 31
0.0
 11
1184.078065546234
 21
47.89059038018561
 31
0.0
 11
1184.598005130834
 21
49.45464694248565
 31
0.0
 11
1184.915565502634
 21
51.00684429058564
 31
0.0
 11
1185.022748523434
 21
52.55763615698564
 31
0.0
 11
1184.915438866834
 21
54.10837948948565
 31
0.0
 11
1184.597787726734
 21
55.66046305308564
 31
0.0
 11
1184.077943336534
 21
57.22402566228564
 31
0.0
 11
1183.357286481634
 21
58.82552545828563
 31
0.0
  0
SPLINE
  5
2694
330
21
100
AcDbEntity
  8
0
  6
Continuous
100
AcDbSpline
210
0.0
220
0.0
230
1.0
 70
     8
 71
     3
 72
     9
 73
     5
 74
     3
 42
0.0000000001
 43
0.0000000001
 44
0.0000000001
 40
0.0
 40
0.0
 40
0.0
 40
0.0
 40
0.9624680006100714
 40
1.88520755462044
 40
1.88520755462044
 40
1.88520755462044
 40
1.88520755462044
 10
1165.585739449134
 20
58.09272395888561
 30
0.0
 10
1165.436998346761
 20
57.80830907515059
 30
0.0
 10
1165.145655829713
 20
57.25121929437465
 30
0.0
 10
1164.898448124579
 20
56.67320452139976
 30
0.0
 10
1164.777449072234
 20
56.39028761258564
 30
0.0
 11
1165.585739449134
 21
58.09272395888561
 31
0.0
 11
1165.151019788734
 21
57.23402525208562
 31
0.0
 11
1164.777449072234
 21
56.39028761258564
 31
0.0
  0
SPLINE
  5
2695
330
21
100
AcDbEntity
  8
0
  6
Continuous
100
AcDbSpline
210
0.0
220
0.0
230
1.0
 70
     8
 71
     3
 72
    12
 73
     8
 74
     6
 42
0.0000000001
 43
0.0000000001
 44
0.0000000001
 40
0.0
 40
0.0
 40
0.0
 40
0.0
 40
0.4264463407789751
 40
0.8378850739191817
 40
1.233328986755461
 40
1.614973657027316
 40
1.988070080558279
 40
1.988070080558279
 40
1.988070080558279
 40
1.988070080558279
 10
1167.317790256734
 20
58.82552545828563
 30
0.0
 10
1167.175617050254
 20
58.83665846474088
 30
0.0
 10
1166.896274032787
 20
58.85853268206832
 30
0.0
 10
1166.486938864132
 20
58.78414331563829
 30
0.0
 10
1166.119572769263
 20
58.63034445452878
 30
0.0
 10
1165.803589741206
 20
58.40173132077747
 30
0.0
 10
1165.657805827126
 20
58.19494500777053
 30
0.0
 10
1165.585739449134
 20
58.09272288888561
 30
0.0
 11
1167.317790256734
 21
58.82552545828563
 31
0.0
 11
1166.891595346034
 21
58.84016716778567
 31
0.0
 11
1166.486413865234
 21
58.76868431148565
 31
0.0
 11
1166.122223865434
 21
58.61460143688564
 31
0.0
 11
1165.816982262934
 21
58.38551582308562
 31
0.0
 11
1165.585739449134
 21
58.09272288888561
 31
0.0
  0
SPLINE
  5
2696
330
21
100
AcDbEntity
  8
0
  6
Continuous
100
AcDbSpline
210
0.0
220
0.0
230
1.0
 70
     8
 71
     3
 72
    11
 73
     7
 74
     5
 42
0.0000000001
 43
0.0000000001
 44
0.0000000001
 40
0.0
 40
0.0
 40
0.0
 40
0.0
 40
0.8417188647277814
 40
1.701658925613924
 40
2.580180439345788
 40
3.477679640669648
 40
3.477679640669648
 40
3.477679640669648
 40
3.477679640669648
 10
1166.509499879834
 20
21.05891687388564
 30
0.0
 10
1166.567673494242
 20
20.78443488077068
 30
0.0
 10
1166.685280042389
 20
20.2295290172132
 30
0.0
 10
1166.879950126326
 20
19.39174531206251
 30
0.0
 10
1167.089558264216
 20
18.53842112053313
 30
0.0
 10
1167.241172275603
 20
17.96614609492276
 30
0.0
 10
1167.317789317834
 20
17.67695105678561
 30
0.0
 11
1166.509499879834
 21
21.05891687388564
 31
0.0
 11
1166.686658470634
 21
20.23605268038565
 31
0.0
 11
1166.880279649834
 21
19.39819365448565
 31
0.0
 11
1167.090590778134
 21
18.54521693768564
 31
0.0
 11
1167.317789317834
 21
17.67695105678561
 31
0.0
  0
SPLINE
  5
2697
330
21
100
AcDbEntity
  8
0
  6
Continuous
100
AcDbSpline
210
0.0
220
0.0
230
1.0
 70
     8
 71
     3
 72
    11
 73
     7
 74
     5
 42
0.0000000001
 43
0.0000000001
 44
0.0000000001
 40
0.0
 40
0.0
 40
0.0
 40
0.0
 40
0.8686570684238804
 40
1.755029642590239
 40
2.659326630950381
 40
3.581902073767604
 40
3.581902073767604
 40
3.581902073767604
 40
3.581902073767604
 10
1164.777449072234
 20
20.69990588678562
 30
0.0
 10
1164.835599295535
 20
20.41624659436013
 30
0.0
 10
1164.953085665387
 20
19.84314302483968
 30
0.0
 10
1165.147753532358
 20
18.97829549690864
 30
0.0
 10
1165.357334562098
 20
18.09845958291431
 30
0.0
 10
1165.509098338098
 20
17.50870462193405
 30
0.0
 10
1165.585739449134
 20
17.21087679608561
 30
0.0
 11
1164.777449072234
 21
20.69990588678562
 31
0.0
 11
1164.954590879834
 21
19.84950252218564
 31
0.0
 11
1165.148214744434
 21
18.98453654638561
 31
0.0
 11
1165.358532014534
 21
18.10503686528565
 31
0.0
 11
1165.585739449134
 21
17.21087679608561
 31
0.0
  0
SPLINE
  5
2698
330
21
100
AcDbEntity
  8
0
  6
Continuous
100
AcDbSpline
210
0.0
220
0.0
230
1.0
 70
     8
 71
     3
 72
    14
 73
    10
 74
     8
 42
0.0000000001
 43
0.0000000001
 44
0.0000000001
 40
0.0
 40
0.0
 40
0.0
 40
0.0
 40
2.95115322648436
 40
5.606669407116844
 40
8.114213121823941
 40
10.58500757685671
 40
13.0768317059549
 40
15.70809945315323
 40
18.62785745885514
 40
18.62785745885514
 40
18.62785745885514
 40
18.62785745885514
 10
1166.509499879834
 20
39.36847721818563
 30
0.0
 10
1166.294188131207
 20
38.40860186134933
 30
0.0
 10
1165.885133872964
 20
36.5850083760898
 30
0.0
 10
1165.263487540769
 20
33.95266320735911
 30
0.0
 10
1164.875233994054
 20
31.43146552215692
 30
0.0
 10
1164.881653953613
 20
28.92970973090461
 30
0.0
 10
1165.274862764327
 20
26.42315235969921
 30
0.0
 10
1165.891993459358
 20
23.81419627948849
 30
0.0
 10
1166.296654248764
 20
22.00862227679892
 30
0.0
 10
1166.509499879834
 20
21.05891687388564
 30
0.0
 11
1166.509499879834
 21
39.36847721818563
 31
0.0
 11
1165.857889322534
 21
36.49016016688566
 31
0.0
 11
1165.287324252234
 21
33.89666413138562
 31
0.0
 11
1164.938687253734
 21
31.41347510828567
 31
0.0
 11
1164.944276030234
 21
28.94268697398562
 31
0.0
 11
1165.297882666834
 21
26.47608002578565
 31
0.0
 11
1165.865078039034
 21
23.90667165668563
 31
0.0
 11
1166.509499879834
 21
21.05891687388564
 31
0.0
  0
SPLINE
  5
2699
330
21
100
AcDbEntity
  8
0
  6
Continuous
100
AcDbSpline
210
0.0
220
0.0
230
1.0
 70
     8
 71
     3
 72
    14
 73
    10
 74
     8
 42
0.0000000001
 43
0.0000000001
 44
0.0000000001
 40
0.0
 40
0.0
 40
0.0
 40
0.0
 40
2.913429063273374
 40
5.636567135688489
 40
8.285229262598747
 40
10.93083199754952
 40
13.56121716059552
 40
16.258017012289
 40
19.13994765571236
 40
19.13994765571236
 40
19.13994765571236
 40
19.13994765571236
 10
1164.777449072234
 20
39.72748820528565
 30
0.0
 10
1164.647377763637
 20
38.76510409403899
 30
0.0
 10
1164.395730770552
 20
36.9031941125181
 30
0.0
 10
1164.02532589701
 20
34.16628206889927
 30
0.0
 10
1163.796770411849
 20
31.5013745264073
 30
0.0
 10
1163.800533817173
 20
28.85596358252035
 30
0.0
 10
1164.032134082764
 20
26.20637234686503
 30
0.0
 10
1164.399998713568
 20
23.49473019531904
 30
0.0
 10
1164.648879243328
 20
21.65189884405665
 30
0.0
 10
1164.777449072234
 20
20.69990588678562
 30
0.0
 11
1164.777449072234
 21
39.72748820528565
 31
0.0
 11
1164.387142958334
 21
36.84032176668566
 31
0.0
 11
1164.044358494234
 21
34.13884443518564
 31
0.0
 11
1163.835087563234
 21
31.49846250448562
 31
0.0
 11
1163.838447717734
 21
28.85286190338561
 31
0.0
 11
1164.050677578134
 21
26.23105249148566
 31
0.0
 11
1164.391442827034
 21
23.55586866878562
 31
0.0
 11
1164.777449072234
 21
20.69990588678562
 31
0.0
  0
SPLINE
  5
269A
330
21
100
AcDbEntity
  8
0
  6
Continuous
100
AcDbSpline
210
0.0
220
0.0
230
1.0
 70
     8
 71
     3
 72
    11
 73
     7
 74
     5
 42
0.0000000001
 43
0.0000000001
 44
0.0000000001
 40
0.0
 40
0.0
 40
0.0
 40
0.0
 40
0.7951243460027314
 40
1.656664601440132
 40
2.585491415484987
 40
3.5821691618801
 40
3.5821691618801
 40
3.5821691618801
 40
3.5821691618801
 10
1165.585739449134
 20
43.21679427818563
 30
0.0
 10
1165.519582268326
 20
42.96013853947612
 30
0.0
 10
1165.381741866222
 20
42.42538887520783
 30
0.0
 10
1165.179984945034
 20
41.58747722166464
 30
0.0
 10
1164.973660052389
 20
40.68160876095053
 30
0.0
 10
1164.844371357357
 20
40.05291305060931
 30
0.0
 10
1164.777449072234
 20
39.72748820528565
 30
0.0
 11
1165.585739449134
 21
43.21679427818563
 31
0.0
 11
1165.389240635334
 21
42.44633276598565
 31
0.0
 11
1165.186895698134
 21
41.60889134228566
 31
0.0
 11
1164.981767702834
 21
40.70299854728566
 31
0.0
 11
1164.777449072234
 21
39.72748820528565
 31
0.0
  0
SPLINE
  5
269B
330
21
100
AcDbEntity
  8
0
  6
Continuous
100
AcDbSpline
210
0.0
220
0.0
230
1.0
 70
     8
 71
     3
 72
    11
 73
     7
 74
     5
 42
0.0000000001
 43
0.0000000001
 44
0.0000000001
 40
0.0
 40
0.0
 40
0.0
 40
0.0
 40
0.7733943372534412
 40
1.610591950859427
 40
2.511878806633643
 40
3.477661679751293
 40
3.477661679751293
 40
3.477661679751293
 40
3.477661679751293
 10
1167.317723825534
 20
42.75044303538564
 30
0.0
 10
1167.251599116781
 20
42.50126583048849
 30
0.0
 10
1167.11389456098
 20
41.98235486720137
 30
0.0
 10
1166.912162576369
 20
41.16969798335087
 30
0.0
 10
1166.70586960937
 20
40.29214393663428
 30
0.0
 10
1166.576446716902
 20
39.68337588129068
 30
0.0
 10
1166.509499879834
 20
39.36847721818563
 30
0.0
 11
1167.317723825534
 21
42.75044303538564
 31
0.0
 11
1167.121276465634
 21
42.00241413508561
 31
0.0
 11
1166.918933197034
 21
41.19003673148566
 31
0.0
 11
1166.713820168234
 21
40.31239976678565
 31
0.0
 11
1166.509499879834
 21
39.36847721818563
 31
0.0
  0
SPLINE
  5
269C
330
21
100
AcDbEntity
  8
0
  6
Continuous
100
AcDbSpline
210
0.0
220
0.0
230
1.0
 70
     8
 71
     3
 72
     9
 73
     5
 74
     3
 42
0.0000000001
 43
0.0000000001
 44
0.0000000001
 40
0.0
 40
0.0
 40
0.0
 40
0.0
 40
1.00098303440749
 40
1.961495927134395
 40
1.961495927134395
 40
1.961495927134395
 40
1.961495927134395
 10
1165.585739449134
 20
15.33747058778564
 30
0.0
 10
1165.437191723941
 20
15.03855894856966
 30
0.0
 10
1165.146102117087
 20
14.4528207864416
 30
0.0
 10
1164.898631458857
 20
13.84737477659712
 30
0.0
 10
1164.777449072234
 20
13.55089763878564
 30
0.0
 11
1165.585739449134
 21
15.33747058778564
 31
0.0
 11
1165.151455632034
 21
14.43560330188566
 31
0.0
 11
1164.777449072234
 21
13.55089763878564
 31
0.0
  0
SPLINE
  5
269D
330
21
100
AcDbEntity
  8
0
  6
Continuous
100
AcDbSpline
210
0.0
220
0.0
230
1.0
 70
     8
 71
     3
 72
    12
 73
     8
 74
     6
 42
0.0000000001
 43
0.0000000001
 44
0.0000000001
 40
0.0
 40
0.0
 40
0.0
 40
0.0
 40
0.4377792992202846
 40
0.8813511069499838
 40
1.324270013903014
 40
1.760190974138896
 40
2.183869786272798
 40
2.183869786272798
 40
2.183869786272798
 40
2.183869786272798
 10
1167.317790256734
 20
14.13861462308566
 30
0.0
 10
1167.174108395069
 20
14.16640064183583
 30
0.0
 10
1166.884843534779
 20
14.22234033205601
 30
0.0
 10
1166.479750249379
 20
14.40800266411505
 30
0.0
 10
1166.116118123618
 20
14.65938217727316
 30
0.0
 10
1165.804811461075
 20
14.96843640013279
 30
0.0
 10
1165.658066822872
 20
15.2156304393444
 30
0.0
 10
1165.585739449134
 20
15.33746722928563
 30
0.0
 11
1167.317790256734
 21
14.13861462308566
 31
0.0
 11
1166.891595318634
 21
14.23865756168564
 31
0.0
 11
1166.486413823634
 21
14.41916768528566
 31
0.0
 11
1166.122223823834
 21
14.67124466198564
 31
0.0
 11
1165.816982235534
 21
14.98245946938564
 31
0.0
 11
1165.585739449134
 21
15.33746722928563
 31
0.0
  0
SPLINE
  5
269E
330
21
100
AcDbEntity
  8
0
  6
Continuous
100
AcDbSpline
210
0.0
220
0.0
230
1.0
 70
     8
 71
     3
 72
     9
 73
     5
 74
     3
 42
0.0000000001
 43
0.0000000001
 44
0.0000000001
 40
0.0
 40
0.0
 40
0.0
 40
0.0
 40
0.9577155411923931
 40
1.874843975169661
 40
1.874843975169661
 40
1.874843975169661
 40
1.874843975169661
 10
1167.317824675034
 20
14.13861462308566
 30
0.0
 10
1167.169384092082
 20
13.85583997090365
 30
0.0
 10
1166.878793702088
 20
13.30227439723231
 30
0.0
 10
1166.630808336813
 20
12.7283712743286
 30
0.0
 10
1166.509499879834
 20
12.44763171448565
 30
0.0
 11
1167.317824675034
 21
14.13861462308566
 31
0.0
 11
1166.883620336334
 21
13.28498376018561
 31
0.0
 11
1166.509499879834
 21
12.44763171448565
 31
0.0
  0
SPLINE
  5
269F
330
21
100
AcDbEntity
  8
0
  6
Continuous
100
AcDbSpline
210
0.0
220
0.0
230
1.0
 70
     8
 71
     3
 72
    21
 73
    17
 74
    15
 42
0.0000000001
 43
0.0000000001
 44
0.0000000001
 40
0.0
 40
0.0
 40
0.0
 40
0.0
 40
0.2261170159957599
 40
1.357215647501708
 40
2.360740985816981
 40
3.230755395983584
 40
3.99168692521626
 40
4.679611885225011
 40
5.316312431270219
 40
5.91038762428868
 40
6.466869106349512
 40
6.99220353301752
 40
7.489697239849546
 40
7.954292324279652
 40
8.378312636151545
 40
8.754367136406552
 40
8.754367136406552
 40
8.754367136406552
 40
8.754367136406552
 10
1166.093707825034
 20
11.51122668688563
 30
0.0
 10
1166.061824984265
 20
11.4429294840128
 30
0.0
 10
1165.87045552811
 20
11.03299115181162
 30
0.0
 10
1165.531864540834
 20
10.32266438845296
 30
0.0
 10
1165.15077463503
 20
9.395136553276677
 30
0.0
 10
1164.923592091928
 20
8.542676219485937
 30
0.0
 10
1164.870276770636
 20
7.766287739604859
 30
0.0
 10
1164.957057433566
 20
7.073114420815815
 30
0.0
 10
1165.126239339698
 20
6.454953865870237
 30
0.0
 10
1165.334208378384
 20
5.896223257595838
 30
0.0
 10
1165.555497434636
 20
5.383168133504063
 30
0.0
 10
1165.776197951554
 20
4.90520942885934
 30
0.0
 10
1165.987786470226
 20
4.456816512795014
 30
0.0
 10
1166.183012731067
 20
4.038053814594793
 30
0.0
 10
1166.356869249493
 20
3.653977615759267
 30
0.0
 10
1166.460697903034
 20
3.40831765960752
 30
0.0
 10
1166.509499879834
 20
3.292851542385648
 30
0.0
 11
1166.093707825034
 21
11.51122668688563
 31
0.0
 11
1165.997967977934
 21
11.30637848308563
 31
0.0
 11
1165.523511557134
 21
10.27959943238565
 31
0.0
 11
1165.155663809834
 21
9.345923289685658
 31
0.0
 11
1164.943536409934
 21
8.502165599285632
 31
0.0
 11
1164.894415658234
 21
7.742821182085634
 31
0.0
 11
1164.975824865334
 21
7.059730198685628
 31
0.0
 11
1165.139281911134
 21
6.444369020585639
 31
0.0
 11
1165.343392748534
 21
5.88645854298565
 31
0.0
 11
1165.561814973034
 21
5.374634968185631
 31
0.0
 11
1165.780764925734
 21
4.89710258388564
 31
0.0
 11
1165.992104420934
 21
4.446729842585654
 31
0.0
 11
1166.187908173734
 21
4.025411099985632
 31
0.0
 11
1166.361733260734
 21
3.638657865985663
 31
0.0
 11
1166.509499879834
 21
3.292851542385648
 31
0.0
  0
SPLINE
  5
26A0
330
21
100
AcDbEntity
  8
0
  6
Continuous
100
AcDbSpline
210
0.0
220
0.0
230
1.0
 70
    24
 71
     3
 72
     8
 73
     4
 74
     2
 42
0.0000000001
 43
0.0000000001
 44
0.0000000001
 40
0.0
 40
0.0
 40
0.0
 40
0.0
 40
1.02456693707606
 40
1.02456693707606
 40
1.02456693707606
 40
1.02456693707606
 10
1166.509499879834
 20
12.44763171448565
 30
0.0
 10
1166.370902528234
 20
12.13549670528564
 30
0.0
 10
1166.232305176634
 20
11.82336169608564
 30
0.0
 10
1166.093707825034
 20
11.51122668688563
 30
0.0
 11
1166.509499879834
 21
12.44763171448565
 31
0.0
 11
1166.093707825034
 21
11.51122668688563
 31
0.0
  0
SPLINE
  5
26A1
330
21
100
AcDbEntity
  8
0
  6
Continuous
100
AcDbSpline
210
0.0
220
0.0
230
1.0
 70
     8
 71
     3
 72
    21
 73
    17
 74
    15
 42
0.0000000001
 43
0.0000000001
 44
0.0000000001
 40
0.0
 40
0.0
 40
0.0
 40
0.0
 40
1.438580545246826
 40
2.717262765287327
 40
3.841005917926294
 40
4.80830036585192
 40
5.634735566737597
 40
6.345171562669612
 40
6.961565180046673
 40
7.501915815715031
 40
7.981432678408834
 40
8.413708722928989
 40
8.807018867510598
 40
9.161603232094588
 40
9.475274900955148
 40
9.745923290339206
 40
9.745923290339206
 40
9.745923290339206
 40
9.745923290339206
 10
1164.777449072234
 20
13.55089763878564
 30
0.0
 10
1164.677149728389
 20
13.08195810634039
 30
0.0
 10
1164.487699319573
 20
12.19620170229693
 30
0.0
 10
1164.191930408517
 20
10.9504691520023
 30
0.0
 10
1163.963116764588
 20
9.850442120309035
 30
0.0
 10
1163.827189808636
 20
8.886327096553901
 30
0.0
 10
1163.793779038552
 20
8.050617549845674
 30
0.0
 10
1163.843319500965
 20
7.333293669812102
 30
0.0
 10
1163.943748423953
 20
6.718376978416821
 30
0.0
 10
1164.068648751854
 20
6.187147905981142
 30
0.0
 10
1164.201898007364
 20
5.72167854928508
 30
0.0
 10
1164.334807152909
 20
5.307398758407076
 30
0.0
 10
1164.462202766782
 20
4.935195308332281
 30
0.0
 10
1164.579820052717
 20
4.601458900101433
 30
0.0
 10
1164.684421443516
 20
4.306486406290655
 30
0.0
 10
1164.748000292047
 20
4.122381256027839
 30
0.0
 10
1164.777449072234
 20
4.037106479485629
 30
0.0
 11
1164.777449072234
 21
13.55089763878564
 31
0.0
 11
1164.471004994734
 21
12.14533511348563
 31
0.0
 11
1164.186192938634
 21
10.89877572358566
 31
0.0
 11
1163.965364112134
 21
9.796943929485648
 31
0.0
 11
1163.837970452134
 21
8.838075114485633
 31
0.0
 11
1163.808385186234
 21
8.012169639685652
 31
0.0
 11
1163.857191426934
 21
7.303412096385642
 31
0.0
 11
1163.955244016234
 21
6.694867290085625
 31
0.0
 11
1164.077709151534
 21
6.168577350885612
 31
0.0
 11
1164.208774232434
 21
5.707319975685635
 31
0.0
 11
1164.340158010834
 21
5.295493699885611
 31
0.0
 11
1164.466972416034
 21
4.923188748985666
 31
0.0
 11
1164.584468146834
 21
4.588637071585623
 31
0.0
 11
1164.688776837134
 21
4.292816833985654
 31
0.0
 11
1164.777449072234
 21
4.037106479485629
 31
0.0
  0
SPLINE
  5
26A2
330
21
100
AcDbEntity
  8
0
  6
Continuous
100
AcDbSpline
210
0.0
220
0.0
230
1.0
 70
     8
 71
     3
 72
    11
 73
     7
 74
     5
 42
0.0000000001
 43
0.0000000001
 44
0.0000000001
 40
0.0
 40
0.0
 40
0.0
 40
0.0
 40
0.5378974365728407
 40
1.078513904424487
 40
1.610963087835343
 40
2.126287638834067
 40
2.126287638834067
 40
2.126287638834067
 40
2.126287638834067
 10
1166.509499879834
 20
12.44762811078564
 30
0.0
 10
1166.331944808758
 20
12.47843262557669
 30
0.0
 10
1165.975937139013
 20
12.54019736967526
 30
0.0
 10
1165.491102299451
 20
12.78462343557331
 30
0.0
 10
1165.06878130244
 20
13.11533568799135
 30
0.0
 10
1164.873492225689
 20
13.40729959328486
 30
0.0
 10
1164.777443572734
 20
13.55089564218562
 30
0.0
 11
1166.509499879834
 21
12.44762811078564
 31
0.0
 11
1165.984649745634
 21
12.56538204448563
 31
0.0
 11
1165.498198790934
 21
12.80124563638563
 31
0.0
 11
1165.085737651334
 21
13.13796204708566
 31
0.0
 11
1164.777443572734
 21
13.55089564218562
 31
0.0
  0
SPLINE
  5
26A3
330
21
100
AcDbEntity
  8
0
  6
Continuous
100
AcDbSpline
210
0.0
220
0.0
230
1.0
 70
     8
 71
     3
 72
     9
 73
     5
 74
     3
 42
0.0000000001
 43
0.0000000001
 44
0.0000000001
 40
0.0
 40
0.0
 40
0.0
 40
0.0
 40
0.917128433720981
 40
1.874843975325963
 40
1.874843975325963
 40
1.874843975325963
 40
1.874843975325963
 10
1166.509499879834
 20
3.292851542385648
 30
0.0
 10
1166.630808336182
 20
3.012111982348033
 30
0.0
 10
1166.878793700256
 20
2.438208858838164
 30
0.0
 10
1167.169384091561
 20
1.884643285761908
 30
0.0
 10
1167.317824675234
 20
1.601868633785642
 30
0.0
 11
1166.509499879834
 21
3.292851542385648
 31
0.0
 11
1166.883620335034
 21
2.455499496385613
 31
0.0
 11
1167.317824675234
 21
1.601868633785642
 31
0.0
  0
SPLINE
  5
26A4
330
21
100
AcDbEntity
  8
0
  6
Continuous
100
AcDbSpline
210
0.0
220
0.0
230
1.0
 70
     8
 71
     3
 72
    12
 73
     8
 74
     6
 42
0.0000000001
 43
0.0000000001
 44
0.0000000001
 40
0.0
 40
0.0
 40
0.0
 40
0.0
 40
0.4264099596848809
 40
0.8379113797057562
 40
1.23351920785683
 40
1.615141102227315
 40
1.988067497389461
 40
1.988067497389461
 40
1.988067497389461
 40
1.988067497389461
 10
1167.317790256734
 20
1.601868633785642
 30
0.0
 10
1167.175631060902
 20
1.590759531977082
 30
0.0
 10
1166.896282970615
 20
1.568929735059156
 30
0.0
 10
1166.486852406188
 20
1.643187960805991
 30
0.0
 10
1166.119483047297
 20
1.797168146379438
 30
0.0
 10
1165.80348254155
 20
2.02572805151089
 30
0.0
 10
1165.65776070835
 20
2.232484380410249
 30
0.0
 10
1165.585739449134
 20
2.334671203285637
 30
0.0
 11
1167.317790256734
 21
1.601868633785642
 31
0.0
 11
1166.891630679334
 21
1.587258079085614
 31
0.0
 11
1166.486376733634
 21
1.658690971885647
 31
0.0
 11
1166.122067050734
 21
1.812911621085646
 31
0.0
 11
1165.816847178934
 21
2.041988246085651
 31
0.0
 11
1165.585739449134
 21
2.334671203285637
 31
0.0
  0
SPLINE
  5
26A5
330
21
100
AcDbEntity
  8
0
  6
Continuous
100
AcDbSpline
210
0.0
220
0.0
230
1.0
 70
     8
 71
     3
 72
     9
 73
     5
 74
     3
 42
0.0000000001
 43
0.0000000001
 44
0.0000000001
 40
0.0
 40
0.0
 40
0.0
 40
0.0
 40
0.9237550262774688
 40
1.885206700322082
 40
1.885206700322082
 40
1.885206700322082
 40
1.885206700322082
 10
1164.777449072234
 20
4.037106479485629
 30
0.0
 10
1164.898585841216
 20
3.753880002018789
 30
0.0
 10
1165.145802735354
 20
3.175869124848497
 30
0.0
 10
1165.437151935527
 20
2.618783574140859
 30
0.0
 10
1165.585739449134
 20
2.334671049385661
 30
0.0
 11
1164.777449072234
 21
4.037106479485629
 31
0.0
 11
1165.151455631733
 21
3.192451258685622
 31
0.0
 11
1165.585739449134
 21
2.334671049385661
 31
0.0
  0
SPLINE
  5
26A6
330
21
100
AcDbEntity
  8
0
  6
Continuous
100
AcDbSpline
210
0.0
220
0.0
230
1.0
 70
     8
 71
     3
 72
    11
 73
     7
 74
     5
 42
0.0000000001
 43
0.0000000001
 44
0.0000000001
 40
0.0
 40
0.0
 40
0.0
 40
0.0
 40
0.5249264308899759
 40
1.029770762261597
 40
1.512715226134261
 40
1.978403388415662
 40
1.978403388415662
 40
1.978403388415662
 40
1.978403388415662
 10
1166.509499879834
 20
3.292851542385648
 30
0.0
 10
1166.333605215187
 20
3.286405489892744
 30
0.0
 10
1165.98854508441
 20
3.273759991402713
 30
0.0
 10
1165.49768016626
 20
3.415205485041371
 30
0.0
 10
1165.068999509873
 20
3.661529713660964
 30
0.0
 10
1164.873447221618
 20
3.913441948466095
 30
0.0
 10
1164.777449695034
 20
4.037106834585614
 30
0.0
 11
1166.509499879834
 21
3.292851542385648
 31
0.0
 11
1165.984650056734
 21
3.301819320185614
 31
0.0
 11
1165.498200333934
 21
3.436854375285662
 31
0.0
 11
1165.085741196034
 21
3.68807701508561
 31
0.0
 11
1164.777449695034
 21
4.037106834585614
 31
0.0
  0
SPLINE
  5
26A7
330
21
100
AcDbEntity
  8
0
  6
Continuous
100
AcDbSpline
210
0.0
220
0.0
230
1.0
 70
     8
 71
     3
 72
    15
 73
    11
 74
     9
 42
0.0000000001
 43
0.0000000001
 44
0.0000000001
 40
0.0
 40
0.0
 40
0.0
 40
0.0
 40
1.756508085630343
 40
3.404722301594907
 40
4.989071125934541
 40
6.54356255825263
 40
8.098014308993964
 40
9.682269855146291
 40
11.32998531083357
 40
13.08615953314253
 40
13.08615953314253
 40
13.08615953314253
 40
13.08615953314253
 10
1183.357286481634
 20
1.601868633785642
 30
0.0
 10
1183.609032669178
 20
2.130975240421817
 30
0.0
 10
1184.097004154241
 20
3.156567481227766
 30
0.0
 10
1184.622328971108
 20
4.739188909880311
 30
0.0
 10
1184.949522494704
 20
6.304937319666938
 30
0.0
 10
1185.05904589152
 20
7.870713740313141
 30
0.0
 10
1184.949391978318
 20
9.436449035650252
 30
0.0
 10
1184.622131094698
 20
11.00196672798538
 30
0.0
 10
1184.09684380153
 20
12.58427089971984
 30
0.0
 10
1183.608987143916
 20
13.60960986029167
 30
0.0
 10
1183.357286481634
 20
14.13861462308566
 30
0.0
 11
1183.357286481634
 21
1.601868633785642
 31
0.0
 11
1184.078065546234
 21
3.203679544885659
 31
0.0
 11
1184.598005130834
 21
4.767736107185641
 31
0.0
 11
1184.915565502634
 21
6.319933455285621
 31
0.0
 11
1185.022748523434
 21
7.870725321785613
 31
0.0
 11
1184.915438866834
 21
9.421468654185645
 31
0.0
 11
1184.597787726734
 21
10.97355221788561
 31
0.0
 11
1184.077943336534
 21
12.53711482708562
 31
0.0
 11
1183.357286481634
 21
14.13861462308566
 31
0.0
  0
SPLINE
  5
26A8
330
21
100
AcDbEntity
  8
0
  6
Continuous
100
AcDbSpline
210
0.0
220
0.0
230
1.0
 70
     8
 71
     3
 72
    10
 73
     6
 74
     4
 42
0.0000000001
 43
0.0000000001
 44
0.0000000001
 40
0.0
 40
0.0
 40
0.0
 40
0.0
 40
2.87256116117925
 40
6.280043366921849
 40
10.21026894421838
 40
10.21026894421838
 40
10.21026894421838
 40
10.21026894421838
 10
1151.363736113634
 20
16.35060424758566
 30
0.0
 10
1150.639012241221
 20
16.97640022194984
 30
0.0
 10
1149.054608257311
 20
18.34452630781491
 30
0.0
 10
1146.47886827211
 20
20.56912774223754
 30
0.0
 10
1144.627751390346
 20
22.16781651402941
 30
0.0
 10
1143.636255526734
 20
23.02410674618565
 30
0.0
 11
1151.363736113634
 21
16.35060424758566
 31
0.0
 11
1149.189593840034
 21
18.22802614978562
 31
0.0
 11
1146.610732612434
 21
20.45522388488561
 31
0.0
 11
1143.636255526734
 21
23.02410674618565
 31
0.0
  0
SPLINE
  5
26A9
330
21
100
AcDbEntity
  8
0
  6
Continuous
100
AcDbSpline
210
0.0
220
0.0
230
1.0
 70
     8
 71
     3
 72
    12
 73
     8
 74
     6
 42
0.0000000001
 43
0.0000000001
 44
0.0000000001
 40
0.0
 40
0.0
 40
0.0
 40
0.0
 40
0.6116652739645682
 40
1.251302424625022
 40
1.900586859826805
 40
2.540223994364202
 40
3.151888737470168
 40
3.151888737470168
 40
3.151888737470168
 40
3.151888737470168
 10
1151.364436141434
 20
16.34973173208564
 30
0.0
 10
1151.183676093379
 20
16.25469487008676
 30
0.0
 10
1150.813889715053
 20
16.06027504455512
 30
0.0
 10
1150.312339306022
 20
15.66785269370525
 30
0.0
 10
1149.857267662962
 20
15.21278100219363
 30
0.0
 10
1149.464845483225
 20
14.71123069246222
 30
0.0
 10
1149.270425756497
 20
14.34144446985693
 30
0.0
 10
1149.175388983734
 20
14.16068457578566
 30
0.0
 11
1151.364436141434
 21
16.34973173208564
 31
0.0
 11
1150.831612880834
 21
16.04934235088566
 31
0.0
 11
1150.323750115134
 21
15.66048364168566
 31
0.0
 11
1149.864636713334
 21
15.20137018938564
 31
0.0
 11
1149.475778071534
 21
14.69350739238561
 31
0.0
 11
1149.175388983734
 21
14.16068457578566
 31
0.0
  0
SPLINE
  5
26AA
330
21
100
AcDbEntity
  8
0
  6
Continuous
100
AcDbSpline
210
0.0
220
0.0
230
1.0
 70
     8
 71
     3
 72
    10
 73
     6
 74
     4
 42
0.0000000001
 43
0.0000000001
 44
0.0000000001
 40
0.0
 40
0.0
 40
0.0
 40
0.0
 40
2.873434920664205
 40
6.280963308370527
 40
10.21117582269374
 40
10.21117582269374
 40
10.21117582269374
 40
10.21117582269374
 10
1149.175085433234
 20
14.16068457578566
 30
0.0
 10
1148.549103961468
 20
14.8856330819036
 30
0.0
 10
1147.180788073187
 20
16.47027832117431
 30
0.0
 10
1144.955980731245
 20
19.04623990112154
 30
0.0
 10
1143.357285715056
 20
20.89736597675792
 30
0.0
 10
1142.500998849234
 20
21.88885899418565
 30
0.0
 11
1149.175085433234
 21
14.16068457578566
 31
0.0
 11
1147.297103731834
 21
16.33549789478562
 31
0.0
 11
1145.069873604834
 21
18.91439216838566
 31
0.0
 11
1142.500998849234
 21
21.88885899418565
 31
0.0
  0
SPLINE
  5
26AB
330
21
100
AcDbEntity
  8
0
  6
Continuous
100
AcDbSpline
210
0.0
220
0.0
230
1.0
 70
     8
 71
     3
 72
    10
 73
     6
 74
     4
 42
0.0000000001
 43
0.0000000001
 44
0.0000000001
 40
0.0
 40
0.0
 40
0.0
 40
0.0
 40
1.616402165925802
 40
3.290411640778268
 40
5.00927422071346
 40
5.00927422071346
 40
5.00927422071346
 40
5.00927422071346
 10
1142.254696567234
 20
22.17406091868562
 30
0.0
 10
1141.902539709317
 20
22.58184979244371
 30
0.0
 10
1141.185675398506
 20
23.41196081646907
 30
0.0
 10
1140.094248604805
 20
24.67563782487493
 30
0.0
 10
1139.355061188124
 20
25.53159722505335
 30
0.0
 10
1138.980581523234
 20
25.96523473308562
 30
0.0
 11
1142.254696567234
 21
22.17406091868562
 31
0.0
 11
1141.198212816834
 21
23.39741616028565
 31
0.0
 11
1140.104034812534
 21
24.66433455418562
 31
0.0
 11
1138.980581523234
 21
25.96523473308562
 31
0.0
  0
SPLINE
  5
26AC
330
21
100
AcDbEntity
  8
0
  6
Continuous
100
AcDbSpline
210
0.0
220
0.0
230
1.0
 70
    24
 71
     3
 72
     8
 73
     4
 74
     2
 42
0.0000000001
 43
0.0000000001
 44
0.0000000001
 40
0.0
 40
0.0
 40
0.0
 40
0.0
 40
0.0697547938470091
 40
0.0697547938470091
 40
0.0697547938470091
 40
0.0697547938470091
 10
1139.230587026334
 20
26.82896617508564
 30
0.0
 10
1139.212989545467
 20
26.84416372338564
 30
0.0
 10
1139.195392064601
 20
26.85936127168565
 30
0.0
 10
1139.177794583734
 20
26.87455881998565
 30
0.0
 11
1139.230587026334
 21
26.82896617508564
 31
0.0
 11
1139.177794583734
 21
26.87455881998565
 31
0.0
  0
SPLINE
  5
26AD
330
21
100
AcDbEntity
  8
0
  6
Continuous
100
AcDbSpline
210
0.0
220
0.0
230
1.0
 70
     8
 71
     3
 72
    10
 73
     6
 74
     4
 42
0.0000000001
 43
0.0000000001
 44
0.0000000001
 40
0.0
 40
0.0
 40
0.0
 40
0.0
 40
1.785904583974394
 40
3.628495968508469
 40
5.454583868340633
 40
5.454583868340633
 40
5.454583868340633
 40
5.454583868340633
 10
1143.358758660034
 20
23.26376153338563
 30
0.0
 10
1142.908211967407
 20
23.65285225166613
 30
0.0
 10
1141.992817677872
 20
24.4433839045515
 30
0.0
 10
1140.61678298063
 20
25.63181152083928
 30
0.0
 10
1139.691264535331
 20
26.43111317148
 30
0.0
 10
1139.230587026334
 20
26.82896617508564
 30
0.0
 11
1143.358758660034
 21
23.26376153338563
 31
0.0
 11
1142.007125624734
 21
24.43104184288567
 31
0.0
 11
1140.612615556534
 21
25.63540253638561
 31
0.0
 11
1139.230587026334
 21
26.82896617508564
 31
0.0
  0
SPLINE
  5
26AE
330
21
100
AcDbEntity
  8
0
  6
Continuous
100
AcDbSpline
210
0.0
220
0.0
230
1.0
 70
     8
 71
     3
 72
     9
 73
     5
 74
     3
 42
0.0000000001
 43
0.0000000001
 44
0.0000000001
 40
0.0
 40
0.0
 40
0.0
 40
0.0
 40
0.2372572813445096
 40
0.4530957563968895
 40
0.4530957563968895
 40
0.4530957563968895
 40
0.4530957563968895
 10
1136.246418628034
 20
29.40620800808566
 30
0.0
 10
1136.186564316136
 20
29.45789958238972
 30
0.0
 10
1136.072259142572
 20
29.55661618584194
 30
0.0
 10
1135.957950406195
 20
29.6553286637147
 30
0.0
 10
1135.903497847334
 20
29.70235172758563
 30
0.0
 11
1136.246418628034
 21
29.40620800808566
 31
0.0
 11
1136.066854715434
 21
29.56128159978565
 31
0.0
 11
1135.903497847334
 21
29.70235172758563
 31
0.0
  0
SPLINE
  5
26AF
330
21
100
AcDbEntity
  8
0
  6
Continuous
100
AcDbSpline
210
0.0
220
0.0
230
1.0
 70
    24
 71
     3
 72
     8
 73
     4
 74
     2
 42
0.0000000001
 43
0.0000000001
 44
0.0000000001
 40
0.0
 40
0.0
 40
0.0
 40
0.0
 40
0.1048831063597129
 40
0.1048831063597129
 40
0.1048831063597129
 40
0.1048831063597129
 10
1136.325762156834
 20
29.33761449208564
 30
0.0
 10
1136.299314313901
 20
29.36047899741898
 30
0.0
 10
1136.272866470968
 20
29.38334350275233
 30
0.0
 10
1136.246418628034
 20
29.40620800808566
 30
0.0
 11
1136.325762156834
 21
29.33761449208564
 31
0.0
 11
1136.246418628034
 21
29.40620800808566
 31
0.0
  0
SPLINE
  5
26B0
330
21
100
AcDbEntity
  8
0
  6
Continuous
100
AcDbSpline
210
0.0
220
0.0
230
1.0
 70
    24
 71
     3
 72
     8
 73
     4
 74
     2
 42
0.0000000001
 43
0.0000000001
 44
0.0000000001
 40
0.0
 40
0.0
 40
0.0
 40
0.0
 40
0.1009362682948424
 40
0.1009362682948424
 40
0.1009362682948424
 40
0.1009362682948424
 10
1136.402124282834
 20
29.27160725028566
 30
0.0
 10
1136.376670240834
 20
29.29360966421898
 30
0.0
 10
1136.351216198834
 20
29.31561207815231
 30
0.0
 10
1136.325762156834
 20
29.33761449208564
 30
0.0
 11
1136.402124282834
 21
29.27160725028566
 31
0.0
 11
1136.325762156834
 21
29.33761449208564
 31
0.0
  0
SPLINE
  5
26B1
330
21
100
AcDbEntity
  8
0
  6
Continuous
100
AcDbSpline
210
0.0
220
0.0
230
1.0
 70
    24
 71
     3
 72
     8
 73
     4
 74
     2
 42
0.0000000001
 43
0.0000000001
 44
0.0000000001
 40
0.0
 40
0.0
 40
0.0
 40
0.0
 40
0.0309442544269229
 40
0.0309442544269229
 40
0.0309442544269229
 40
0.0309442544269229
 10
1136.425541441834
 20
29.25137896448567
 30
0.0
 10
1136.417735722167
 20
29.258121726419
 30
0.0
 10
1136.409930002501
 20
29.26486448835233
 30
0.0
 10
1136.402124282834
 20
29.27160725028566
 30
0.0
 11
1136.425541441834
 21
29.25137896448567
 31
0.0
 11
1136.402124282834
 21
29.27160725028566
 31
0.0
  0
SPLINE
  5
26B2
330
21
100
AcDbEntity
  8
0
  6
Continuous
100
AcDbSpline
210
0.0
220
0.0
230
1.0
 70
    24
 71
     3
 72
     8
 73
     4
 74
     2
 42
0.0000000001
 43
0.0000000001
 44
0.0000000001
 40
0.0
 40
0.0
 40
0.0
 40
0.0
 40
0.1777691074670757
 40
0.1777691074670757
 40
0.1777691074670757
 40
0.1777691074670757
 10
1135.948836918034
 20
29.47563670158562
 30
0.0
 10
1135.910105015634
 20
29.5204826269523
 30
0.0
 10
1135.871373113234
 20
29.56532855231898
 30
0.0
 10
1135.832641210834
 20
29.61017447768566
 30
0.0
 11
1135.948836918034
 21
29.47563670158562
 31
0.0
 11
1135.832641210834
 21
29.61017447768566
 31
0.0
  0
SPLINE
  5
26B3
330
21
100
AcDbEntity
  8
0
  6
Continuous
100
AcDbSpline
210
0.0
220
0.0
230
1.0
 70
    24
 71
     3
 72
     8
 73
     4
 74
     2
 42
0.0000000001
 43
0.0000000001
 44
0.0000000001
 40
0.0
 40
0.0
 40
0.0
 40
0.0
 40
0.1774969182973236
 40
0.1774969182973236
 40
0.1774969182973236
 40
0.1774969182973236
 10
1136.064850183334
 20
29.34130100908564
 30
0.0
 10
1136.026179094901
 20
29.3860795732523
 30
0.0
 10
1135.987508006467
 20
29.43085813741896
 30
0.0
 10
1135.948836918034
 20
29.47563670158562
 30
0.0
 11
1136.064850183334
 21
29.34130100908564
 31
0.0
 11
1135.948836918034
 21
29.47563670158562
 31
0.0
  0
SPLINE
  5
26B4
330
21
100
AcDbEntity
  8
0
  6
Continuous
100
AcDbSpline
210
0.0
220
0.0
230
1.0
 70
    24
 71
     3
 72
     8
 73
     4
 74
     2
 42
0.0000000001
 43
0.0000000001
 44
0.0000000001
 40
0.0
 40
0.0
 40
0.0
 40
0.0
 40
0.1772224734812294
 40
0.1772224734812294
 40
0.1772224734812294
 40
0.1772224734812294
 10
1136.180632423234
 20
29.20712844098566
 30
0.0
 10
1136.142038343268
 20
29.25185263035233
 30
0.0
 10
1136.103444263301
 20
29.29657681971899
 30
0.0
 10
1136.064850183334
 20
29.34130100908564
 30
0.0
 11
1136.180632423234
 21
29.20712844098566
 31
0.0
 11
1136.064850183334
 21
29.34130100908564
 31
0.0
  0
SPLINE
  5
26B5
330
21
100
AcDbEntity
  8
0
  6
Continuous
100
AcDbSpline
210
0.0
220
0.0
230
1.0
 70
    24
 71
     3
 72
     8
 73
     4
 74
     2
 42
0.0000000001
 43
0.0000000001
 44
0.0000000001
 40
0.0
 40
0.0
 40
0.0
 40
0.0
 40
0.0515735752982211
 40
0.0515735752982211
 40
0.0515735752982211
 40
0.0515735752982211
 10
1137.613993432434
 20
27.54756374788562
 30
0.0
 10
1137.602757095767
 20
27.56057458231896
 30
0.0
 10
1137.591520759101
 20
27.57358541675229
 30
0.0
 10
1137.580284422434
 20
27.58659625118563
 30
0.0
 11
1137.613993432434
 21
27.54756374788562
 31
0.0
 11
1137.580284422434
 21
27.58659625118563
 31
0.0
  0
SPLINE
  5
26B6
330
21
100
AcDbEntity
  8
0
  6
Continuous
100
AcDbSpline
210
0.0
220
0.0
230
1.0
 70
    24
 71
     3
 72
     8
 73
     4
 74
     2
 42
0.0000000001
 43
0.0000000001
 44
0.0000000001
 40
0.0
 40
0.0
 40
0.0
 40
0.0
 40
0.1207067942661737
 40
0.1207067942661737
 40
0.1207067942661737
 40
0.1207067942661737
 10
1137.692887096334
 20
27.45620774108565
 30
0.0
 10
1137.666589208368
 20
27.48665974335231
 30
0.0
 10
1137.640291320401
 20
27.51711174561897
 30
0.0
 10
1137.613993432434
 20
27.54756374788562
 30
0.0
 11
1137.692887096334
 21
27.45620774108565
 31
0.0
 11
1137.613993432434
 21
27.54756374788562
 31
0.0
  0
SPLINE
  5
26B7
330
21
100
AcDbEntity
  8
0
  6
Continuous
100
AcDbSpline
210
0.0
220
0.0
230
1.0
 70
    24
 71
     3
 72
     8
 73
     4
 74
     2
 42
0.0000000001
 43
0.0000000001
 44
0.0000000001
 40
0.0
 40
0.0
 40
0.0
 40
0.0
 40
0.1719699684846724
 40
0.1719699684846724
 40
0.1719699684846724
 40
0.1719699684846724
 10
1137.805291415934
 20
27.32605806188562
 30
0.0
 10
1137.767823309401
 20
27.36944128828564
 30
0.0
 10
1137.730355202868
 20
27.41282451468565
 30
0.0
 10
1137.692887096334
 20
27.45620774108565
 30
0.0
 11
1137.805291415934
 21
27.32605806188562
 31
0.0
 11
1137.692887096334
 21
27.45620774108565
 31
0.0
  0
SPLINE
  5
26B8
330
21
100
AcDbEntity
  8
0
  6
Continuous
100
AcDbSpline
210
0.0
220
0.0
230
1.0
 70
    24
 71
     3
 72
     8
 73
     4
 74
     2
 42
0.0000000001
 43
0.0000000001
 44
0.0000000001
 40
0.0
 40
0.0
 40
0.0
 40
0.0
 40
0.1433529347850599
 40
0.1433529347850599
 40
0.1433529347850599
 40
0.1433529347850599
 10
1137.898979007334
 20
27.21755599218565
 30
0.0
 10
1137.867749810201
 20
27.2537233487523
 30
0.0
 10
1137.836520613068
 20
27.28989070531896
 30
0.0
 10
1137.805291415934
 20
27.32605806188562
 30
0.0
 11
1137.898979007334
 21
27.21755599218565
 31
0.0
 11
1137.805291415934
 21
27.32605806188562
 31
0.0
  0
SPLINE
  5
26B9
330
21
100
AcDbEntity
  8
0
  6
Continuous
100
AcDbSpline
210
0.0
220
0.0
230
1.0
 70
    24
 71
     3
 72
     8
 73
     4
 74
     2
 42
0.0000000001
 43
0.0000000001
 44
0.0000000001
 40
0.0
 40
0.0
 40
0.0
 40
0.0
 40
0.0143883520718467
 40
0.0143883520718467
 40
0.0143883520718467
 40
0.0143883520718467
 10
1137.908383096334
 20
27.20666619028563
 30
0.0
 10
1137.905248400001
 20
27.2102961242523
 30
0.0
 10
1137.902113703667
 20
27.21392605821897
 30
0.0
 10
1137.898979007334
 20
27.21755599218565
 30
0.0
 11
1137.908383096334
 21
27.20666619028563
 31
0.0
 11
1137.898979007334
 21
27.21755599218565
 31
0.0
  0
SPLINE
  5
26BA
330
21
100
AcDbEntity
  8
0
  6
Continuous
100
AcDbSpline
210
0.0
220
0.0
230
1.0
 70
     8
 71
     3
 72
    11
 73
     7
 74
     5
 42
0.0000000001
 43
0.0000000001
 44
0.0000000001
 40
0.0
 40
0.0
 40
0.0
 40
0.0
 40
1.086776978858829
 40
2.331057454720987
 40
3.732780962664474
 40
5.309535377063445
 40
5.309535377063445
 40
5.309535377063445
 40
5.309535377063445
 10
1155.809785739834
 20
13.48537395738563
 30
0.0
 10
1155.536576474154
 20
13.72354132708605
 30
0.0
 10
1154.950562500864
 20
14.23439298608458
 30
0.0
 10
1153.934810302314
 20
14.95596242068309
 30
0.0
 10
1152.733537447666
 20
15.69316275782547
 30
0.0
 10
1151.837881039869
 20
16.12303654202052
 30
0.0
 10
1151.363736113634
 20
16.35060424758566
 30
0.0
 11
1155.809785739834
 21
13.48537395738563
 31
0.0
 11
1154.979658310534
 21
14.18678157988566
 31
0.0
 11
1153.970421598234
 21
14.91456943438564
 31
0.0
 11
1152.772620630934
 21
15.64265022348562
 31
0.0
 11
1151.363736113634
 21
16.35060424758566
 31
0.0
  0
SPLINE
  5
26BB
330
21
100
AcDbEntity
  8
0
  6
Continuous
100
AcDbSpline
210
0.0
220
0.0
230
1.0
 70
     8
 71
     3
 72
    13
 73
     9
 74
     7
 42
0.0000000001
 43
0.0000000001
 44
0.0000000001
 40
0.0
 40
0.0
 40
0.0
 40
0.0
 40
0.643552592041755
 40
1.307850243493482
 40
1.982575382515854
 40
2.655814776253934
 40
3.315878599361682
 40
3.953107848459846
 40
3.953107848459846
 40
3.953107848459846
 40
3.953107848459846
 10
1155.809785739534
 20
13.48537164528565
 30
0.0
 10
1155.602405211965
 20
13.42782323272662
 30
0.0
 10
1155.180959199889
 20
13.31087132186693
 30
0.0
 10
1154.601695951235
 20
12.98035840731367
 30
0.0
 10
1154.080139529787
 20
12.55379330842908
 30
0.0
 10
1153.648098510492
 20
12.03864317433757
 30
0.0
 10
1153.313143569795
 20
11.46639024204904
 30
0.0
 10
1153.19440109791
 20
11.04905989086233
 30
0.0
 10
1153.136074897134
 20
10.84406757878562
 30
0.0
 11
1155.809785739534
 21
13.48537164528565
 31
0.0
 11
1155.197165277934
 21
13.28825211618564
 31
0.0
 11
1154.615614245534
 21
12.96717616498566
 31
0.0
 11
1154.094625652634
 21
12.53842810458562
 31
0.0
 11
1153.660620724934
 21
12.02375247468566
 31
0.0
 11
1153.335609166734
 21
11.44925117998562
 31
0.0
 11
1153.136074897134
 21
10.84406757878562
 31
0.0
  0
SPLINE
  5
26BC
330
21
100
AcDbEntity
  8
0
  6
Continuous
100
AcDbSpline
210
0.0
220
0.0
230
1.0
 70
     8
 71
     3
 72
    10
 73
     6
 74
     4
 42
0.0000000001
 43
0.0000000001
 44
0.0000000001
 40
0.0
 40
0.0
 40
0.0
 40
0.0
 40
1.128794140267645
 40
2.445320279396727
 40
3.967370460788573
 40
3.967370460788573
 40
3.967370460788573
 40
3.967370460788573
 10
1153.136100845834
 20
10.84405978548565
 30
0.0
 10
1152.810772371054
 20
11.03324643851432
 30
0.0
 10
1152.106009395711
 20
11.4430837531663
 30
0.0
 10
1150.908865431866
 20
12.01090292544393
 30
0.0
 10
1150.017951889945
 20
12.33082782375411
 30
0.0
 10
1149.540242304234
 20
12.50237218068562
 30
0.0
 11
1153.136100845834
 21
10.84405978548565
 31
0.0
 11
1152.153060901534
 21
11.39886486748562
 31
0.0
 11
1150.963486281334
 21
11.96291566128562
 31
0.0
 11
1149.540242304234
 21
12.50237218068562
 31
0.0
  0
SPLINE
  5
26BD
330
21
100
AcDbEntity
  8
0
  6
Continuous
100
AcDbSpline
210
0.0
220
0.0
230
1.0
 70
     8
 71
     3
 72
    14
 73
    10
 74
     8
 42
0.0000000001
 43
0.0000000001
 44
0.0000000001
 40
0.0
 40
0.0
 40
0.0
 40
0.0
 40
0.5914699079396366
 40
1.238558798598273
 40
1.915925166831612
 40
2.595645217398434
 40
3.249708575411807
 40
3.851581152933727
 40
4.359723991148082
 40
4.359723991148082
 40
4.359723991148082
 40
4.359723991148082
 10
1151.364436141434
 20
16.34973173208564
 30
0.0
 10
1151.22332095941
 20
16.21166764597869
 30
0.0
 10
1150.927820802994
 20
15.92255659176824
 30
0.0
 10
1150.547109697483
 20
15.40681640312723
 30
0.0
 10
1150.20163866643
 20
14.83434480474512
 30
0.0
 10
1149.914583911047
 20
14.22681478180997
 30
0.0
 10
1149.701935316023
 20
13.61710245686325
 30
0.0
 10
1149.564641289607
 20
13.0421782206301
 30
0.0
 10
1149.547895886147
 20
12.67188500449566
 30
0.0
 10
1149.540230175634
 20
12.50237218228565
 30
0.0
 11
1151.364436141434
 21
16.34973173208564
 31
0.0
 11
1150.952353506734
 21
15.92543872698562
 31
0.0
 11
1150.561451257534
 21
15.40976493088564
 31
0.0
 11
1150.212066892034
 21
14.82945832058564
 31
0.0
 11
1149.922309013934
 21
14.21459270988563
 31
0.0
 11
1149.707112178434
 21
13.59694459138566
 31
0.0
 11
1149.577822170634
 21
13.00912260008564
 31
0.0
 11
1149.540230175634
 21
12.50237218228565
 31
0.0
  0
SPLINE
  5
26BE
330
21
100
AcDbEntity
  8
0
  6
Continuous
100
AcDbSpline
210
0.0
220
0.0
230
1.0
 70
     8
 71
     3
 72
     9
 73
     5
 74
     3
 42
0.0000000001
 43
0.0000000001
 44
0.0000000001
 40
0.0
 40
0.0
 40
0.0
 40
0.0
 40
0.5746838452882607
 40
1.238198582183955
 40
1.238198582183955
 40
1.238198582183955
 40
1.238198582183955
 10
1153.923826246434
 20
9.88875898518566
 30
0.0
 10
1153.801698729669
 20
10.03634166686877
 30
0.0
 10
1153.5385660188
 20
10.35431940143215
 30
0.0
 10
1153.276512972425
 20
10.67318757314309
 30
0.0
 10
1153.136086339234
 20
10.84405978548565
 30
0.0
 11
1153.923826246434
 21
9.88875898518566
 31
0.0
 11
1153.557676272834
 21
10.33169884438561
 31
0.0
 11
1153.136086339234
 21
10.84405978548565
 31
0.0
  0
SPLINE
  5
26BF
330
21
100
AcDbEntity
  8
0
  6
Continuous
100
AcDbSpline
210
0.0
220
0.0
230
1.0
 70
     8
 71
     3
 72
     9
 73
     5
 74
     3
 42
0.0000000001
 43
0.0000000001
 44
0.0000000001
 40
0.0
 40
0.0
 40
0.0
 40
0.0
 40
0.5694152190951609
 40
1.225770689256366
 40
1.225770689256366
 40
1.225770689256366
 40
1.225770689256366
 10
1156.715271245834
 20
12.65917196168564
 30
0.0
 10
1156.575027435348
 20
12.78706895369639
 30
0.0
 10
1156.273126912709
 20
13.06239068517374
 30
0.0
 10
1155.971367104529
 20
13.33786663800972
 30
0.0
 10
1155.809785739834
 20
13.48537395738563
 30
0.0
 11
1156.715271245834
 21
12.65917196168564
 31
0.0
 11
1156.294570179734
 21
13.04289621778562
 31
0.0
 11
1155.809785739834
 21
13.48537395738563
 31
0.0
  0
SPLINE
  5
26C0
330
21
100
AcDbEntity
  8
0
  6
Continuous
100
AcDbSpline
210
0.0
220
0.0
230
1.0
 70
     8
 71
     3
 72
    14
 73
    10
 74
     8
 42
0.0000000001
 43
0.0000000001
 44
0.0000000001
 40
0.0
 40
0.0
 40
0.0
 40
0.0
 40
0.5883292856805804
 40
1.189624926650344
 40
1.799145318396583
 40
2.41100089268808
 40
3.018983752835163
 40
3.617415736771157
 40
4.201965015062234
 40
4.201965015062234
 40
4.201965015062234
 40
4.201965015062234
 10
1156.715271245834
 20
12.65988288758566
 30
0.0
 10
1156.522336244296
 20
12.62159084783007
 30
0.0
 10
1156.132214092231
 20
12.54416283923989
 30
0.0
 10
1155.583647763565
 20
12.28890320701703
 30
0.0
 10
1155.081063449407
 20
11.94347964996203
 30
0.0
 10
1154.645573188033
 20
11.5112401411556
 30
0.0
 10
1154.297488350844
 20
11.01227360134544
 30
0.0
 10
1154.040169962919
 20
10.46758066900852
 30
0.0
 10
1153.962061136246
 20
10.07982876926538
 30
0.0
 10
1153.923465040334
 20
9.888228022585651
 30
0.0
 11
1156.715271245834
 21
12.65988288758566
 31
0.0
 11
1156.143167960234
 21
12.52266343198565
 31
0.0
 11
1155.594863871234
 21
12.27584553588562
 31
0.0
 11
1155.093170051034
 21
11.92969756358562
 31
0.0
 11
1154.658958558734
 21
11.49862028078561
 31
0.0
 11
1154.310293965234
 21
11.00054783678561
 31
0.0
 11
1154.061681771634
 21
10.45620160818564
 31
0.0
 11
1153.923465040334
 21
9.888228022585651
 31
0.0
  0
SPLINE
  5
26C1
330
21
100
AcDbEntity
  8
0
  6
Continuous
100
AcDbSpline
210
0.0
220
0.0
230
1.0
 70
     8
 71
     3
 72
    14
 73
    10
 74
     8
 42
0.0000000001
 43
0.0000000001
 44
0.0000000001
 40
0.0
 40
0.0
 40
0.0
 40
0.0
 40
0.0764602366267725
 40
0.313762923686996
 40
0.7335190676988102
 40
1.357773318564063
 40
2.209093699909767
 40
3.303532175046771
 40
4.651610674197328
 40
4.651610674197328
 40
4.651610674197328
 40
4.651610674197328
 10
1155.311423668534
 20
5.449079953285632
 30
0.0
 10
1155.303509325898
 20
5.473306743911449
 30
0.0
 10
1155.271031957344
 20
5.572724022665289
 30
0.0
 10
1155.195309582655
 20
5.805209542536586
 30
0.0
 10
1155.063709575329
 20
6.211534258628514
 30
0.0
 10
1154.870628645616
 20
6.81308541804187
 30
0.0
 10
1154.612231344368
 20
7.629858404682305
 30
0.0
 10
1154.286142807596
 20
8.678278446141242
 30
0.0
 10
1154.052679659944
 20
9.458266520410495
 30
0.0
 10
1153.923826246434
 20
9.88875898518566
 30
0.0
 11
1155.311423668534
 21
5.449079953285632
 31
0.0
 11
1155.287685813434
 21
5.521762014485631
 31
0.0
 11
1155.214189503034
 21
5.747396359485634
 31
0.0
 11
1155.084853955634
 21
6.146730225585628
 31
0.0
 11
1154.894111207734
 21
6.741129564285614
 31
0.0
 11
1154.637250163034
 21
7.552775296985629
 31
0.0
 11
1154.312928529034
 21
8.598055667785644
 31
0.0
 11
1153.923826246434
 21
9.88875898518566
 31
0.0
  0
SPLINE
  5
26C2
330
21
100
AcDbEntity
  8
0
  6
Continuous
100
AcDbSpline
210
0.0
220
0.0
230
1.0
 70
     8
 71
     3
 72
    19
 73
    15
 74
    13
 42
0.0000000001
 43
0.0000000001
 44
0.0000000001
 40
0.0
 40
0.0
 40
0.0
 40
0.0
 40
0.3533219395801748
 40
0.6917958184974089
 40
1.054067816670487
 40
1.45174062045142
 40
1.921472113340082
 40
2.492407906753694
 40
3.152405108045052
 40
3.850837585906476
 40
4.533219262350578
 40
5.181460643726396
 40
5.778881642598532
 40
6.316705282215175
 40
6.316705282215175
 40
6.316705282215175
 40
6.316705282215175
 10
1159.313347458334
 20
11.27405545248561
 30
0.0
 10
1159.229824352813
 20
11.3578898190113
 30
0.0
 10
1159.066288130817
 20
11.52203548253212
 30
0.0
 10
1158.755618738406
 20
11.69351932699571
 30
0.0
 10
1158.413098136525
 20
11.82464640758574
 30
0.0
 10
1158.010775198882
 20
11.91167209168595
 30
0.0
 10
1157.531166925802
 20
11.94547463704538
 30
0.0
 10
1156.963541693464
 20
11.91069602259895
 30
0.0
 10
1156.331588523514
 20
11.77931702590193
 30
0.0
 10
1155.689939376794
 20
11.54676631060691
 30
0.0
 10
1155.091812303876
 20
11.22426723428189
 30
0.0
 10
1154.582180973536
 20
10.83024839132978
 30
0.0
 10
1154.17110646036
 20
10.39077091001497
 30
0.0
 10
1154.00307171962
 20
10.049775192129
 30
0.0
 10
1153.923465040334
 20
9.888228022585651
 30
0.0
 11
1159.313347458334
 21
11.27405545248561
 31
0.0
 11
1159.052250532034
 21
11.51209912088566
 31
0.0
 11
1158.759837691434
 21
11.68256699868564
 31
0.0
 11
1158.421486746334
 21
11.81202602158563
 31
0.0
 11
1158.033208486834
 21
11.89795420128561
 31
0.0
 11
1157.564844987434
 21
11.93377748758561
 31
0.0
 11
1156.994915143834
 21
11.89990045148565
 31
0.0
 11
1156.348389909434
 21
11.76723008178564
 31
0.0
 11
1155.691826892934
 21
11.52904332418566
 31
0.0
 11
1155.092406126734
 21
11.20294595008565
 31
0.0
 11
1154.580162298834
 21
10.80567633218564
 31
0.0
 11
1154.183298761034
 21
10.35912154018561
 31
0.0
 11
1153.923465040334
 21
9.888228022585651
 31
0.0
  0
SPLINE
  5
26C3
330
21
100
AcDbEntity
  8
0
  6
Continuous
100
AcDbSpline
210
0.0
220
0.0
230
1.0
 70
     8
 71
     3
 72
    13
 73
     9
 74
     7
 42
0.0000000001
 43
0.0000000001
 44
0.0000000001
 40
0.0
 40
0.0
 40
0.0
 40
0.0
 40
0.1029650043456183
 40
0.4258163605578461
 40
0.9993783259170124
 40
1.868725893637442
 40
3.06551253756932
 40
4.610238537715585
 40
4.610238537715585
 40
4.610238537715585
 40
4.610238537715585
 10
1160.909493339534
 20
6.949091281485635
 30
0.0
 10
1160.897197344239
 20
6.981134774696421
 30
0.0
 10
1160.846346708147
 20
7.113652067783464
 30
0.0
 10
1160.727362917963
 20
7.424804667159496
 30
0.0
 10
1160.518387388511
 20
7.975045805681342
 30
0.0
 10
1160.209323359241
 20
8.798880314055026
 30
0.0
 10
1159.792495728694
 20
9.928040668633951
 30
0.0
 10
1159.486028647903
 20
10.78896573941169
 30
0.0
 10
1159.313347457134
 20
11.27406047128565
 30
0.0
 11
1160.909493339534
 21
6.949091281485635
 31
0.0
 11
1160.872614350734
 21
7.045225210485654
 31
0.0
 11
1160.757294424534
 21
7.346778377985657
 31
0.0
 11
1160.553681766234
 21
7.882982829185635
 31
0.0
 11
1160.248263043634
 21
8.696914397185623
 31
0.0
 11
1159.834567617034
 21
9.81992569058562
 31
0.0
 11
1159.313347457134
 21
11.27406047128565
 31
0.0
  0
SPLINE
  5
26C4
330
21
100
AcDbEntity
  8
0
  6
Continuous
100
AcDbSpline
210
0.0
220
0.0
230
1.0
 70
     8
 71
     3
 72
    10
 73
     6
 74
     4
 42
0.0000000001
 43
0.0000000001
 44
0.0000000001
 40
0.0
 40
0.0
 40
0.0
 40
0.0
 40
0.2542457595647387
 40
0.5090369102475112
 40
0.7643673904632355
 40
0.7643673904632355
 40
0.7643673904632355
 40
0.7643673904632355
 10
1135.877006603034
 20
29.69952449298566
 30
0.0
 10
1135.814298206507
 20
29.75653308815345
 30
0.0
 10
1135.688746895568
 20
29.87067256954127
 30
0.0
 10
1135.50021245543
 20
30.04205595788418
 30
0.0
 10
1135.374397608231
 20
30.15644306697112
 30
0.0
 10
1135.311423675334
 20
30.21369708978566
 30
0.0
 11
1135.877006603034
 21
29.69952449298566
 31
0.0
 11
1135.688880218634
 21
29.87054896418565
 31
0.0
 11
1135.500347679734
 21
30.04193744758564
 31
0.0
 11
1135.311423675334
 21
30.21369708978566
 31
0.0
  0
SPLINE
  5
26C5
330
21
100
AcDbEntity
  8
0
  6
Continuous
100
AcDbSpline
210
0.0
220
0.0
230
1.0
 70
     8
 71
     3
 72
    10
 73
     6
 74
     4
 42
0.0000000001
 43
0.0000000001
 44
0.0000000001
 40
0.0
 40
0.0
 40
0.0
 40
0.0
 40
0.2265378049948703
 40
0.4892239081501968
 40
0.7524959205956735
 40
0.7524959205956735
 40
0.7524959205956735
 40
0.7524959205956735
 10
1135.817605867234
 20
29.65689391318566
 30
0.0
 10
1135.766812054354
 20
29.71277004031055
 30
0.0
 10
1135.657119335967
 20
29.83343836445606
 30
0.0
 10
1135.488395949393
 20
30.01904304601873
 30
0.0
 10
1135.370458220029
 20
30.14876418600856
 30
0.0
 10
1135.311423664934
 20
30.21369700968566
 30
0.0
 11
1135.817605867234
 21
29.65689391318566
 31
0.0
 11
1135.665224374034
 21
29.82452224498562
 31
0.0
 11
1135.488525257234
 21
30.01889665408564
 31
0.0
 11
1135.311423664934
 21
30.21369700968566
 31
0.0
  0
SPLINE
  5
26C6
330
21
100
AcDbEntity
  8
0
  6
Continuous
100
AcDbSpline
210
0.0
220
0.0
230
1.0
 70
    24
 71
     3
 72
     8
 73
     4
 74
     2
 42
0.0000000001
 43
0.0000000001
 44
0.0000000001
 40
0.0
 40
0.0
 40
0.0
 40
0.0
 40
0.0355557275650634
 40
0.0355557275650634
 40
0.0355557275650634
 40
0.0355557275650634
 10
1135.841522896134
 20
29.63058449488566
 30
0.0
 10
1135.833550553167
 20
29.63935430098566
 30
0.0
 10
1135.825578210201
 20
29.64812410708566
 30
0.0
 10
1135.817605867234
 20
29.65689391318566
 30
0.0
 11
1135.841522896134
 21
29.63058449488566
 31
0.0
 11
1135.817605867234
 21
29.65689391318566
 31
0.0
  0
SPLINE
  5
26C7
330
21
100
AcDbEntity
  8
0
  6
Continuous
100
AcDbSpline
210
0.0
220
0.0
230
1.0
 70
     8
 71
     3
 72
    10
 73
     6
 74
     4
 42
0.0000000001
 43
0.0000000001
 44
0.0000000001
 40
0.0
 40
0.0
 40
0.0
 40
0.0
 40
0.1218278074770735
 40
0.2440429232828806
 40
0.3666445759581979
 40
0.3666445759581979
 40
0.3666445759581979
 40
0.3666445759581979
 10
1143.450541052334
 20
22.81452887048565
 30
0.0
 10
1143.420490876172
 20
22.84184369529788
 30
0.0
 10
1143.360294989963
 20
22.89656018272536
 30
0.0
 10
1143.269862294198
 20
22.97876966655615
 30
0.0
 10
1143.209481374344
 20
23.03366608498082
 30
0.0
 10
1143.179243247234
 20
23.06115763168563
 30
0.0
 11
1143.450541052334
 21
22.81452887048565
 31
0.0
 11
1143.360391227834
 21
22.89647411938566
 31
0.0
 11
1143.269958383434
 21
22.97868382188565
 31
0.0
 11
1143.179243247234
 21
23.06115763168563
 31
0.0
  0
SPLINE
  5
26C8
330
21
100
AcDbEntity
  8
0
  6
Continuous
100
AcDbSpline
210
0.0
220
0.0
230
1.0
 70
     8
 71
     3
 72
    10
 73
     6
 74
     4
 42
0.0000000001
 43
0.0000000001
 44
0.0000000001
 40
0.0
 40
0.0
 40
0.0
 40
0.0
 40
0.1218340587756922
 40
0.2440554208259969
 40
0.3666633073390772
 40
0.3666633073390772
 40
0.3666633073390772
 40
0.3666633073390772
 10
1142.710593104034
 20
22.07456491758566
 30
0.0
 10
1142.683277033855
 20
22.10461677770468
 30
0.0
 10
1142.628558057323
 20
22.1648160310305
 30
0.0
 10
1142.546345279806
 20
22.25525417073286
 30
0.0
 10
1142.491446894122
 20
22.31563892433456
 30
0.0
 10
1142.463954365834
 20
22.34587896738563
 30
0.0
 11
1142.710593104034
 21
22.07456491758566
 31
0.0
 11
1142.628644191334
 21
22.16471985968562
 31
0.0
 11
1142.546431177034
 21
22.25515813488565
 31
0.0
 11
1142.463954365834
 21
22.34587896738563
 31
0.0
  0
SPLINE
  5
26C9
330
21
100
AcDbEntity
  8
0
  6
Continuous
100
AcDbSpline
210
0.0
220
0.0
230
1.0
 70
     8
 71
     3
 72
     9
 73
     5
 74
     3
 42
0.0000000001
 43
0.0000000001
 44
0.0000000001
 40
0.0
 40
0.0
 40
0.0
 40
0.0
 40
1.079667936357555
 40
2.340644521530486
 40
2.340644521530486
 40
2.340644521530486
 40
2.340644521530486
 10
1138.109909082534
 20
27.66918623288566
 30
0.0
 10
1137.843704960403
 20
27.91137559452019
 30
0.0
 10
1137.266593054887
 20
28.43642518003933
 30
0.0
 10
1136.689204116289
 20
28.96117010541267
 30
0.0
 10
1136.378147086734
 20
29.24386619958566
 30
0.0
 11
1138.109909082534
 21
27.66918623288566
 31
0.0
 11
1137.311237771934
 21
28.39568949538565
 31
0.0
 11
1136.378147086734
 21
29.24386619958566
 31
0.0
  0
SPLINE
  5
26CA
330
21
100
AcDbEntity
  8
0
  6
Continuous
100
AcDbSpline
210
0.0
220
0.0
230
1.0
 70
     8
 71
     3
 72
     9
 73
     5
 74
     3
 42
0.0000000001
 43
0.0000000001
 44
0.0000000001
 40
0.0
 40
0.0
 40
0.0
 40
0.0
 40
1.131179815068385
 40
1.297828318166626
 40
1.297828318166626
 40
1.297828318166626
 40
1.297828318166626
 10
1139.072958157834
 20
26.79918941808566
 30
0.0
 10
1138.792963772791
 20
27.05173152021282
 30
0.0
 10
1138.471719849414
 20
27.34147881529705
 30
0.0
 10
1138.151080934372
 20
27.6318951335645
 30
0.0
 10
1138.109909082534
 20
27.66918623288566
 30
0.0
 11
1139.072958157834
 21
26.79918941808566
 31
0.0
 11
1138.233434613434
 21
27.55732396578563
 31
0.0
 11
1138.109909082534
 21
27.66918623288566
 31
0.0
  0
SPLINE
  5
26CB
330
21
100
AcDbEntity
  8
0
  6
Continuous
100
AcDbSpline
210
0.0
220
0.0
230
1.0
 70
    24
 71
     3
 72
     8
 73
     4
 74
     2
 42
0.0000000001
 43
0.0000000001
 44
0.0000000001
 40
0.0
 40
0.0
 40
0.0
 40
0.0
 40
0.0998655773840238
 40
0.0998655773840238
 40
0.0998655773840238
 40
0.0998655773840238
 10
1139.146887662534
 20
26.73205103948564
 30
0.0
 10
1139.122244494301
 20
26.75443049901898
 30
0.0
 10
1139.097601326067
 20
26.77680995855232
 30
0.0
 10
1139.072958157834
 20
26.79918941808566
 30
0.0
 11
1139.146887662534
 21
26.73205103948564
 31
0.0
 11
1139.072958157834
 21
26.79918941808566
 31
0.0
  0
SPLINE
  5
26CC
330
21
100
AcDbEntity
  8
0
  6
Continuous
100
AcDbSpline
210
0.0
220
0.0
230
1.0
 70
    24
 71
     3
 72
     8
 73
     4
 74
     2
 42
0.0000000001
 43
0.0000000001
 44
0.0000000001
 40
0.0
 40
0.0
 40
0.0
 40
0.0
 40
0.0853427408936707
 40
0.0853427408936707
 40
0.0853427408936707
 40
0.0853427408936707
 10
1136.275056320234
 20
29.14936838888562
 30
0.0
 10
1136.255895612267
 20
29.17039532625229
 30
0.0
 10
1136.236734904301
 20
29.19142226361896
 30
0.0
 10
1136.217574196334
 20
29.21244920098562
 30
0.0
 11
1136.275056320234
 21
29.14936838888562
 31
0.0
 11
1136.217574196334
 21
29.21244920098562
 31
0.0
  0
SPLINE
  5
26CD
330
21
100
AcDbEntity
  8
0
  6
Continuous
100
AcDbSpline
210
0.0
220
0.0
230
1.0
 70
     8
 71
     3
 72
    10
 73
     6
 74
     4
 42
0.0000000001
 43
0.0000000001
 44
0.0000000001
 40
0.0
 40
0.0
 40
0.0
 40
0.0
 40
0.7195467927936826
 40
1.444185613601479
 40
2.088387835352503
 40
2.088387835352503
 40
2.088387835352503
 40
2.088387835352503
 10
1137.686758398734
 20
27.61040757218566
 30
0.0
 10
1137.523354901477
 20
27.78598863416456
 30
0.0
 10
1137.195391546884
 20
28.13839329536289
 30
0.0
 10
1136.729510864594
 20
28.65567307680398
 30
0.0
 10
1136.420488180717
 20
28.99137892956811
 30
0.0
 10
1136.275056320234
 20
29.14936838888562
 30
0.0
 11
1137.686758398734
 21
27.61040757218566
 31
0.0
 11
1137.197985780434
 21
28.13846904078562
 31
0.0
 11
1136.710541371434
 21
28.67465871688566
 31
0.0
 11
1136.275056320234
 21
29.14936838888562
 31
0.0
  0
SPLINE
  5
26CE
330
21
100
AcDbEntity
  8
0
  6
Continuous
100
AcDbSpline
210
0.0
220
0.0
230
1.0
 70
    24
 71
     3
 72
     8
 73
     4
 74
     2
 42
0.0000000001
 43
0.0000000001
 44
0.0000000001
 40
0.0
 40
0.0
 40
0.0
 40
0.0
 40
0.0154700086230002
 40
0.0154700086230002
 40
0.0154700086230002
 40
0.0154700086230002
 10
1137.984090700334
 20
27.27374437828562
 30
0.0
 10
1137.980621913234
 20
27.27755997218564
 30
0.0
 10
1137.977153126134
 20
27.28137556608565
 30
0.0
 10
1137.973684339034
 20
27.28519115998566
 30
0.0
 11
1137.984090700334
 21
27.27374437828562
 31
0.0
 11
1137.973684339034
 21
27.28519115998566
 31
0.0
  0
SPLINE
  5
26CF
330
21
100
AcDbEntity
  8
0
  6
Continuous
100
AcDbSpline
210
0.0
220
0.0
230
1.0
 70
     8
 71
     3
 72
    10
 73
     6
 74
     4
 42
0.0000000001
 43
0.0000000001
 44
0.0000000001
 40
0.0
 40
0.0
 40
0.0
 40
0.0
 40
0.5130985299143414
 40
1.028927229064268
 40
1.536656807987576
 40
1.536656807987576
 40
1.536656807987576
 40
1.536656807987576
 10
1139.017774828234
 20
26.13672579048566
 30
0.0
 10
1138.90272272068
 20
26.26327714780698
 30
0.0
 10
1138.672006319596
 20
26.51705323530559
 30
0.0
 10
1138.327455489441
 20
26.89606901856985
 30
0.0
 10
1138.097940267542
 20
27.14851844478001
 30
0.0
 10
1137.984090700334
 20
27.27374437828562
 30
0.0
 11
1139.017774828234
 21
26.13672579048566
 31
0.0
 11
1138.672620803134
 21
26.51638195118565
 31
0.0
 11
1138.325636475834
 21
26.89806391758563
 31
0.0
 11
1137.984090700334
 21
27.27374437828562
 31
0.0
  0
SPLINE
  5
26D0
330
21
100
AcDbEntity
  8
0
  6
Continuous
100
AcDbSpline
210
0.0
220
0.0
230
1.0
 70
     8
 71
     3
 72
    11
 73
     7
 74
     5
 42
0.0000000001
 43
0.0000000001
 44
0.0000000001
 40
0.0
 40
0.0
 40
0.0
 40
0.0
 40
0.1010135617105918
 40
0.2020255336048302
 40
0.3030373571438759
 40
0.4040507087366473
 40
0.4040507087366473
 40
0.4040507087366473
 40
0.4040507087366473
 10
1142.134971364334
 20
34.75183181708562
 30
0.0
 10
1142.119252864593
 20
34.78348691853098
 30
0.0
 10
1142.087816112499
 20
34.84679662321337
 30
0.0
 10
1142.138308628664
 20
34.94903442370791
 30
0.0
 10
1142.243735790604
 20
34.99247627113875
 30
0.0
 10
1142.304767144617
 20
34.95681743087404
 30
0.0
 10
1142.335283052434
 20
34.93898787588566
 30
0.0
 11
1142.134971364334
 21
34.75183181708562
 31
0.0
 11
1142.104090754834
 21
34.84800940078563
 31
0.0
 11
1142.147464403034
 21
34.93923519268563
 31
0.0
 11
1142.241421903134
 21
34.97632126378565
 31
0.0
 11
1142.335283052434
 21
34.93898787588566
 31
0.0
  0
SPLINE
  5
26D1
330
21
100
AcDbEntity
  8
0
  6
Continuous
100
AcDbSpline
210
0.0
220
0.0
230
1.0
 70
     8
 71
     3
 72
     9
 73
     5
 74
     3
 42
0.0000000001
 43
0.0000000001
 44
0.0000000001
 40
0.0
 40
0.0
 40
0.0
 40
0.0
 40
2.09585029351161
 40
4.195624821426438
 40
4.195624821426438
 40
4.195624821426438
 40
4.195624821426438
 10
1143.502239208434
 20
30.85303925608562
 30
0.0
 10
1143.446752638156
 20
31.56257949526679
 30
0.0
 10
1143.33567560549
 20
32.98298850469153
 30
0.0
 10
1142.535455597539
 20
34.16184984372182
 30
0.0
 10
1142.134971364334
 20
34.75183181708562
 30
0.0
 11
1143.502239208434
 21
30.85303925608562
 31
0.0
 11
1143.163815886234
 21
32.92138596488562
 31
0.0
 11
1142.134971364334
 21
34.75183181708562
 31
0.0
  0
SPLINE
  5
26D2
330
21
100
AcDbEntity
  8
0
  6
Continuous
100
AcDbSpline
210
0.0
220
0.0
230
1.0
 70
     8
 71
     3
 72
    19
 73
    15
 74
    13
 42
0.0000000001
 43
0.0000000001
 44
0.0000000001
 40
0.0
 40
0.0
 40
0.0
 40
0.0
 40
0.0399291134071927
 40
0.0799186345070186
 40
0.1602806135567758
 40
0.2407244687157802
 40
0.3208728017925888
 40
0.4822081742646028
 40
0.6454570205000553
 40
0.8085390885373054
 40
0.9707720216504554
 40
1.130473659796159
 40
1.29014559290888
 40
1.294133039315076
 40
1.294133039315076
 40
1.294133039315076
 40
1.294133039315076
 10
1144.301778298434
 20
30.87826018368563
 30
0.0
 10
1144.302497593761
 20
30.86496338975064
 30
0.0
 10
1144.303937272616
 20
30.83834968551511
 30
0.0
 10
1144.30115585344
 20
30.78487573068131
 30
0.0
 10
1144.286139484918
 20
30.71909463087062
 30
0.0
 10
1144.25344708937
 20
30.64523645776503
 30
0.0
 10
1144.191659203412
 20
30.55664121159394
 30
0.0
 10
1144.080197996597
 20
30.4737699662675
 30
0.0
 10
1143.918392325504
 20
30.43207776982647
 30
0.0
 10
1143.753488217398
 20
30.46151791382626
 30
0.0
 10
1143.613226627412
 20
30.55054715608636
 30
0.0
 10
1143.522081391869
 20
30.68803550347561
 30
0.0
 10
1143.501231703987
 20
30.7971701974509
 30
0.0
 10
1143.502215245142
 20
30.85171042163951
 30
0.0
 10
1143.502239208434
 20
30.85303925608562
 30
0.0
 11
1144.301778298434
 21
30.87826018368563
 31
0.0
 11
1144.303230616834
 21
30.83835749118563
 31
0.0
 11
1144.301093343934
 21
30.79842512508563
 31
0.0
 11
1144.283700054334
 21
30.71996799568566
 31
0.0
 11
1144.251140260734
 21
30.64640799518563
 31
0.0
 11
1144.205021280834
 21
30.58085805248564
 31
0.0
 11
1144.076202026334
 21
30.48372565788563
 31
0.0
 11
1143.917868848434
 21
30.44396650078565
 31
0.0
 11
1143.757153513434
 21
30.47164938378566
 31
0.0
 11
1143.620664858334
 21
30.55934414768567
 31
0.0
 11
1143.532040038934
 21
30.69219840848567
 31
0.0
 11
1143.502174166534
 21
30.84905234018564
 31
0.0
 11
1143.502239208434
 21
30.85303925608562
 31
0.0
  0
SPLINE
  5
26D3
330
21
100
AcDbEntity
  8
0
  6
Continuous
100
AcDbSpline
210
0.0
220
0.0
230
1.0
 70
     8
 71
     3
 72
     9
 73
     5
 74
     3
 42
0.0000000001
 43
0.0000000001
 44
0.0000000001
 40
0.0
 40
0.0
 40
0.0
 40
0.0
 40
2.293945445279612
 40
4.587890824581182
 40
4.587890824581182
 40
4.587890824581182
 40
4.587890824581182
 10
1142.335283052434
 20
34.93898787588566
 30
0.0
 10
1142.850223164089
 20
34.35285116002116
 30
0.0
 10
1143.880103372587
 20
33.18057774515053
 30
0.0
 10
1144.161219991166
 20
31.64569936348295
 30
0.0
 10
1144.301778298434
 20
30.87826018368563
 30
0.0
 11
1142.335283052434
 21
34.93898787588566
 31
0.0
 11
1143.692912484534
 21
33.08992648398564
 31
0.0
 11
1144.301778298434
 21
30.87826018368563
 31
0.0
  0
SPLINE
  5
26D4
330
21
100
AcDbEntity
  8
0
  6
Continuous
100
AcDbSpline
210
0.0
220
0.0
230
1.0
 70
     8
 71
     3
 72
    11
 73
     7
 74
     5
 42
0.0000000001
 43
0.0000000001
 44
0.0000000001
 40
0.0
 40
0.0
 40
0.0
 40
0.0
 40
0.0848384952168051
 40
0.1696754701877488
 40
0.2545123713724365
 40
0.3393510447418345
 40
0.3393510447418345
 40
0.3393510447418345
 40
0.3393510447418345
 10
1141.154033676234
 20
35.04215030178566
 30
0.0
 10
1141.145929064062
 20
35.07073350538597
 30
0.0
 10
1141.129719984946
 20
35.12789940039581
 30
0.0
 10
1141.187939136667
 20
35.20422424129598
 30
0.0
 10
1141.282217145562
 20
35.22231340038736
 30
0.0
 10
1141.326156810767
 20
35.18231188298546
 30
0.0
 10
1141.348126872834
 20
35.16231091538563
 30
0.0
 11
1141.154033676234
 21
35.04215030178566
 31
0.0
 11
1141.143475579734
 21
35.12632925918567
 31
0.0
 11
1141.193948920534
 21
35.19451836528563
 31
0.0
 11
1141.277488452534
 21
35.20929829748562
 31
0.0
 11
1141.348126872834
 21
35.16231091538563
 31
0.0
  0
SPLINE
  5
26D5
330
21
100
AcDbEntity
  8
0
  6
Continuous
100
AcDbSpline
210
0.0
220
0.0
230
1.0
 70
     8
 71
     3
 72
    15
 73
    11
 74
     9
 42
0.0000000001
 43
0.0000000001
 44
0.0000000001
 40
0.0
 40
0.0
 40
0.0
 40
0.0
 40
0.3890681942698825
 40
0.8130068211353816
 40
1.261850964326673
 40
1.525417037602371
 40
1.79292819193523
 40
4.308203671007505
 40
6.721128272271548
 40
7.596849517751323
 40
7.596849517751323
 40
7.596849517751323
 40
7.596849517751323
 10
1143.483988012434
 20
29.27270729878566
 30
0.0
 10
1143.465839292913
 20
29.13642261294689
 30
0.0
 10
1143.427915265755
 20
28.85163865775585
 30
0.0
 10
1142.970132943564
 20
28.65802135597934
 30
0.0
 10
1142.575014084423
 20
28.86314018957407
 30
0.0
 10
1142.494908253963
 20
29.19399526934953
 30
0.0
 10
1142.471172801646
 20
30.20388245594713
 30
0.0
 10
1142.441672799263
 20
31.95685889733163
 30
0.0
 10
1141.783560718231
 20
33.80602523499687
 30
0.0
 10
1141.286416387237
 20
34.7822066034795
 30
0.0
 10
1141.154033676234
 20
35.04215030178566
 30
0.0
 11
1143.483988012434
 21
29.27270729878566
 31
0.0
 11
1143.370679672334
 21
28.90050402118564
 31
0.0
 11
1142.982273039834
 21
28.73060920908566
 31
0.0
 11
1142.585802050534
 21
28.94101790548567
 31
0.0
 11
1142.504904470634
 21
29.19186179428564
 31
0.0
 11
1142.488740461534
 21
29.45888415758563
 31
0.0
 11
1142.302814143434
 21
31.96727849258562
 31
0.0
 11
1141.542372032034
 21
34.25724201338565
 31
0.0
 11
1141.154033676234
 21
35.04215030178566
 31
0.0
  0
SPLINE
  5
26D6
330
21
100
AcDbEntity
  8
0
  6
Continuous
100
AcDbSpline
210
0.0
220
0.0
230
1.0
 70
     8
 71
     3
 72
     9
 73
     5
 74
     3
 42
0.0000000001
 43
0.0000000001
 44
0.0000000001
 40
0.0
 40
0.0
 40
0.0
 40
0.0
 40
3.158231882708535
 40
6.316463775368556
 40
6.316463775368556
 40
6.316463775368556
 40
6.316463775368556
 10
1141.348126872834
 20
35.16231091538563
 30
0.0
 10
1141.893349023716
 20
34.24934000432362
 30
0.0
 10
1142.983793327197
 20
32.42339817932288
 30
0.0
 10
1143.317256450513
 20
30.32293759340115
 30
0.0
 10
1143.483988012434
 20
29.27270729878566
 30
0.0
 11
1141.348126872834
 21
35.16231091538563
 31
0.0
 11
1142.794548031034
 21
32.35476849218563
 31
0.0
 11
1143.483988012434
 21
29.27270729878566
 31
0.0
  0
SPLINE
  5
26D7
330
21
100
AcDbEntity
  8
0
  6
Continuous
100
AcDbSpline
210
0.0
220
0.0
230
1.0
 70
     8
 71
     3
 72
    18
 73
    14
 74
    12
 42
0.0000000001
 43
0.0000000001
 44
0.0000000001
 40
0.0
 40
0.0
 40
0.0
 40
0.0
 40
0.2898829832057587
 40
0.6774696199301674
 40
0.9268074966289528
 40
1.103312516985321
 40
2.063473678585127
 40
3.0176467525515
 40
3.936480531594297
 40
4.059610576113792
 40
4.128944181477983
 40
4.202483575274502
 40
4.292516427462688
 40
4.292516427462688
 40
4.292516427462688
 40
4.292516427462688
 10
1134.695441532934
 20
33.86703409378564
 30
0.0
 10
1134.762294102847
 20
33.78759702897541
 30
0.0
 10
1134.91853157712
 20
33.60194902194098
 30
0.0
 10
1135.310099984733
 20
33.75703810148607
 30
0.0
 10
1135.348967370015
 20
34.05204311876947
 30
0.0
 10
1135.180455607673
 20
34.48387163495871
 30
0.0
 10
1135.261719409594
 20
35.23077934414792
 30
0.0
 10
1135.798758427339
 20
36.04675945216756
 30
0.0
 10
1136.448832501074
 20
36.33953854505008
 30
0.0
 10
1136.810601383387
 20
36.38282332202047
 30
0.0
 10
1136.904370280455
 20
36.3852227749949
 30
0.0
 10
1136.954203660163
 20
36.46328524493292
 30
0.0
 10
1136.931533791037
 20
36.51607982644374
 30
0.0
 10
1136.919055922534
 20
36.54513883168565
 30
0.0
 11
1134.695441532934
 21
33.86703409378564
 31
0.0
 11
1134.919798767234
 21
33.68346945838565
 31
0.0
 11
1135.280130893234
 21
33.82624256488564
 31
0.0
 11
1135.327721928734
 21
34.07099646188564
 31
0.0
 11
1135.280130893234
 21
34.24096444578564
 31
0.0
 11
1135.334520648134
 21
35.19958387538563
 31
0.0
 11
1135.871619477434
 21
35.98823532098564
 31
0.0
 11
1136.707861958534
 21
36.36896360508561
 31
0.0
 11
1136.830238907034
 21
36.38256104378561
 31
0.0
 11
1136.898226100634
 21
36.39615848248562
 31
0.0
 11
1136.939018416734
 21
36.45734695678565
 31
0.0
 11
1136.919055922534
 21
36.54513883168565
 31
0.0
  0
SPLINE
  5
26D8
330
21
100
AcDbEntity
  8
0
  6
Continuous
100
AcDbSpline
210
0.0
220
0.0
230
1.0
 70
     8
 71
     3
 72
    14
 73
    10
 74
     8
 42
0.0000000001
 43
0.0000000001
 44
0.0000000001
 40
0.0
 40
0.0
 40
0.0
 40
0.0
 40
0.1314363787655263
 40
0.4603145457231375
 40
2.296145027206149
 40
2.59805716250925
 40
2.862071666029173
 40
3.877359736664761
 40
4.290351374099893
 40
4.290351374099893
 40
4.290351374099893
 40
4.290351374099893
 10
1136.919055922534
 20
36.54513883168565
 30
0.0
 10
1136.88116560231
 20
36.56936267282973
 30
0.0
 10
1136.748466682077
 20
36.65419905174272
 30
0.0
 10
1135.943314123064
 20
36.41101369961005
 30
0.0
 10
1135.323855236658
 20
35.92816888615545
 30
0.0
 10
1134.62985112332
 20
35.50980952906461
 30
0.0
 10
1134.323664823292
 20
35.0569023520168
 30
0.0
 10
1134.47861244762
 20
34.43183666496582
 30
0.0
 10
1134.646807419768
 20
33.99371761561886
 30
0.0
 10
1134.695441532934
 20
33.86703409378564
 30
0.0
 11
1136.919055922534
 21
36.54513883168565
 31
0.0
 11
1136.803044029534
 21
36.60691878268565
 31
0.0
 11
1136.476705500334
 21
36.56612646648566
 31
0.0
 11
1134.879006451034
 21
35.66189679178567
 31
0.0
 11
1134.634252554134
 21
35.48513008848565
 31
0.0
 11
1134.484680728234
 21
35.26757106898563
 31
0.0
 11
1134.552667921834
 21
34.25456188448564
 31
0.0
 11
1134.695441532934
 21
33.86703409378564
 31
0.0
  0
SPLINE
  5
26D9
330
21
100
AcDbEntity
  8
0
  6
Continuous
100
AcDbSpline
210
0.0
220
0.0
230
1.0
 70
     8
 71
     3
 72
    11
 73
     7
 74
     5
 42
0.0000000001
 43
0.0000000001
 44
0.0000000001
 40
0.0
 40
0.0
 40
0.0
 40
0.0
 40
0.8541128099376826
 40
1.596371900037435
 40
2.014326647485539
 40
2.437561408050596
 40
2.437561408050596
 40
2.437561408050596
 40
2.437561408050596
 10
1136.358731889834
 20
33.26997623628566
 30
0.0
 10
1136.645232173862
 20
33.25565998905081
 30
0.0
 10
1137.180712964519
 20
33.22890233533835
 30
0.0
 10
1137.829842331024
 20
33.52958819930804
 30
0.0
 10
1138.133915762724
 20
33.97918154765894
 30
0.0
 10
1138.199609587158
 20
34.25330872913089
 30
0.0
 10
1138.232662674234
 20
34.39123264628566
 30
0.0
 11
1136.358731889834
 21
33.26997623628566
 31
0.0
 11
1137.212209820934
 21
33.30290211098563
 31
0.0
 11
1137.872512276334
 21
33.64194373708566
 31
0.0
 11
1138.109241223534
 21
33.98639340898566
 31
0.0
 11
1138.232662674234
 21
34.39123264628566
 31
0.0
  0
SPLINE
  5
26DA
330
21
100
AcDbEntity
  8
0
  6
Continuous
100
AcDbSpline
210
0.0
220
0.0
230
1.0
 70
     8
 71
     3
 72
    11
 73
     7
 74
     5
 42
0.0000000001
 43
0.0000000001
 44
0.0000000001
 40
0.0
 40
0.0
 40
0.0
 40
0.0
 40
0.1133348159797375
 40
0.2266682086737455
 40
0.3400014425682378
 40
0.4518321886393032
 40
0.4518321886393032
 40
0.4518321886393032
 40
0.4518321886393032
 10
1136.378213203734
 20
33.58725797088565
 30
0.0
 10
1136.340299296908
 20
33.5761404336771
 30
0.0
 10
1136.264471959388
 20
33.5539054988767
 30
0.0
 10
1136.215091632132
 20
33.43715973619992
 30
0.0
 10
1136.250911070218
 20
33.31624258094444
 30
0.0
 10
1136.322951856
 20
33.28532959181743
 30
0.0
 10
1136.358731889834
 20
33.26997623628566
 30
0.0
 11
1136.378213203734
 21
33.58725797088565
 31
0.0
 11
1136.275198376734
 21
33.54000624148566
 31
0.0
 11
1136.229318053534
 21
33.43637490528565
 31
0.0
 11
1136.263285004034
 21
33.32825151198566
 31
0.0
 11
1136.358731889834
 21
33.26997623628566
 31
0.0
  0
SPLINE
  5
26DB
330
21
100
AcDbEntity
  8
0
  6
Continuous
100
AcDbSpline
210
0.0
220
0.0
230
1.0
 70
     8
 71
     3
 72
     9
 73
     5
 74
     3
 42
0.0000000001
 43
0.0000000001
 44
0.0000000001
 40
0.0
 40
0.0
 40
0.0
 40
0.0
 40
0.9444512605351408
 40
1.888902543450783
 40
1.888902543450783
 40
1.888902543450783
 40
1.888902543450783
 10
1137.979596472934
 20
34.49691766778566
 30
0.0
 10
1137.76450848701
 20
34.25410172099959
 30
0.0
 10
1137.334332510066
 20
33.76846982167348
 30
0.0
 10
1136.696919641695
 20
33.64766192162538
 30
0.0
 10
1136.378213203734
 20
33.58725797088565
 30
0.0
 11
1137.979596472934
 21
34.49691766778566
 31
0.0
 11
1137.282523293534
 21
33.85967582508565
 31
0.0
 11
1136.378213203734
 21
33.58725797088565
 31
0.0
  0
SPLINE
  5
26DC
330
21
100
AcDbEntity
  8
0
  6
Continuous
100
AcDbSpline
210
0.0
220
0.0
230
1.0
 70
     8
 71
     3
 72
    11
 73
     7
 74
     5
 42
0.0000000001
 43
0.0000000001
 44
0.0000000001
 40
0.0
 40
0.0
 40
0.0
 40
0.0
 40
0.0935285689528874
 40
0.1870563008759875
 40
0.2805843015976601
 40
0.3741131170999902
 40
0.3741131170999902
 40
0.3741131170999902
 40
0.3741131170999902
 10
1138.232662674234
 20
34.39123264628566
 30
0.0
 10
1138.232082296528
 20
34.42367497783548
 30
0.0
 10
1138.230921546309
 20
34.48855935059392
 30
0.0
 10
1138.153028400183
 20
34.55637333317291
 30
0.0
 10
1138.050042394587
 20
34.56409477561913
 30
0.0
 10
1138.003078515006
 20
34.51931010208772
 30
0.0
 10
1137.979596472934
 20
34.49691766778566
 30
0.0
 11
1138.232662674234
 21
34.39123264628566
 31
0.0
 11
1138.218229417134
 21
34.48364084018564
 31
0.0
 11
1138.148846369134
 21
34.54635789758564
 31
0.0
 11
1138.055466052134
 21
34.55161178338566
 31
0.0
 11
1137.979596472934
 21
34.49691766778566
 31
0.0
  0
SPLINE
  5
26DD
330
21
100
AcDbEntity
  8
0
  6
Continuous
100
AcDbSpline
210
0.0
220
0.0
230
1.0
 70
     8
 71
     3
 72
    14
 73
    10
 74
     8
 42
0.0000000001
 43
0.0000000001
 44
0.0000000001
 40
0.0
 40
0.0
 40
0.0
 40
0.0
 40
0.3236319059011621
 40
0.6690891357834925
 40
1.014562030756809
 40
1.360000505258016
 40
1.704523353442263
 40
2.051731077837408
 40
2.742649236564176
 40
2.742649236564176
 40
2.742649236564176
 40
2.742649236564176
 10
1138.908735741734
 20
29.45449075538565
 30
0.0
 10
1139.000862797086
 20
29.39550101036713
 30
0.0
 10
1139.191329839192
 20
29.27354332697797
 30
0.0
 10
1139.358658146227
 20
28.96618823288318
 30
0.0
 10
1139.445533459953
 20
28.63144053444064
 30
0.0
 10
1139.467643090341
 20
28.28369670223417
 30
0.0
 10
1139.410185658328
 20
27.94102072228281
 30
0.0
 10
1139.290741187827
 20
27.49593785473928
 30
0.0
 10
1139.229896106144
 20
27.15499040746641
 30
0.0
 10
1139.189401044334
 20
26.92807497618563
 30
0.0
 11
1138.908735741734
 21
29.45449075538565
 31
0.0
 11
1139.166373168534
 21
29.25863221758564
 31
0.0
 11
1139.344647592234
 21
28.96272863948562
 31
0.0
 11
1139.434744330934
 21
28.62921087558564
 31
0.0
 11
1139.454388617934
 21
28.28433141598564
 31
0.0
 11
1139.405016764934
 21
27.94336453628566
 31
0.0
 11
1139.323659399334
 21
27.60582315668566
 31
0.0
 11
1139.189401044334
 21
26.92807497618563
 31
0.0
  0
SPLINE
  5
26DE
330
21
100
AcDbEntity
  8
0
  6
Continuous
100
AcDbSpline
210
0.0
220
0.0
230
1.0
 70
     8
 71
     3
 72
    15
 73
    11
 74
     9
 42
0.0000000001
 43
0.0000000001
 44
0.0000000001
 40
0.0
 40
0.0
 40
0.0
 40
0.0
 40
0.3843221060323932
 40
0.5766428766490892
 40
0.7683065895525029
 40
0.9601481996535201
 40
1.154929323507212
 40
1.349490672840149
 40
1.540711257101851
 40
1.563033440442184
 40
1.563033440442184
 40
1.563033440442184
 40
1.563033440442184
 10
1137.359829939434
 20
29.42797598958563
 30
0.0
 10
1137.486236944868
 20
29.44964826402455
 30
0.0
 10
1137.675899985579
 20
29.48216568230425
 30
0.0
 10
1137.931704973476
 20
29.49773309396044
 30
0.0
 10
1138.123293121982
 20
29.5088492524884
 30
0.0
 10
1138.315733947584
 20
29.5199003431913
 30
0.0
 10
1138.509373460317
 20
29.52779303979994
 30
0.0
 10
1138.703056770771
 20
29.51974552089537
 30
0.0
 10
1138.837182971878
 20
29.48709027227201
 30
0.0
 10
1138.901964010534
 20
29.45757596321257
 30
0.0
 10
1138.908735741734
 20
29.45449075538565
 30
0.0
 11
1137.359829939434
 21
29.42797598958563
 31
0.0
 11
1137.740085131634
 21
29.48373861138563
 31
0.0
 11
1137.931901802534
 21
29.49765419888561
 31
0.0
 11
1138.123239575834
 21
29.50882717308562
 31
0.0
 11
1138.314794138134
 21
29.51931778928562
 31
0.0
 11
1138.509488766134
 21
29.52512192898561
 31
0.0
 11
1138.703684989534
 21
29.51320784188565
 31
0.0
 11
1138.888361528334
 21
29.46361058528564
 31
0.0
 11
1138.908735741734
 21
29.45449075538565
 31
0.0
  0
SPLINE
  5
26DF
330
21
100
AcDbEntity
  8
0
  6
Continuous
100
AcDbSpline
210
0.0
220
0.0
230
1.0
 70
    24
 71
     3
 72
     8
 73
     4
 74
     2
 42
0.0000000001
 43
0.0000000001
 44
0.0000000001
 40
0.0
 40
0.0
 40
0.0
 40
0.0
 40
0.346917847129433
 40
0.346917847129433
 40
0.346917847129433
 40
0.346917847129433
 10
1137.019631527034
 20
29.36002723788565
 30
0.0
 10
1137.133030997834
 20
29.38267682178564
 30
0.0
 10
1137.246430468634
 20
29.40532640568564
 30
0.0
 10
1137.359829939434
 20
29.42797598958563
 30
0.0
 11
1137.019631527034
 21
29.36002723788565
 31
0.0
 11
1137.359829939434
 21
29.42797598958563
 31
0.0
  0
SPLINE
  5
26E0
330
21
100
AcDbEntity
  8
0
  6
Continuous
100
AcDbSpline
210
0.0
220
0.0
230
1.0
 70
     8
 71
     3
 72
    12
 73
     8
 74
     6
 42
0.0000000001
 43
0.0000000001
 44
0.0000000001
 40
0.0
 40
0.0
 40
0.0
 40
0.0
 40
0.0383854049892703
 40
0.2432813955711282
 40
0.3456401048144556
 40
0.4481083294636895
 40
0.6531815642262335
 40
0.6531815642262335
 40
0.6531815642262335
 40
0.6531815642262335
 10
1136.378147086734
 20
29.24386619958566
 30
0.0
 10
1136.390771147751
 20
29.24596066015725
 30
0.0
 10
1136.470780703014
 20
29.25923506200257
 30
0.0
 10
1136.58572335678
 20
29.26875632187215
 30
0.0
 10
1136.721238780522
 20
29.28599856063838
 30
0.0
 10
1136.855456910696
 20
29.31228217099658
 30
0.0
 10
1136.953952918869
 20
29.34092666308323
 30
0.0
 10
1137.019631527034
 20
29.36002723788565
 30
0.0
 11
1136.378147086734
 21
29.24386619958566
 31
0.0
 11
1136.416041518534
 21
29.24998595078566
 31
0.0
 11
1136.619576034834
 21
29.27356703708566
 31
0.0
 11
1136.721033351734
 21
29.28712130598567
 31
0.0
 11
1136.821614963534
 21
29.30669364438566
 31
0.0
 11
1137.019631527034
 21
29.36002723788565
 31
0.0
  0
SPLINE
  5
26E1
330
21
100
AcDbEntity
  8
0
  6
Continuous
100
AcDbSpline
210
0.0
220
0.0
230
1.0
 70
     8
 71
     3
 72
    11
 73
     7
 74
     5
 42
0.0000000001
 43
0.0000000001
 44
0.0000000001
 40
0.0
 40
0.0
 40
0.0
 40
0.0
 40
0.3600644447212458
 40
0.7200322215119093
 40
1.080000255516374
 40
1.439975420760624
 40
1.439975420760624
 40
1.439975420760624
 40
1.439975420760624
 10
1140.217828060734
 20
37.28029389218566
 30
0.0
 10
1140.273399257886
 20
37.17357755966088
 30
0.0
 10
1140.384526732769
 20
36.96017354516865
 30
0.0
 10
1140.615919551838
 20
36.68132924197475
 30
0.0
 10
1140.885703827848
 20
36.44039780296929
 30
0.0
 10
1141.018958350598
 20
36.23951241185563
 30
0.0
 10
1141.085586271934
 20
36.13906872138566
 30
0.0
 11
1140.217828060734
 21
37.28029389218566
 31
0.0
 11
1140.395329866234
 21
36.96702162498562
 31
0.0
 11
1140.622321213334
 21
36.68764423028566
 31
0.0
 11
1140.874051702634
 21
36.43033362758561
 31
0.0
 11
1141.085586271934
 21
36.13906872138566
 31
0.0
  0
SPLINE
  5
26E2
330
21
100
AcDbEntity
  8
0
  6
Continuous
100
AcDbSpline
210
0.0
220
0.0
230
1.0
 70
     8
 71
     3
 72
    10
 73
     6
 74
     4
 42
0.0000000001
 43
0.0000000001
 44
0.0000000001
 40
0.0
 40
0.0
 40
0.0
 40
0.0
 40
0.9018566394138816
 40
1.352842493844912
 40
1.804113669923289
 40
1.804113669923289
 40
1.804113669923289
 40
1.804113669923289
 10
1139.852887679034
 20
39.04539214738563
 30
0.0
 10
1139.905185792578
 20
38.74948082054328
 30
0.0
 10
1139.983636299296
 20
38.30559495236079
 30
0.0
 10
1140.084544746746
 20
37.71187620965692
 30
0.0
 10
1140.1733909241
 20
37.42418499030387
 30
0.0
 10
1140.217828060734
 20
37.28029389218566
 30
0.0
 11
1139.852887679034
 21
39.04539214738563
 31
0.0
 11
1140.008545347434
 21
38.15707008398565
 31
0.0
 11
1140.094117909434
 21
37.71427715548564
 31
0.0
 11
1140.217828060734
 21
37.28029389218566
 31
0.0
  0
SPLINE
  5
26E3
330
21
100
AcDbEntity
  8
0
  6
Continuous
100
AcDbSpline
210
0.0
220
0.0
230
1.0
 70
     8
 71
     3
 72
    14
 73
    10
 74
     8
 42
0.0000000001
 43
0.0000000001
 44
0.0000000001
 40
0.0
 40
0.0
 40
0.0
 40
0.0
 40
0.1971906304881921
 40
0.3944503658147266
 40
0.5903299888513526
 40
0.7870697249858535
 40
0.983166553148126
 40
1.179458802883859
 40
1.569060756517979
 40
1.569060756517979
 40
1.569060756517979
 40
1.569060756517979
 10
1138.642203132334
 20
39.55033658348563
 30
0.0
 10
1138.699085640358
 20
39.5835643853304
 30
0.0
 10
1138.812870590702
 20
39.65003163359895
 30
0.0
 10
1139.003595413813
 20
39.70749103494938
 30
0.0
 10
1139.202827175618
 20
39.7117866531618
 30
0.0
 10
1139.394492199435
 20
39.6569189298132
 30
0.0
 10
1139.561623624182
 20
39.54977846919475
 30
0.0
 10
1139.741503292711
 20
39.35563738702057
 30
0.0
 10
1139.808402035288
 20
39.16930053041678
 30
0.0
 10
1139.852887679034
 20
39.04539214738563
 30
0.0
 11
1138.642203132334
 21
39.55033658348563
 31
0.0
 11
1138.816263147634
 21
39.64300403098562
 31
0.0
 11
1139.005493129334
 21
39.69871235358565
 31
0.0
 11
1139.201345813834
 21
39.70196084478565
 31
0.0
 11
1139.390575834334
 21
39.64812291098562
 31
0.0
 11
1139.556309065534
 21
39.54330658548562
 31
0.0
 11
1139.689418245034
 21
39.39904088048562
 31
0.0
 11
1139.852887679034
 21
39.04539214738563
 31
0.0
  0
SPLINE
  5
26E4
330
21
100
AcDbEntity
  8
0
  6
Continuous
100
AcDbSpline
210
0.0
220
0.0
230
1.0
 70
     8
 71
     3
 72
    15
 73
    11
 74
     9
 42
0.0000000001
 43
0.0000000001
 44
0.0000000001
 40
0.0
 40
0.0
 40
0.0
 40
0.0
 40
0.7420146923630099
 40
1.214581619414189
 40
1.789756484284358
 40
3.674019684913613
 40
4.541650766422804
 40
5.328676197520871
 40
6.75617778333835
 40
7.666261252161469
 40
7.666261252161469
 40
7.666261252161469
 40
7.666261252161469
 10
1133.258353529034
 20
34.86930850628565
 30
0.0
 10
1133.213276322198
 20
35.11548680193712
 30
0.0
 10
1133.139490792825
 20
35.51844867866869
 30
0.0
 10
1133.39429332777
 20
36.12101612192336
 30
0.0
 10
1134.399383007412
 20
36.39714480804438
 30
0.0
 10
1135.410883323647
 20
36.7174197280347
 30
0.0
 10
1136.520430909804
 20
37.2143634281602
 30
0.0
 10
1137.143127335293
 20
38.05423480210744
 30
0.0
 10
1137.824115927754
 20
38.83860032137451
 30
0.0
 10
1138.412953245664
 20
39.35088907163843
 30
0.0
 10
1138.642203132334
 20
39.55033658348563
 30
0.0
 11
1133.258353529034
 21
34.86930850628565
 31
0.0
 11
1133.215197468734
 21
35.61006714318566
 31
0.0
 11
1133.422406196034
 21
36.03478357078567
 31
0.0
 11
1133.945412111634
 21
36.27413882438563
 31
0.0
 11
1135.732225458534
 21
36.87225743518562
 31
0.0
 11
1136.494978661434
 21
37.28576831178563
 31
0.0
 11
1137.018180593934
 21
37.87370433468564
 31
0.0
 11
1137.966484862234
 21
38.94070001988561
 31
0.0
 11
1138.642203132334
 21
39.55033658348563
 31
0.0
  0
SPLINE
  5
26E5
330
21
100
AcDbEntity
  8
0
  6
Continuous
100
AcDbSpline
210
0.0
220
0.0
230
1.0
 70
     8
 71
     3
 72
    11
 73
     7
 74
     5
 42
0.0000000001
 43
0.0000000001
 44
0.0000000001
 40
0.0
 40
0.0
 40
0.0
 40
0.0
 40
0.7211258206531976
 40
1.442237220541444
 40
2.163361315385044
 40
2.884484992338333
 40
2.884484992338333
 40
2.884484992338333
 40
2.884484992338333
 10
1133.618131389634
 20
32.02254473498565
 30
0.0
 10
1133.632113590355
 20
32.2627303862693
 30
0.0
 10
1133.660077712186
 20
32.74309688570692
 30
0.0
 10
1133.577757374321
 20
33.46518528286967
 30
0.0
 10
1133.34732222684
 20
34.15190974711707
 30
0.0
 10
1133.288009755907
 20
34.63017563275519
 30
0.0
 10
1133.258353529034
 20
34.86930850628565
 30
0.0
 11
1133.618131389634
 21
32.02254473498565
 31
0.0
 11
1133.639366525634
 21
32.74335783018566
 31
0.0
 11
1133.553072544434
 21
33.45928729588562
 31
0.0
 11
1133.370900157834
 21
34.15702161618563
 31
0.0
 11
1133.258353529034
 21
34.86930850628565
 31
0.0
  0
SPLINE
  5
26E6
330
21
100
AcDbEntity
  8
0
  6
Continuous
100
AcDbSpline
210
0.0
220
0.0
230
1.0
 70
     8
 71
     3
 72
    11
 73
     7
 74
     5
 42
0.0000000001
 43
0.0000000001
 44
0.0000000001
 40
0.0
 40
0.0
 40
0.0
 40
0.0
 40
0.3772389112327289
 40
0.770790668250241
 40
1.159813847991228
 40
1.549327646167299
 40
1.549327646167299
 40
1.549327646167299
 40
1.549327646167299
 10
1133.696327367834
 20
30.47840284978562
 30
0.0
 10
1133.703688748837
 20
30.60444124782957
 30
0.0
 10
1133.718729837158
 20
30.86196829013819
 30
0.0
 10
1133.645619677573
 20
31.24357627802187
 30
0.0
 10
1133.606894975402
 20
31.63294236012083
 30
0.0
 10
1133.614384345006
 20
31.89262272823899
 30
0.0
 10
1133.618131389634
 20
32.02254473498565
 30
0.0
 11
1133.696327367834
 21
30.47840284978562
 31
0.0
 11
1133.703170513834
 21
30.85557968828565
 31
0.0
 11
1133.651271069434
 21
31.24569432928562
 31
0.0
 11
1133.615203597234
 21
31.63304194038565
 31
0.0
 11
1133.618131389634
 21
32.02254473498565
 31
0.0
  0
SPLINE
  5
26E7
330
21
100
AcDbEntity
  8
0
  6
Continuous
100
AcDbSpline
210
0.0
220
0.0
230
1.0
 70
    24
 71
     3
 72
     8
 73
     4
 74
     2
 42
0.0000000001
 43
0.0000000001
 44
0.0000000001
 40
0.0
 40
0.0
 40
0.0
 40
0.0
 40
0.0282173199389011
 40
0.0282173199389011
 40
0.0282173199389011
 40
0.0282173199389011
 10
1135.891278926734
 20
29.72386618398562
 30
0.0
 10
1135.886521485501
 20
29.71575228698563
 30
0.0
 10
1135.881764044267
 20
29.70763838998564
 30
0.0
 10
1135.877006603034
 20
29.69952449298566
 30
0.0
 11
1135.891278926734
 21
29.72386618398562
 31
0.0
 11
1135.877006603034
 21
29.69952449298566
 31
0.0
  0
SPLINE
  5
26E8
330
21
100
AcDbEntity
  8
0
  6
Continuous
100
AcDbSpline
210
0.0
220
0.0
230
1.0
 70
    24
 71
     3
 72
     8
 73
     4
 74
     2
 42
0.0000000001
 43
0.0000000001
 44
0.0000000001
 40
0.0
 40
0.0
 40
0.0
 40
0.0
 40
0.087600885863548
 40
0.087600885863548
 40
0.087600885863548
 40
0.087600885863548
 10
1135.936757156934
 20
29.79873704468563
 30
0.0
 10
1135.921597746867
 20
29.77378009111896
 30
0.0
 10
1135.906438336801
 20
29.74882313755229
 30
0.0
 10
1135.891278926734
 20
29.72386618398562
 30
0.0
 11
1135.936757156934
 21
29.79873704468563
 31
0.0
 11
1135.891278926734
 21
29.72386618398562
 31
0.0
  0
SPLINE
  5
26E9
330
21
100
AcDbEntity
  8
0
  6
Continuous
100
AcDbSpline
210
0.0
220
0.0
230
1.0
 70
     8
 71
     3
 72
     9
 73
     5
 74
     3
 42
0.0000000001
 43
0.0000000001
 44
0.0000000001
 40
0.0
 40
0.0
 40
0.0
 40
0.0
 40
0.3302378139930951
 40
0.5727370776070255
 40
0.5727370776070255
 40
0.5727370776070255
 40
0.5727370776070255
 10
1136.304101692434
 20
30.23175340388562
 30
0.0
 10
1136.217455375106
 20
30.1615850378269
 30
0.0
 10
1136.067183188006
 20
30.03989084287391
 30
0.0
 10
1135.975553533999
 20
29.87047037589457
 30
0.0
 10
1135.936757156934
 20
29.79873704468563
 30
0.0
 11
1136.304101692434
 21
30.23175340388562
 31
0.0
 11
1136.063659198734
 21
30.00538109768561
 31
0.0
 11
1135.936757156934
 21
29.79873704468563
 31
0.0
  0
SPLINE
  5
26EA
330
21
100
AcDbEntity
  8
0
  6
Continuous
100
AcDbSpline
210
0.0
220
0.0
230
1.0
 70
     8
 71
     3
 72
    22
 73
    18
 74
    16
 42
0.0000000001
 43
0.0000000001
 44
0.0000000001
 40
0.0
 40
0.0
 40
0.0
 40
0.0
 40
0.2153918738518705
 40
0.3239533545589997
 40
0.4317467439473114
 40
0.5402177204141688
 40
0.6506549330722
 40
0.7043837155607192
 40
0.7567725181840275
 40
0.8633479617046624
 40
0.9767680545744732
 40
1.091937953752243
 40
1.202810864338986
 40
1.310335424132049
 40
1.416902955142156
 40
1.524802862891922
 40
1.741696880013643
 40
1.741696880013643
 40
1.741696880013643
 40
1.741696880013643
 10
1136.850720287334
 20
31.50015185728566
 30
0.0
 10
1136.843029334472
 20
31.42693752283007
 30
0.0
 10
1136.831461999386
 20
31.31682181222065
 30
0.0
 10
1136.891453518354
 20
31.18290828911951
 30
0.0
 10
1136.948829805845
 20
31.09144749085108
 30
0.0
 10
1137.008871404112
 20
31.00049520941875
 30
0.0
 10
1137.046767077011
 20
30.91690637697626
 30
0.0
 10
1137.061280310588
 20
30.84575881030647
 30
0.0
 10
1137.059689711411
 20
30.77422718848896
 30
0.0
 10
1137.027438491242
 20
30.68704404201289
 30
0.0
 10
1136.962363957079
 20
30.59558556991733
 30
0.0
 10
1136.884095779496
 20
30.51353800910968
 30
0.0
 10
1136.799727650175
 20
30.44078420769989
 30
0.0
 10
1136.709140363249
 20
30.38082549944309
 30
0.0
 10
1136.61180202674
 20
30.33449486972698
 30
0.0
 10
1136.473794798488
 20
30.29346639195853
 30
0.0
 10
1136.372047490368
 20
30.2564635309792
 30
0.0
 10
1136.304101692434
 20
30.23175340388562
 30
0.0
 11
1136.850720287334
 21
31.50015185728566
 31
0.0
 11
1136.852660291834
 21
31.28476872028566
 31
0.0
 11
1136.893613151034
 21
31.18422789068566
 31
0.0
 11
1136.949093955534
 21
31.09180876318564
 31
0.0
 11
1137.006102962434
 21
30.99952698888567
 31
0.0
 11
1137.049301905034
 21
30.89788925328563
 31
0.0
 11
1137.059343522833
 21
30.84510717318565
 31
0.0
 11
1137.058179771834
 21
30.79273129778565
 31
0.0
 11
1137.024337803334
 21
30.69167168008565
 31
0.0
 11
1136.960654782634
 21
30.59781758938564
 31
0.0
 11
1136.881792848234
 21
30.51388368098563
 31
0.0
 11
1136.797426698134
 21
30.44194513068564
 31
0.0
 11
1136.707602341534
 21
30.38284254258562
 31
0.0
 11
1136.611271057834
 21
30.33726927798566
 31
0.0
 11
1136.508904702534
 21
30.30315887788564
 31
0.0
 11
1136.304101692434
 21
30.23175340388562
 31
0.0
  0
SPLINE
  5
26EB
330
21
100
AcDbEntity
  8
0
  6
Continuous
100
AcDbSpline
210
0.0
220
0.0
230
1.0
 70
     8
 71
     3
 72
     9
 73
     5
 74
     3
 42
0.0000000001
 43
0.0000000001
 44
0.0000000001
 40
0.0
 40
0.0
 40
0.0
 40
0.0
 40
0.3347850975805071
 40
0.6699669612546899
 40
0.6699669612546899
 40
0.6699669612546899
 40
0.6699669612546899
 10
1137.194335936833
 20
32.05874104818562
 30
0.0
 10
1137.107947285997
 20
31.98363657682393
 30
0.0
 10
1136.935067601968
 20
31.83333862503795
 30
0.0
 10
1136.878847157121
 20
31.61125795321598
 30
0.0
 10
1136.850720287334
 20
31.50015185728566
 30
0.0
 11
1137.194335936833
 21
32.05874104818562
 31
0.0
 11
1136.964300260534
 21
31.81550320328566
 31
0.0
 11
1136.850720287334
 21
31.50015185728566
 31
0.0
  0
SPLINE
  5
26EC
330
21
100
AcDbEntity
  8
0
  6
Continuous
100
AcDbSpline
210
0.0
220
0.0
230
1.0
 70
     8
 71
     3
 72
    14
 73
    10
 74
     8
 42
0.0000000001
 43
0.0000000001
 44
0.0000000001
 40
0.0
 40
0.0
 40
0.0
 40
0.0
 40
0.4333885283092414
 40
0.650057304947759
 40
0.8668227704969541
 40
1.084009393114688
 40
1.302012114510597
 40
1.519146320551128
 40
1.734879723115088
 40
1.734879723115088
 40
1.734879723115088
 40
1.734879723115088
 10
1138.682183338934
 20
32.93456569868565
 30
0.0
 10
1138.569798406192
 20
32.84368864057328
 30
0.0
 10
1138.401227616421
 20
32.70737839787124
 30
0.0
 10
1138.163161815586
 20
32.54330755964033
 30
0.0
 10
1137.977008904268
 20
32.43168299114579
 30
0.0
 10
1137.78163801915
 20
32.33577645655104
 30
0.0
 10
1137.579886268614
 20
32.25494425447909
 30
0.0
 10
1137.378478661457
 20
32.17276821715083
 30
0.0
 10
1137.255584278813
 20
32.09666801518385
 30
0.0
 10
1137.194335936833
 20
32.05874104818562
 30
0.0
 11
1138.682183338934
 21
32.93456569868565
 31
0.0
 11
1138.340600573634
 21
32.66783206578563
 31
0.0
 11
1138.161945622934
 21
32.54524427128561
 31
0.0
 11
1137.975661857334
 21
32.43440372938565
 31
0.0
 11
1137.780840699034
 21
32.33841026438566
 31
0.0
 11
1137.579599981034
 21
32.25458091418565
 31
0.0
 11
1137.380826529934
 21
32.16719453898563
 31
0.0
 11
1137.194335936833
 21
32.05874104818562
 31
0.0
  0
SPLINE
  5
26ED
330
21
100
AcDbEntity
  8
0
  6
Continuous
100
AcDbSpline
210
0.0
220
0.0
230
1.0
 70
     8
 71
     3
 72
    11
 73
     7
 74
     5
 42
0.0000000001
 43
0.0000000001
 44
0.0000000001
 40
0.0
 40
0.0
 40
0.0
 40
0.0
 40
0.1730341425467505
 40
0.3460203246374247
 40
0.5221181369857145
 40
0.6980545872328183
 40
0.6980545872328183
 40
0.6980545872328183
 40
0.6980545872328183
 10
1139.052300908134
 20
33.50148972138564
 30
0.0
 10
1139.044597569449
 20
33.44371569019206
 30
0.0
 10
1139.029193027239
 20
33.32818364122771
 30
0.0
 10
1138.935470609979
 20
33.17691348753323
 30
0.0
 10
1138.817389640334
 20
33.04760413805985
 30
0.0
 10
1138.727238331836
 20
32.97223366261096
 30
0.0
 10
1138.682183338934
 20
32.93456569868565
 30
0.0
 11
1139.052300908134
 21
33.50148972138564
 31
0.0
 11
1139.017510761934
 21
33.33198910128564
 31
0.0
 11
1138.932137107634
 21
33.18153791868562
 31
0.0
 11
1138.814606780934
 21
33.05040035038562
 31
0.0
 11
1138.682183338934
 21
32.93456569868565
 31
0.0
  0
SPLINE
  5
26EE
330
21
100
AcDbEntity
  8
0
  6
Continuous
100
AcDbSpline
210
0.0
220
0.0
230
1.0
 70
     8
 71
     3
 72
     9
 73
     5
 74
     3
 42
0.0000000001
 43
0.0000000001
 44
0.0000000001
 40
0.0
 40
0.0
 40
0.0
 40
0.0
 40
0.3455620670887028
 40
0.6911347874307594
 40
0.6911347874307594
 40
0.6911347874307594
 40
0.6911347874307594
 10
1138.925643144334
 20
34.18037592208563
 30
0.0
 10
1138.953431574093
 20
34.06847607510124
 30
0.0
 10
1139.009009290292
 20
33.84467293139783
 30
0.0
 10
1139.037870220565
 20
33.61588530024512
 30
0.0
 10
1139.052300908134
 20
33.50148972138564
 30
0.0
 11
1138.925643144334
 21
34.18037592208563
 31
0.0
 11
1139.002329443034
 21
33.84343029768562
 31
0.0
 11
1139.052300908134
 21
33.50148972138564
 31
0.0
  0
SPLINE
  5
26EF
330
21
100
AcDbEntity
  8
0
  6
Continuous
100
AcDbSpline
210
0.0
220
0.0
230
1.0
 70
    24
 71
     3
 72
     8
 73
     4
 74
     2
 42
0.0000000001
 43
0.0000000001
 44
0.0000000001
 40
0.0
 40
0.0
 40
0.0
 40
0.0
 40
1.041039879897488
 40
1.041039879897488
 40
1.041039879897488
 40
1.041039879897488
 10
1138.775915364034
 20
35.21059222138567
 30
0.0
 10
1138.825824624134
 20
34.86718678828565
 30
0.0
 10
1138.875733884234
 20
34.52378135518564
 30
0.0
 10
1138.925643144334
 20
34.18037592208563
 30
0.0
 11
1138.775915364034
 21
35.21059222138567
 31
0.0
 11
1138.925643144334
 21
34.18037592208563
 31
0.0
  0
SPLINE
  5
26F0
330
21
100
AcDbEntity
  8
0
  6
Continuous
100
AcDbSpline
210
0.0
220
0.0
230
1.0
 70
     8
 71
     3
 72
    10
 73
     6
 74
     4
 42
0.0000000001
 43
0.0000000001
 44
0.0000000001
 40
0.0
 40
0.0
 40
0.0
 40
0.0
 40
0.0910986346214503
 40
0.4382162938385574
 40
0.7867737451441612
 40
0.7867737451441612
 40
0.7867737451441612
 40
0.7867737451441612
 10
1138.767865598534
 20
35.99145675258566
 30
0.0
 10
1138.76066609463
 20
35.96194391480321
 30
0.0
 10
1138.726033962863
 20
35.81997684309651
 30
0.0
 10
1138.717797328349
 20
35.55389192326408
 30
0.0
 10
1138.756515974345
 20
35.32518323635193
 30
0.0
 10
1138.775915364034
 20
35.21059222138567
 30
0.0
 11
1138.767865598534
 21
35.99145675258566
 31
0.0
 11
1138.747565496334
 21
35.90264871758567
 31
0.0
 11
1138.729265242534
 21
35.55601379428563
 31
0.0
 11
1138.775915364034
 21
35.21059222138567
 31
0.0
  0
SPLINE
  5
26F1
330
21
100
AcDbEntity
  8
0
  6
Continuous
100
AcDbSpline
210
0.0
220
0.0
230
1.0
 70
     8
 71
     3
 72
    14
 73
    10
 74
     8
 42
0.0000000001
 43
0.0000000001
 44
0.0000000001
 40
0.0
 40
0.0
 40
0.0
 40
0.0
 40
0.4248448291090076
 40
0.6383067240851128
 40
0.8543818512104769
 40
1.066982497219509
 40
1.282086364134275
 40
1.506323809221955
 40
1.636279715382016
 40
1.636279715382016
 40
1.636279715382016
 40
1.636279715382016
 10
1140.053683353434
 20
36.16718392898562
 30
0.0
 10
1139.947253275261
 20
36.26385469359338
 30
0.0
 10
1139.787347752377
 20
36.40909736772687
 30
0.0
 10
1139.512537113996
 20
36.49933135117521
 30
0.0
 10
1139.297097708019
 20
36.51614674479926
 30
0.0
 10
1139.082888581875
 20
36.45937136316086
 30
0.0
 10
1138.917136463944
 20
36.30979564536482
 30
0.0
 10
1138.818242784723
 20
36.14499547439831
 30
0.0
 10
1138.78138790138
 20
36.03266979467655
 30
0.0
 10
1138.767865598534
 20
35.99145675258566
 30
0.0
 11
1140.053683353434
 21
36.16718392898562
 31
0.0
 11
1139.714278846634
 21
36.42271809418563
 31
0.0
 11
1139.511907899934
 21
36.49062965828566
 31
0.0
 11
1139.296233341534
 21
36.50378052978564
 31
0.0
 11
1139.092016497833
 21
36.44466610318565
 31
0.0
 11
1138.927939907434
 21
36.30556705198566
 31
0.0
 11
1138.811753958934
 21
36.11377743508567
 31
0.0
 11
1138.767865598534
 21
35.99145675258566
 31
0.0
  0
SPLINE
  5
26F2
330
21
100
AcDbEntity
  8
0
  6
Continuous
100
AcDbSpline
210
0.0
220
0.0
230
1.0
 70
     8
 71
     3
 72
     9
 73
     5
 74
     3
 42
0.0000000001
 43
0.0000000001
 44
0.0000000001
 40
0.0
 40
0.0
 40
0.0
 40
0.0
 40
0.1321464198430219
 40
0.6549073437164505
 40
0.6549073437164505
 40
0.6549073437164505
 40
0.6549073437164505
 10
1140.504906400934
 20
35.69625511608567
 30
0.0
 10
1140.468529106217
 20
35.72131492470997
 30
0.0
 10
1140.28824607257
 20
35.84550938052404
 30
0.0
 10
1140.1578045454
 20
36.02439424128818
 30
0.0
 10
1140.053683353434
 20
36.16718392898562
 30
0.0
 11
1140.504906400934
 21
35.69625511608567
 31
0.0
 11
1140.397803798034
 21
35.77366124458561
 31
0.0
 11
1140.053683353434
 21
36.16718392898562
 31
0.0
  0
SPLINE
  5
26F3
330
21
100
AcDbEntity
  8
0
  6
Continuous
100
AcDbSpline
210
0.0
220
0.0
230
1.0
 70
     8
 71
     3
 72
    18
 73
    14
 74
    12
 42
0.0000000001
 43
0.0000000001
 44
0.0000000001
 40
0.0
 40
0.0
 40
0.0
 40
0.0
 40
0.1276090459105005
 40
0.2552169562325068
 40
0.3173865858316154
 40
0.3793003666513977
 40
0.4419402744638503
 40
0.5050211280278801
 40
0.6296913559241025
 40
0.7540030503977154
 40
0.8802884848857144
 40
1.006077213119457
 40
1.048303833264126
 40
1.048303833264126
 40
1.048303833264126
 40
1.048303833264126
 10
1141.085586271934
 20
36.13906872138566
 30
0.0
 10
1141.102183015431
 20
36.09972783025124
 30
0.0
 10
1141.135376354732
 20
36.02104639807564
 30
0.0
 10
1141.144010285298
 20
35.91304251205372
 30
0.0
 10
1141.127726509064
 20
35.83016984308028
 30
0.0
 10
1141.101039603552
 20
35.77325798168398
 30
0.0
 10
1141.062771056778
 20
35.72327684137277
 30
0.0
 10
1141.000679614048
 20
35.66702186308525
 30
0.0
 10
1140.906912376444
 20
35.61711818185384
 30
0.0
 10
1140.780671933214
 20
35.5993088336731
 30
0.0
 10
1140.655642800243
 20
35.62073295112376
 30
0.0
 10
1140.564147988541
 20
35.6587762544802
 30
0.0
 10
1140.516804938768
 20
35.68872757216289
 30
0.0
 10
1140.504906400934
 20
35.69625511608567
 30
0.0
 11
1141.085586271934
 21
36.13906872138566
 31
0.0
 11
1141.128813788634
 21
36.01900436198562
 31
0.0
 11
1141.137904924434
 21
35.89172070228566
 31
0.0
 11
1141.125273339734
 21
35.83084783548563
 31
0.0
 11
1141.099265086834
 21
35.77466165358564
 31
0.0
 11
1141.061486952234
 21
35.72469595938563
 31
0.0
 11
1141.014839786634
 21
35.68223143268566
 31
0.0
 11
1140.904561983334
 21
35.62408100858565
 31
0.0
 11
1140.781596007134
 21
35.60583913148562
 31
0.0
 11
1140.656825052134
 21
35.62533835588565
 31
0.0
 11
1140.540910955534
 21
35.67419248938566
 31
0.0
 11
1140.504906400934
 21
35.69625511608567
 31
0.0
  0
SPLINE
  5
26F4
330
21
100
AcDbEntity
  8
0
  6
Continuous
100
AcDbSpline
210
0.0
220
0.0
230
1.0
 70
     8
 71
     3
 72
     9
 73
     5
 74
     3
 42
0.0000000001
 43
0.0000000001
 44
0.0000000001
 40
0.0
 40
0.0
 40
0.0
 40
0.0
 40
0.0514429211942956
 40
0.052814285315164
 40
0.052814285315164
 40
0.052814285315164
 40
0.052814285315164
 10
1137.946726732134
 20
27.23977488868562
 30
0.0
 10
1137.955506925043
 20
27.25450421214186
 30
0.0
 10
1137.964521180118
 20
27.26962618953849
 30
0.0
 10
1137.973447501729
 20
27.28480013037401
 30
0.0
 10
1137.973679280634
 20
27.28519413358564
 30
0.0
 11
1137.946726732134
 21
27.23977488868562
 31
0.0
 11
1137.972983884634
 21
27.28401215898563
 31
0.0
 11
1137.973679280634
 21
27.28519413358564
 31
0.0
  0
SPLINE
  5
26F5
330
21
100
AcDbEntity
  8
0
  6
Continuous
100
AcDbSpline
210
0.0
220
0.0
230
1.0
 70
     8
 71
     3
 72
    10
 73
     6
 74
     4
 42
0.0000000001
 43
0.0000000001
 44
0.0000000001
 40
0.0
 40
0.0
 40
0.0
 40
0.0
 40
1.241134952899392
 40
2.091691992374618
 40
2.4699691459256
 40
2.4699691459256
 40
2.4699691459256
 40
2.4699691459256
 10
1137.885600455234
 20
24.85322545048567
 30
0.0
 10
1137.764329776662
 20
25.25209250190594
 30
0.0
 10
1137.55995159306
 20
25.92430547562717
 30
0.0
 10
1137.67398543415
 20
26.77662187580094
 30
0.0
 10
1137.882523846661
 20
27.13076331720317
 30
0.0
 10
1137.946719095734
 20
27.23978015378563
 30
0.0
 11
1137.885600455234
 21
24.85322545048567
 31
0.0
 11
1137.627746368334
 21
26.06727950248566
 31
0.0
 11
1137.768518717134
 21
26.90610631608561
 31
0.0
 11
1137.946719095734
 21
27.23978015378563
 31
0.0
  0
SPLINE
  5
26F6
330
21
100
AcDbEntity
  8
0
  6
Continuous
100
AcDbSpline
210
0.0
220
0.0
230
1.0
 70
     8
 71
     3
 72
    23
 73
    19
 74
    17
 42
0.0000000001
 43
0.0000000001
 44
0.0000000001
 40
0.0
 40
0.0
 40
0.0
 40
0.0
 40
0.1346459741810346
 40
0.2682873103625437
 40
0.3331705721771326
 40
0.3981845216304648
 40
0.4642935307902831
 40
0.5307761019630164
 40
0.6619731584448609
 40
0.7924659010335192
 40
1.05372538178006
 40
1.183927333412876
 40
1.314613738442399
 40
1.445423504715156
 40
1.576190418914349
 40
1.706591128262657
 40
1.837071906177809
 40
2.098764468473654
 40
2.098764468473654
 40
2.098764468473654
 40
2.098764468473654
 10
1138.261496528234
 20
23.15015078058562
 30
0.0
 10
1138.217199448491
 20
23.1426093940903
 30
0.0
 10
1138.12893580412
 20
23.12758288987033
 30
0.0
 10
1138.016151781339
 20
23.1353685920388
 30
0.0
 10
1137.932790836486
 20
23.16515082028964
 30
0.0
 10
1137.87798068137
 20
23.20191305081692
 30
0.0
 10
1137.832359250655
 20
23.25004985154652
 30
0.0
 10
1137.784768480769
 20
23.32452677959866
 30
0.0
 10
1137.752283582134
 20
23.43145032071535
 30
0.0
 10
1137.754960728089
 20
23.60780585835465
 30
0.0
 10
1137.810470639327
 20
23.77441083983673
 30
0.0
 10
1137.838073079967
 20
23.94640921911761
 30
0.0
 10
1137.852035018281
 20
24.07622394130827
 30
0.0
 10
1137.869733445182
 20
24.20583293820817
 30
0.0
 10
1137.894716931445
 20
24.33410930211206
 30
0.0
 10
1137.915437405073
 20
24.46303005551753
 30
0.0
 10
1137.924891284613
 20
24.63777915887599
 30
0.0
 10
1137.901325572228
 20
24.76699876107991
 30
0.0
 10
1137.885600455234
 20
24.85322545048567
 30
0.0
 11
1138.261496528234
 21
23.15015078058562
 31
0.0
 11
1138.127961426934
 21
23.13289056378565
 31
0.0
 11
1137.994873471534
 21
23.14503975568564
 31
0.0
 11
1137.934020913134
 21
23.16755205898565
 31
0.0
 11
1137.879858815334
 21
23.20351427228562
 31
0.0
 11
1137.834108684134
 21
23.25123561538564
 31
0.0
 11
1137.798264375134
 21
23.30722773788565
 31
0.0
 11
1137.759061485834
 21
23.43243077738563
 31
0.0
 11
1137.758691507934
 21
23.56292299548565
 31
0.0
 11
1137.815082476034
 21
23.81802410288563
 31
0.0
 11
1137.836928602234
 21
23.94638022848565
 31
0.0
 11
1137.852649398934
 21
24.07611762868564
 31
0.0
 11
1137.870953305334
 21
24.20564045278562
 31
0.0
 11
1137.894031094334
 21
24.33435487118564
 31
0.0
 11
1137.913163927134
 21
24.46334432698566
 31
0.0
 11
1137.919123498634
 21
24.59368893528566
 31
0.0
 11
1137.885600455234
 21
24.85322545048567
 31
0.0
  0
SPLINE
  5
26F7
330
21
100
AcDbEntity
  8
0
  6
Continuous
100
AcDbSpline
210
0.0
220
0.0
230
1.0
 70
     8
 71
     3
 72
     9
 73
     5
 74
     3
 42
0.0000000001
 43
0.0000000001
 44
0.0000000001
 40
0.0
 40
0.0
 40
0.0
 40
0.0
 40
0.3454712490188415
 40
0.6909600997901368
 40
0.6909600997901368
 40
0.6909600997901368
 40
0.6909600997901368
 10
1138.946117234034
 20
23.21105973068566
 30
0.0
 10
1138.830448577293
 20
23.21853471153447
 30
0.0
 10
1138.599105370496
 20
23.2334850540822
 30
0.0
 10
1138.374034720163
 20
23.17792934349949
 30
0.0
 10
1138.261496528234
 20
23.15015078058562
 30
0.0
 11
1138.946117234034
 21
23.21105973068566
 31
0.0
 11
1138.600679323034
 21
23.21585905798563
 31
0.0
 11
1138.261496528234
 21
23.15015078058562
 31
0.0
  0
SPLINE
  5
26F8
330
21
100
AcDbEntity
  8
0
  6
Continuous
100
AcDbSpline
210
0.0
220
0.0
230
1.0
 70
     8
 71
     3
 72
     9
 73
     5
 74
     3
 42
0.0000000001
 43
0.0000000001
 44
0.0000000001
 40
0.0
 40
0.0
 40
0.0
 40
0.0
 40
0.3470043748935432
 40
0.6940049083426298
 40
0.6940049083426298
 40
0.6940049083426298
 40
0.6940049083426298
 10
1139.629740634534
 20
23.09246840628564
 30
0.0
 10
1139.516461926307
 20
23.1160334637384
 30
0.0
 10
1139.289905763882
 20
23.16316331777153
 30
0.0
 10
1139.060712987775
 20
23.19509431862893
 30
0.0
 10
1138.946117234034
 20
23.21105973068566
 30
0.0
 11
1139.629740634534
 21
23.09246840628564
 31
0.0
 11
1139.289245349134
 21
23.15936382328565
 31
0.0
 11
1138.946117234034
 21
23.21105973068566
 31
0.0
  0
SPLINE
  5
26F9
330
21
100
AcDbEntity
  8
0
  6
Continuous
100
AcDbSpline
210
0.0
220
0.0
230
1.0
 70
     8
 71
     3
 72
     9
 73
     5
 74
     3
 42
0.0000000001
 43
0.0000000001
 44
0.0000000001
 40
0.0
 40
0.0
 40
0.0
 40
0.0
 40
0.1734679222021503
 40
0.3469771970137078
 40
0.3469771970137078
 40
0.3469771970137078
 40
0.3469771970137078
 10
1139.971435004734
 20
23.03258609388561
 30
0.0
 10
1139.91418084258
 20
23.04078560236091
 30
0.0
 10
1139.799658869586
 20
23.057186573973
 30
0.0
 10
1139.686384546215
 20
23.08070686113516
 30
0.0
 10
1139.629740634534
 20
23.09246840628564
 30
0.0
 11
1139.971435004734
 21
23.03258609388561
 31
0.0
 11
1139.799984356334
 21
23.05896402398563
 31
0.0
 11
1139.629740634534
 21
23.09246840628564
 31
0.0
  0
SPLINE
  5
26FA
330
21
100
AcDbEntity
  8
0
  6
Continuous
100
AcDbSpline
210
0.0
220
0.0
230
1.0
 70
     8
 71
     3
 72
    13
 73
     9
 74
     7
 42
0.0000000001
 43
0.0000000001
 44
0.0000000001
 40
0.0
 40
0.0
 40
0.0
 40
0.0
 40
0.0389548943536189
 40
0.0836071560940205
 40
0.1326169816040193
 40
0.1786631375234427
 40
0.2617600169269992
 40
0.3429329034812667
 40
0.3429329034812667
 40
0.3429329034812667
 40
0.3429329034812667
 10
1140.292479290234
 20
23.08315533538561
 30
0.0
 10
1140.286197140774
 20
23.0712438527506
 30
0.0
 10
1140.27271404297
 20
23.04567876768229
 30
0.0
 10
1140.227512236819
 20
23.0318646690153
 30
0.0
 10
1140.182298940462
 20
23.02450935895148
 30
0.0
 10
1140.122781395128
 20
23.0199502079339
 30
0.0
 10
1140.052614297146
 20
23.02206282655729
 30
0.0
 10
1139.99828265092
 20
23.02910583494822
 30
0.0
 10
1139.971435004734
 20
23.03258609388561
 30
0.0
 11
1140.292479290234
 21
23.08315533538561
 31
0.0
 11
1140.270373480134
 21
23.05108015878565
 31
0.0
 11
1140.229364021534
 21
23.03341525618563
 31
0.0
 11
1140.181075637034
 21
23.02503701538566
 31
0.0
 11
1140.135166807234
 21
23.02148345078567
 31
0.0
 11
1140.052093489534
 21
23.02346215058563
 31
0.0
 11
1139.971435004734
 21
23.03258609388561
 31
0.0
  0
SPLINE
  5
26FB
330
21
100
AcDbEntity
  8
0
  6
Continuous
100
AcDbSpline
210
0.0
220
0.0
230
1.0
 70
     8
 71
     3
 72
    13
 73
     9
 74
     7
 42
0.0000000001
 43
0.0000000001
 44
0.0000000001
 40
0.0
 40
0.0
 40
0.0
 40
0.0
 40
0.0710365867746845
 40
0.1434325209825524
 40
0.1821725802188922
 40
0.2220312178961372
 40
0.2594055417842671
 40
0.2942661849832646
 40
0.2942661849832646
 40
0.2942661849832646
 40
0.2942661849832646
 10
1140.126237308634
 20
23.31098091468565
 30
0.0
 10
1140.145151690542
 20
23.29669073313963
 30
0.0
 10
1140.183342397655
 20
23.26783691488195
 30
0.0
 10
1140.226145238243
 20
23.22450818462628
 30
0.0
 10
1140.258356328643
 20
23.18567199635151
 30
0.0
 10
1140.280328643166
 20
23.15418911700327
 30
0.0
 10
1140.29732099216
 20
23.11926584308024
 30
0.0
 10
1140.294055310417
 20
23.09490965025541
 30
0.0
 10
1140.292479290234
 20
23.08315533538561
 30
0.0
 11
1140.126237308634
 21
23.31098091468565
 31
0.0
 11
1140.181879095734
 21
23.26681997958562
 31
0.0
 11
1140.233032798434
 21
23.21559039838561
 31
0.0
 11
1140.257662010234
 21
23.18568731968563
 31
0.0
 11
1140.280020325434
 21
23.15269009648566
 31
0.0
 11
1140.293896435234
 21
23.11798716198567
 31
0.0
 11
1140.292479290234
 21
23.08315533538561
 31
0.0
  0
SPLINE
  5
26FC
330
21
100
AcDbEntity
  8
0
  6
Continuous
100
AcDbSpline
210
0.0
220
0.0
230
1.0
 70
     8
 71
     3
 72
    10
 73
     6
 74
     4
 42
0.0000000001
 43
0.0000000001
 44
0.0000000001
 40
0.0
 40
0.0
 40
0.0
 40
0.0
 40
0.0825692431351568
 40
0.1700593304850599
 40
0.3447456989748369
 40
0.3447456989748369
 40
0.3447456989748369
 40
0.3447456989748369
 10
1139.810896839534
 20
23.44365150248567
 30
0.0
 10
1139.837880399816
 20
23.43818375964419
 30
0.0
 10
1139.893455648196
 20
23.42692241520671
 30
0.0
 10
1140.002743295903
 20
23.38939672971733
 30
0.0
 10
1140.076856314389
 20
23.34233669319822
 30
0.0
 10
1140.126237308634
 20
23.31098091468565
 30
0.0
 11
1139.810896839534
 21
23.44365150248567
 31
0.0
 11
1139.891455050734
 21
23.42553922708564
 31
0.0
 11
1139.974099074434
 21
23.39682545458564
 31
0.0
 11
1140.126237308634
 21
23.31098091468565
 31
0.0
  0
SPLINE
  5
26FD
330
21
100
AcDbEntity
  8
0
  6
Continuous
100
AcDbSpline
210
0.0
220
0.0
230
1.0
 70
     8
 71
     3
 72
    22
 73
    18
 74
    16
 42
0.0000000001
 43
0.0000000001
 44
0.0000000001
 40
0.0
 40
0.0
 40
0.0
 40
0.0
 40
0.2585020564637247
 40
0.3885099966072476
 40
0.5191818113128814
 40
0.648750724900927
 40
0.7778859501016673
 40
0.9082386181412115
 40
1.038781548736171
 40
1.168301512197474
 40
1.297843023237423
 40
1.427730638294552
 40
1.557542359705372
 40
1.686937011181832
 40
1.816156105546432
 40
2.075088664694359
 40
2.079557976007234
 40
2.079557976007234
 40
2.079557976007234
 40
2.079557976007234
 10
1138.748372140234
 20
24.89454028618562
 30
0.0
 10
1138.730033680522
 20
24.81025752376589
 30
0.0
 10
1138.702472294676
 20
24.68358659437493
 30
0.0
 10
1138.685028112761
 20
24.51115509263276
 30
0.0
 10
1138.684477972071
 20
24.38081717063578
 30
0.0
 10
1138.702851943763
 20
24.25157232001269
 30
0.0
 10
1138.748178405831
 20
24.1289912472043
 30
0.0
 10
1138.816481408959
 20
24.01761771857792
 30
0.0
 10
1138.900656168061
 20
23.91784029911775
 30
0.0
 10
1138.996469853765
 20
23.8297658278716
 30
0.0
 10
1139.099962582943
 20
23.75147378275496
 30
0.0
 10
1139.207867870679
 20
23.67935141230526
 30
0.0
 10
1139.318874910229
 20
23.61215787632305
 30
0.0
 10
1139.434255596367
 20
23.5530563572372
 30
0.0
 10
1139.594919799768
 20
23.48944542119553
 30
0.0
 10
1139.723018031873
 20
23.45945451628393
 30
0.0
 10
1139.809430620785
 20
23.44391516872956
 30
0.0
 10
1139.810896839534
 20
23.44365150248567
 30
0.0
 11
1138.748372140234
 21
24.89454028618562
 31
0.0
 11
1138.699779525834
 21
24.64064646778562
 31
0.0
 11
1138.687137544834
 21
24.51125464108563
 31
0.0
 11
1138.687665066434
 21
24.38058389118564
 31
0.0
 11
1138.707370484234
 21
24.25252218778562
 31
0.0
 11
1138.751803675734
 21
24.13127204188564
 31
0.0
 11
1138.819084563434
 21
24.01962482868564
 31
0.0
 11
1138.902863707934
 21
23.91951233358563
 31
0.0
 11
1138.997769838934
 21
23.83137467288563
 31
0.0
 11
1139.100590872034
 21
23.75257849128562
 31
0.0
 11
1139.208413572934
 21
23.68015572058565
 31
0.0
 11
1139.319757832234
 21
23.61342088008561
 31
0.0
 11
1139.435174454334
 21
23.55492319488562
 31
0.0
 11
1139.555333245634
 21
23.50738963598562
 31
0.0
 11
1139.806498319734
 21
23.44444382008564
 31
0.0
 11
1139.810896839534
 21
23.44365150248567
 31
0.0
  0
SPLINE
  5
26FE
330
21
100
AcDbEntity
  8
0
  6
Continuous
100
AcDbSpline
210
0.0
220
0.0
230
1.0
 70
     8
 71
     3
 72
    17
 73
    13
 74
    11
 42
0.0000000001
 43
0.0000000001
 44
0.0000000001
 40
0.0
 40
0.0
 40
0.0
 40
0.0
 40
0.4489361004935312
 40
0.6737886890805891
 40
0.8984770302455402
 40
1.124019338362172
 40
1.239994698782593
 40
1.353698208749251
 40
1.464443142452576
 40
1.576876643148552
 40
1.692437945218121
 40
1.807171317070782
 40
1.807171317070782
 40
1.807171317070782
 40
1.807171317070782
 10
1136.042175607434
 20
24.52236944148566
 30
0.0
 10
1136.082999947629
 20
24.37759704209647
 30
0.0
 10
1136.144271426204
 20
24.16031443752923
 30
0.0
 10
1136.153308182658
 20
23.8593735680531
 30
0.0
 10
1136.132508770324
 20
23.63508057438745
 30
0.0
 10
1136.096017680613
 20
23.44926961429507
 30
0.0
 10
1136.047578693259
 20
23.30513233699791
 30
0.0
 10
1135.994914723076
 20
23.2038205024652
 30
0.0
 10
1135.918809797098
 20
23.11881422327191
 30
0.0
 10
1135.819295624209
 20
23.06247653954413
 30
0.0
 10
1135.709624695347
 20
23.02778857902857
 30
0.0
 10
1135.633149881777
 20
23.01957651362692
 30
0.0
 10
1135.595049941934
 20
23.01548524248565
 30
0.0
 11
1136.042175607434
 21
24.52236944148566
 31
0.0
 11
1136.140456440234
 21
24.08432321078564
 31
0.0
 11
1136.148713517534
 21
23.85962228228564
 31
0.0
 11
1136.128763183534
 21
23.63582140018562
 31
0.0
 11
1136.082706412534
 21
23.41503166628561
 31
0.0
 11
1136.044508816434
 21
23.30552720118564
 31
0.0
 11
1135.990355331634
 21
23.20554776198563
 31
0.0
 11
1135.915461681133
 21
23.12396724068563
 31
0.0
 11
1135.818760929534
 21
23.06660648128562
 31
0.0
 11
1135.708659273034
 21
23.03150605718562
 31
0.0
 11
1135.595049941934
 21
23.01548524248565
 31
0.0
  0
SPLINE
  5
26FF
330
21
100
AcDbEntity
  8
0
  6
Continuous
100
AcDbSpline
210
0.0
220
0.0
230
1.0
 70
    24
 71
     3
 72
     8
 73
     4
 74
     2
 42
0.0000000001
 43
0.0000000001
 44
0.0000000001
 40
0.0
 40
0.0
 40
0.0
 40
0.0
 40
0.7218640600885818
 40
0.7218640600885818
 40
0.7218640600885818
 40
0.7218640600885818
 10
1135.906483431634
 20
25.23136546028562
 30
0.0
 10
1135.951714156901
 20
24.99503345401896
 30
0.0
 10
1135.996944882167
 20
24.75870144775231
 30
0.0
 10
1136.042175607434
 20
24.52236944148566
 30
0.0
 11
1135.906483431634
 21
25.23136546028562
 31
0.0
 11
1136.042175607434
 21
24.52236944148566
 31
0.0
  0
SPLINE
  5
2700
330
21
100
AcDbEntity
  8
0
  6
Continuous
100
AcDbSpline
210
0.0
220
0.0
230
1.0
 70
    24
 71
     3
 72
     8
 73
     4
 74
     2
 42
0.0000000001
 43
0.0000000001
 44
0.0000000001
 40
0.0
 40
0.0
 40
0.0
 40
0.0
 40
0.9080242580398804
 40
0.9080242580398804
 40
0.9080242580398804
 40
0.9080242580398804
 10
1135.653295500334
 20
26.10337688488565
 30
0.0
 10
1135.737691477434
 20
25.81270641001897
 30
0.0
 10
1135.822087454534
 20
25.5220359351523
 30
0.0
 10
1135.906483431634
 20
25.23136546028562
 30
0.0
 11
1135.653295500334
 21
26.10337688488565
 31
0.0
 11
1135.906483431634
 21
25.23136546028562
 31
0.0
  0
SPLINE
  5
2701
330
21
100
AcDbEntity
  8
0
  6
Continuous
100
AcDbSpline
210
0.0
220
0.0
230
1.0
 70
     8
 71
     3
 72
    26
 73
    22
 74
    20
 42
0.0000000001
 43
0.0000000001
 44
0.0000000001
 40
0.0
 40
0.0
 40
0.0
 40
0.0
 40
0.0840344929915637
 40
0.2979869562341881
 40
0.5119131863524329
 40
0.6190475435330858
 40
0.7262238094015495
 40
0.9406855709616167
 40
1.154689816206543
 40
1.368781121272001
 40
1.581241979552682
 40
1.799023439773457
 40
1.908799527033396
 40
2.015458734289507
 40
2.12121680716249
 40
2.229007665037294
 40
2.336231593754054
 40
2.44354196821293
 40
2.658735162887647
 40
2.87349219707623
 40
3.087577192872612
 40
3.087577192872612
 40
3.087577192872612
 40
3.087577192872612
 10
1137.686758398734
 20
27.61040757218566
 30
0.0
 10
1137.659272332964
 20
27.60500979440538
 30
0.0
 10
1137.561806533077
 20
27.58586923302499
 30
0.0
 10
1137.399656417065
 20
27.52693164149668
 30
0.0
 10
1137.249196955429
 20
27.43048380479215
 30
0.0
 10
1137.125607963672
 20
27.35895076407134
 30
0.0
 10
1136.996059172672
 20
27.29819886634242
 30
0.0
 10
1136.826817964201
 20
27.23957110387466
 30
0.0
 10
1136.617444564956
 20
27.1933694637454
 30
0.0
 10
1136.406426443388
 20
27.15959559220042
 30
0.0
 10
1136.192175754969
 20
27.14307539833914
 30
0.0
 10
1136.012333298247
 20
27.13364298127136
 30
0.0
 10
1135.86888054678
 20
27.112957796635
 30
0.0
 10
1135.765555700221
 20
27.08024855195841
 30
0.0
 10
1135.675792550128
 20
27.01938427457855
 30
0.0
 10
1135.608180538987
 20
26.93470883408515
 30
0.0
 10
1135.563816359433
 20
26.8358988155004
 30
0.0
 10
1135.530954895341
 20
26.6958725982496
 30
0.0
 10
1135.529387161087
 20
26.51439502842345
 30
0.0
 10
1135.577715320349
 20
26.30400927406367
 30
0.0
 10
1135.628128441142
 20
26.17018444230882
 30
0.0
 10
1135.653295500334
 20
26.10337688488565
 30
0.0
 11
1137.686758398734
 21
27.61040757218566
 31
0.0
 11
1137.604544948534
 21
27.59300801418564
 31
0.0
 11
1137.403448925334
 21
27.51995976998566
 31
0.0
 11
1137.218113250433
 21
27.41311820718565
 31
0.0
 11
1137.124894942334
 21
27.36031557918565
 31
0.0
 11
1137.027980710434
 21
27.31455114298567
 31
0.0
 11
1136.825612348534
 21
27.24355189458564
 31
0.0
 11
1136.617089356534
 21
27.19542727728563
 31
0.0
 11
1136.405557749434
 21
27.16242021588565
 31
0.0
 11
1136.193890894134
 21
27.14406923038561
 31
0.0
 11
1135.976749245334
 21
27.12738784038564
 31
0.0
 11
1135.868389745634
 21
27.10980921248566
 31
0.0
 11
1135.767428469734
 21
27.07541433988561
 31
0.0
 11
1135.680005074034
 21
27.01590030908565
 31
0.0
 11
1135.612013374834
 21
26.93225822708561
 31
0.0
 11
1135.567106245834
 21
26.83489128888564
 31
0.0
 11
1135.541831055934
 21
26.73059996018563
 31
0.0
 11
1135.537782373834
 21
26.51544485518562
 31
0.0
 11
1135.582338291833
 21
26.30536069608562
 31
0.0
 11
1135.653295500334
 21
26.10337688488565
 31
0.0
  0
SPLINE
  5
2702
330
21
100
AcDbEntity
  8
0
  6
Continuous
100
AcDbSpline
210
0.0
220
0.0
230
1.0
 70
     8
 71
     3
 72
    16
 73
    12
 74
    10
 42
0.0000000001
 43
0.0000000001
 44
0.0000000001
 40
0.0
 40
0.0
 40
0.0
 40
0.0
 40
0.0010773520114283
 40
0.1087265401577342
 40
0.2103604716496801
 40
0.3116521570612172
 40
0.4154820476176439
 40
0.5177280606618538
 40
0.6205716091058821
 40
0.7236235361440568
 40
0.7263140754413302
 40
0.7263140754413302
 40
0.7263140754413302
 40
0.7263140754413302
 10
1135.841522896134
 20
29.63058449488566
 30
0.0
 10
1135.841374337067
 20
29.63025754817978
 30
0.0
 10
1135.826381731865
 20
29.59726203346492
 30
0.0
 10
1135.802243758606
 20
29.53109261802899
 30
0.0
 10
1135.794545534722
 20
29.42468680097435
 30
0.0
 10
1135.839397398412
 20
29.32860998640308
 30
0.0
 10
1135.914275375961
 20
29.25622852094569
 30
0.0
 10
1136.009022685764
 20
29.21105097259424
 30
0.0
 10
1136.112467442913
 20
29.19932446281243
 30
0.0
 10
1136.181924498575
 20
29.20649436415806
 30
0.0
 10
1136.216689579904
 20
29.21230170223865
 30
0.0
 10
1136.217574151834
 20
29.21244946568564
 30
0.0
 11
1135.841522896134
 21
29.63058449488566
 31
0.0
 11
1135.841077466034
 21
29.62960353648563
 31
0.0
 11
1135.806534695834
 21
29.52764695388564
 31
0.0
 11
1135.803241445934
 21
29.42606639208563
 31
0.0
 11
1135.843897982434
 21
29.33329219538567
 31
0.0
 11
1135.917961975934
 21
29.26052426948562
 31
0.0
 11
1136.010317657734
 21
29.21665314888563
 31
0.0
 11
1136.112258000133
 21
29.20305307358566
 31
0.0
 11
1136.214920147234
 21
29.21200758188561
 31
0.0
 11
1136.217574151834
 21
29.21244946568564
 31
0.0
  0
SPLINE
  5
2703
330
21
100
AcDbEntity
  8
0
  6
Continuous
100
AcDbSpline
210
0.0
220
0.0
230
1.0
 70
    24
 71
     3
 72
     8
 73
     4
 74
     2
 42
0.0000000001
 43
0.0000000001
 44
0.0000000001
 40
0.0
 40
0.0
 40
0.0
 40
0.0
 40
0.0254656761288324
 40
0.0254656761288324
 40
0.0254656761288324
 40
0.0254656761288324
 10
1135.852465638534
 20
29.65357860948567
 30
0.0
 10
1135.848817982534
 20
29.64591373931899
 30
0.0
 10
1135.845170326534
 20
29.63824886915232
 30
0.0
 10
1135.841522670534
 20
29.63058399898566
 30
0.0
 11
1135.852465638534
 21
29.65357860948567
 31
0.0
 11
1135.841522670534
 21
29.63058399898566
 31
0.0
  0
SPLINE
  5
2704
330
21
100
AcDbEntity
  8
0
  6
Continuous
100
AcDbSpline
210
0.0
220
0.0
230
1.0
 70
    24
 71
     3
 72
     8
 73
     4
 74
     2
 42
0.0000000001
 43
0.0000000001
 44
0.0000000001
 40
0.0
 40
0.0
 40
0.0
 40
0.0
 40
0.0520902899065924
 40
0.0520902899065924
 40
0.0520902899065924
 40
0.0520902899065924
 10
1135.877007150334
 20
29.69952545378564
 30
0.0
 10
1135.868826646401
 20
29.68420983901899
 30
0.0
 10
1135.860646142467
 20
29.66889422425233
 30
0.0
 10
1135.852465638534
 20
29.65357860948567
 30
0.0
 11
1135.877007150334
 21
29.69952545378564
 31
0.0
 11
1135.852465638534
 21
29.65357860948567
 31
0.0
  0
SPLINE
  5
2705
330
21
100
AcDbEntity
  8
0
  6
Continuous
100
AcDbSpline
210
0.0
220
0.0
230
1.0
 70
     8
 71
     3
 72
     9
 73
     5
 74
     3
 42
0.0000000001
 43
0.0000000001
 44
0.0000000001
 40
0.0
 40
0.0
 40
0.0
 40
0.0
 40
0.0996467207165547
 40
0.1636212900671585
 40
0.1636212900671585
 40
0.1636212900671585
 40
0.1636212900671585
 10
1136.217572576634
 20
29.21244920098562
 30
0.0
 10
1136.25012575779
 20
29.2190528528921
 30
0.0
 10
1136.303578530326
 20
29.22989614042151
 30
0.0
 10
1136.357186927075
 20
29.23993941190941
 30
0.0
 10
1136.378147366234
 20
29.24386624788562
 30
0.0
 11
1136.217572576634
 21
29.21244920098562
 31
0.0
 11
1136.315289839734
 21
29.23196343788564
 31
0.0
 11
1136.378147366234
 21
29.24386624788562
 31
0.0
  0
SPLINE
  5
2706
330
21
100
AcDbEntity
  8
0
  6
Continuous
100
AcDbSpline
210
0.0
220
0.0
230
1.0
 70
     8
 71
     3
 72
    10
 73
     6
 74
     4
 42
0.0000000001
 43
0.0000000001
 44
0.0000000001
 40
0.0
 40
0.0
 40
0.0
 40
0.0
 40
0.1069947517300776
 40
0.2141854777355623
 40
0.3442195391797095
 40
0.3442195391797095
 40
0.3442195391797095
 40
0.3442195391797095
 10
1138.020353990934
 20
27.57067686608562
 30
0.0
 10
1137.988772697273
 20
27.58843098808742
 30
0.0
 10
1137.925552264858
 20
27.62397175098693
 30
0.0
 10
1137.807744666003
 20
27.62524267725807
 30
0.0
 10
1137.729598751285
 20
27.61566072338999
 30
0.0
 10
1137.686763300634
 20
27.61040840388566
 30
0.0
 11
1138.020353990934
 21
27.57067686608562
 31
0.0
 11
1137.923093823434
 21
27.61526763548565
 31
0.0
 11
1137.816184030734
 21
27.62302314748561
 31
0.0
 11
1137.686763300634
 21
27.61040840388566
 31
0.0
  0
SPLINE
  5
2707
330
21
100
AcDbEntity
  8
0
  6
Continuous
100
AcDbSpline
210
0.0
220
0.0
230
1.0
 70
     8
 71
     3
 72
    12
 73
     8
 74
     6
 42
0.0000000001
 43
0.0000000001
 44
0.0000000001
 40
0.0
 40
0.0
 40
0.0
 40
0.0
 40
0.0695508282238081
 40
0.1164204804080509
 40
0.1650960116002546
 40
0.2110435548582538
 40
0.2537533465787575
 40
0.2537533465787575
 40
0.2537533465787575
 40
0.2537533465787575
 10
1137.999374373734
 20
27.33129747198566
 30
0.0
 10
1138.009427537309
 20
27.35222595226329
 30
0.0
 10
1138.026255433724
 20
27.38725793952147
 30
0.0
 10
1138.041379713673
 20
27.44050415358912
 30
0.0
 10
1138.048279337291
 20
27.48687598335983
 30
0.0
 10
1138.046715586797
 20
27.53455561216089
 30
0.0
 10
1138.028924615085
 20
27.55893320334004
 30
0.0
 10
1138.020353990934
 20
27.57067686608562
 30
0.0
 11
1137.999374373734
 21
27.33129747198566
 31
0.0
 11
1138.027334388634
 21
27.39498071368561
 31
0.0
 11
1138.040229170734
 21
27.44004166008565
 31
0.0
 11
1138.046906249334
 21
27.48825705138566
 31
0.0
 11
1138.042171329134
 21
27.53395997538561
 31
0.0
 11
1138.020353990934
 21
27.57067686608562
 31
0.0
  0
SPLINE
  5
2708
330
21
100
AcDbEntity
  8
0
  6
Continuous
100
AcDbSpline
210
0.0
220
0.0
230
1.0
 70
     8
 71
     3
 72
     9
 73
     5
 74
     3
 42
0.0000000001
 43
0.0000000001
 44
0.0000000001
 40
0.0
 40
0.0
 40
0.0
 40
0.0
 40
0.0349854327710094
 40
0.0534825351900437
 40
0.0534825351900437
 40
0.0534825351900437
 40
0.0534825351900437
 10
1137.973325783534
 20
27.28459305648565
 30
0.0
 10
1137.979205972395
 20
27.2946663574005
 30
0.0
 10
1137.988195068222
 20
27.31006550007182
 30
0.0
 10
1137.996501550726
 20
27.32584134616878
 30
0.0
 10
1137.999374373734
 20
27.33129747198566
 30
0.0
 11
1137.973325783534
 21
27.28459305648565
 31
0.0
 11
1137.990674254334
 21
27.31497415368565
 31
0.0
 11
1137.999374373734
 21
27.33129747198566
 31
0.0
  0
SPLINE
  5
2709
330
21
100
AcDbEntity
  8
0
  6
Continuous
100
AcDbSpline
210
0.0
220
0.0
230
1.0
 70
     8
 71
     3
 72
    19
 73
    15
 74
    13
 42
0.0000000001
 43
0.0000000001
 44
0.0000000001
 40
0.0
 40
0.0
 40
0.0
 40
0.0
 40
0.5317337793169937
 40
1.210557144278263
 40
1.889379919286202
 40
2.568205576979347
 40
3.247037886847279
 40
3.925880452829672
 40
4.604732636643975
 40
5.283577463667254
 40
5.962393796055002
 40
6.641161860083071
 40
7.319857967579129
 40
7.838076967946343
 40
7.838076967946343
 40
7.838076967946343
 40
7.838076967946343
 10
1155.311429380834
 20
5.449079835785624
 30
0.0
 10
1155.32068106068
 20
5.62652467688953
 30
0.0
 10
1155.341743644194
 20
6.030499614102603
 30
0.0
 10
1155.531088793353
 20
6.639238502261144
 30
0.0
 10
1155.867792974935
 20
7.234156080892529
 30
0.0
 10
1156.332222155314
 20
7.737752256151341
 30
0.0
 10
1156.897296607431
 20
8.124151771906515
 30
0.0
 10
1157.534959511142
 20
8.373585265159242
 30
0.0
 10
1158.212376202934
 20
8.473298324887626
 30
0.0
 10
1158.894705134353
 20
8.418075602886404
 30
0.0
 10
1159.547745622499
 20
8.211171359557085
 30
0.0
 10
1160.135178847747
 20
7.861666910186976
 30
0.0
 10
1160.598086821646
 20
7.430153757181379
 30
0.0
 10
1160.815385910565
 20
7.094434067981085
 30
0.0
 10
1160.909468202534
 20
6.949080132185628
 30
0.0
 11
1155.311429380834
 21
5.449079835785624
 31
0.0
 11
1155.358527233434
 21
5.97872368248565
 31
0.0
 11
1155.553191868034
 21
6.629036561685637
 31
0.0
 11
1155.889079576634
 21
7.218934694485625
 31
0.0
 11
1156.348993821734
 21
7.718217340585653
 31
0.0
 11
1156.909390339833
 21
8.10132182688565
 31
0.0
 11
1157.541581392234
 21
8.348630748385659
 31
0.0
 11
1158.213198832834
 21
8.447475581085627
 31
0.0
 11
1158.889837617134
 21
8.392792359185618
 31
0.0
 11
1159.536833213234
 21
8.187394424085625
 31
0.0
 11
1160.121050234734
 21
7.841827416785662
 31
0.0
 11
1160.612582346534
 21
7.373826787085619
 31
0.0
 11
1160.909468202534
 21
6.949080132185628
 31
0.0
  0
ARC
  5
270A
330
21
100
AcDbEntity
  8
0
  6
Continuous
100
AcDbCircle
 10
1135.311423668534
 20
30.21369704608563
 30
0.0
 40
10.999690002
100
AcDbArc
 50
270.0
 51
180.538696085294
  0
ARC
  5
270B
330
21
100
AcDbEntity
  8
0
  6
Continuous
100
AcDbCircle
 10
1117.156723130134
 20
48.21369704608563
 30
0.0
 40
2.0
100
AcDbArc
 50
56.44269023809241
 51
90.0
  0
ARC
  5
270C
330
21
100
AcDbEntity
  8
0
  6
Continuous
100
AcDbCircle
 10
1120.473347920434
 20
53.21369704608563
 30
0.0
 40
4.0
100
AcDbArc
 50
236.4426902380924
 51
270.0
  0
ARC
  5
270D
330
21
100
AcDbEntity
  8
0
  6
Continuous
100
AcDbCircle
 10
1162.179372860934
 20
58.21369704608563
 30
0.0
 40
3.0
100
AcDbArc
 50
285.3428125054027
 51
330.0000000000027
  0
ARC
  5
270E
330
21
100
AcDbEntity
  8
0
  6
Continuous
100
AcDbCircle
 10
1162.179372860934
 20
2.213697046085627
 30
0.0
 40
3.0
100
AcDbArc
 50
29.99999999999729
 51
74.65718749459732
  0
ARC
  5
270F
330
21
100
AcDbEntity
  8
0
  6
Continuous
100
AcDbCircle
 10
1156.715271245834
 20
52.21369704608562
 30
0.0
 40
3.0
100
AcDbArc
 50
270.0
 51
330.0000000000027
  0
ARC
  5
2710
330
21
100
AcDbEntity
  8
0
  6
Continuous
100
AcDbCircle
 10
1163.766935133134
 20
52.42753717688564
 30
0.0
 40
3.0
100
AcDbArc
 50
105.3428125055105
 51
150.0000000000027
  0
ARC
  5
2711
330
21
100
AcDbEntity
  8
0
  6
Continuous
100
AcDbCircle
 10
1163.766935133134
 20
7.999856915285619
 30
0.0
 40
3.0
100
AcDbArc
 50
209.9999999999973
 51
254.6571874945974
  0
ARC
  5
2712
330
21
100
AcDbEntity
  8
0
  6
Continuous
100
AcDbCircle
 10
1167.317790256734
 20
57.11369704608566
 30
0.0
 40
2.0
100
AcDbArc
 50
90.0
 51
150.0000000000027
  0
ARC
  5
2713
330
21
100
AcDbEntity
  8
0
  6
Continuous
100
AcDbCircle
 10
1167.317790256734
 20
3.31369704608565
 30
0.0
 40
2.0
100
AcDbArc
 50
209.9999999999973
 51
270.0
  0
ARC
  5
2714
330
21
100
AcDbEntity
  8
0
  6
Continuous
100
AcDbCircle
 10
1108.554064355634
 20
53.21369704608563
 30
0.0
 40
3.0
100
AcDbArc
 50
224.9999999999954
 51
270.0
  0
ARC
  5
2715
330
21
100
AcDbEntity
  8
0
  6
Continuous
100
AcDbCircle
 10
1158.311423668534
 20
2.45633773318562
 30
0.0
 40
3.0
100
AcDbArc
 50
180.0
 51
224.9999999999954
  0
CIRCLE
  5
2716
330
21
100
AcDbEntity
  8
0
  6
Continuous
100
AcDbCircle
 10
1138.144233086334
 20
36.26046980658563
 30
0.0
 40
0.328409678
  0
ARC
  5
2717
330
21
100
AcDbEntity
  8
0
  6
Continuous
100
AcDbCircle
 10
1092.677109093434
 20
53.81369704608565
 30
0.0
 40
0.4
100
AcDbArc
 50
90.0
 51
135.000000000198
  0
ARC
  5
2718
330
21
100
AcDbEntity
  8
0
  6
Continuous
100
AcDbCircle
 10
1090.711423668534
 20
51.84801162108565
 30
0.0
 40
0.4
100
AcDbArc
 50
135.000000002402
 51
180.0
  0
ARC
  5
2719
330
21
100
AcDbEntity
  8
0
  6
Continuous
100
AcDbCircle
 10
1158.911423668534
 20
-13.42061752901438
 30
0.0
 40
0.4
100
AcDbArc
 50
314.9999999997076
 51
0.0
  0
ARC
  5
271A
330
21
100
AcDbEntity
  8
0
  6
Continuous
100
AcDbCircle
 10
1156.945738243534
 20
-15.38630295391434
 30
0.0
 40
0.4
100
AcDbArc
 50
270.0
 51
314.9999999933031
  0
ARC
  5
271B
330
21
100
AcDbEntity
  8
0
  6
Continuous
100
AcDbCircle
 10
1184.911423668534
 20
55.40651736908566
 30
0.0
 40
0.4
100
AcDbArc
 50
0.0
 51
29.99999999700392
  0
ARC
  5
271C
330
21
100
AcDbEntity
  8
0
  6
Continuous
100
AcDbCircle
 10
1184.911423668534
 20
5.020876722985661
 30
0.0
 40
0.4
100
AcDbArc
 50
330.0000000040069
 51
0.0
  0
LINE
  5
271D
330
21
100
AcDbEntity
  8
0
  6
Continuous
100
AcDbLine
 10
1185.257833830034
 20
55.60651736908565
 30
0.0
 11
1183.242370298334
 21
59.09740260668562
 31
0.0
  0
LINE
  5
271E
330
21
100
AcDbEntity
  8
0
  6
Continuous
100
AcDbLine
 10
1185.257833830034
 20
4.820876722985616
 30
0.0
 11
1183.242370298334
 21
1.329991485385647
 31
0.0
  0
LINE
  5
271F
330
21
100
AcDbEntity
  8
0
  6
Continuous
100
AcDbLine
 10
1185.311423668534
 20
55.40651736908566
 30
0.0
 11
1185.311423668534
 21
5.020876722985661
 31
0.0
  0
LINE
  5
2720
330
21
100
AcDbEntity
  8
0
  6
Continuous
100
AcDbLine
 10
1185.257833830034
 20
55.60651736908565
 30
0.0
 11
1185.257833830034
 21
4.820876722985616
 31
0.0
  0
LINE
  5
2721
330
21
100
AcDbEntity
  8
0
  6
Continuous
100
AcDbLine
 10
1183.232962699434
 20
59.09197112698561
 30
0.0
 11
1183.232962699434
 21
59.11369704608566
 31
0.0
  0
LINE
  5
2722
330
21
100
AcDbEntity
  8
0
  6
Continuous
100
AcDbLine
 10
1183.232962699434
 20
43.68254310888565
 30
0.0
 11
1183.232962699434
 21
45.62312506408566
 31
0.0
  0
LINE
  5
2723
330
21
100
AcDbEntity
  8
0
  6
Continuous
100
AcDbLine
 10
1183.232962699434
 20
14.80426902798561
 30
0.0
 11
1183.232962699434
 21
16.74485098318561
 31
0.0
  0
LINE
  5
2724
330
21
100
AcDbEntity
  8
0
  6
Continuous
100
AcDbLine
 10
1183.232962699434
 20
1.31369704608565
 30
0.0
 11
1183.232962699434
 21
1.335422965185642
 31
0.0
  0
LINE
  5
2725
330
21
100
AcDbEntity
  8
0
  6
Continuous
100
AcDbLine
 10
1183.232962699434
 20
59.11369704608566
 30
0.0
 11
1167.317790256734
 21
59.11369704608566
 31
0.0
  0
LINE
  5
2726
330
21
100
AcDbEntity
  8
0
  6
Continuous
100
AcDbLine
 10
1183.232962699434
 20
59.09197112698561
 30
0.0
 11
1167.317790256734
 21
59.09197112698561
 31
0.0
  0
LINE
  5
2727
330
21
100
AcDbEntity
  8
0
  6
Continuous
100
AcDbLine
 10
1183.357286481634
 20
58.82552545828563
 30
0.0
 11
1167.317820779934
 21
58.82552545828563
 31
0.0
  0
LINE
  5
2728
330
21
100
AcDbEntity
  8
0
  6
Continuous
100
AcDbLine
 10
1157.228580956034
 20
-15.66914566641438
 30
0.0
 11
1159.194266380934
 21
-13.70346024151436
 31
0.0
  0
LWPOLYLINE
  5
2729
330
21
100
AcDbEntity
  8
0
  6
Continuous
100
AcDbPolyline
 90
        5
 70
     0
 43
0.0
 10
1167.317790256734
 20
59.09197112698561
 10
1166.800048813234
 20
59.02384633528564
 10
1166.317580172834
 20
58.82410215068566
 10
1165.903343324034
 20
58.50639182788566
 10
1165.585739449134
 20
58.09272288888561
  0
LINE
  5
272A
330
21
100
AcDbEntity
  8
0
  6
Continuous
100
AcDbLine
 10
1103.311423668534
 20
54.21369704608562
 30
0.0
 11
1092.677109093434
 21
54.21369704608562
 31
0.0
  0
LINE
  5
272B
330
21
100
AcDbEntity
  8
0
  6
Continuous
100
AcDbLine
 10
1090.811423668534
 20
52.51369704608563
 30
0.0
 11
1105.011423668534
 21
52.51369704608563
 31
0.0
  0
LINE
  5
272C
330
21
100
AcDbEntity
  8
0
  6
Continuous
100
AcDbLine
 10
1167.317790256734
 20
1.601868633785642
 30
0.0
 11
1167.317790256734
 21
1.31369704608565
 31
0.0
  0
LINE
  5
272D
330
21
100
AcDbEntity
  8
0
  6
Continuous
100
AcDbLine
 10
1167.317790256734
 20
17.67695105678561
 30
0.0
 11
1167.317790256734
 21
14.13861462308566
 31
0.0
  0
LINE
  5
272E
330
21
100
AcDbEntity
  8
0
  6
Continuous
100
AcDbLine
 10
1167.317790256734
 20
46.28877946908565
 30
0.0
 11
1167.317790256734
 21
42.75044303538564
 31
0.0
  0
LINE
  5
272F
330
21
100
AcDbEntity
  8
0
  6
Continuous
100
AcDbLine
 10
1167.317790256734
 20
59.11369704608566
 30
0.0
 11
1167.317790256734
 21
58.82552545828563
 31
0.0
  0
LINE
  5
2730
330
21
100
AcDbEntity
  8
0
  6
Continuous
100
AcDbLine
 10
1167.317790256734
 20
42.75044303538564
 30
0.0
 11
1165.585739449134
 21
43.21649307208562
 31
0.0
  0
LINE
  5
2731
330
21
100
AcDbEntity
  8
0
  6
Continuous
100
AcDbLine
 10
1117.156723130134
 20
50.21369704608563
 30
0.0
 11
1108.554064355634
 21
50.21369704608563
 31
0.0
  0
LINE
  5
2732
330
21
100
AcDbEntity
  8
0
  6
Continuous
100
AcDbLine
 10
1156.715271245834
 20
49.21369704608562
 30
0.0
 11
1120.473347920434
 21
49.21369704608562
 31
0.0
  0
LINE
  5
2733
330
21
100
AcDbEntity
  8
0
  6
Continuous
100
AcDbLine
 10
1165.585739449134
 20
2.334671049385661
 30
0.0
 11
1165.585739449134
 21
2.31369704608565
 31
0.0
  0
LINE
  5
2734
330
21
100
AcDbEntity
  8
0
  6
Continuous
100
AcDbLine
 10
1165.585739449134
 20
17.21087679608561
 30
0.0
 11
1165.585739449134
 21
15.33747058778564
 31
0.0
  0
LINE
  5
2735
330
21
100
AcDbEntity
  8
0
  6
Continuous
100
AcDbLine
 10
1165.585739449134
 20
45.08992350438567
 30
0.0
 11
1165.585739449134
 21
43.21679427818563
 31
0.0
  0
LINE
  5
2736
330
21
100
AcDbEntity
  8
0
  6
Continuous
100
AcDbLine
 10
1165.585739449134
 20
58.11369704608566
 30
0.0
 11
1165.585739449134
 21
58.09272395888561
 31
0.0
  0
LINE
  5
2737
330
21
100
AcDbEntity
  8
0
  6
Continuous
100
AcDbLine
 10
1164.777449072234
 20
56.39028761258564
 30
0.0
 11
1164.777449072234
 21
56.71369704608562
 31
0.0
  0
LINE
  5
2738
330
21
100
AcDbEntity
  8
0
  6
Continuous
100
AcDbLine
 10
1164.777449072234
 20
39.72748820528565
 30
0.0
 11
1164.777449072234
 21
46.87649645338561
 31
0.0
  0
LINE
  5
2739
330
21
100
AcDbEntity
  8
0
  6
Continuous
100
AcDbLine
 10
1164.777449072234
 20
13.55089763878564
 30
0.0
 11
1164.777449072234
 21
20.69990588678562
 31
0.0
  0
LINE
  5
273A
330
21
100
AcDbEntity
  8
0
  6
Continuous
100
AcDbLine
 10
1164.777449072234
 20
3.713697046085627
 30
0.0
 11
1164.777449072234
 21
4.037106479485629
 31
0.0
  0
LINE
  5
273B
330
21
100
AcDbEntity
  8
0
  6
Continuous
100
AcDbLine
 10
1162.973153997034
 20
55.32061711148563
 30
0.0
 11
1162.973153997034
 21
5.106776980685623
 31
0.0
  0
LINE
  5
273C
330
21
100
AcDbEntity
  8
0
  6
Continuous
100
AcDbLine
 10
1166.509499879834
 20
39.36847721818563
 30
0.0
 11
1164.777396773834
 21
39.72749904978562
 31
0.0
  0
LINE
  5
273D
330
21
100
AcDbEntity
  8
0
  6
Continuous
100
AcDbLine
 10
1167.317824675234
 20
46.28877946908565
 30
0.0
 11
1183.357286481634
 21
46.28877946908565
 31
0.0
  0
LINE
  5
273E
330
21
100
AcDbEntity
  8
0
  6
Continuous
100
AcDbLine
 10
1167.317790256734
 20
45.62312506408566
 30
0.0
 11
1183.232962699434
 21
45.62312506408566
 31
0.0
  0
LINE
  5
273F
330
21
100
AcDbEntity
  8
0
  6
Continuous
100
AcDbLine
 10
1183.232962699434
 20
43.68254310888565
 30
0.0
 11
1167.317790256734
 21
43.68254310888565
 31
0.0
  0
LINE
  5
2740
330
21
100
AcDbEntity
  8
0
  6
Continuous
100
AcDbLine
 10
1183.357286481634
 20
42.75044303538564
 30
0.0
 11
1167.317723825534
 21
42.75044303538564
 31
0.0
  0
LWPOLYLINE
  5
2741
330
21
100
AcDbEntity
  8
0
  6
Continuous
100
AcDbPolyline
 90
        5
 70
     0
 43
0.0
 10
1167.317790256734
 20
45.62312506408566
 10
1166.800152166534
 20
45.58678848788562
 10
1166.317790256734
 20
45.48025503668563
 10
1165.903576694334
 20
45.31078478918565
 10
1165.585739449134
 20
45.08992686278562
  0
LINE
  5
2742
330
21
100
AcDbEntity
  8
0
  6
Continuous
100
AcDbLine
 10
1161.168858921834
 20
53.92753717688563
 30
0.0
 11
1161.168858921834
 21
6.499856915285619
 31
0.0
  0
LINE
  5
2743
330
21
100
AcDbEntity
  8
0
  6
Continuous
100
AcDbLine
 10
1159.313347457134
 20
11.27406047128565
 30
0.0
 11
1159.313347457134
 21
50.71369704608563
 31
0.0
  0
LINE
  5
2744
330
21
100
AcDbEntity
  8
0
  6
Continuous
100
AcDbLine
 10
1159.311423668534
 20
-13.42061752901438
 30
0.0
 11
1159.311423668534
 21
-2.786302953914372
 31
0.0
  0
LWPOLYLINE
  5
2745
330
21
100
AcDbEntity
  8
0
  6
Continuous
100
AcDbPolyline
 90
        5
 70
     0
 43
0.0
 10
1167.317790256734
 20
43.68254310888565
 10
1166.800048813234
 20
43.65076966118564
 10
1166.317580172834
 20
43.55760884188564
 10
1165.903343324034
 20
43.40942853788564
 10
1165.585739449134
 20
43.21649307208562
  0
LINE
  5
2746
330
21
100
AcDbEntity
  8
0
  6
Continuous
100
AcDbLine
 10
1157.611423668534
 20
-15.28630295391437
 30
0.0
 11
1157.611423668534
 21
-1.086302953914383
 31
0.0
  0
LINE
  5
2747
330
21
100
AcDbEntity
  8
0
  6
Continuous
100
AcDbLine
 10
1156.715271245834
 20
12.65917196168564
 30
0.0
 11
1156.715271245834
 21
49.21369704608562
 31
0.0
  0
LINE
  5
2748
330
21
100
AcDbEntity
  8
0
  6
Continuous
100
AcDbLine
 10
1155.311423668534
 20
2.45633773318562
 30
0.0
 11
1155.311423668534
 21
5.449079953285632
 31
0.0
  0
LINE
  5
2749
330
21
100
AcDbEntity
  8
0
  6
Continuous
100
AcDbLine
 10
1165.585739449134
 20
2.31369704608565
 30
0.0
 11
1164.777449072234
 21
3.713697046085627
 31
0.0
  0
LINE
  5
274A
330
21
100
AcDbEntity
  8
0
  6
Continuous
100
AcDbLine
 10
1161.168858921834
 20
6.499856915285619
 30
0.0
 11
1160.909495192834
 21
6.949088071385659
 31
0.0
  0
LWPOLYLINE
  5
274B
330
21
100
AcDbEntity
  8
0
  6
Continuous
100
AcDbPolyline
 90
        4
 70
     0
 43
0.0
 10
1149.540230175634
 20
12.50237218228565
 10
1149.340147166534
 20
13.01885131888562
 10
1149.216973512434
 20
13.57871243528566
 10
1149.175388983734
 20
14.16068457578566
  0
LINE
  5
274C
330
21
100
AcDbEntity
  8
0
  6
CENTER
100
AcDbLine
 10
1079.924291037754
 20
30.21369704608563
 30
0.0
 11
1192.118054552704
 21
30.21369704608563
 31
0.0
  0
LINE
  5
274D
330
21
100
AcDbEntity
  8
0
  6
Continuous
100
AcDbLine
 10
1165.585739449134
 20
58.11369704608566
 30
0.0
 11
1164.777449072234
 21
56.71369704608562
 31
0.0
  0
LINE
  5
274E
330
21
100
AcDbEntity
  8
0
  6
Continuous
100
AcDbLine
 10
1161.168858921834
 20
53.92753717688563
 30
0.0
 11
1159.313347457134
 21
50.71369704608563
 31
0.0
  0
LINE
  5
274F
330
21
100
AcDbEntity
  8
0
  6
Continuous
100
AcDbLine
 10
1106.432744012034
 20
51.09237670248567
 30
0.0
 11
1103.311423668534
 21
54.21369704608562
 31
0.0
  0
LINE
  5
2750
330
21
100
AcDbEntity
  8
0
  6
Continuous
100
AcDbLine
 10
1159.311423668534
 20
-2.786302953914372
 30
0.0
 11
1156.190103324934
 21
0.3350173895856585
 31
0.0
  0
LWPOLYLINE
  5
2751
330
21
100
AcDbEntity
  8
0
  6
Continuous
100
AcDbPolyline
 90
        5
 70
     0
 43
0.0
 10
1167.317790256734
 20
16.74485098318561
 10
1166.800152166534
 20
16.77661152298563
 10
1166.317790256734
 20
16.86972871418564
 10
1165.903576694334
 20
17.01785677398564
 10
1165.585739449134
 20
17.21090101998564
  0
LINE
  5
2752
330
21
100
AcDbEntity
  8
0
  6
Continuous
100
AcDbLine
 10
1138.748372140234
 20
24.89454028618562
 30
0.0
 11
1139.189401044334
 21
26.92807497618563
 31
0.0
  0
LINE
  5
2753
330
21
100
AcDbEntity
  8
0
  6
CENTER
100
AcDbLine
 10
1135.311423668534
 20
61.33841125998561
 30
0.0
 11
1135.233669577177
 21
-25.87341962550386
 31
0.0
  0
LWPOLYLINE
  5
2754
330
21
100
AcDbEntity
  8
0
  6
Continuous
100
AcDbPolyline
 90
        5
 70
     0
 43
0.0
 10
1156.715271245834
 20
12.65988288758566
 10
1157.491728381134
 20
12.56544103818564
 10
1158.215271245834
 20
12.28855154588567
 10
1158.836591589334
 20
11.84808397208562
 10
1159.313347458334
 20
11.27405545248561
  0
LWPOLYLINE
  5
2755
330
21
100
AcDbEntity
  8
0
  6
Continuous
100
AcDbPolyline
 90
        5
 70
     0
 43
0.0
 10
1167.317790256734
 20
14.80426902798561
 10
1166.800048813234
 20
14.84062037188565
 10
1166.317580172834
 20
14.94720373718562
 10
1165.903343324034
 20
15.11673375608566
 10
1165.585739449134
 20
15.33746722928563
  0
LINE
  5
2756
330
21
100
AcDbEntity
  8
0
  6
Continuous
100
AcDbLine
 10
1167.317789317834
 20
17.67695105678561
 30
0.0
 11
1183.357286481634
 21
17.67695105678561
 31
0.0
  0
LINE
  5
2757
330
21
100
AcDbEntity
  8
0
  6
Continuous
100
AcDbLine
 10
1167.317790256734
 20
16.74485098318561
 30
0.0
 11
1183.232962699434
 21
16.74485098318561
 31
0.0
  0
LINE
  5
2758
330
21
100
AcDbEntity
  8
0
  6
Continuous
100
AcDbLine
 10
1183.232962699434
 20
14.80426902798561
 30
0.0
 11
1167.317790256734
 21
14.80426902798561
 31
0.0
  0
LINE
  5
2759
330
21
100
AcDbEntity
  8
0
  6
Continuous
100
AcDbLine
 10
1135.311423668534
 20
14.16068457578572
 30
0.0
 11
1149.175085433234
 21
14.16068457578566
 31
0.0
  0
LINE
  5
275A
330
21
100
AcDbEntity
  8
0
  6
Continuous
100
AcDbLine
 10
1166.509499879834
 20
21.05891687388564
 30
0.0
 11
1164.777449144634
 21
20.69990589798564
 31
0.0
  0
LINE
  5
275B
330
21
100
AcDbEntity
  8
0
  6
Continuous
100
AcDbLine
 10
1183.357286481634
 20
14.13861462308566
 30
0.0
 11
1167.317824675034
 21
14.13861462308566
 31
0.0
  0
LINE
  5
275C
330
21
100
AcDbEntity
  8
0
  6
Continuous
100
AcDbLine
 10
1135.311423668534
 20
12.50237218068562
 30
0.0
 11
1149.540242304234
 21
12.50237218068562
 31
0.0
  0
LINE
  5
275D
330
21
100
AcDbEntity
  8
0
  6
Continuous
100
AcDbLine
 10
1135.311423668534
 20
10.84405978548565
 30
0.0
 11
1153.136086339234
 21
10.84405978548565
 31
0.0
  0
LINE
  5
275E
330
21
100
AcDbEntity
  8
0
  6
Continuous
100
AcDbLine
 10
1167.317790256734
 20
17.67695105678561
 30
0.0
 11
1165.585739449134
 21
17.21090101998564
 31
0.0
  0
LWPOLYLINE
  5
275F
330
21
100
AcDbEntity
  8
0
  6
Continuous
100
AcDbPolyline
 90
        5
 70
     0
 43
0.0
 10
1167.317790256734
 20
1.335422965185642
 10
1166.800152166534
 20
1.40352008128562
 10
1166.317790256734
 20
1.603170723585634
 10
1165.903576694334
 20
1.920769030885622
 10
1165.585739449134
 20
2.334671203285637
  0
LINE
  5
2760
330
21
100
AcDbEntity
  8
0
  6
Continuous
100
AcDbLine
 10
1135.311423668534
 20
2.456337733185563
 30
0.0
 11
1155.311423668534
 21
2.45633773318562
 31
0.0
  0
LINE
  5
2761
330
21
100
AcDbEntity
  8
0
  6
Continuous
100
AcDbLine
 10
1120.473347920434
 20
30.21369704608563
 30
0.0
 11
1120.473347920434
 21
49.21369704608562
 31
0.0
  0
LINE
  5
2762
330
21
100
AcDbEntity
  8
0
  6
Continuous
100
AcDbLine
 10
1118.262264726934
 20
30.21369704608563
 30
0.0
 11
1118.262264726934
 21
49.88036371268563
 31
0.0
  0
LINE
  5
2763
330
21
100
AcDbEntity
  8
0
  6
Continuous
100
AcDbLine
 10
1167.317824675234
 20
1.601868633785642
 30
0.0
 11
1183.357286481634
 21
1.601868633785642
 31
0.0
  0
LINE
  5
2764
330
21
100
AcDbEntity
  8
0
  6
Continuous
100
AcDbLine
 10
1167.317790256734
 20
1.335422965185642
 30
0.0
 11
1183.232962699434
 21
1.335422965185642
 31
0.0
  0
LINE
  5
2765
330
21
100
AcDbEntity
  8
0
  6
Continuous
100
AcDbLine
 10
1183.232962699434
 20
1.31369704608565
 30
0.0
 11
1167.317790256734
 21
1.31369704608565
 31
0.0
  0
LINE
  5
2766
330
21
100
AcDbEntity
  8
0
  6
Continuous
100
AcDbLine
 10
1135.311423668534
 20
0.3350173895856585
 30
0.0
 11
1156.190103324934
 21
0.3350173895856585
 31
0.0
  0
LINE
  5
2767
330
21
100
AcDbEntity
  8
0
  6
Continuous
100
AcDbLine
 10
1135.311423668534
 20
-1.086302191014368
 30
0.0
 11
1157.611422905534
 21
-1.086302191014368
 31
0.0
  0
LINE
  5
2768
330
21
100
AcDbEntity
  8
0
  6
Continuous
100
AcDbLine
 10
1135.311423668534
 20
-2.786302953914372
 30
0.0
 11
1159.311423668534
 21
-2.786302953914372
 31
0.0
  0
LINE
  5
2769
330
21
100
AcDbEntity
  8
0
  6
Continuous
100
AcDbLine
 10
1108.554064355634
 20
30.21369704608563
 30
0.0
 11
1108.554064355634
 21
50.21369704608563
 31
0.0
  0
LINE
  5
276A
330
21
100
AcDbEntity
  8
0
  6
Continuous
100
AcDbLine
 10
1106.432744012034
 20
30.21369704608563
 30
0.0
 11
1106.432744012034
 21
51.09237670248567
 31
0.0
  0
LINE
  5
276B
330
21
100
AcDbEntity
  8
0
  6
Continuous
100
AcDbLine
 10
1159.311423668534
 20
-13.42061752901438
 30
0.0
 11
1135.311423668534
 21
-13.42061752901438
 31
0.0
  0
LINE
  5
276C
330
21
100
AcDbEntity
  8
0
  6
Continuous
100
AcDbLine
 10
1159.194266380934
 20
-13.70346024151436
 30
0.0
 11
1135.311423668534
 21
-13.70346024151436
 31
0.0
  0
LINE
  5
276D
330
21
100
AcDbEntity
  8
0
  6
Continuous
100
AcDbLine
 10
1105.011424431434
 20
52.51369628308563
 30
0.0
 11
1105.011424431434
 21
30.21369704608563
 31
0.0
  0
LINE
  5
276E
330
21
100
AcDbEntity
  8
0
  6
Continuous
100
AcDbLine
 10
1103.311423668534
 20
30.21369704608563
 30
0.0
 11
1103.311423668534
 21
54.21369704608562
 31
0.0
  0
LINE
  5
276F
330
21
100
AcDbEntity
  8
0
  6
Continuous
100
AcDbLine
 10
1135.311423668534
 20
-15.28630295391431
 30
0.0
 11
1157.611422905534
 21
-15.28630295391437
 31
0.0
  0
LINE
  5
2770
330
21
100
AcDbEntity
  8
0
  6
Continuous
100
AcDbLine
 10
1157.228580956034
 20
-15.66914566641438
 30
0.0
 11
1135.311423668534
 21
-15.66914566641443
 31
0.0
  0
LINE
  5
2772
330
21
100
AcDbEntity
  8
0
  6
Continuous
100
AcDbLine
 10
1092.677109093434
 20
54.21369704608562
 30
0.0
 11
1092.677109093434
 21
30.21369704608563
 31
0.0
  0
LINE
  5
2773
330
21
100
AcDbEntity
  8
0
  6
Continuous
100
AcDbLine
 10
1092.394266380934
 20
54.09653975848565
 30
0.0
 11
1092.394266380934
 21
30.21369704608557
 31
0.0
  0
LINE
  5
2774
330
21
100
AcDbEntity
  8
0
  6
Continuous
100
AcDbLine
 10
1090.811423668534
 20
52.51369628308563
 30
0.0
 11
1090.811423668534
 21
30.21369704608563
 31
0.0
  0
LINE
  5
2775
330
21
100
AcDbEntity
  8
0
  6
Continuous
100
AcDbLine
 10
1090.428580956034
 20
52.13085433358563
 30
0.0
 11
1090.428580956034
 21
30.21369704608563
 31
0.0
  0
LINE
  5
2776
330
21
100
AcDbEntity
  8
0
  6
Continuous
100
AcDbLine
 10
1090.311423668534
 20
51.84801162108565
 30
0.0
 11
1090.311423668534
 21
30.21369704608563
 31
0.0
  0
LINE
  5
2777
330
21
100
AcDbEntity
  8
0
  6
Continuous
100
AcDbLine
 10
1092.394266380934
 20
54.09653975848565
 30
0.0
 11
1090.428580956034
 21
52.13085433358563
 31
0.0
  0
LINE
  5
27B6
330
21
100
AcDbEntity
  8
0
100
AcDbLine
 10
1135.311423668533
 20
-15.86498855991434
 30
0.0
 11
1156.73960283532
 21
-15.86498855991431
 31
0.0
  0
LINE
  5
27B7
330
21
100
AcDbEntity
  8
0
100
AcDbLine
 10
1156.945738243534
 20
-15.78630295391434
 30
0.0
 11
1156.739602835319
 21
-15.86498855991434
 31
0.0
  0
LINE
  5
2902
330
21
100
AcDbEntity
  8
0
100
AcDbLine
 10
1185.311423668534
 20
50.21369704608566
 30
0.0
 11
1185.311423668534
 21
50.21369704608566
 31
0.0
  0
MTEXT
  5
2E3E
330
21
100
AcDbEntity
  8
0
100
AcDbMText
 10
2320.303926075331
 20
185.571951966812
 30
0.0
 40
0.18
 41
14.68390410115808
 71
     9
 72
     1
  1
\A1;
 73
     1
 44
1.0
  0
ENDSEC
  0
SECTION
  2
OBJECTS
  0
DICTIONARY
  5
232
330
0
100
AcDbDictionary
281
     1
  3
ACAD_COLOR
350
2B7
  3
ACAD_GROUP
350
233
  3
ACAD_LAYOUT
350
274
  3
ACAD_MATERIAL
350
2B6
  3
ACAD_MLINESTYLE
350
234
  3
ACAD_PLOTSETTINGS
350
275
  3
ACAD_PLOTSTYLENAME
350
272
  3
ACDBHEADERROUNDTRIPXREC
350
5E34
  3
AcDbVariableDictionary
350
2AE
  0
DICTIONARY
  5
2B7
102
{ACAD_REACTORS
330
232
102
}
330
232
100
AcDbDictionary
281
     1
  0
DICTIONARY
  5
233
102
{ACAD_REACTORS
330
232
102
}
330
232
100
AcDbDictionary
281
     1
  0
DICTIONARY
  5
274
102
{ACAD_REACTORS
330
232
102
}
330
232
100
AcDbDictionary
281
     1
  3
Layout1
350
277
  3
Model
350
276
  0
DICTIONARY
  5
2B6
102
{ACAD_REACTORS
330
232
102
}
330
232
100
AcDbDictionary
281
     1
  0
DICTIONARY
  5
234
102
{ACAD_REACTORS
330
232
102
}
330
232
100
AcDbDictionary
281
     1
  3
STANDARD
350
235
  0
DICTIONARY
  5
275
102
{ACAD_REACTORS
330
232
102
}
330
232
100
AcDbDictionary
281
     1
  0
ACDBDICTIONARYWDFLT
  5
272
102
{ACAD_REACTORS
330
232
102
}
330
232
100
AcDbDictionary
281
     1
  3
Normal
350
273
100
AcDbDictionaryWithDefault
340
273
  0
DICTIONARY
  5
5E34
102
{ACAD_REACTORS
330
232
102
}
330
232
100
AcDbDictionary
281
     1
  3
COLORDICT
350
5E35
  3
MATERIALDICT
350
5E36
  0
DICTIONARY
  5
2AE
102
{ACAD_REACTORS
330
232
102
}
330
232
100
AcDbDictionary
281
     1
  0
LAYOUT
  5
277
102
{ACAD_REACTORS
330
274
102
}
330
274
100
AcDbPlotSettings
  1

  2
\\alderaan\HP LaserJet 5Si/5Si MX PS Tecnico
  4

  6

 40
0.0
 41
0.0
 42
0.0
 43
0.0
 44
0.0
 45
0.0
 46
0.0
 47
0.0
 48
0.0
 49
0.0
140
0.0
141
0.0
142
1.0
143
1.0
 70
   688
 72
     0
 73
     0
 74
     5
  7

 75
    16
147
1.0
148
0.0
149
0.0
100
AcDbLayout
  1
Layout1
 70
     0
 71
     1
 10
0.0
 20
0.0
 11
12.0
 21
9.0
 12
0.0
 22
0.0
 32
0.0
 14
1.000000000000000E+20
 24
1.000000000000000E+20
 34
1.000000000000000E+20
 15
-1.000000000000000E+20
 25
-1.000000000000000E+20
 35
-1.000000000000000E+20
146
0.0
 13
0.0
 23
0.0
 33
0.0
 16
1.0
 26
0.0
 36
0.0
 17
0.0
 27
1.0
 37
0.0
 76
     0
330
22
  0
LAYOUT
  5
276
102
{ACAD_REACTORS
330
274
102
}
330
274
100
AcDbPlotSettings
  1

  2
\\alderaan\HP LaserJet 4050 Ricerca
  4
A4
  6

 40
5.027083396911621
 41
5.069430828094482
 42
5.365737915039062
 43
5.365753173828125
 44
209.8886566162109
 45
297.0530090332031
 46
0.0
 47
0.0
 48
70.15568666023683
 49
-413.5017910393744
140
1567.471881557387
141
355.5977189696187
142
1.0
143
5.224086096996019
 70
 11952
 72
     1
 73
     1
 74
     4
  7

 75
     0
147
0.1914210411989621
148
-70.15568666023683
149
413.5017910393744
100
AcDbLayout
  1
Model
 70
     1
 71
     0
 10
0.0
 20
0.0
 11
12.0
 21
9.0
 12
0.0
 22
0.0
 32
0.0
 14
0.0
 24
0.0
 34
0.0
 15
0.0
 25
0.0
 35
0.0
146
0.0
 13
0.0
 23
0.0
 33
0.0
 16
1.0
 26
0.0
 36
0.0
 17
0.0
 27
1.0
 37
0.0
 76
     0
330
21
  0
MLINESTYLE
  5
235
102
{ACAD_REACTORS
330
234
102
}
330
234
100
AcDbMlineStyle
  2
STANDARD
 70
     0
  3

 62
     0
 51
90.00000000000019
 52
90.00000000000019
 71
     2
 49
0.5
 62
   256
  6
BYLAYER
 49
-0.5
 62
   256
  6
BYLAYER
  0
ACDBPLACEHOLDER
  5
273
102
{ACAD_REACTORS
330
272
102
}
330
272
  0
XRECORD
  5
5E35
102
{ACAD_REACTORS
330
5E34
102
}
330
5E34
100
AcDbXrecord
280
     1
340
2B7
  0
XRECORD
  5
5E36
102
{ACAD_REACTORS
330
5E34
102
}
330
5E34
100
AcDbXrecord
280
     1
340
2B6
  0
ENDSEC
  0
EOF
