  0
SECTION
  2
HEADER
  9
$ACADVER
  1
AC1015
  9
$ACADMAINTVER
 70
     6
  9
$DWGCODEPAGE
  3
ANSI_1252
  9
$INSBASE
 10
0.0
 20
0.0
 30
0.0
  9
$EXTMIN
 10
284.3190627940706
 20
-451.816176746759
 30
-40.73332500000001
  9
$EXTMAX
 10
4800.663162093308
 20
246.9266154161779
 30
20.8
  9
$LIMMIN
 10
0.0
 20
0.0
  9
$LIMMAX
 10
420.0
 20
297.0
  9
$ORTHOMODE
 70
     1
  9
$REGENMODE
 70
     1
  9
$FILLMODE
 70
     1
  9
$QTEXTMODE
 70
     0
  9
$MIRRTEXT
 70
     1
  9
$LTSCALE
 40
23.1
  9
$ATTMODE
 70
     1
  9
$TEXTSIZE
 40
0.2
  9
$TRACEWID
 40
0.05
  9
$TEXTSTYLE
  7
STANDARD
  9
$CLAYER
  8
0
  9
$CELTYPE
  6
BYLAYER
  9
$CECOLOR
 62
   256
  9
$CELTSCALE
 40
1.0
  9
$DISPSILH
 70
     0
  9
$DIMSCALE
 40
1.0
  9
$DIMASZ
 40
3.0
  9
$DIMEXO
 40
2.625
  9
$DIMDLI
 40
15.96
  9
$DIMRND
 40
0.0
  9
$DIMDLE
 40
0.0
  9
$DIMEXE
 40
7.559999999999999
  9
$DIMTP
 40
0.0
  9
$DIMTM
 40
0.0
  9
$DIMTXT
 40
0.18
  9
$DIMCEN
 40
3.779999999999999
  9
$DIMTSZ
 40
0.0
  9
$DIMTOL
 70
     0
  9
$DIMLIM
 70
     0
  9
$DIMTIH
 70
     1
  9
$DIMTOH
 70
     1
  9
$DIMSE1
 70
     0
  9
$DIMSE2
 70
     0
  9
$DIMTAD
 70
     0
  9
$DIMZIN
 70
     0
  9
$DIMBLK
  1

  9
$DIMASO
 70
     1
  9
$DIMSHO
 70
     1
  9
$DIMPOST
  1

  9
$DIMAPOST
  1

  9
$DIMALT
 70
     0
  9
$DIMALTD
 70
     2
  9
$DIMALTF
 40
25.4
  9
$DIMLFAC
 40
1.0
  9
$DIMTOFL
 70
     0
  9
$DIMTVP
 40
0.0
  9
$DIMTIX
 70
     0
  9
$DIMSOXD
 70
     0
  9
$DIMSAH
 70
     0
  9
$DIMBLK1
  1

  9
$DIMBLK2
  1

  9
$DIMSTYLE
  2
STANDARD
  9
$DIMCLRD
 70
     0
  9
$DIMCLRE
 70
     0
  9
$DIMCLRT
 70
     0
  9
$DIMTFAC
 40
1.0
  9
$DIMGAP
 40
0.09
  9
$DIMJUST
 70
     0
  9
$DIMSD1
 70
     0
  9
$DIMSD2
 70
     0
  9
$DIMTOLJ
 70
     1
  9
$DIMTZIN
 70
     0
  9
$DIMALTZ
 70
     0
  9
$DIMALTTZ
 70
     0
  9
$DIMUPT
 70
     0
  9
$DIMDEC
 70
     4
  9
$DIMTDEC
 70
     4
  9
$DIMALTU
 70
     2
  9
$DIMALTTD
 70
     2
  9
$DIMTXSTY
  7
STANDARD
  9
$DIMAUNIT
 70
     0
  9
$DIMADEC
 70
     0
  9
$DIMALTRND
 40
0.0
  9
$DIMAZIN
 70
     0
  9
$DIMDSEP
 70
    46
  9
$DIMATFIT
 70
     3
  9
$DIMFRAC
 70
     0
  9
$DIMLDRBLK
  1

  9
$DIMLUNIT
 70
     2
  9
$DIMLWD
 70
    -2
  9
$DIMLWE
 70
    -2
  9
$DIMTMOVE
 70
     0
  9
$LUNITS
 70
     2
  9
$LUPREC
 70
     4
  9
$SKETCHINC
 40
0.1
  9
$FILLETRAD
 40
0.0
  9
$AUNITS
 70
     0
  9
$AUPREC
 70
     0
  9
$MENU
  1
acad
  9
$ELEVATION
 40
0.0
  9
$PELEVATION
 40
0.0
  9
$THICKNESS
 40
0.0
  9
$LIMCHECK
 70
     0
  9
$CHAMFERA
 40
0.0
  9
$CHAMFERB
 40
0.0
  9
$CHAMFERC
 40
0.0
  9
$CHAMFERD
 40
0.0
  9
$SKPOLY
 70
     0
  9
$TDCREATE
 40
2444972.041666667
  9
$TDUCREATE
 40
2444972.0
  9
$TDUPDATE
 40
2453410.56054669
  9
$TDUUPDATE
 40
2453410.518880023
  9
$TDINDWG
 40
1.2633122338
  9
$TDUSRTIMER
 40
1.2633122338
  9
$USRTIMER
 70
     1
  9
$ANGBASE
 50
0.0
  9
$ANGDIR
 70
     0
  9
$PDMODE
 70
     0
  9
$PDSIZE
 40
0.0
  9
$PLINEWID
 40
0.0
  9
$SPLFRAME
 70
     0
  9
$SPLINETYPE
 70
     6
  9
$SPLINESEGS
 70
     8
  9
$HANDSEED
  5
5F09
  9
$SURFTAB1
 70
     6
  9
$SURFTAB2
 70
     6
  9
$SURFTYPE
 70
     6
  9
$SURFU
 70
     6
  9
$SURFV
 70
     6
  9
$UCSBASE
  2

  9
$UCSNAME
  2

  9
$UCSORG
 10
0.0
 20
0.0
 30
0.0
  9
$UCSXDIR
 10
1.0
 20
0.0
 30
0.0
  9
$UCSYDIR
 10
0.0
 20
1.0
 30
0.0
  9
$UCSORTHOREF
  2

  9
$UCSORTHOVIEW
 70
     0
  9
$UCSORGTOP
 10
0.0
 20
0.0
 30
0.0
  9
$UCSORGBOTTOM
 10
0.0
 20
0.0
 30
0.0
  9
$UCSORGLEFT
 10
0.0
 20
0.0
 30
0.0
  9
$UCSORGRIGHT
 10
0.0
 20
0.0
 30
0.0
  9
$UCSORGFRONT
 10
0.0
 20
0.0
 30
0.0
  9
$UCSORGBACK
 10
0.0
 20
0.0
 30
0.0
  9
$PUCSBASE
  2

  9
$PUCSNAME
  2

  9
$PUCSORG
 10
0.0
 20
0.0
 30
0.0
  9
$PUCSXDIR
 10
1.0
 20
0.0
 30
0.0
  9
$PUCSYDIR
 10
0.0
 20
1.0
 30
0.0
  9
$PUCSORTHOREF
  2

  9
$PUCSORTHOVIEW
 70
     0
  9
$PUCSORGTOP
 10
0.0
 20
0.0
 30
0.0
  9
$PUCSORGBOTTOM
 10
0.0
 20
0.0
 30
0.0
  9
$PUCSORGLEFT
 10
0.0
 20
0.0
 30
0.0
  9
$PUCSORGRIGHT
 10
0.0
 20
0.0
 30
0.0
  9
$PUCSORGFRONT
 10
0.0
 20
0.0
 30
0.0
  9
$PUCSORGBACK
 10
0.0
 20
0.0
 30
0.0
  9
$USERI1
 70
     0
  9
$USERI2
 70
     0
  9
$USERI3
 70
     0
  9
$USERI4
 70
     0
  9
$USERI5
 70
     0
  9
$USERR1
 40
0.0
  9
$USERR2
 40
0.0
  9
$USERR3
 40
0.0
  9
$USERR4
 40
0.0
  9
$USERR5
 40
0.0
  9
$WORLDVIEW
 70
     1
  9
$SHADEDGE
 70
     3
  9
$SHADEDIF
 70
    70
  9
$TILEMODE
 70
     1
  9
$MAXACTVP
 70
    16
  9
$PINSBASE
 10
0.0
 20
0.0
 30
0.0
  9
$PLIMCHECK
 70
     0
  9
$PEXTMIN
 10
1.000000000000000E+20
 20
1.000000000000000E+20
 30
1.000000000000000E+20
  9
$PEXTMAX
 10
-1.000000000000000E+20
 20
-1.000000000000000E+20
 30
-1.000000000000000E+20
  9
$PLIMMIN
 10
0.0
 20
0.0
  9
$PLIMMAX
 10
12.0
 20
9.0
  9
$UNITMODE
 70
     0
  9
$VISRETAIN
 70
     0
  9
$PLINEGEN
 70
     1
  9
$PSLTSCALE
 70
     0
  9
$TREEDEPTH
 70
  3020
  9
$CMLSTYLE
  2
STANDARD
  9
$CMLJUST
 70
     0
  9
$CMLSCALE
 40
1.0
  9
$PROXYGRAPHICS
 70
     1
  9
$MEASUREMENT
 70
     0
  9
$CELWEIGHT
370
    -1
  9
$ENDCAPS
280
     0
  9
$JOINSTYLE
280
     0
  9
$LWDISPLAY
290
     0
  9
$INSUNITS
 70
     0
  9
$HYPERLINKBASE
  1

  9
$STYLESHEET
  1

  9
$XEDIT
290
     1
  9
$CEPSNTYPE
380
     0
  9
$PSTYLEMODE
290
     1
  9
$FINGERPRINTGUID
  2
{0BC36D6C-D7C2-4D71-98D4-CB92CFD2B5E3}
  9
$VERSIONGUID
  2
{BD236364-6109-4C78-A5C5-F5E8F1C117B6}
  9
$EXTNAMES
290
     1
  9
$PSVPSCALE
 40
0.0
  9
$OLESTARTUP
290
     0
  0
ENDSEC
  0
SECTION
  2
CLASSES
  0
CLASS
  1
IMAGE
  2
AcDbRasterImage
  3
ISM
 90
      127
280
     0
281
     1
  0
CLASS
  1
DICTIONARYVAR
  2
AcDbDictionaryVar
  3
ObjectDBX Classes
 90
        0
280
     0
281
     0
  0
CLASS
  1
RASTERVARIABLES
  2
AcDbRasterVariables
  3
ISM
 90
        0
280
     0
281
     0
  0
CLASS
  1
IMAGEDEF
  2
AcDbRasterImageDef
  3
ISM
 90
        0
280
     0
281
     0
  0
CLASS
  1
IMAGEDEF_REACTOR
  2
AcDbRasterImageDefReactor
  3
ISM
 90
        1
280
     0
281
     0
  0
CLASS
  1
IDBUFFER
  2
AcDbIdBuffer
  3
ObjectDBX Classes
 90
        0
280
     0
281
     0
  0
CLASS
  1
SPATIAL_FILTER
  2
AcDbSpatialFilter
  3
ObjectDBX Classes
 90
        0
280
     0
281
     0
  0
CLASS
  1
SORTENTSTABLE
  2
AcDbSortentsTable
  3
ObjectDBX Classes
 90
        0
280
     0
281
     0
  0
CLASS
  1
LAYER_INDEX
  2
AcDbLayerIndex
  3
ObjectDBX Classes
 90
        0
280
     0
281
     0
  0
CLASS
  1
SPATIAL_INDEX
  2
AcDbSpatialIndex
  3
AutoCAD 2000
 90
        0
280
     0
281
     0
  0
CLASS
  1
OBJECT_PTR
  2
CAseDLPNTableRecord
  3
ASE-LPNTableRecord
 90
        1
280
     0
281
     0
  0
CLASS
  1
PLOTSETTINGS
  2
AcDbPlotSettings
  3
ObjectDBX Classes
 90
        0
280
     0
281
     0
  0
CLASS
  1
ACDBDICTIONARYWDFLT
  2
AcDbDictionaryWithDefault
  3
ObjectDBX Classes
 90
        0
280
     0
281
     0
  0
CLASS
  1
WIPEOUT
  2
AcDbWipeout
  3
WipeOut|AutoCAD Express Tool|expresstools@autodesk.com
 90
      127
280
     0
281
     1
  0
CLASS
  1
WIPEOUTVARIABLES
  2
AcDbWipeoutVariables
  3
WipeOut|AutoCAD Express Tool|expresstools@autodesk.com
 90
        0
280
     0
281
     0
  0
CLASS
  1
RTEXT
  2
RText
  3
RText|AutoCAD Express Tool|expresstools@autodesk.com
 90
        0
280
     0
281
     1
  0
CLASS
  1
ARCALIGNEDTEXT
  2
AcDbArcAlignedText
  3
ATEXT|AutoCAD Express Tool|expresstools@autodesk.com
 90
        0
280
     0
281
     1
  0
CLASS
  1
ACDBPLACEHOLDER
  2
AcDbPlaceHolder
  3
ObjectDBX Classes
 90
        0
280
     0
281
     0
  0
CLASS
  1
LAYOUT
  2
AcDbLayout
  3
ObjectDBX Classes
 90
        0
280
     0
281
     0
  0
ENDSEC
  0
SECTION
  2
TABLES
  0
TABLE
  2
VPORT
  5
6
330
0
100
AcDbSymbolTable
 70
     1
  0
VPORT
  5
5EFD
330
6
100
AcDbSymbolTableRecord
100
AcDbViewportTableRecord
  2
*Active
 70
     0
 10
0.0
 20
0.0
 11
1.0
 21
1.0
 12
1163.754749574163
 22
-339.805992901356
 13
0.0
 23
0.0
 14
1.0
 24
1.0
 15
0.0
 25
0.0
 16
0.0
 26
0.0
 36
1.0
 17
0.0
 27
0.0
 37
0.0
 40
259.8697022062735
 41
1.888667992047713
 42
50.0
 43
0.0
 44
0.0
 50
0.0
 51
0.0
 71
     0
 72
   100
 73
     1
 74
     1
 75
     0
 76
     0
 77
     0
 78
     0
281
     0
 65
     1
110
0.0
120
0.0
130
0.0
111
1.0
121
0.0
131
0.0
112
0.0
122
1.0
132
0.0
 79
     0
146
0.0
  0
ENDTAB
  0
TABLE
  2
LTYPE
  5
3
330
0
100
AcDbSymbolTable
 70
     2
  0
LTYPE
  5
C
330
3
100
AcDbSymbolTableRecord
100
AcDbLinetypeTableRecord
  2
BYBLOCK
 70
     0
  3

 72
    65
 73
     0
 40
0.0
  0
LTYPE
  5
D
330
3
100
AcDbSymbolTableRecord
100
AcDbLinetypeTableRecord
  2
BYLAYER
 70
     0
  3

 72
    65
 73
     0
 40
0.0
  0
LTYPE
  5
E
330
3
100
AcDbSymbolTableRecord
100
AcDbLinetypeTableRecord
  2
CONTINUOUS
 70
     0
  3
Solid line
 72
    65
 73
     0
 40
0.0
  0
LTYPE
  5
F
330
3
100
AcDbSymbolTableRecord
100
AcDbLinetypeTableRecord
  2
CENTER
 70
     0
  3
____ _ ____ _ ____ _ ____ _ ____ _ ____ _ ____
 72
    65
 73
     4
 40
0.6
 49
0.375
 74
     0
 49
-0.075
 74
     0
 49
0.075
 74
     0
 49
-0.075
 74
     0
  0
ENDTAB
  0
TABLE
  2
LAYER
  5
1
330
0
100
AcDbSymbolTable
 70
     2
  0
LAYER
  5
14
330
1
100
AcDbSymbolTableRecord
100
AcDbLayerTableRecord
  2
0
 70
     0
 62
     7
  6
CONTINUOUS
370
    -3
390
616
  0
LAYER
  5
61F
330
1
100
AcDbSymbolTableRecord
100
AcDbLayerTableRecord
  2
Defpoints
 70
     0
 62
     7
  6
CONTINUOUS
290
     0
370
    -3
390
616
  0
ENDTAB
  0
TABLE
  2
STYLE
  5
2
330
0
100
AcDbSymbolTable
 70
     3
  0
STYLE
  5
1D
330
2
100
AcDbSymbolTableRecord
100
AcDbTextStyleTableRecord
  2
STANDARD
 70
     0
 40
0.0
 41
1.0
 50
0.0
 71
     0
 42
0.2
  3
VERDANA.TTF
  4

1001
ACAD
1000
Verdana
1071
       34
  0
STYLE
  5
1A
330
2
100
AcDbSymbolTableRecord
100
AcDbTextStyleTableRecord
  2
TEXTSTYLE_0
 70
     0
 40
0.0
 41
0.8
 50
0.0
 71
     0
 42
0.2
  3
txt
  4

  0
STYLE
  5
1B
330
2
100
AcDbSymbolTableRecord
100
AcDbTextStyleTableRecord
  2
TEXTSTYLE_1
 70
     0
 40
0.0
 41
0.8
 50
0.0
 71
     0
 42
0.2
  3
txt
  4

  0
ENDTAB
  0
TABLE
  2
VIEW
  5
4
330
0
100
AcDbSymbolTable
 70
     0
  0
ENDTAB
  0
TABLE
  2
UCS
  5
5
330
0
100
AcDbSymbolTable
 70
     0
  0
ENDTAB
  0
TABLE
  2
APPID
  5
7
330
0
100
AcDbSymbolTable
 70
     1
  0
APPID
  5
19
330
7
100
AcDbSymbolTableRecord
100
AcDbRegAppTableRecord
  2
ACAD
 70
     0
  0
ENDTAB
  0
TABLE
  2
DIMSTYLE
  5
8
330
0
100
AcDbSymbolTable
 70
     2
100
AcDbDimStyleTable
  0
DIMSTYLE
105
2D
330
8
100
AcDbSymbolTableRecord
100
AcDbDimStyleTableRecord
  2
STANDARD
 70
     0
 47
0.003
 48
0.003
 71
     1
140
1.5
289
     0
340
1D
  0
DIMSTYLE
105
784
330
8
100
AcDbSymbolTableRecord
100
AcDbDimStyleTableRecord
  2
dimensionali
 70
     0
 41
6.0
 42
5.0
 43
31.958
 44
0.0
 47
0.003
 48
0.003
 71
     1
 73
     0
 74
     0
140
8.0
141
7.568999999999999
147
5.0
340
1D
341
785
342
785
  0
ENDTAB
  0
TABLE
  2
BLOCK_RECORD
  5
28
330
0
100
AcDbSymbolTable
 70
     1
  0
BLOCK_RECORD
  5
26
330
28
100
AcDbSymbolTableRecord
100
AcDbBlockTableRecord
  2
*MODEL_SPACE
340
61B
  0
BLOCK_RECORD
  5
27
330
28
100
AcDbSymbolTableRecord
100
AcDbBlockTableRecord
  2
*PAPER_SPACE
340
61C
  0
BLOCK_RECORD
  5
785
330
28
100
AcDbSymbolTableRecord
100
AcDbBlockTableRecord
  2
_Dot
340
0
  0
ENDTAB
  0
ENDSEC
  0
SECTION
  2
BLOCKS
  0
BLOCK
  5
29
330
26
100
AcDbEntity
  8
0
100
AcDbBlockBegin
  2
*MODEL_SPACE
 70
     0
 71
     0
 10
0.0
 20
0.0
 30
0.0
  3
*MODEL_SPACE
  1

  0
ENDBLK
  5
2A
330
26
100
AcDbEntity
  8
0
100
AcDbBlockEnd
  0
BLOCK
  5
2B
330
27
100
AcDbEntity
 67
     1
  8
0
100
AcDbBlockBegin
  2
*PAPER_SPACE
 70
     0
 71
     0
 10
0.0
 20
0.0
 30
0.0
  3
*PAPER_SPACE
  1

  0
ENDBLK
  5
2C
330
27
100
AcDbEntity
 67
     1
  8
0
100
AcDbBlockEnd
  0
BLOCK
  5
786
330
785
100
AcDbEntity
  8
0
100
AcDbBlockBegin
  2
_Dot
 70
     0
 71
     0
 10
0.0
 20
0.0
 30
0.0
  3
_Dot
  1

  0
LWPOLYLINE
  5
787
330
785
100
AcDbEntity
  8
0
  6
ByBlock
 62
     0
100
AcDbPolyline
 90
        2
 70
     1
 43
0.5
 10
-0.25
 20
0.0
 42
1.0
 10
0.25
 20
0.0
 42
1.0
  0
LINE
  5
788
330
785
100
AcDbEntity
  8
0
  6
ByBlock
 62
     0
370
    -2
100
AcDbLine
 10
-0.5
 20
0.0
 30
0.0
 11
-1.0
 21
0.0
 31
0.0
  0
ENDBLK
  5
789
330
785
100
AcDbEntity
  8
0
100
AcDbBlockEnd
  0
ENDSEC
  0
SECTION
  2
ENTITIES
  0
TEXT
  5
E5
330
26
100
AcDbEntity
  8
0
  6
Continuous
 62
     2
100
AcDbText
 10
98.4898777622
 20
41.38631207849999
 30
0.0
 40
1.8
  1
 
  7
TEXTSTYLE_1
 72
     5
 11
100.8041634764
 21
41.38631207849999
 31
0.0
100
AcDbText
  0
TEXT
  5
11D
330
26
100
AcDbEntity
  8
0
  6
Continuous
 62
     1
100
AcDbText
 10
328.1631333629
 20
32.0853596703
 30
0.0
 40
1.5
  1
 
  7
TEXTSTYLE_0
 72
     5
 11
330.0092872091
 21
32.0853596703
 31
0.0
100
AcDbText
  0
TEXT
  5
11E
330
26
100
AcDbEntity
  8
0
  6
Continuous
 62
     1
100
AcDbText
 10
330.0092872091
 20
32.0853596703
 30
0.0
 40
1.5
  1
 
  7
TEXTSTYLE_0
 72
     5
 11
331.8554410552
 21
32.0853596703
 31
0.0
100
AcDbText
  0
TEXT
  5
120
330
26
100
AcDbEntity
  8
0
  6
Continuous
 62
     1
100
AcDbText
 10
352.836210286
 20
32.0853596703
 30
0.0
 40
1.5
  1
 
  7
TEXTSTYLE_0
 72
     5
 11
354.6823641321
 21
32.0853596703
 31
0.0
100
AcDbText
  0
TEXT
  5
12A
330
26
100
AcDbEntity
  8
0
  6
Continuous
 62
     1
100
AcDbText
 10
401.5862102859999
 20
20.9420904395
 30
0.0
 40
1.5
  1
 
  7
TEXTSTYLE_0
 72
     5
 11
403.4323641321
 21
20.9420904395
 31
0.0
100
AcDbText
  0
LEADER
  5
3C1A
330
26
100
AcDbEntity
  8
0
  6
Continuous
100
AcDbLeader
  3
dimensionali
 76
     3
 10
4742.343203675238
 20
155.8380403142116
 30
0.0
 10
4757.902017335047
 20
136.8901693944412
 30
0.0
 10
4783.479369618905
 20
136.7947445882755
 30
0.0
  0
TEXT
  5
3C1B
330
26
100
AcDbEntity
  8
0
100
AcDbText
 10
4784.238716156438
 20
235.8641573906574
 30
0.0
 40
8.0
  1
Ex'
100
AcDbText
  0
LINE
  5
5516
330
26
100
AcDbEntity
  8
0
100
AcDbLine
 10
1142.964774427926
 20
-382.1696802074307
 30
0.0
 11
1143.017168977258
 21
-382.1696802074307
 31
0.0
  0
LINE
  5
5517
330
26
100
AcDbEntity
  8
0
100
AcDbLine
 10
1146.53616248973
 20
-384.6658284208282
 30
0.0
 11
1146.53616248963
 21
-385.7629282142658
 31
0.0
  0
LINE
  5
5518
330
26
100
AcDbEntity
  8
0
  6
Continuous
100
AcDbLine
 10
1144.83616248973
 20
-387.3812984746281
 30
0.0
 11
1144.83616248973
 21
-383.6843329631282
 31
0.0
  0
LINE
  5
5519
330
26
100
AcDbEntity
  8
0
  6
CENTER
100
AcDbLine
 10
1122.536161616206
 20
-322.0370293286241
 30
0.0
 11
1122.522343064934
 21
-420.1219238328385
 31
0.0
  0
LINE
  5
551A
330
26
100
AcDbEntity
  8
0
100
AcDbLine
 10
1098.53616248973
 20
-394.8427147650282
 30
0.0
 11
1098.53616248973
 21
-395.900142995928
 31
0.0
  0
LINE
  5
551B
330
26
100
AcDbEntity
  8
0
100
AcDbLine
 10
1101.95377964293
 20
-397.6658284208282
 30
0.0
 11
1102.25833764002
 21
-397.9575386580692
 31
0.0
  0
LINE
  5
551C
330
26
100
AcDbEntity
  8
0
100
AcDbLine
 10
1102.761041506352
 20
-392.2340155837265
 30
0.0
 11
1102.648601998041
 21
-392.1423644398774
 31
0.0
  0
LINE
  5
551D
330
26
100
AcDbEntity
  8
0
100
AcDbLine
 10
1102.53616248973
 20
-392.0507132960282
 30
0.0
 11
1102.761041506352
 21
-392.2340155837265
 31
0.0
  0
LINE
  5
551E
330
26
100
AcDbEntity
  8
0
100
AcDbLine
 10
1104.85002660043
 20
-391.2658284208281
 30
0.0
 11
1105.473686321808
 21
-391.8658284208282
 31
0.0
  0
LINE
  5
551F
330
26
100
AcDbEntity
  8
0
100
AcDbLine
 10
1106.53616248973
 20
-390.8658284208282
 30
0.0
 11
1105.949186524631
 21
-391.7678804490281
 31
0.0
  0
SPLINE
  5
5520
330
26
100
AcDbEntity
  8
0
  6
Continuous
100
AcDbSpline
210
-1.080000000000000E-14
220
-1.0
230
-1.400000000000000E-15
 70
     8
 71
     3
 72
    11
 73
     7
 74
     5
 42
0.0000000001
 43
0.0000000001
 44
0.0000000001
 40
0.0
 40
0.0
 40
0.0
 40
0.0
 40
3.281837640632124
 40
6.997908186853387
 40
10.71397873311985
 40
14.43004927935508
 40
14.43004927935508
 40
14.43004927935508
 40
14.43004927935508
 10
1104.51633838593
 20
-403.3277086362281
 30
-13.4734950899
 10
1103.897538550196
 20
-403.3277086362281
 30
-12.56873864695182
 10
1102.578063027428
 20
-403.3277086362281
 30
-10.63951386117115
 10
1101.170945411443
 20
-403.3277086362281
 30
-7.334910107799897
 10
1100.212772769404
 20
-403.3277086362282
 30
-3.721339895014349
 10
1100.095032582955
 20
-403.3277086362281
 30
-1.240446631667973
 10
1100.036162489731
 20
-403.3277086362281
 30
0.0
 11
1104.51633838593
 21
-403.3277086362281
 31
-13.4734950899
 11
1102.74800308753
 21
-403.3277086362281
 31
-10.7088163433
 11
1101.25527455143
 21
-403.3277086362281
 31
-7.3057380571
 11
1100.34303316313
 21
-403.3277086362281
 31
-3.7033782813
 11
1100.036162489731
 21
-403.3277086362281
 31
0.0
  0
ARC
  5
5521
330
26
100
AcDbEntity
  8
0
  6
Continuous
100
AcDbCircle
 10
1098.93616248973
 20
-395.9001429959282
 30
0.0
 40
0.4
100
AcDbArc
 50
180.0
 51
225.0000000038978
  0
ARC
  5
5522
330
26
100
AcDbEntity
  8
0
  6
Continuous
100
AcDbCircle
 10
1100.901847914631
 20
-397.8658284208282
 30
0.0
 40
0.4
100
AcDbArc
 50
224.9999999973976
 51
269.9999999997916
  0
ARC
  5
5523
330
26
100
AcDbEntity
  8
0
  6
Continuous
100
AcDbCircle
 10
1103.536162489731
 20
-392.8658284208282
 30
0.0
 40
1.0
100
AcDbArc
 50
90.00000000009119
 51
180.0
  0
ARC
  5
5524
330
26
100
AcDbEntity
  8
0
  6
Continuous
100
AcDbCircle
 10
1101.536162489731
 20
-397.2658284208281
 30
0.0
 40
1.0
100
AcDbArc
 50
270.0
 51
0.0
  0
ARC
  5
5525
330
26
100
AcDbEntity
  8
0
  6
Continuous
100
AcDbCircle
 10
1098.43616248973
 20
-388.1620232112282
 30
0.0
 40
0.4
100
AcDbArc
 50
179.9999999999006
 51
225.0000000104969
  0
ARC
  5
5526
330
26
100
AcDbEntity
  8
0
  6
Continuous
100
AcDbCircle
 10
1101.03616248973
 20
-403.9975816173281
 30
0.0
 40
1.0
100
AcDbArc
 50
180.0
 51
240.0000000047986
  0
ARC
  5
5527
330
26
100
AcDbEntity
  8
0
  6
Continuous
100
AcDbCircle
 10
1105.53616248973
 20
-408.9050589054282
 30
0.0
 40
1.0
100
AcDbArc
 50
0.0
 51
60.00000000000028
  0
ARC
  5
5528
330
26
100
AcDbEntity
  8
0
  6
Continuous
100
AcDbCircle
 10
1095.536162489731
 20
-411.259759443828
 30
0.0
 40
3.0
100
AcDbArc
 50
0.0
 51
60.00000000000028
  0
ARC
  5
5529
330
26
100
AcDbEntity
  8
0
  6
Continuous
100
AcDbCircle
 10
1094.53616248973
 20
-404.9089064827281
 30
0.0
 40
2.0
100
AcDbArc
 50
180.0
 51
240.0000000000002
  0
ARC
  5
552A
330
26
100
AcDbEntity
  8
0
  6
Continuous
100
AcDbCircle
 10
1099.536162489731
 20
-411.3277086362281
 30
0.0
 40
1.0
100
AcDbArc
 50
180.0
 51
269.9999999995961
  0
ARC
  5
552B
330
26
100
AcDbEntity
  8
0
  6
Continuous
100
AcDbCircle
 10
1097.43616248973
 20
-387.9277086362281
 30
0.0
 40
0.6
100
AcDbArc
 50
0.0
 51
89.99999999979156
  0
ARC
  5
552C
330
26
100
AcDbEntity
  8
0
  6
Continuous
100
AcDbCircle
 10
1096.343342166631
 20
-387.7277086362282
 30
0.0
 40
0.4
100
AcDbArc
 50
90.0
 51
119.9999999961038
  0
ARC
  5
552D
330
26
100
AcDbEntity
  8
0
  6
Continuous
100
AcDbCircle
 10
1101.93616248973
 20
-399.8658284208282
 30
0.0
 40
0.4
100
AcDbArc
 50
180.0
 51
270.0
  0
ARC
  5
552E
330
26
100
AcDbEntity
  8
0
  6
Continuous
100
AcDbCircle
 10
1103.39281783203
 20
-400.6658284208281
 30
0.0
 40
0.4
100
AcDbArc
 50
14.99999999589905
 51
89.99999999910109
  0
CIRCLE
  5
552F
330
26
100
AcDbEntity
  8
0
  6
Continuous
100
AcDbCircle
 10
1104.586162489731
 20
-395.0658284208281
 30
0.0
 40
2.049999999999999
  0
LINE
  5
5530
330
26
100
AcDbEntity
  8
0
  6
Continuous
100
AcDbLine
 10
1105.53616248973
 20
-412.3277086362281
 30
0.0
 11
1106.53616248973
 21
-411.3277086362281
 31
0.0
  0
LINE
  5
5531
330
26
100
AcDbEntity
  8
0
  6
Continuous
100
AcDbLine
 10
1105.70786549493
 20
-407.7602225988281
 30
0.0
 11
1106.53616248973
 21
-406.9319256041281
 31
0.0
  0
LINE
  5
5532
330
26
100
AcDbEntity
  8
0
  6
Continuous
100
AcDbLine
 10
1105.42231232413
 20
-406.6945236570282
 30
0.0
 11
1106.53616248973
 21
-405.5806734914281
 31
0.0
  0
LINE
  5
5533
330
26
100
AcDbEntity
  8
0
  6
Continuous
100
AcDbLine
 10
1105.13675915333
 20
-405.6288247152281
 30
0.0
 11
1106.53616248973
 21
-404.2294213788282
 31
0.0
  0
LINE
  5
5534
330
26
100
AcDbEntity
  8
0
  6
Continuous
100
AcDbLine
 10
1104.85120598243
 20
-404.5631257733281
 30
0.0
 11
1106.53616248973
 21
-402.8781692661281
 31
0.0
  0
LINE
  5
5535
330
26
100
AcDbEntity
  8
0
  6
Continuous
100
AcDbLine
 10
1104.56565281163
 20
-403.4974268315282
 30
0.0
 11
1106.53616248973
 21
-401.5269171534281
 31
0.0
  0
LINE
  5
5536
330
26
100
AcDbEntity
  8
0
  6
Continuous
100
AcDbLine
 10
1104.28009964083
 20
-402.4317278897281
 30
0.0
 11
1106.53616248973
 21
-400.1756650407282
 31
0.0
  0
LINE
  5
5537
330
26
100
AcDbEntity
  8
0
  6
Continuous
100
AcDbLine
 10
1103.99454646993
 20
-401.3660289478281
 30
0.0
 11
1106.52100336723
 21
-398.8395720505281
 31
0.0
  0
LINE
  5
5538
330
26
100
AcDbEntity
  8
0
  6
Continuous
100
AcDbLine
 10
1103.64817805713
 20
-400.361145247928
 30
0.0
 11
1105.74349488423
 21
-398.2658284208282
 31
0.0
  0
LINE
  5
5539
330
26
100
AcDbEntity
  8
0
  6
Continuous
100
AcDbLine
 10
1102.392242771631
 20
-400.2658284208281
 30
0.0
 11
1104.392242771631
 21
-398.2658284208282
 31
0.0
  0
LINE
  5
553A
330
26
100
AcDbEntity
  8
0
  6
Continuous
100
AcDbLine
 10
1104.93451766553
 20
-397.0759245013281
 30
0.0
 11
1106.59353364793
 21
-395.4169085189282
 31
0.0
  0
LINE
  5
553B
330
26
100
AcDbEntity
  8
0
  6
Continuous
100
AcDbLine
 10
1104.25472241193
 20
-397.0800936985281
 30
0.0
 11
1106.596406632331
 21
-394.7384094782282
 31
0.0
  0
LINE
  5
553C
330
26
100
AcDbEntity
  8
0
  6
Continuous
100
AcDbLine
 10
1101.536162489731
 20
-399.7706565901282
 30
0.0
 11
1103.04099065893
 21
-398.2658284208282
 31
0.0
  0
LINE
  5
553D
330
26
100
AcDbEntity
  8
0
  6
Continuous
100
AcDbLine
 10
1103.739443296331
 20
-396.9197467578282
 30
0.0
 11
1106.44113436893
 21
-394.2180556853282
 31
0.0
  0
LINE
  5
553E
330
26
100
AcDbEntity
  8
0
  6
Continuous
100
AcDbLine
 10
1103.32034718373
 20
-396.6632168141282
 30
0.0
 11
1106.18453091013
 21
-393.7990330877282
 31
0.0
  0
LINE
  5
553F
330
26
100
AcDbEntity
  8
0
  6
Continuous
100
AcDbLine
 10
1101.536162489731
 20
-398.4194044774282
 30
0.0
 11
1101.68973854623
 21
-398.2658284208282
 31
0.0
  0
LINE
  5
5540
330
26
100
AcDbEntity
  8
0
  6
Continuous
100
AcDbLine
 10
1092.53616248973
 20
-389.4639046322282
 30
0.0
 11
1096.14334216663
 21
-387.3812984747282
 31
0.0
  0
LINE
  5
5541
330
26
100
AcDbEntity
  8
0
  6
Continuous
100
AcDbLine
 10
1102.98269763993
 20
-396.3252403015282
 30
0.0
 11
1105.845360407931
 21
-393.4625775336282
 31
0.0
  0
LINE
  5
5542
330
26
100
AcDbEntity
  8
0
  6
Continuous
100
AcDbLine
 10
1102.72775903903
 20
-395.9045528461281
 30
0.0
 11
1105.42469729793
 21
-393.2076145872281
 31
0.0
  0
LINE
  5
5543
330
26
100
AcDbEntity
  8
0
  6
Continuous
100
AcDbLine
 10
1102.57456708763
 20
-395.3821187412282
 30
0.0
 11
1104.90759045083
 21
-393.0490953780282
 31
0.0
  0
LINE
  5
5544
330
26
100
AcDbEntity
  8
0
  6
Continuous
100
AcDbLine
 10
1102.58051608663
 20
-394.7005436858282
 30
0.0
 11
1104.22124525003
 21
-393.0598145224282
 31
0.0
  0
LINE
  5
5545
330
26
100
AcDbEntity
  8
0
  6
Continuous
100
AcDbLine
 10
1106.189752328231
 20
-407.8658284208281
 30
0.0
 11
1106.53616248973
 21
-407.2658284208281
 31
0.0
  0
LINE
  5
5547
330
26
100
AcDbEntity
  8
0
  6
Continuous
100
AcDbLine
 10
1106.53616248973
 20
-407.2658284208281
 30
0.0
 11
1106.53616248973
 21
-398.8658284208282
 31
0.0
  0
LINE
  5
5548
330
26
100
AcDbEntity
  8
0
  6
Continuous
100
AcDbLine
 10
1106.53616248973
 20
-411.3277086362281
 30
0.0
 11
1106.53616248973
 21
-408.9050589054282
 31
0.0
  0
LINE
  5
5549
330
26
100
AcDbEntity
  8
0
  6
Continuous
100
AcDbLine
 10
1106.53616248973
 20
-372.2658284208281
 30
0.0
 11
1106.53616248973
 21
-390.8658284208282
 31
0.0
  0
LINE
  5
554A
330
26
100
AcDbEntity
  8
0
  6
Continuous
100
AcDbLine
 10
1102.53616248973
 20
-380.0231877337282
 30
0.0
 11
1102.53616248973
 21
-375.2658284208282
 31
0.0
  0
LINE
  5
554B
330
26
100
AcDbEntity
  8
0
  6
Continuous
100
AcDbLine
 10
1102.53616248973
 20
-392.8658284208282
 30
0.0
 11
1102.53616248973
 21
-397.2658284208281
 31
0.0
  0
LINE
  5
554C
330
26
100
AcDbEntity
  8
0
  6
Continuous
100
AcDbLine
 10
1101.536162489731
 20
-398.2658284208282
 30
0.0
 11
1101.536162489731
 21
-399.8658284208282
 31
0.0
  0
LINE
  5
554D
330
26
100
AcDbEntity
  8
0
  6
Continuous
100
AcDbLine
 10
1100.23616248973
 20
-397.7658284208282
 30
0.0
 11
1100.23616248973
 21
-383.5658284208281
 31
0.0
  0
LINE
  5
554E
330
26
100
AcDbEntity
  8
0
  6
Continuous
100
AcDbLine
 10
1100.036162489731
 20
-403.9975816173281
 30
0.0
 11
1100.036162489731
 21
-397.5658284208281
 31
0.0
  0
LINE
  5
554F
330
26
100
AcDbEntity
  8
0
  6
Continuous
100
AcDbLine
 10
1103.77918816253
 20
-400.5623008028281
 30
0.0
 11
1105.73616248973
 21
-407.8658284208281
 31
0.0
  0
LINE
  5
5550
330
26
100
AcDbEntity
  8
0
  6
Continuous
100
AcDbLine
 10
1098.53616248973
 20
-387.3277086362282
 30
0.0
 11
1096.343342166631
 21
-387.3277086362282
 31
0.0
  0
LINE
  5
5551
330
26
100
AcDbEntity
  8
0
  6
Continuous
100
AcDbLine
 10
1098.036162489731
 20
-387.9277086362281
 30
0.0
 11
1098.53616248973
 21
-387.9277086362281
 31
0.0
  0
LINE
  5
5552
330
26
100
AcDbEntity
  8
0
  6
Continuous
100
AcDbLine
 10
1098.53616248973
 20
-388.1620232112282
 30
0.0
 11
1098.036162489731
 21
-388.1620232112282
 31
0.0
  0
LINE
  5
5553
330
26
100
AcDbEntity
  8
0
  6
Continuous
100
AcDbLine
 10
1098.53616248973
 20
-388.4448659237281
 30
0.0
 11
1098.15331977723
 21
-388.4448659237281
 31
0.0
  0
LINE
  5
5554
330
26
100
AcDbEntity
  8
0
  6
Continuous
100
AcDbLine
 10
1098.53616248973
 20
-411.3277086362281
 30
0.0
 11
1098.53616248973
 21
-411.259759443828
 31
0.0
  0
LINE
  5
5555
330
26
100
AcDbEntity
  8
0
  6
Continuous
100
AcDbLine
 10
1098.53616248973
 20
-395.9001429959282
 30
0.0
 11
1098.53616248973
 21
-403.3277086362281
 31
0.0
  0
LINE
  5
5556
330
26
100
AcDbEntity
  8
0
  6
Continuous
100
AcDbLine
 10
1098.036162489731
 20
-388.1620232112282
 30
0.0
 11
1098.036162489731
 21
-387.9277086362281
 31
0.0
  0
LINE
  5
5557
330
26
100
AcDbEntity
  8
0
  6
Continuous
100
AcDbLine
 10
1106.53616248973
 20
-398.8658284208282
 30
0.0
 11
1106.189752328231
 21
-398.2658284208282
 31
0.0
  0
LINE
  5
5558
330
26
100
AcDbEntity
  8
0
  6
Continuous
100
AcDbLine
 10
1122.53616248973
 20
-390.8658284208282
 30
0.0
 11
1106.53616248973
 21
-390.8658284208282
 31
0.0
  0
LINE
  5
5559
330
26
100
AcDbEntity
  8
0
  6
Continuous
100
AcDbLine
 10
1122.53616248973
 20
-391.8658284208282
 30
0.0
 11
1103.536162489731
 21
-391.8658284208282
 31
0.0
  0
LINE
  5
555A
330
26
100
AcDbEntity
  8
0
  6
Continuous
100
AcDbLine
 10
1102.53616248973
 20
-392.8658284208282
 30
0.0
 11
1122.53616248973
 21
-392.8658284208282
 31
0.0
  0
LINE
  5
555B
330
26
100
AcDbEntity
  8
0
  6
Continuous
100
AcDbLine
 10
1104.586162489731
 20
-393.0158284208281
 30
0.0
 11
1122.53616248973
 21
-393.0158284208281
 31
0.0
  0
LINE
  5
555C
330
26
100
AcDbEntity
  8
0
  6
Continuous
100
AcDbLine
 10
1092.53616248973
 20
-389.4639046322282
 30
0.0
 11
1092.53616248973
 21
-404.9089064827281
 31
0.0
  0
LINE
  5
555D
330
26
100
AcDbEntity
  8
0
  6
Continuous
100
AcDbLine
 10
1098.53616248973
 20
-388.8277086362282
 30
0.0
 11
1098.15331977723
 21
-388.4448659237281
 31
0.0
  0
LINE
  5
555E
330
26
100
AcDbEntity
  8
0
  6
Continuous
100
AcDbLine
 10
1098.53616248973
 20
-389.4377063143281
 30
0.0
 11
1096.42616481163
 21
-387.3277086362282
 31
0.0
  0
LINE
  5
555F
330
26
100
AcDbEntity
  8
0
  6
Continuous
100
AcDbLine
 10
1098.53616248973
 20
-392.1402105396282
 30
0.0
 11
1094.64330010993
 21
-388.2473481599281
 31
0.0
  0
LINE
  5
5560
330
26
100
AcDbEntity
  8
0
  6
Continuous
100
AcDbLine
 10
1104.586162489731
 20
-397.1158284208282
 30
0.0
 11
1122.53616248973
 21
-397.1158284208282
 31
0.0
  0
LINE
  5
5561
330
26
100
AcDbEntity
  8
0
  6
Continuous
100
AcDbLine
 10
1122.53616248973
 20
-397.2658284208281
 30
0.0
 11
1102.53616248973
 21
-397.2658284208281
 31
0.0
  0
LINE
  5
5562
330
26
100
AcDbEntity
  8
0
  6
Continuous
100
AcDbLine
 10
1100.901847914631
 20
-398.2658284208282
 30
0.0
 11
1122.53616248973
 21
-398.2658284208282
 31
0.0
  0
LINE
  5
5563
330
26
100
AcDbEntity
  8
0
  6
Continuous
100
AcDbLine
 10
1122.53616248973
 20
-398.8658284208282
 30
0.0
 11
1106.53616248973
 21
-398.8658284208282
 31
0.0
  0
LINE
  5
5564
330
26
100
AcDbEntity
  8
0
  6
Continuous
100
AcDbLine
 10
1098.53616248973
 20
-394.8427147650282
 30
0.0
 11
1092.92998108493
 21
-389.2365333602281
 31
0.0
  0
LINE
  5
5565
330
26
100
AcDbEntity
  8
0
  6
Continuous
100
AcDbLine
 10
1100.61900520213
 20
-398.1486711333281
 30
0.0
 11
1098.65331977723
 21
-396.1829857084282
 31
0.0
  0
LINE
  5
5566
330
26
100
AcDbEntity
  8
0
  6
Continuous
100
AcDbLine
 10
1100.036162489731
 20
-399.0452189903282
 30
0.0
 11
1092.53616248973
 21
-391.5452189903282
 31
0.0
  0
LINE
  5
5567
330
26
100
AcDbEntity
  8
0
  6
Continuous
100
AcDbLine
 10
1100.036162489731
 20
-401.7477232157281
 30
0.0
 11
1092.53616248973
 21
-394.2477232157281
 31
0.0
  0
LINE
  5
5568
330
26
100
AcDbEntity
  8
0
  6
Continuous
100
AcDbLine
 10
1103.39281783203
 20
-400.2658284208281
 30
0.0
 11
1101.93616248973
 21
-400.2658284208281
 31
0.0
  0
LINE
  5
5569
330
26
100
AcDbEntity
  8
0
  6
Continuous
100
AcDbLine
 10
1100.036162489731
 20
-403.3277086362281
 30
0.0
 11
1098.53616248973
 21
-403.3277086362281
 31
0.0
  0
LINE
  5
556A
330
26
100
AcDbEntity
  8
0
  6
Continuous
100
AcDbLine
 10
1100.036162489731
 20
-403.9975816173281
 30
0.0
 11
1104.69966888253
 21
-403.9975816173281
 31
0.0
  0
LINE
  5
556B
330
26
100
AcDbEntity
  8
0
  6
Continuous
100
AcDbLine
 10
1106.53616248973
 20
-410.9502274410281
 30
0.0
 11
1092.53616248973
 21
-396.9502274410281
 31
0.0
  0
LINE
  5
556C
330
26
100
AcDbEntity
  8
0
  6
Continuous
100
AcDbLine
 10
1105.21113945953
 20
-412.3277086362281
 30
0.0
 11
1092.53616248973
 21
-399.6527316663281
 31
0.0
  0
LINE
  5
556D
330
26
100
AcDbEntity
  8
0
  6
Continuous
100
AcDbLine
 10
1106.036162489731
 20
-408.0390335016281
 30
0.0
 11
1100.53616248973
 21
-404.8636070210282
 31
0.0
  0
LINE
  5
556E
330
26
100
AcDbEntity
  8
0
  6
Continuous
100
AcDbLine
 10
1100.53616248973
 20
-404.8636070210282
 30
0.0
 11
1104.93171969013
 21
-404.8636070210282
 31
0.0
  0
LINE
  5
556F
330
26
100
AcDbEntity
  8
0
  6
Continuous
100
AcDbLine
 10
1122.53616248973
 20
-407.2658284208281
 30
0.0
 11
1106.53616248973
 21
-407.2658284208281
 31
0.0
  0
LINE
  5
5570
330
26
100
AcDbEntity
  8
0
  6
Continuous
100
AcDbLine
 10
1122.53616248973
 20
-407.8658284208281
 30
0.0
 11
1105.73616248973
 21
-407.8658284208281
 31
0.0
  0
LINE
  5
5571
330
26
100
AcDbEntity
  8
0
  6
Continuous
100
AcDbLine
 10
1122.53616248973
 20
-408.0390335016281
 30
0.0
 11
1106.036162489731
 21
-408.0390335016281
 31
0.0
  0
LINE
  5
5572
330
26
100
AcDbEntity
  8
0
  6
Continuous
100
AcDbLine
 10
1122.53616248973
 20
-408.9050589054282
 30
0.0
 11
1106.53616248973
 21
-408.9050589054282
 31
0.0
  0
LINE
  5
5573
330
26
100
AcDbEntity
  8
0
  6
Continuous
100
AcDbLine
 10
1102.508635234231
 20
-412.3277086362281
 30
0.0
 11
1092.53616248973
 21
-402.3552358917282
 31
0.0
  0
LINE
  5
5574
330
26
100
AcDbEntity
  8
0
  6
Continuous
100
AcDbLine
 10
1094.91606913743
 20
-407.4376467648281
 30
0.0
 11
1092.558727556831
 21
-405.0803051841281
 31
0.0
  0
LINE
  5
5575
330
26
100
AcDbEntity
  8
0
  6
Continuous
100
AcDbLine
 10
1099.80613100883
 20
-412.3277086362281
 30
0.0
 11
1098.505533796831
 21
-411.0271114242281
 31
0.0
  0
LINE
  5
5576
330
26
100
AcDbEntity
  8
0
  6
Continuous
100
AcDbLine
 10
1097.036162489731
 20
-408.661683232428
 30
0.0
 11
1093.536162489731
 21
-406.6409572902281
 31
0.0
  0
LINE
  5
5577
330
26
100
AcDbEntity
  8
0
  6
Continuous
100
AcDbLine
 10
1122.53616248973
 20
-411.3277086362281
 30
0.0
 11
1106.53616248973
 21
-411.3277086362281
 31
0.0
  0
LINE
  5
5578
330
26
100
AcDbEntity
  8
0
  6
Continuous
100
AcDbLine
 10
1122.53616248973
 20
-412.3277086362281
 30
0.0
 11
1099.536162489731
 21
-412.3277086362281
 31
0.0
  0
LINE
  5
5579
330
26
100
AcDbEntity
  8
0
  6
Continuous
100
AcDbLine
 10
1151.92562503443
 20
-406.3233531354281
 30
0.0
 11
1151.511989682131
 21
-406.6409572902281
 31
0.0
  0
LINE
  5
557A
330
26
100
AcDbEntity
  8
0
  6
Continuous
100
AcDbLine
 10
1152.24330946073
 20
-405.9091159208281
 30
0.0
 11
1151.92562503443
 21
-406.3233531354281
 31
0.0
  0
LINE
  5
557B
330
26
100
AcDbEntity
  8
0
  6
Continuous
100
AcDbLine
 10
1152.44303717733
 20
-405.4266469635281
 30
0.0
 11
1152.24330946073
 21
-405.9091159208281
 31
0.0
  0
LINE
  5
557C
330
26
100
AcDbEntity
  8
0
  6
Continuous
100
AcDbLine
 10
1152.51115613703
 20
-404.9089064826281
 30
0.0
 11
1152.44303717733
 21
-405.4266469635281
 31
0.0
  0
LINE
  5
557D
330
26
100
AcDbEntity
  8
0
  6
Continuous
100
AcDbLine
 10
1136.19114538243
 20
-406.3231200450282
 30
0.0
 11
1135.99885470303
 21
-406.6409572902281
 31
0.0
  0
LINE
  5
557E
330
26
100
AcDbEntity
  8
0
  6
Continuous
100
AcDbLine
 10
1136.33869521023
 20
-405.9089064826281
 30
0.0
 11
1136.19114538243
 21
-406.3231200450282
 31
0.0
  0
LINE
  5
557F
330
26
100
AcDbEntity
  8
0
  6
Continuous
100
AcDbLine
 10
1136.43144890953
 20
-405.4265445728281
 30
0.0
 11
1136.33869521023
 21
-405.9089064826281
 31
0.0
  0
LINE
  5
5580
330
26
100
AcDbEntity
  8
0
  6
Continuous
100
AcDbLine
 10
1136.46308546903
 20
-404.9089064826281
 30
0.0
 11
1136.43144890953
 21
-405.4265445728281
 31
0.0
  0
LINE
  5
5581
330
26
100
AcDbEntity
  8
0
  6
Continuous
100
AcDbLine
 10
1138.270750580731
 20
-406.3233531354281
 30
0.0
 11
1138.049297468731
 21
-406.6409572902281
 31
0.0
  0
LINE
  5
5582
330
26
100
AcDbEntity
  8
0
  6
Continuous
100
AcDbLine
 10
1138.44083280373
 20
-405.9091159208281
 30
0.0
 11
1138.270750580731
 21
-406.3233531354281
 31
0.0
  0
LINE
  5
5583
330
26
100
AcDbEntity
  8
0
  6
Continuous
100
AcDbLine
 10
1138.54776352813
 20
-405.4266469635281
 30
0.0
 11
1138.44083280373
 21
-405.9091159208281
 31
0.0
  0
LINE
  5
5584
330
26
100
AcDbEntity
  8
0
  6
Continuous
100
AcDbLine
 10
1138.58423315763
 20
-404.9089064826281
 30
0.0
 11
1138.54776352813
 21
-405.4266469635281
 31
0.0
  0
SPLINE
  5
5585
330
26
100
AcDbEntity
  8
0
  6
Continuous
100
AcDbSpline
210
0.0
220
0.0
230
1.0
 70
     8
 71
     3
 72
    10
 73
     6
 74
     4
 42
0.0000000001
 43
0.0000000001
 44
0.0000000001
 40
0.0
 40
0.0
 40
0.0
 40
0.0
 40
0.1553994701883293
 40
0.253190248052512
 40
0.2937917700785994
 40
0.2937917700785994
 40
0.2937917700785994
 40
0.2937917700785994
 10
1152.24487403483
 20
-389.3402955017282
 30
0.0
 10
1152.291325157533
 20
-389.3631446741509
 30
0.0
 10
1152.367007341424
 20
-389.4003725207226
 30
0.0
 10
1152.454659433975
 20
-389.4445996916934
 30
0.0
 10
1152.49834087833
 20
-389.4595256543742
 30
0.0
 10
1152.51115613703
 20
-389.4639046321282
 30
0.0
 11
1152.24487403483
 21
-389.3402955017282
 31
0.0
 11
1152.38417335993
 21
-389.4091772363282
 31
0.0
 11
1152.47291628103
 21
-389.4502592298281
 31
0.0
 11
1152.51115613703
 21
-389.4639046321282
 31
0.0
  0
SPLINE
  5
5586
330
26
100
AcDbEntity
  8
0
  6
Continuous
100
AcDbSpline
210
0.0
220
0.0
230
1.0
 70
     8
 71
     3
 72
    15
 73
    11
 74
     9
 42
0.0000000001
 43
0.0000000001
 44
0.0000000001
 40
0.0
 40
0.0
 40
0.0
 40
0.0
 40
1.820050273820653
 40
3.528213202247454
 40
5.170831148213807
 40
6.782657774254315
 40
8.394525050583273
 40
10.03723893268123
 40
11.74591186554038
 40
13.5663024128454
 40
13.5663024128454
 40
13.5663024128454
 40
13.5663024128454
 10
1152.24487403483
 20
-389.3402955017282
 30
0.0
 10
1151.696472502467
 20
-389.0797688719139
 30
0.0
 10
1150.633382348064
 20
-388.574731451756
 30
0.0
 10
1148.992860584487
 20
-388.0310380791997
 30
0.0
 10
1147.369610610625
 20
-387.6923048274707
 30
0.0
 10
1145.746125787949
 20
-387.5788156958729
 30
0.0
 10
1144.122598770961
 20
-387.6921716961429
 30
0.0
 10
1142.499112759778
 20
-388.0308363075683
 30
0.0
 10
1140.858266816541
 20
-388.5745680008996
 30
0.0
 10
1139.794917946526
 20
-389.0797225353727
 30
0.0
 10
1139.24641258743
 20
-389.3402955017282
 30
0.0
 11
1152.24487403483
 21
-389.3402955017282
 31
0.0
 11
1150.58469102963
 21
-388.5943897513282
 31
0.0
 11
1148.96350426813
 21
-388.0562688779282
 31
0.0
 11
1147.354132532431
 21
-387.7274583964283
 31
0.0
 11
1145.74613766233
 21
-387.6163837812281
 31
0.0
 11
1144.13809312643
 21
-387.7273292050281
 31
0.0
 11
1142.52860458343
 21
-388.0560472124282
 31
0.0
 11
1140.90691274783
 21
-388.5942653669282
 31
0.0
 11
1139.24641258743
 21
-389.3402955017282
 31
0.0
  0
SPLINE
  5
5587
330
26
100
AcDbEntity
  8
0
  6
Continuous
100
AcDbSpline
210
0.0
220
0.0
230
1.0
 70
     8
 71
     3
 72
    12
 73
     8
 74
     0
 42
0.0000000001
 43
0.0000000001
 40
0.0
 40
0.0
 40
0.0
 40
0.0
 40
3.403117075785006
 40
6.689841910083076
 40
9.925336596845529
 40
13.14324392602913
 40
13.1442324027847
 40
13.1442324027847
 40
13.1442324027847
 40
13.1442324027847
 10
1135.53462393713
 20
-389.3402955017282
 30
0.0
 10
1134.430583459648
 20
-389.0785264709462
 30
0.0
 10
1132.260262517932
 20
-388.5639413438732
 30
0.0
 10
1128.993012287705
 20
-388.0263818553353
 30
0.0
 10
1125.761655547144
 20
-387.6909287412227
 30
0.0
 10
1123.609702365567
 20
-387.616395217172
 30
0.0
 10
1122.53649205713
 20
-387.6163837706939
 30
0.0
 10
1122.53616248963
 20
-387.616383770683
 30
0.0
  0
SPLINE
  5
5588
330
26
100
AcDbEntity
  8
0
  6
Continuous
100
AcDbSpline
210
0.0
220
0.0
230
1.0
 70
     8
 71
     3
 72
    12
 73
     8
 74
     0
 42
0.0000000001
 43
0.0000000001
 40
13.62476192005569
 40
13.62476192005569
 40
13.62476192005569
 40
13.62476192005569
 40
15.09869224714856
 40
18.05051167680156
 40
21.03495393609208
 40
24.09010001703625
 40
27.24952362345712
 40
27.24952362345712
 40
27.24952362345712
 40
27.24952362345712
 10
1122.53616248963
 20
-408.4883938305803
 30
0.0
 10
1123.027553024646
 20
-408.4883938456071
 30
0.0
 10
1124.503044451317
 20
-408.4651061294018
 30
0.0
 10
1126.96987230636
 20
-408.3090349707414
 30
0.0
 10
1129.945114409857
 20
-407.9354292378652
 30
0.0
 10
1132.964749327546
 20
-407.3903555369046
 30
0.0
 10
1134.976245946346
 20
-406.8935355071049
 30
0.0
 10
1135.99887023433
 20
-406.6409572902281
 30
0.0
  0
SPLINE
  5
5589
330
26
100
AcDbEntity
  8
0
  6
Continuous
100
AcDbSpline
210
0.0
220
0.0
230
1.0
 70
     8
 71
     3
 72
    11
 73
     7
 74
     0
 42
0.0000000001
 43
0.0000000001
 40
13.16519666932246
 40
13.16519666932246
 40
13.16519666932246
 40
13.16519666932246
 40
16.355670966352
 40
19.57532230768943
 40
22.88317230608145
 40
26.33039333578433
 40
26.33039333578433
 40
26.33039333578433
 40
26.33039333578433
 10
1122.53616248963
 20
-406.7563729641284
 30
0.0
 10
1123.599928909724
 20
-406.756372963262
 30
0.0
 10
1125.737189947581
 20
-406.6770280652282
 30
0.0
 10
1128.958984550711
 20
-406.3190211277262
 30
0.0
 10
1132.236546304819
 20
-405.7420065813696
 30
0.0
 10
1134.420246647469
 20
-405.1904001759083
 30
0.0
 10
1135.53462393713
 20
-404.9089065849281
 30
0.0
  0
SPLINE
  5
558A
330
26
100
AcDbEntity
  8
0
  6
Continuous
100
AcDbSpline
210
0.0
220
0.0
230
1.0
 70
     8
 71
     3
 72
    11
 73
     7
 74
     5
 42
0.0000000001
 43
0.0000000001
 44
0.0000000001
 40
0.0
 40
0.0
 40
0.0
 40
0.0
 40
0.547742364432173
 40
1.101959769758898
 40
1.650083108516477
 40
2.181018975374582
 40
2.181018975374582
 40
2.181018975374582
 40
2.181018975374582
 10
1139.24641258493
 20
-404.9089064828282
 30
0.0
 10
1139.209237423248
 20
-405.0886416243958
 30
0.0
 10
1139.134447640189
 20
-405.4502366151808
 30
0.0
 10
1138.86535691671
 20
-405.9372161431162
 30
0.0
 10
1138.509013512609
 20
-406.358145489892
 30
0.0
 10
1138.200900249898
 20
-406.547693077473
 30
0.0
 10
1138.04929746353
 20
-406.6409572952282
 30
0.0
 11
1139.24641258493
 21
-404.9089064828282
 31
0.0
 11
1139.10896578213
 21
-405.4391234895281
 31
0.0
 11
1138.84901003293
 21
-405.9285925292281
 31
0.0
 11
1138.48650826323
 21
-406.3397271318282
 31
0.0
 11
1138.04929746353
 21
-406.6409572952282
 31
0.0
  0
SPLINE
  5
558B
330
26
100
AcDbEntity
  8
0
  6
Continuous
100
AcDbSpline
210
0.0
220
0.0
230
1.0
 70
     8
 71
     3
 72
    16
 73
    12
 74
    10
 42
0.0000000001
 43
0.0000000001
 44
0.0000000001
 40
0.0
 40
0.0
 40
0.0
 40
0.0
 40
1.732213093600107
 40
3.359952238948414
 40
4.910819306964709
 40
6.409161743427757
 40
7.881158803545588
 40
9.354471796556831
 40
10.85931561047658
 40
12.42792839428483
 40
14.09301281792745
 40
14.09301281792745
 40
14.09301281792745
 40
14.09301281792745
 10
1138.04928268093
 20
-406.6409572902281
 30
0.0
 10
1138.569499261327
 20
-406.8922627339858
 30
0.0
 10
1139.578556905853
 20
-407.3797167842604
 30
0.0
 10
1141.123777616298
 20
-407.9300493721861
 30
0.0
 10
1142.639395533661
 20
-408.306892995424
 30
0.0
 10
1144.13846583194
 20
-408.4961991804637
 30
0.0
 10
1145.623626092444
 20
-408.4960285121279
 30
0.0
 10
1147.09897763107
 20
-408.306602825386
 30
0.0
 10
1148.570094592305
 20
-407.9299282545316
 30
0.0
 10
1150.054609946881
 20
-407.3798336966436
 30
0.0
 10
1151.016630185509
 20
-406.8920996533639
 30
0.0
 10
1151.51199039143
 20
-406.6409572902281
 30
0.0
 11
1138.04928268093
 21
-406.6409572902281
 31
0.0
 11
1139.62273621123
 21
-407.3653923733282
 31
0.0
 11
1141.15580536083
 21
-407.9124149577281
 31
0.0
 11
1142.66233498613
 21
-408.2805958246281
 31
0.0
 11
1144.14920876543
 21
-408.4656266905282
 31
0.0
 11
1145.62120555983
 21
-408.4647422292281
 31
0.0
 11
1147.082710848031
 21
-408.2785878096282
 31
0.0
 11
1148.54189732003
 21
-407.9107158968281
 31
0.0
 11
1150.01237451813
 21
-407.3645997229282
 31
0.0
 11
1151.51199039143
 21
-406.6409572902281
 31
0.0
  0
SPLINE
  5
558C
330
26
100
AcDbEntity
  8
0
  6
Continuous
100
AcDbSpline
210
0.0
220
0.0
230
1.0
 70
     8
 71
     3
 72
    11
 73
     7
 74
     5
 42
0.0000000001
 43
0.0000000001
 44
0.0000000001
 40
0.0
 40
0.0
 40
0.0
 40
0.0
 40
0.5302564314727141
 40
1.036409319991387
 40
1.51873704137882
 40
1.985229180540334
 40
1.985229180540334
 40
1.985229180540334
 40
1.985229180540334
 10
1152.24487403823
 20
-404.9089064829281
 30
0.0
 10
1152.256337699287
 20
-405.0864253939639
 30
0.0
 10
1152.278743924758
 20
-405.433393847248
 30
0.0
 10
1152.143703701516
 20
-405.9288559539368
 30
0.0
 10
1151.895525623345
 20
-406.3585625279924
 30
0.0
 10
1151.638404557658
 20
-406.5478789229117
 30
0.0
 10
1151.51198967013
 20
-406.6409572971281
 30
0.0
 11
1152.24487403823
 21
-404.9089064829281
 31
0.0
 11
1152.24927745213
 21
-405.4391446304281
 31
0.0
 11
1152.12042191103
 21
-405.9286208771282
 31
0.0
 11
1151.86820312203
 21
-406.3397482458282
 31
0.0
 11
1151.51198967013
 21
-406.6409572971281
 31
0.0
  0
SPLINE
  5
558D
330
26
100
AcDbEntity
  8
0
  6
Continuous
100
AcDbSpline
210
0.0
220
0.0
230
1.0
 70
     8
 71
     3
 72
    15
 73
    11
 74
     9
 42
0.0000000001
 43
0.0000000001
 44
0.0000000001
 40
0.0
 40
0.0
 40
0.0
 40
0.0
 40
1.858146313741868
 40
3.587445568119446
 40
5.230683577075263
 40
6.829052957348639
 40
8.425712886378653
 40
10.06443588588766
 40
11.7897378947351
 40
13.64579436666605
 40
13.64579436666605
 40
13.64579436666605
 40
13.64579436666605
 10
1139.24641258743
 20
-404.9089065842281
 30
0.0
 10
1139.79946630249
 20
-405.1888636666147
 30
0.0
 10
1140.867224037363
 20
-405.7293651260766
 30
0.0
 10
1142.515233464406
 20
-406.3141471239711
 30
0.0
 10
1144.136892134221
 20
-406.6761681732113
 30
0.0
 10
1145.751267567033
 20
-406.7963342848645
 30
0.0
 10
1147.36398764145
 20
-406.6745599451523
 30
0.0
 10
1148.982032156096
 20
-406.3122003586154
 30
0.0
 10
1150.626522012276
 20
-405.7281769505953
 30
0.0
 10
1151.692451096458
 20
-405.1885637512905
 30
0.0
 10
1152.24487403483
 20
-404.9089065831282
 30
0.0
 11
1139.24641258743
 21
-404.9089065842281
 31
0.0
 11
1140.92234760303
 21
-405.7113712543281
 31
0.0
 11
1142.55224784723
 21
-406.2892130191281
 31
0.0
 11
1144.15772552763
 21
-406.6394594635282
 31
0.0
 11
1145.75181333423
 21
-406.7563728530282
 31
0.0
 11
1147.344072810031
 21
-406.6379131945281
 31
0.0
 11
1148.944897876231
 21
-406.2875245866281
 31
0.0
 11
1150.57086909613
 21
-405.7105630508281
 31
0.0
 11
1152.24487403483
 21
-404.9089065831282
 31
0.0
  0
SPLINE
  5
558E
330
26
100
AcDbEntity
  8
0
  6
Continuous
100
AcDbSpline
210
0.0
220
0.0
230
1.0
 70
     8
 71
     3
 72
    10
 73
     6
 74
     4
 42
0.0000000001
 43
0.0000000001
 44
0.0000000001
 40
0.0
 40
0.0
 40
0.0
 40
0.0
 40
0.2548174205539682
 40
0.4811060366466409
 40
0.678700353394463
 40
0.678700353394463
 40
0.678700353394463
 40
0.678700353394463
 10
1138.58423315763
 20
-389.4639046321282
 30
0.0
 10
1138.669119419977
 20
-389.4613579640203
 30
0.0
 10
1138.829388263273
 20
-389.4565497472298
 30
0.0
 10
1139.054440010592
 20
-389.4195670679619
 30
0.0
 10
1139.185376257975
 20
-389.3654993381965
 30
0.0
 10
1139.24641258743
 20
-389.3402955017282
 30
0.0
 11
1138.58423315763
 21
-389.4639046321282
 31
0.0
 11
1138.838684962131
 21
-389.4502592298281
 31
0.0
 11
1139.06121317963
 21
-389.4091772363282
 31
0.0
 11
1139.24641258743
 21
-389.3402955017282
 31
0.0
  0
SPLINE
  5
558F
330
26
100
AcDbEntity
  8
0
  6
Continuous
100
AcDbSpline
210
0.0
220
0.0
230
1.0
 70
     8
 71
     3
 72
    10
 73
     6
 74
     4
 42
0.0000000001
 43
0.0000000001
 44
0.0000000001
 40
0.0
 40
0.0
 40
0.0
 40
0.0
 40
0.3317289872024438
 40
0.6456994506473592
 40
0.9387090155588358
 40
0.9387090155588358
 40
0.9387090155588358
 40
0.9387090155588358
 10
1135.53462393713
 20
-389.3402955017282
 30
0.0
 10
1135.642449029476
 20
-389.3649231794814
 30
0.0
 10
1135.852326988835
 20
-389.4128601358807
 30
0.0
 10
1136.163081893409
 20
-389.455003033484
 30
0.0
 10
1136.365413320572
 20
-389.4610065391222
 30
0.0
 10
1136.46308546903
 20
-389.4639046321282
 30
0.0
 11
1135.53462393713
 21
-389.3402955017282
 31
0.0
 11
1135.85912266993
 21
-389.4091772363282
 31
0.0
 11
1136.170393808531
 21
-389.4502592298281
 31
0.0
 11
1136.46308546903
 21
-389.4639046321282
 31
0.0
  0
ARC
  5
5590
330
26
100
AcDbEntity
  8
0
  6
Continuous
100
AcDbCircle
 10
1150.53616248963
 20
-404.9089064826281
 30
0.0
 40
2.0
100
AcDbArc
 50
299.9999999999997
 51
0.0
  0
ARC
  5
5591
330
26
100
AcDbEntity
  8
0
  6
Continuous
100
AcDbCircle
 10
1148.72898281273
 20
-387.7277086361282
 30
0.0
 40
0.4
100
AcDbArc
 50
60.00000000489076
 51
90.0
  0
ARC
  5
5592
330
26
100
AcDbEntity
  8
0
  6
Continuous
100
AcDbCircle
 10
1149.53616248963
 20
-411.2597594437281
 30
0.0
 40
3.0
100
AcDbArc
 50
119.9999999999997
 51
180.0
  0
ARC
  5
5593
330
26
100
AcDbEntity
  8
0
  6
Continuous
100
AcDbCircle
 10
1145.53616248963
 20
-411.3277086361281
 30
0.0
 40
1.0
100
AcDbArc
 50
270.0
 51
0.0
  0
LINE
  5
5594
330
26
100
AcDbEntity
  8
0
  6
Continuous
100
AcDbLine
 10
1148.03616248963
 20
-408.6616832323281
 30
0.0
 11
1151.53616248963
 21
-406.6409572902281
 31
0.0
  0
LINE
  5
5595
330
26
100
AcDbEntity
  8
0
  6
Continuous
100
AcDbLine
 10
1152.53616248963
 20
-389.4639046321282
 30
0.0
 11
1152.53616248963
 21
-404.9089064826281
 31
0.0
  0
LINE
  5
5596
330
26
100
AcDbEntity
  8
0
  6
Continuous
100
AcDbLine
 10
1152.51115613703
 20
-404.9089064826281
 30
0.0
 11
1152.51115613703
 21
-389.4639046321282
 31
0.0
  0
LINE
  5
5597
330
26
100
AcDbEntity
  8
0
  6
Continuous
100
AcDbLine
 10
1152.24487403483
 20
-404.9089065831282
 30
0.0
 11
1152.24487403483
 21
-389.3402955017282
 31
0.0
  0
LINE
  5
5598
330
26
100
AcDbEntity
  8
0
  6
Continuous
100
AcDbLine
 10
1146.53616248963
 20
-387.3277086361282
 30
0.0
 11
1146.53616248963
 21
-385.2658284208282
 31
0.0
  0
LINE
  5
5599
330
26
100
AcDbEntity
  8
0
  6
Continuous
100
AcDbLine
 10
1146.53616248963
 20
-411.3277086361281
 30
0.0
 11
1146.53616248963
 21
-411.2597594437281
 31
0.0
  0
LINE
  5
559A
330
26
100
AcDbEntity
  8
0
  6
Continuous
100
AcDbLine
 10
1144.83616248963
 20
-387.3277086361282
 30
0.0
 11
1144.83616248963
 21
-383.6843335172283
 31
0.0
  0
LINE
  5
559B
330
26
100
AcDbEntity
  8
0
  6
Continuous
100
AcDbLine
 10
1139.24641258743
 20
-389.3402955017282
 30
0.0
 11
1139.24641258743
 21
-404.9089065842281
 31
0.0
  0
LINE
  5
559C
330
26
100
AcDbEntity
  8
0
  6
Continuous
100
AcDbLine
 10
1138.58423315763
 20
-389.4639046321282
 30
0.0
 11
1138.58423315763
 21
-404.9089064826281
 31
0.0
  0
LINE
  5
559D
330
26
100
AcDbEntity
  8
0
  6
Continuous
100
AcDbLine
 10
1136.46308546903
 20
-404.9089064826281
 30
0.0
 11
1136.46308546903
 21
-389.4639046321282
 31
0.0
  0
LINE
  5
559E
330
26
100
AcDbEntity
  8
0
  6
Continuous
100
AcDbLine
 10
1135.53462393713
 20
-404.9089065849281
 30
0.0
 11
1135.53462393713
 21
-389.3402955017282
 31
0.0
  0
LINE
  5
559F
330
26
100
AcDbEntity
  8
0
  6
Continuous
100
AcDbLine
 10
1135.53462394193
 20
-404.9089064828282
 30
0.0
 11
1135.99885469903
 21
-406.6409572952282
 31
0.0
  0
LINE
  5
55A0
330
26
100
AcDbEntity
  8
0
  6
Continuous
100
AcDbLine
 10
1152.51740772523
 20
-389.4530765638282
 30
0.0
 11
1148.92898281273
 21
-387.3812984746281
 31
0.0
  0
LINE
  5
55A1
330
26
100
AcDbEntity
  8
0
  6
Continuous
100
AcDbLine
 10
1122.53616248963
 20
-380.0231877336282
 30
0.0
 11
1142.53616248963
 21
-380.0231877336282
 31
0.0
  0
LINE
  5
55A2
330
26
100
AcDbEntity
  8
0
  6
Continuous
100
AcDbLine
 10
1122.53616248963
 20
-382.1445080772281
 30
0.0
 11
1142.964774427926
 21
-382.1696802074307
 31
0.0
  0
LINE
  5
55A3
330
26
100
AcDbEntity
  8
0
  6
Continuous
100
AcDbLine
 10
1122.53616248963
 20
-383.5658276578282
 30
0.0
 11
1144.630905279884
 21
-383.5658276578282
 31
0.0
  0
LINE
  5
55A4
330
26
100
AcDbEntity
  8
0
  6
Continuous
100
AcDbLine
 10
1122.53616248963
 20
-385.2658284208282
 30
0.0
 11
1146.53616248963
 21
-385.2658284208282
 31
0.0
  0
LINE
  5
55A5
330
26
100
AcDbEntity
  8
0
  6
Continuous
100
AcDbLine
 10
1122.53616248963
 20
-387.3277086361282
 30
0.0
 11
1148.72898281273
 21
-387.3277086361282
 31
0.0
  0
LINE
  5
55A6
330
26
100
AcDbEntity
  8
0
  6
Continuous
100
AcDbLine
 10
1122.53616248963
 20
-387.3812984746282
 30
0.0
 11
1148.92898281273
 21
-387.3812984746281
 31
0.0
  0
LINE
  5
55A7
330
26
100
AcDbEntity
  8
0
  6
Continuous
100
AcDbLine
 10
1152.51115613703
 20
-389.4639046321282
 30
0.0
 11
1152.53616248963
 21
-389.4639046321282
 31
0.0
  0
LINE
  5
55A8
330
26
100
AcDbEntity
  8
0
  6
Continuous
100
AcDbLine
 10
1136.46308546903
 20
-389.4639046321282
 30
0.0
 11
1138.58423315763
 21
-389.4639046321282
 31
0.0
  0
LINE
  5
55A9
330
26
100
AcDbEntity
  8
0
  6
Continuous
100
AcDbLine
 10
1152.24487403483
 20
-404.9089064826281
 30
0.0
 11
1152.53616248963
 21
-404.9089064826281
 31
0.0
  0
LINE
  5
55AA
330
26
100
AcDbEntity
  8
0
  6
Continuous
100
AcDbLine
 10
1135.53462393713
 20
-404.9089064826281
 30
0.0
 11
1139.24641258743
 21
-404.9089064826281
 31
0.0
  0
LINE
  5
55AB
330
26
100
AcDbEntity
  8
0
  6
Continuous
100
AcDbLine
 10
1151.51199039143
 20
-406.6409572902281
 30
0.0
 11
1151.53616248963
 21
-406.6409572902281
 31
0.0
  0
LINE
  5
55AC
330
26
100
AcDbEntity
  8
0
  6
Continuous
100
AcDbLine
 10
1135.99887023433
 20
-406.6409572902281
 30
0.0
 11
1138.04928268093
 21
-406.6409572902281
 31
0.0
  0
LINE
  5
55AD
330
26
100
AcDbEntity
  8
0
  6
Continuous
100
AcDbLine
 10
1122.53616248963
 20
-408.6616832323281
 30
0.0
 11
1148.03616248963
 21
-408.6616832323281
 31
0.0
  0
LINE
  5
55AE
330
26
100
AcDbEntity
  8
0
  6
Continuous
100
AcDbLine
 10
1122.53616248963
 20
-411.2597594437281
 30
0.0
 11
1146.53616248963
 21
-411.2597594437281
 31
0.0
  0
LINE
  5
55AF
330
26
100
AcDbEntity
  8
0
  6
Continuous
100
AcDbLine
 10
1146.53616248963
 20
-411.3277086361281
 30
0.0
 11
1122.53616248963
 21
-411.3277086361281
 31
0.0
  0
LINE
  5
55B0
330
26
100
AcDbEntity
  8
0
  6
Continuous
100
AcDbLine
 10
1145.53616248963
 20
-412.3277086361281
 30
0.0
 11
1122.53616248963
 21
-412.3277086361281
 31
0.0
  0
LINE
  5
55B1
330
26
100
AcDbEntity
  8
0
  6
Continuous
100
AcDbLine
 10
1066.53616248973
 20
-351.6658284208282
 30
0.0
 11
1066.53616248973
 21
-377.1658284208282
 31
0.0
  0
LINE
  5
55B2
330
26
100
AcDbEntity
  8
0
  6
Continuous
100
AcDbLine
 10
1066.93616248973
 20
-373.0658284208282
 30
0.0
 11
1066.93616248973
 21
-351.6658284208282
 31
0.0
  0
LINE
  5
55B3
330
26
100
AcDbEntity
  8
0
  6
Continuous
100
AcDbLine
 10
1067.37047706483
 20
-351.6658284208282
 30
0.0
 11
1067.37047706483
 21
-373.0658284208282
 31
0.0
  0
LINE
  5
55B4
330
26
100
AcDbEntity
  8
0
  6
Continuous
100
AcDbLine
 10
1067.65331977733
 20
-351.6658284208282
 30
0.0
 11
1067.65331977733
 21
-372.9486711333282
 31
0.0
  0
LINE
  5
55B5
330
26
100
AcDbEntity
  8
0
  6
Continuous
100
AcDbLine
 10
1067.97616111653
 20
-372.6258275053282
 30
0.0
 11
1067.97616111653
 21
-351.6658284208282
 31
0.0
  0
LINE
  5
55B6
330
26
100
AcDbEntity
  8
0
  6
Continuous
100
AcDbLine
 10
1070.01900520223
 20
-370.5829857084282
 30
0.0
 11
1070.01900520223
 21
-351.6658284208282
 31
0.0
  0
LINE
  5
55B7
330
26
100
AcDbEntity
  8
0
  6
Continuous
100
AcDbLine
 10
1070.301847914731
 20
-370.4658284208282
 30
0.0
 11
1070.301847914731
 21
-351.6658284208282
 31
0.0
  0
LINE
  5
55B8
330
26
100
AcDbEntity
  8
0
  6
Continuous
100
AcDbLine
 10
1089.53616248973
 20
-372.6258284208281
 30
0.0
 11
1089.53616248973
 21
-370.4658284208282
 31
0.0
  0
LINE
  5
55B9
330
26
100
AcDbEntity
  8
0
  6
Continuous
100
AcDbLine
 10
1091.305222382131
 20
-351.6658284208282
 30
0.0
 11
1091.30522238213
 21
-370.4658284208282
 31
0.0
  0
LINE
  5
55BA
330
26
100
AcDbEntity
  8
0
  6
Continuous
100
AcDbLine
 10
1091.65163254363
 20
-351.6658284208282
 30
0.0
 11
1091.65163254363
 21
-370.2658284208281
 31
0.0
  0
LINE
  5
55BB
330
26
100
AcDbEntity
  8
0
  6
Continuous
100
AcDbLine
 10
1092.86406810893
 20
-368.1658284208282
 30
0.0
 11
1092.86406810893
 21
-351.6658284208282
 31
0.0
  0
LINE
  5
55BC
330
26
100
AcDbEntity
  8
0
  6
Continuous
100
AcDbLine
 10
1094.59611891653
 20
-367.1658284208282
 30
0.0
 11
1094.59611891653
 21
-351.6658284208282
 31
0.0
  0
LINE
  5
55BD
330
26
100
AcDbEntity
  8
0
  6
Continuous
100
AcDbLine
 10
1070.01900520223
 20
-370.5829857084282
 30
0.0
 11
1067.65331977733
 21
-372.9486711333282
 31
0.0
  0
LINE
  5
55BE
330
26
100
AcDbEntity
  8
0
  6
Continuous
100
AcDbLine
 10
1098.53616248973
 20
-395.3001429959282
 30
0.0
 11
1098.53616248973
 21
-384.6658284208282
 31
0.0
  0
LINE
  5
55BF
330
26
100
AcDbEntity
  8
0
  6
Continuous
100
AcDbLine
 10
1100.23616248973
 20
-397.1658284208282
 30
0.0
 11
1100.23616248973
 21
-383.6843329632282
 31
0.0
  0
LINE
  5
55C0
330
26
100
AcDbEntity
  8
0
  6
Continuous
100
AcDbLine
 10
1102.53616248973
 20
-380.6243765365282
 30
0.0
 11
1102.53616248973
 21
-373.6658284208282
 31
0.0
  0
LINE
  5
55C1
330
26
100
AcDbEntity
  8
0
  6
Continuous
100
AcDbLine
 10
1092.86406810893
 20
-368.1658284208282
 30
0.0
 11
1091.65163254363
 21
-370.2658284208281
 31
0.0
  0
LINE
  5
55C2
330
26
100
AcDbEntity
  8
0
  6
Continuous
100
AcDbLine
 10
1071.53616248973
 20
-378.1658284208282
 30
0.0
 11
1072.15748283333
 21
-377.5445080773281
 31
0.0
  0
LINE
  5
55C3
330
26
100
AcDbEntity
  8
0
  6
Continuous
100
AcDbLine
 10
1106.53616248973
 20
-390.8658284208282
 30
0.0
 11
1106.53616248973
 21
-371.6658284208282
 31
0.0
  0
LINE
  5
55C4
330
26
100
AcDbEntity
  8
0
  6
Continuous
100
AcDbLine
 10
1107.03616248973
 20
-371.6658284208282
 30
0.0
 11
1107.03616248973
 21
-367.1658284208282
 31
0.0
  0
LINE
  5
55C5
330
26
100
AcDbEntity
  8
0
  6
Continuous
100
AcDbLine
 10
1094.80218789353
 20
-375.1658284208283
 30
0.0
 11
1096.53423870113
 21
-372.1658284208282
 31
0.0
  0
LINE
  5
55C6
330
26
100
AcDbEntity
  8
0
  6
Continuous
100
AcDbLine
 10
1107.03616248973
 20
-367.1658284208282
 30
0.0
 11
1094.59611891653
 21
-367.1658284208282
 31
0.0
  0
LINE
  5
55C7
330
26
100
AcDbEntity
  8
0
  6
Continuous
100
AcDbLine
 10
1105.54001848703
 20
-367.1658284208282
 30
0.0
 11
1107.03616248973
 21
-368.6619724236282
 31
0.0
  0
LINE
  5
55C8
330
26
100
AcDbEntity
  8
0
  6
Continuous
100
AcDbLine
 10
1102.44126950123
 20
-367.1658284208282
 30
0.0
 11
1106.94126950123
 21
-371.6658284208282
 31
0.0
  0
LINE
  5
55C9
330
26
100
AcDbEntity
  8
0
  6
Continuous
100
AcDbLine
 10
1091.30522238213
 20
-370.4658284208282
 30
0.0
 11
1070.301847914731
 21
-370.4658284208282
 31
0.0
  0
LINE
  5
55CA
330
26
100
AcDbEntity
  8
0
  6
Continuous
100
AcDbLine
 10
1099.13231491253
 20
-370.6658284208282
 30
0.0
 11
1099.53616248973
 21
-370.6658284208282
 31
0.0
  0
LINE
  5
55CB
330
26
100
AcDbEntity
  8
0
  6
Continuous
100
AcDbLine
 10
1106.53616248973
 20
-371.6658284208282
 30
0.0
 11
1122.53616248973
 21
-371.6658284208282
 31
0.0
  0
LINE
  5
55CC
330
26
100
AcDbEntity
  8
0
  6
Continuous
100
AcDbLine
 10
1099.34252051533
 20
-367.1658284208282
 30
0.0
 11
1106.53616248973
 21
-374.3594703952282
 31
0.0
  0
LINE
  5
55CD
330
26
100
AcDbEntity
  8
0
  6
Continuous
100
AcDbLine
 10
1096.24377152953
 20
-367.1658284208282
 30
0.0
 11
1099.76631694843
 21
-370.6883738397282
 31
0.0
  0
LINE
  5
55CE
330
26
100
AcDbEntity
  8
0
  6
Continuous
100
AcDbLine
 10
1102.51361468543
 20
-373.4356715767282
 30
0.0
 11
1106.53616248973
 21
-377.4582193811282
 31
0.0
  0
LINE
  5
55CF
330
26
100
AcDbEntity
  8
0
  6
Continuous
100
AcDbLine
 10
1067.97616248973
 20
-372.6258284208281
 30
0.0
 11
1089.53616248973
 21
-372.6258284208281
 31
0.0
  0
LINE
  5
55D0
330
26
100
AcDbEntity
  8
0
  6
Continuous
100
AcDbLine
 10
1067.37047706483
 20
-373.0658284208282
 30
0.0
 11
1066.93616248973
 21
-373.0658284208282
 31
0.0
  0
LINE
  5
55D1
330
26
100
AcDbEntity
  8
0
  6
Continuous
100
AcDbLine
 10
1093.48802875873
 20
-367.5088346358282
 30
0.0
 11
1097.28950889523
 21
-371.3103147724282
 31
0.0
  0
LINE
  5
55D2
330
26
100
AcDbEntity
  8
0
  6
Continuous
100
AcDbLine
 10
1102.53616248973
 20
-376.5569683669282
 30
0.0
 11
1106.53616248973
 21
-380.5569683669282
 31
0.0
  0
LINE
  5
55D3
330
26
100
AcDbEntity
  8
0
  6
Continuous
100
AcDbLine
 10
1092.19870912443
 20
-369.3182639873282
 30
0.0
 11
1095.98960565873
 21
-373.1091605217282
 31
0.0
  0
LINE
  5
55D4
330
26
100
AcDbEntity
  8
0
  6
Continuous
100
AcDbLine
 10
1098.53616248973
 20
-384.6658284208282
 30
0.0
 11
1101.03616248973
 21
-383.2224527479282
 31
0.0
  0
LINE
  5
55D5
330
26
100
AcDbEntity
  8
0
  6
Continuous
100
AcDbLine
 10
1074.27880317693
 20
-376.6658284208282
 30
0.0
 11
1092.20411168223
 21
-376.6658284208282
 31
0.0
  0
LINE
  5
55D6
330
26
100
AcDbEntity
  8
0
  6
Continuous
100
AcDbLine
 10
1067.53616248973
 20
-378.1658284208282
 30
0.0
 11
1071.53616248973
 21
-378.1658284208282
 31
0.0
  0
LINE
  5
55D7
330
26
100
AcDbEntity
  8
0
  6
Continuous
100
AcDbLine
 10
1090.24752457203
 20
-370.4658284208282
 30
0.0
 11
1094.85538481003
 21
-375.0736886588283
 31
0.0
  0
LINE
  5
55D8
330
26
100
AcDbEntity
  8
0
  6
Continuous
100
AcDbLine
 10
1102.03869339063
 20
-382.2569972394282
 30
0.0
 11
1106.53616248973
 21
-386.7544663385282
 31
0.0
  0
LINE
  5
55D9
330
26
100
AcDbEntity
  8
0
  6
Continuous
100
AcDbLine
 10
1087.14877558623
 20
-370.4658284208282
 30
0.0
 11
1092.927193678237
 21
-376.2442465128352
 31
0.0
  0
LINE
  5
55DA
330
26
100
AcDbEntity
  8
0
  6
Continuous
100
AcDbLine
 10
1100.31928774193
 20
-383.6363405765281
 30
0.0
 11
1106.53616248973
 21
-389.8532153244282
 31
0.0
  0
LINE
  5
55DB
330
26
100
AcDbEntity
  8
0
  6
Continuous
100
AcDbLine
 10
1084.05002660043
 20
-370.4658284208282
 30
0.0
 11
1090.25002660043
 21
-376.6658284208282
 31
0.0
  0
LINE
  5
55DC
330
26
100
AcDbEntity
  8
0
  6
Continuous
100
AcDbLine
 10
1098.53616248973
 20
-384.9519643102281
 30
0.0
 11
1104.85002660043
 21
-391.2658284208281
 31
0.0
  0
LINE
  5
55DD
330
26
100
AcDbEntity
  8
0
  6
Continuous
100
AcDbLine
 10
1080.95127761463
 20
-370.4658284208282
 30
0.0
 11
1087.15127761463
 21
-376.6658284208282
 31
0.0
  0
LINE
  5
55DE
330
26
100
AcDbEntity
  8
0
  6
Continuous
100
AcDbLine
 10
1098.53616248973
 20
-388.0507132960282
 30
0.0
 11
1102.53616248973
 21
-392.0507132960282
 31
0.0
  0
LINE
  5
55DF
330
26
100
AcDbEntity
  8
0
  6
Continuous
100
AcDbLine
 10
1077.85252862883
 20
-370.4658284208282
 30
0.0
 11
1084.05252862883
 21
-376.6658284208282
 31
0.0
  0
LINE
  5
55E0
330
26
100
AcDbEntity
  8
0
  6
Continuous
100
AcDbLine
 10
1098.53616248973
 20
-391.1494622818281
 30
0.0
 11
1102.53616248973
 21
-395.1494622818282
 31
0.0
  0
LINE
  5
55E1
330
26
100
AcDbEntity
  8
0
  6
Continuous
100
AcDbLine
 10
1106.53616248973
 20
-390.8658284208282
 30
0.0
 11
1122.53616248973
 21
-390.8658284208282
 31
0.0
  0
LINE
  5
55E2
330
26
100
AcDbEntity
  8
0
  6
Continuous
100
AcDbLine
 10
1074.75377964293
 20
-370.4658284208282
 30
0.0
 11
1080.95377964293
 21
-376.6658284208282
 31
0.0
  0
LINE
  5
55E3
330
26
100
AcDbEntity
  8
0
  6
Continuous
100
AcDbLine
 10
1098.53616248973
 20
-394.2482112677282
 30
0.0
 11
1101.95377964293
 21
-397.6658284208282
 31
0.0
  0
LINE
  5
55E4
330
26
100
AcDbEntity
  8
0
  6
Continuous
100
AcDbLine
 10
1071.65503065713
 20
-370.4658284208282
 30
0.0
 11
1077.85503065713
 21
-376.6658284208282
 31
0.0
  0
LINE
  5
55E5
330
26
100
AcDbEntity
  8
0
  6
Continuous
100
AcDbLine
 10
1122.53616248973
 20
-397.2658284208281
 30
0.0
 11
1102.53616248973
 21
-397.2658284208281
 31
0.0
  0
LINE
  5
55E6
330
26
100
AcDbEntity
  8
0
  6
Continuous
100
AcDbLine
 10
1069.34622208053
 20
-371.2557688301282
 30
0.0
 11
1074.75628167133
 21
-376.6658284208282
 31
0.0
  0
LINE
  5
55E7
330
26
100
AcDbEntity
  8
0
  6
Continuous
100
AcDbLine
 10
1067.79684758763
 20
-372.8051433230282
 30
0.0
 11
1072.36549838783
 21
-377.3737941232282
 31
0.0
  0
LINE
  5
55E8
330
26
100
AcDbEntity
  8
0
  6
Continuous
100
AcDbLine
 10
1066.53616248973
 20
-374.6432072109282
 30
0.0
 11
1070.05878369963
 21
-378.1658284208282
 31
0.0
  0
ARC
  5
55E9
330
26
100
AcDbEntity
  8
0
  6
Continuous
100
AcDbCircle
 10
1099.53616745693
 20
-373.6658233513282
 30
0.0
 40
2.9999993087
100
AcDbArc
 50
0.0291840442005284
 51
89.97212859390139
  0
ARC
  5
55EA
330
26
100
AcDbEntity
  8
0
  6
Continuous
100
AcDbCircle
 10
1099.53616248973
 20
-380.6243765365282
 30
0.0
 40
3.0
100
AcDbArc
 50
300.0000007992003
 51
0.0
  0
ARC
  5
55EB
330
26
100
AcDbEntity
  8
0
  6
Continuous
100
AcDbCircle
 10
1094.59611891653
 20
-369.1658284208283
 30
0.0
 40
2.0
100
AcDbArc
 50
90.0
 51
149.9999998407047
  0
ARC
  5
55EC
330
26
100
AcDbEntity
  8
0
  6
Continuous
100
AcDbCircle
 10
1091.30522238213
 20
-370.0658284208282
 30
0.0
 40
0.4
100
AcDbArc
 50
270.0000002301969
 51
329.9999853685923
  0
ARC
  5
55ED
330
26
100
AcDbEntity
  8
0
  6
Continuous
100
AcDbCircle
 10
1070.301847914731
 20
-370.8658284208282
 30
0.0
 40
0.4
100
AcDbArc
 50
90.0
 51
134.9999934219047
  0
ARC
  5
55EE
330
26
100
AcDbEntity
  8
0
  6
Continuous
100
AcDbCircle
 10
1067.37047706483
 20
-372.6658284208282
 30
0.0
 40
0.4
100
AcDbArc
 50
270.0000001337017
 51
314.9999922077065
  0
ARC
  5
55EF
330
26
100
AcDbEntity
  8
0
  6
Continuous
100
AcDbCircle
 10
1066.93616248973
 20
-373.4658284208282
 30
0.0
 40
0.4
100
AcDbArc
 50
90.0
 51
179.9999827177
  0
ARC
  5
55F0
330
26
100
AcDbEntity
  8
0
  6
Continuous
100
AcDbCircle
 10
1067.53616248973
 20
-377.1658284208282
 30
0.0
 40
1.0
100
AcDbArc
 50
180.0000039601999
 51
270.0
  0
ARC
  5
55F1
330
26
100
AcDbEntity
  8
0
  6
Continuous
100
AcDbCircle
 10
1074.27880317693
 20
-379.6658284208282
 30
0.0
 40
3.0
100
AcDbArc
 50
90.0
 51
134.9999999302949
  0
ARC
  5
55F2
330
26
100
AcDbEntity
  8
0
  6
Continuous
100
AcDbCircle
 10
1092.20411168223
 20
-373.6658284208282
 30
0.0
 40
3.0
100
AcDbArc
 50
270.0000000569955
 51
329.999999477106
  0
ARC
  5
55F3
330
26
100
AcDbEntity
  8
0
  6
Continuous
100
AcDbCircle
 10
1099.13231491253
 20
-373.6658284208282
 30
0.0
 40
3.0
100
AcDbArc
 50
90.0
 51
149.9999992143982
  0
SPLINE
  5
55F4
330
26
100
AcDbEntity
  8
0
  6
Continuous
100
AcDbSpline
210
0.0
220
0.0
230
1.0
 70
     8
 71
     3
 72
    18
 73
    14
 74
    12
 42
0.0000000001
 43
0.0000000001
 44
0.0000000001
 40
0.0
 40
0.0
 40
0.0
 40
0.0
 40
3.740758461418517
 40
7.383844461778157
 40
10.67685796377376
 40
13.52560874844276
 40
15.9234268328697
 40
17.87411807385239
 40
19.39977181923123
 40
20.5292356083633
 40
21.30619077173772
 40
21.76734157254449
 40
21.92031021678298
 40
21.92031021678298
 40
21.92031021678298
 40
21.92031021678298
 10
1122.53616248973
 20
-351.6658284208282
 30
0.0
 10
1121.654457264802
 20
-352.5475336458002
 30
0.0
 10
1119.914068434795
 20
-354.2879224758937
 30
0.0
 10
1117.397508878784
 20
-356.804482031849
 30
0.0
 10
1115.091197548543
 20
-359.1107933621748
 30
0.0
 10
1113.078398680726
 20
-361.1235922297575
 30
0.0
 10
1111.38198820423
 20
-362.8200027064613
 30
0.0
 10
1109.997434690496
 20
-364.2045562201606
 30
0.0
 10
1108.911835151158
 20
-365.2901557594895
 30
0.0
 10
1108.102887858444
 20
-366.0991030522421
 30
0.0
 10
1107.544846315901
 20
-366.6571445946992
 30
0.0
 10
1107.216966886391
 20
-366.9850240243566
 30
0.0
 10
1107.072217544966
 20
-367.1297733656304
 30
0.0
 10
1107.03616248973
 20
-367.1658284208282
 30
0.0
 11
1122.53616248973
 21
-351.6658284208282
 31
0.0
 11
1119.89104681493
 21
-354.3109440957281
 31
0.0
 11
1117.31499599963
 21
-356.8869949110282
 31
0.0
 11
1114.98648382183
 21
-359.2155070888282
 31
0.0
 11
1112.97211282403
 21
-361.2298780865282
 31
0.0
 11
1111.27659939653
 21
-362.9253915141281
 31
0.0
 11
1109.89725239203
 21
-364.3047385186282
 31
0.0
 11
1108.81845228293
 21
-365.3835386277282
 31
0.0
 11
1108.01980077853
 21
-366.1821901321282
 31
0.0
 11
1107.47041051383
 21
-366.7315803968282
 31
0.0
 11
1107.14432765543
 21
-367.0576632552283
 31
0.0
 11
1107.03616248973
 21
-367.1658284208282
 31
0.0
  0
SPLINE
  5
55F5
330
26
100
AcDbEntity
  8
0
  6
Continuous
100
AcDbSpline
210
1.0
220
0.0
230
0.0
 70
     8
 71
     3
 72
    18
 73
    14
 74
     0
 42
0.0000000001
 43
0.0000000001
 40
29.60409860075467
 40
29.60409860075467
 40
29.60409860075467
 40
29.60409860075467
 40
30.90836670737171
 40
33.71821822616973
 40
36.52806974500805
 40
39.33792126386281
 40
42.14777278273114
 40
44.95762430153539
 40
47.76747582042457
 40
50.57732733927386
 40
53.38717885813218
 40
56.1970303769796
 40
59.00688189581206
 40
59.00688189581206
 40
59.00688189581206
 40
59.00688189581206
 10
1089.53616248973
 20
-351.7665796266443
 30
-18.79927270064659
 10
1089.53616248973
 20
-352.2017355621002
 30
-18.79694279456876
 10
1089.53616248973
 20
-353.5741145549327
 30
-18.74197902862099
 10
1089.53616248973
 20
-355.8648557089904
 30
-18.39670543825439
 10
1089.53616248973
 20
-358.5599048624601
 30
-17.56539213621333
 10
1089.53616248973
 20
-361.1009629147911
 30
-16.34168732887233
 10
1089.53616248973
 20
-363.4312140033593
 30
-14.75292655989118
 10
1089.53616248973
 20
-365.4988012466485
 30
-12.8346001190344
 10
1089.53616248973
 20
-367.2568026775266
 30
-10.62956024945082
 10
1089.53616248973
 20
-368.6686923113811
 30
-8.187063897814449
 10
1089.53616248973
 20
-369.6926869015191
 30
-5.56167239668731
 10
1089.53616248973
 20
-370.344143100304
 30
-2.812032653862704
 10
1089.53616248973
 20
-370.4252666473202
 30
-0.9370556029525697
 10
1089.53616248973
 20
-370.4658284208282
 30
0.0004329225
  0
ARC
  5
55F6
330
26
100
AcDbEntity
  8
0
  6
Continuous
100
AcDbCircle
 10
1119.53616248973
 20
-351.6658284208282
 30
0.0
 40
8.0
100
AcDbArc
 50
292.024312837042
 51
180.2997910301681
  0
SPLINE
  5
55F7
330
26
100
AcDbEntity
  8
0
  6
Continuous
100
AcDbSpline
210
0.0
220
0.0
230
1.0
 70
     8
 71
     3
 72
     9
 73
     5
 74
     3
 42
0.0000000001
 43
0.0000000001
 44
0.0000000001
 40
0.0
 40
0.0
 40
0.0
 40
0.0
 40
1.291366783049545
 40
2.514890012505177
 40
2.514890012505177
 40
2.514890012505177
 40
2.514890012505177
 10
1144.36724604023
 20
-371.4131164989283
 30
0.0
 10
1144.353350707224
 20
-370.9828852290378
 30
0.0
 10
1144.326290049745
 20
-370.1450254219581
 30
0.0
 10
1144.299664440553
 20
-369.3071516780477
 30
0.0
 10
1144.28671077213
 20
-368.8995163604283
 30
0.0
 11
1144.36724604023
 21
-371.4131164989283
 31
0.0
 11
1144.32567475053
 21
-370.1224190145283
 31
0.0
 11
1144.28671077213
 21
-368.8995163604283
 31
0.0
  0
SPLINE
  5
55F8
330
26
100
AcDbEntity
  8
0
  6
Continuous
100
AcDbSpline
210
0.0
220
0.0
230
1.0
 70
     8
 71
     3
 72
     9
 73
     5
 74
     3
 42
0.0000000001
 43
0.0000000001
 44
0.0000000001
 40
0.0
 40
0.0
 40
0.0
 40
0.0
 40
1.288414186054513
 40
2.512857017412674
 40
2.512857017412674
 40
2.512857017412674
 40
2.512857017412674
 10
1147.36541936423
 20
-371.3161042152283
 30
0.0
 10
1147.351546188466
 20
-370.8868569422974
 30
0.0
 10
1147.324488657238
 20
-370.0496750533794
 30
0.0
 10
1147.297859079289
 20
-369.21247944353
 30
0.0
 10
1147.28488325313
 20
-368.8045381417284
 30
0.0
 11
1147.36541936423
 21
-371.3161042152283
 31
0.0
 11
1147.32391234193
 21
-370.0283587893283
 31
0.0
 11
1147.28488325313
 21
-368.8045381417284
 31
0.0
  0
SPLINE
  5
55F9
330
26
100
AcDbEntity
  8
0
  6
Continuous
100
AcDbSpline
210
0.0
220
0.0
230
1.0
 70
     8
 71
     3
 72
     9
 73
     5
 74
     3
 42
0.0000000001
 43
0.0000000001
 44
0.0000000001
 40
0.0
 40
0.0
 40
0.0
 40
0.0
 40
0.2468773115868663
 40
0.4933727695220181
 40
0.4933727695220181
 40
0.4933727695220181
 40
0.4933727695220181
 10
1147.42145102063
 20
-371.8058417432283
 30
0.0
 10
1147.407078258211
 20
-371.7247263194923
 30
0.0
 10
1147.378354964221
 20
-371.5626209360434
 30
0.0
 10
1147.369728981155
 20
-371.3982169524796
 30
0.0
 10
1147.36541932773
 20
-371.3160785822282
 30
0.0
 11
1147.42145102063
 21
-371.8058417432283
 31
0.0
 11
1147.38336484143
 21
-371.5619199321283
 31
0.0
 11
1147.36541932773
 21
-371.3160785822282
 31
0.0
  0
SPLINE
  5
55FA
330
26
100
AcDbEntity
  8
0
  6
Continuous
100
AcDbSpline
210
0.0
220
0.0
230
1.0
 70
     8
 71
     3
 72
     9
 73
     5
 74
     3
 42
0.0000000001
 43
0.0000000001
 44
0.0000000001
 40
0.0
 40
0.0
 40
0.0
 40
0.0
 40
0.4931083012360134
 40
0.9856631589785725
 40
0.9856631589785725
 40
0.9856631589785725
 40
0.9856631589785725
 10
1144.47969738693
 20
-372.3915085297283
 30
0.0
 10
1144.450896699349
 20
-372.2295062931829
 30
0.0
 10
1144.393327648838
 20
-371.9056836444166
 30
0.0
 10
1144.375936654789
 20
-371.5772440751925
 30
0.0
 10
1144.36724604023
 20
-371.4131164989283
 30
0.0
 11
1144.47969738693
 21
-372.3915085297283
 31
0.0
 11
1144.40335112133
 21
-371.9043462934283
 31
0.0
 11
1144.36724604023
 21
-371.4131164989283
 31
0.0
  0
SPLINE
  5
55FB
330
26
100
AcDbEntity
  8
0
  6
Continuous
100
AcDbSpline
210
0.0
220
0.0
230
1.0
 70
     8
 71
     3
 72
    17
 73
    13
 74
    11
 42
0.0000000001
 43
0.0000000001
 44
0.0000000001
 40
0.0
 40
0.0
 40
0.0
 40
0.0
 40
1.00597721426584
 40
1.918775113610484
 40
2.73930023513994
 40
3.473734588553429
 40
4.134371970611209
 40
4.723258467664478
 40
5.239383295840861
 40
5.687451941911882
 40
6.072073538514776
 40
6.39277819445803
 40
6.39277819445803
 40
6.39277819445803
 40
6.39277819445803
 10
1150.32346967103
 20
-374.3902901838283
 30
0.0
 10
1149.98818476594
 20
-374.3795483777718
 30
0.0
 10
1149.348670945215
 20
-374.3590597326573
 30
0.0
 10
1148.440759078818
 20
-374.252909422179
 30
0.0
 10
1147.630684772104
 20
-374.107156337884
 30
0.0
 10
1146.914140926743
 20
-373.925621474161
 30
0.0
 10
1146.286329224431
 20
-373.715451655934
 30
0.0
 10
1145.745778231588
 20
-373.4808435865386
 30
0.0
 10
1145.292701094359
 20
-373.2274559009258
 30
0.0
 10
1144.931404962631
 20
-372.958900691244
 30
0.0
 10
1144.654610178726
 20
-372.6867551886282
 30
0.0
 10
1144.534369567124
 20
-372.4837932527103
 30
0.0
 10
1144.47969738693
 20
-372.3915085297283
 30
0.0
 11
1150.32346967103
 21
-374.3902901838283
 31
0.0
 11
1149.31859246683
 21
-374.3432587039282
 31
0.0
 11
1148.41170293313
 21
-374.2395698486283
 31
0.0
 11
1147.60452617313
 21
-374.0921685149283
 31
0.0
 11
1146.89296726473
 21
-373.9102956490283
 31
0.0
 11
1146.26722011193
 21
-373.6984413327283
 31
0.0
 11
1145.72802795663
 21
-373.4616732477283
 31
0.0
 11
1145.27944090113
 21
-373.2064194683283
 31
0.0
 11
1144.92113172413
 21
-372.9373840705283
 31
0.0
 11
1144.65384959003
 21
-372.6608085232283
 31
0.0
 11
1144.47969738693
 21
-372.3915085297283
 31
0.0
  0
SPLINE
  5
55FC
330
26
100
AcDbEntity
  8
0
  6
Continuous
100
AcDbSpline
210
0.0
220
0.0
230
1.0
 70
     8
 71
     3
 72
    17
 73
    13
 74
    11
 42
0.0000000001
 43
0.0000000001
 44
0.0000000001
 40
0.0
 40
0.0
 40
0.0
 40
0.0
 40
0.5057835736272566
 40
0.9790541259625541
 40
1.425639574554667
 40
1.851548185886776
 40
2.265646995255453
 40
2.670316828803987
 40
3.064398525980215
 40
3.448850817256449
 40
3.82175724142285
 40
4.17054766860703
 40
4.17054766860703
 40
4.17054766860703
 40
4.17054766860703
 10
1150.32346967103
 20
-374.3902901838283
 30
0.0
 10
1150.15555284908
 20
-374.3712487022933
 30
0.0
 10
1149.830513314542
 20
-374.3343897728353
 30
0.0
 10
1149.376417564952
 20
-374.1845785089527
 30
0.0
 10
1148.972431984959
 20
-373.987091109324
 30
0.0
 10
1148.616017855991
 20
-373.7460719068262
 30
0.0
 10
1148.304351145817
 20
-373.4705628599188
 30
0.0
 10
1148.036745411851
 20
-373.1661695896373
 30
0.0
 10
1147.813468776444
 20
-372.8398184207824
 30
0.0
 10
1147.636221740714
 20
-372.4985988694658
 30
0.0
 10
1147.502188977074
 20
-372.1537812953361
 30
0.0
 10
1147.447732698503
 20
-371.9192137223685
 30
0.0
 10
1147.42141440623
 20
-371.8058490543283
 30
0.0
 11
1150.32346967103
 21
-374.3902901838283
 31
0.0
 11
1149.82323948733
 21
-374.3155453735283
 31
0.0
 11
1149.37238124863
 21
-374.1716292024283
 31
0.0
 11
1148.97152099803
 21
-373.9747799647283
 31
0.0
 11
1148.61849527443
 21
-373.7365133416282
 31
0.0
 11
1148.30822238333
 21
-373.4622715560282
 31
0.0
 11
1148.04095682753
 21
-373.1584183071283
 31
0.0
 11
1147.81858752433
 21
-372.8330688380282
 31
0.0
 11
1147.64083862453
 21
-372.4921745833283
 31
0.0
 11
1147.50807530673
 21
-372.1437020555283
 31
0.0
 11
1147.42141440623
 21
-371.8058490543283
 31
0.0
  0
SPLINE
  5
55FD
330
26
100
AcDbEntity
  8
0
  6
Continuous
100
AcDbSpline
210
0.0
220
0.0
230
1.0
 70
     8
 71
     3
 72
    18
 73
    14
 74
    12
 42
0.0000000001
 43
0.0000000001
 44
0.0000000001
 40
0.0
 40
0.0
 40
0.0
 40
0.0
 40
0.0992859342966165
 40
0.1864104498863344
 40
0.2774409977668988
 40
0.3740460068695489
 40
0.4778821286822931
 40
0.5908505935891169
 40
0.7150233611650488
 40
0.8526556277123697
 40
1.006585077285371
 40
1.18060641008742
 40
1.378691546296675
 40
1.378691546296675
 40
1.378691546296675
 40
1.378691546296675
 10
1150.32346967103
 20
-374.3902901838283
 30
0.0
 10
1150.328536827844
 20
-374.3575386147315
 30
0.0
 10
1150.338050471323
 20
-374.2960471781745
 30
0.0
 10
1150.365719596069
 20
-374.2075342024706
 30
0.0
 10
1150.39990920723
 20
-374.1225113621875
 30
0.0
 10
1150.442953959451
 20
-374.0353104613483
 30
0.0
 10
1150.494754829328
 20
-373.944534976276
 30
0.0
 10
1150.555960952067
 20
-373.8487159648771
 30
0.0
 10
1150.627448471487
 20
-373.746234683275
 30
0.0
 10
1150.710481741424
 20
-373.6352602067661
 30
0.0
 10
1150.80685322384
 20
-373.5135959069087
 30
0.0
 10
1150.918669302552
 20
-373.3785084305918
 30
0.0
 10
1150.999866247804
 20
-373.284739471893
 30
0.0
 10
1151.04309018853
 20
-373.2348230138283
 30
0.0
 11
1150.32346967103
 21
-374.3902901838283
 31
0.0
 11
1150.34124614923
 21
-374.2926085910283
 31
0.0
 11
1150.36638264383
 21
-374.2091889419283
 31
0.0
 11
1150.40024218073
 21
-374.1246898744283
 31
0.0
 11
1150.44270556313
 21
-374.0379178228283
 31
0.0
 11
1150.49395261293
 21
-373.9476090188283
 31
0.0
 11
1150.55455499753
 21
-373.8522715915283
 31
0.0
 11
1150.62540985083
 21
-373.7502987227283
 31
0.0
 11
1150.70769871603
 21
-373.6399756360282
 31
0.0
 11
1150.80309700463
 21
-373.5191723166282
 31
0.0
 11
1150.91401365203
 21
-373.3850793578282
 31
0.0
 11
1151.04309018853
 21
-373.2348230138283
 31
0.0
  0
SPLINE
  5
55FE
330
26
100
AcDbEntity
  8
0
  6
Continuous
100
AcDbSpline
210
0.0
220
0.0
230
1.0
 70
     8
 71
     3
 72
    16
 73
    12
 74
    10
 42
0.0000000001
 43
0.0000000001
 44
0.0000000001
 40
0.0
 40
0.0
 40
0.0
 40
0.0
 40
0.0958890989288815
 40
0.197715957218652
 40
0.3069638000345299
 40
0.4254287633817603
 40
0.5551440822238782
 40
0.6983515040688675
 40
0.8579082746746151
 40
1.03770572223882
 40
1.24183448936793
 40
1.24183448936793
 40
1.24183448936793
 40
1.24183448936793
 10
1147.36541936423
 20
-371.3161042152283
 30
0.0
 10
1147.376107128026
 20
-371.2859648090572
 30
0.0
 10
1147.3981444761
 20
-371.2238196683928
 30
0.0
 10
1147.44132979309
 20
-371.1309165604153
 30
0.0
 10
1147.492872404199
 20
-371.0338813174582
 30
0.0
 10
1147.554155493419
 20
-370.9316481494734
 30
0.0
 10
1147.625845210562
 20
-370.8226140139558
 30
0.0
 10
1147.709291369045
 20
-370.705027217106
 30
0.0
 10
1147.806310269215
 20
-370.5767035682653
 30
0.0
 10
1147.919040048521
 20
-370.4348618841939
 30
0.0
 10
1148.001222386216
 20
-370.3367555105284
 30
0.0
 10
1148.04491770743
 20
-370.2845935785283
 30
0.0
 11
1147.36541936423
 21
-371.3161042152283
 31
0.0
 11
1147.39884178963
 21
-371.2262284077283
 31
0.0
 11
1147.44105811383
 21
-371.1335650868283
 31
0.0
 11
1147.49221947193
 21
-371.0370373364283
 31
0.0
 11
1147.55288885793
 21
-370.9352867927283
 31
0.0
 11
1147.62397685133
 21
-370.8267853589283
 31
0.0
 11
1147.70668556453
 21
-370.7098767004282
 31
0.0
 11
1147.80271885623
 21
-370.5824562549283
 31
0.0
 11
1147.91455203683
 21
-370.4416710928283
 31
0.0
 11
1148.04491770743
 21
-370.2845935785283
 31
0.0
  0
SPLINE
  5
55FF
330
26
100
AcDbEntity
  8
0
  6
Continuous
100
AcDbSpline
210
0.0
220
0.0
230
1.0
 70
     8
 71
     3
 72
    14
 73
    10
 74
     8
 42
0.0000000001
 43
0.0000000001
 44
0.0000000001
 40
0.0
 40
0.0
 40
0.0
 40
0.0
 40
0.6642079859616262
 40
1.328563828048863
 40
1.993030620088889
 40
2.657549970286337
 40
3.322053312442648
 40
3.986475178657623
 40
4.650765876136781
 40
4.650765876136781
 40
4.650765876136781
 40
4.650765876136781
 10
1148.04491771383
 20
-370.2845935784282
 30
0.0
 10
1148.062977702436
 20
-370.5061691027852
 30
0.0
 10
1148.099101699895
 20
-370.9493694753547
 30
0.0
 10
1148.337148683607
 20
-371.5784859939349
 30
0.0
 10
1148.69738172825
 20
-372.1417379428943
 30
0.0
 10
1149.175524924529
 20
-372.6122307189
 30
0.0
 10
1149.744537307905
 20
-372.9633582496031
 30
0.0
 10
1150.377455948016
 20
-373.1912773650441
 30
0.0
 10
1150.821226711178
 20
-373.2203028965542
 30
0.0
 10
1151.04309018853
 20
-373.2348142296284
 30
0.0
 11
1148.04491771383
 21
-370.2845935784282
 31
0.0
 11
1148.12973067783
 21
-370.9433644109282
 31
0.0
 11
1148.35748907443
 21
-371.5674595941283
 31
0.0
 11
1148.71701782413
 21
-372.1262575861283
 31
0.0
 11
1149.19067646933
 21
-372.5923406845283
 31
0.0
 11
1149.75522471223
 21
-372.9428402896283
 31
0.0
 11
1150.38296271133
 21
-373.1605589631282
 31
0.0
 11
1151.04309018853
 21
-373.2348142296284
 31
0.0
  0
SPLINE
  5
5600
330
26
100
AcDbEntity
  8
0
  6
Continuous
100
AcDbSpline
210
0.0
220
0.0
230
1.0
 70
     8
 71
     3
 72
    21
 73
    17
 74
    15
 42
0.0000000001
 43
0.0000000001
 44
0.0000000001
 40
0.0
 40
0.0
 40
0.0
 40
0.0
 40
0.2160572789772788
 40
0.7181296801791506
 40
1.494276816841131
 40
2.525736639644638
 40
3.788350576079727
 40
5.252088827081654
 40
6.881549041535227
 40
8.635692877527935
 40
10.47028063241013
 40
12.34235308831464
 40
14.20724257351507
 40
16.01875644234959
 40
17.73157671468795
 40
19.30519912822384
 40
19.30519912822384
 40
19.30519912822384
 40
19.30519912822384
 10
1151.04309018853
 20
-373.2348230138283
 30
0.0
 10
1151.058096780668
 20
-373.1642997164023
 30
0.0
 10
1151.107975587174
 20
-372.9298948712359
 30
0.0
 10
1151.122719402985
 20
-372.4298899935137
 30
0.0
 10
1151.1611816015
 20
-371.6619866040929
 30
0.0
 10
1151.183418457778
 20
-370.6382911175947
 30
0.0
 10
1151.205611486135
 20
-369.3860679530486
 30
0.0
 10
1151.220642137687
 20
-367.9341336474249
 30
0.0
 10
1151.230482330722
 20
-366.3184002458383
 30
0.0
 10
1151.234187599576
 20
-364.5789964112189
 30
0.0
 10
1151.2319216616
 20
-362.7587284628381
 30
0.0
 10
1151.223614008393
 20
-360.9015603325608
 30
0.0
 10
1151.209464962691
 20
-359.0521186360296
 30
0.0
 10
1151.189371639677
 20
-357.2558211514765
 30
0.0
 10
1151.164644894183
 20
-355.5566731112081
 30
0.0
 10
1151.141945991609
 20
-354.4614251919121
 30
0.0
 10
1151.13107724833
 20
-353.9369959415282
 30
0.0
 11
1151.04309018853
 21
-373.2348230138283
 31
0.0
 11
1151.08423644283
 21
-373.0227198937283
 31
0.0
 11
1151.12135336063
 21
-372.5220213512283
 31
0.0
 11
1151.15379404153
 21
-371.7465524737282
 31
0.0
 11
1151.18112425113
 21
-370.7154547937283
 31
0.0
 11
1151.20298807983
 21
-369.4530301720282
 31
0.0
 11
1151.21908622403
 21
-367.9893804471283
 31
0.0
 11
1151.22919344513
 21
-366.3599515795282
 31
0.0
 11
1151.23316587923
 21
-364.6058122415283
 31
0.0
 11
1151.23096006273
 21
-362.7712258127283
 31
0.0
 11
1151.22261013673
 21
-360.8991719783282
 31
0.0
 11
1151.20821415393
 21
-359.0343380587283
 31
0.0
 11
1151.18795904423
 21
-357.2229374328283
 31
0.0
 11
1151.16213393063
 21
-355.5103118611283
 31
0.0
 11
1151.13107724833
 21
-353.9369959415282
 31
0.0
  0
SPLINE
  5
5601
330
26
100
AcDbEntity
  8
0
  6
Continuous
100
AcDbSpline
210
0.0
220
0.0
230
1.0
 70
     8
 71
     3
 72
    21
 73
    17
 74
    15
 42
0.0000000001
 43
0.0000000001
 44
0.0000000001
 40
0.0
 40
0.0
 40
0.0
 40
0.0
 40
0.1657731778215731
 40
0.5450680833788324
 40
1.129834414105456
 40
1.906183536302571
 40
2.856030566631469
 40
3.956850453911784
 40
5.182070503847338
 40
6.500881140598501
 40
7.880066204444699
 40
9.287370323696999
 40
10.68925634101166
 40
12.05103622507299
 40
13.33867847398602
 40
14.5210716847558
 40
14.5210716847558
 40
14.5210716847558
 40
14.5210716847558
 10
1148.04491770743
 20
-370.2845935785283
 30
0.0
 10
1148.059909998504
 20
-370.2312960771258
 30
0.0
 10
1148.109205182856
 20
-370.0560520037471
 30
0.0
 10
1148.124781865899
 20
-369.6770737809676
 30
0.0
 10
1148.162851343029
 20
-369.0994847987773
 30
0.0
 10
1148.18527809661
 20
-368.3288219642841
 30
0.0
 10
1148.207413062597
 20
-367.38697448697
 30
0.0
 10
1148.222470810234
 20
-366.2950216148818
 30
0.0
 10
1148.232306959889
 20
-365.0801327914759
 30
0.0
 10
1148.236015769701
 20
-363.7723859738604
 30
0.0
 10
1148.233749113604
 20
-362.4039526446732
 30
0.0
 10
1148.225440292108
 20
-361.0078477113118
 30
0.0
 10
1148.211287902196
 20
-359.6175912271368
 30
0.0
 10
1148.191191327415
 20
-358.2673020727726
 30
0.0
 10
1148.166461439554
 20
-356.9902576197898
 30
0.0
 10
1148.143767999714
 20
-356.1672223284841
 30
0.0
 10
1148.13290476733
 20
-355.7732395875283
 30
0.0
 11
1148.04491770743
 21
-370.2845935785283
 31
0.0
 11
1148.08603001563
 21
-370.1239992928282
 31
0.0
 11
1148.12315592143
 21
-369.7465257275283
 31
0.0
 11
1148.15560339773
 21
-369.1626603125282
 31
0.0
 11
1148.18293981203
 21
-368.3867926176282
 31
0.0
 11
1148.20480847463
 21
-367.4371973656283
 31
0.0
 11
1148.22091024593
 21
-366.3364952455282
 31
0.0
 11
1148.23101982103
 21
-365.1113169045283
 31
0.0
 11
1148.23499334593
 21
-363.7925122538283
 31
0.0
 11
1148.23278734483
 21
-362.4133289542283
 31
0.0
 11
1148.22443598303
 21
-361.0060496149283
 31
0.0
 11
1148.21003718503
 21
-359.6042375447283
 31
0.0
 11
1148.18977833063
 21
-358.2426083619283
 31
0.0
 11
1148.16394719513
 21
-356.9552252357283
 31
0.0
 11
1148.13290476733
 21
-355.7732395875283
 31
0.0
  0
SPLINE
  5
5602
330
26
100
AcDbEntity
  8
0
  6
Continuous
100
AcDbSpline
210
0.0
220
0.0
230
1.0
 70
     8
 71
     3
 72
    14
 73
    10
 74
     8
 42
0.0000000001
 43
0.0000000001
 44
0.0000000001
 40
0.0
 40
0.0
 40
0.0
 40
0.0
 40
0.4102035393707305
 40
0.8559189005486051
 40
1.35427172265429
 40
1.90908426045935
 40
2.513768553416889
 40
3.154661860278543
 40
3.813805998938841
 40
3.813805998938841
 40
3.813805998938841
 40
3.813805998938841
 10
1148.13290476503
 20
-355.7732395875283
 30
0.0
 10
1148.153825936396
 20
-355.63674790529
 30
0.0
 10
1148.197479450504
 20
-355.3519482890443
 30
0.0
 10
1148.450924916396
 20
-354.9644311650875
 30
0.0
 10
1148.817283741534
 20
-354.6214569048649
 30
0.0
 10
1149.294953530393
 20
-354.335361561807
 30
0.0
 10
1149.856651341932
 20
-354.1189572620594
 30
0.0
 10
1150.478120089726
 20
-353.9743700782738
 30
0.0
 10
1150.911397312909
 20
-353.9495700405154
 30
0.0
 10
1151.13107724833
 20
-353.9369959415282
 30
0.0
 11
1148.13290476503
 21
-355.7732395875283
 31
0.0
 11
1148.22243298073
 21
-355.3729251582282
 31
0.0
 11
1148.45312685483
 21
-354.9915558888283
 31
0.0
 11
1148.81379008763
 21
-354.6476408298282
 31
0.0
 11
1149.28691855773
 21
-354.3578712612283
 31
0.0
 11
1149.84954985163
 21
-354.1363106120283
 31
0.0
 11
1150.47437770243
 21
-353.9937119176283
 31
0.0
 11
1151.13107724833
 21
-353.9369959415282
 31
0.0
  0
SPLINE
  5
5603
330
26
100
AcDbEntity
  8
0
  6
Continuous
100
AcDbSpline
210
0.0
220
0.0
230
1.0
 70
     8
 71
     3
 72
    20
 73
    16
 74
     0
 42
0.0000000001
 43
0.0000000001
 40
0.0
 40
0.0
 40
0.0
 40
0.0
 40
1.342147183187995
 40
2.806523529952239
 40
4.420831237773839
 40
6.211549061368467
 40
8.205059605431705
 40
10.42800396884977
 40
12.90735484907381
 40
15.63893246123815
 40
18.53516028540482
 40
21.50509082742473
 40
24.49898764487169
 40
27.48941768113982
 40
27.94757347120461
 40
27.94757347120461
 40
27.94757347120461
 40
27.94757347120461
 10
1151.13107724833
 20
-353.9369959415282
 30
0.0
 10
1151.117783738323
 20
-353.4898110579007
 30
0.0
 10
1151.089986080137
 20
-352.5547162233995
 30
0.0
 10
1151.04810586465
 20
-351.0817006106516
 30
0.0
 10
1151.003895852545
 20
-349.4591684079388
 30
0.0
 10
1150.957654200177
 20
-347.6602497372838
 30
0.0
 10
1150.909936807806
 20
-345.6584260486669
 30
0.0
 10
1150.861944497306
 20
-343.4270043374471
 30
0.0
 10
1150.815865169911
 20
-340.9494708823399
 30
0.0
 10
1150.775374714977
 20
-338.2473816048918
 30
0.0
 10
1150.744860388233
 20
-335.381621632383
 30
0.0
 10
1150.7279073891
 20
-332.428305657293
 30
0.0
 10
1150.726372970637
 20
-329.4435396143569
 30
0.0
 10
1150.736579202278
 20
-327.2960599984631
 30
0.0
 10
1150.745397855696
 20
-326.1465639680533
 30
0.0
 10
1150.746627986187
 20
-325.9938501730145
 30
0.0
  0
SPLINE
  5
5604
330
26
100
AcDbEntity
  8
0
  6
Continuous
100
AcDbSpline
210
0.0
220
0.0
230
1.0
 70
     8
 71
     3
 72
    21
 73
    17
 74
     0
 42
0.0000000001
 43
0.0000000001
 40
0.0
 40
0.0
 40
0.0
 40
0.0
 40
1.345456528204937
 40
2.813423307145846
 40
4.431936395120064
 40
6.227623629776779
 40
8.227035274885902
 40
10.45699177554821
 40
12.94460750025626
 40
15.68568152648725
 40
18.59228009560473
 40
21.57279782819969
 40
24.57680184533769
 40
27.57627798073877
 40
30.57940601576708
 40
32.50856784428272
 40
32.50856784428272
 40
32.50856784428272
 40
32.50856784428272
 10
1148.13290476733
 20
-355.7732395875283
 30
0.0
 10
1148.11960865035
 20
-355.3249511798963
 30
0.0
 10
1148.091805741359
 20
-354.3875555614456
 30
0.0
 10
1148.049922822281
 20
-352.910836811807
 30
0.0
 10
1148.005711579752
 20
-351.2840479912906
 30
0.0
 10
1147.959469145029
 20
-349.4801023851479
 30
0.0
 10
1147.91175161846
 20
-347.4723161258244
 30
0.0
 10
1147.863760597664
 20
-345.2338333974355
 30
0.0
 10
1147.817684594995
 20
-342.7480406632972
 30
0.0
 10
1147.777198659226
 20
-340.036572953502
 30
0.0
 10
1147.74668783065
 20
-337.1606609593218
 30
0.0
 10
1147.729735656999
 20
-334.1969898166904
 30
0.0
 10
1147.728199834111
 20
-331.2023103256696
 30
0.0
 10
1147.742423502514
 20
-328.2001278638308
 30
0.0
 10
1147.768316953832
 20
-325.5563220704523
 30
0.0
 10
1147.790747194477
 20
-323.9123755232908
 30
0.0
 10
1147.800421247553
 20
-323.2693938039439
 30
0.0
  0
SPLINE
  5
5605
330
26
100
AcDbEntity
  8
0
  6
Continuous
100
AcDbSpline
210
0.0
220
0.0
230
1.0
 70
     8
 71
     3
 72
    23
 73
    19
 74
    17
 42
0.0000000001
 43
0.0000000001
 44
0.0000000001
 40
0.0
 40
0.0
 40
0.0
 40
0.0
 40
0.0914485946369654
 40
0.3495379371725324
 40
0.7667934621868476
 40
1.327548724263024
 40
2.010323223761053
 40
2.788897486709705
 40
3.633271359482357
 40
4.511108954767785
 40
5.388671264552264
 40
6.232423365892558
 40
7.01007663574409
 40
7.691895179643027
 40
8.251794166884528
 40
8.668401868643374
 40
8.92605974630626
 40
9.017601138991301
 40
9.017601138991301
 40
9.017601138991301
 40
9.017601138991301
 10
1147.96640092633
 20
-365.7421330896283
 30
0.0
 10
1147.955682283792
 20
-365.7134909810927
 30
0.0
 10
1147.914713122737
 20
-365.6040141370413
 30
0.0
 10
1147.906319348812
 20
-365.3447920697079
 30
0.0
 10
1147.868072608753
 20
-364.936379934372
 30
0.0
 10
1147.844131565706
 20
-364.3823577431173
 30
0.0
 10
1147.816730219112
 20
-363.7092137709159
 30
0.0
 10
1147.794808264124
 20
-362.9408247467595
 30
0.0
 10
1147.776958801245
 20
-362.1074489386518
 30
0.0
 10
1147.764986599705
 20
-361.2409252366358
 30
0.0
 10
1147.759238230256
 20
-360.3745427651886
 30
0.0
 10
1147.760340389477
 20
-359.5415869983092
 30
0.0
 10
1147.767298090439
 20
-358.7737306419972
 30
0.0
 10
1147.782362800422
 20
-358.1011557655186
 30
0.0
 10
1147.796573785348
 20
-357.5474838618507
 30
0.0
 10
1147.829141289235
 20
-357.1394828382294
 30
0.0
 10
1147.833232700763
 20
-356.879974891848
 30
0.0
 10
1147.874734129605
 20
-356.7707626933924
 30
0.0
 10
1147.88561358703
 20
-356.7421330896283
 30
0.0
 11
1147.96640092633
 21
-365.7421330896283
 31
0.0
 11
1147.93678738413
 21
-365.6556120888282
 31
0.0
 11
1147.90608955703
 21
-365.3993548896283
 31
0.0
 11
1147.87545459573
 21
-364.9832254959283
 31
0.0
 11
1147.84610915823
 21
-364.4232386128283
 31
0.0
 11
1147.81931822893
 21
-363.7409899314283
 31
0.0
 11
1147.79631909973
 21
-362.9627554404283
 31
0.0
 11
1147.77824604193
 21
-362.1185750085283
 31
0.0
 11
1147.76603603173
 21
-361.2408223330283
 31
0.0
 11
1147.76035026213
 21
-360.3632784426283
 31
0.0
 11
1147.76150226943
 21
-359.5195271277284
 31
0.0
 11
1147.76942703333
 21
-358.7419142380282
 31
0.0
 11
1147.78368766403
 21
-358.0602448451283
 31
0.0
 11
1147.80352207323
 21
-357.5006972849283
 31
0.0
 11
1147.82791835773
 21
-357.0848045121282
 31
0.0
 11
1147.85569901913
 21
-356.8286486674283
 31
0.0
 11
1147.88561358703
 21
-356.7421330896283
 31
0.0
  0
SPLINE
  5
5606
330
26
100
AcDbEntity
  8
0
  6
Continuous
100
AcDbSpline
210
0.0
220
0.0
230
1.0
 70
     8
 71
     3
 72
     9
 73
     5
 74
     3
 42
0.0000000001
 43
0.0000000001
 44
0.0000000001
 40
0.0
 40
0.0
 40
0.0
 40
0.0
 40
0.0732896931176143
 40
0.227158133168897
 40
0.227158133168897
 40
0.227158133168897
 40
0.227158133168897
 10
1142.53616248973
 20
-377.4993185597283
 30
0.0
 10
1142.521320046106
 20
-377.4792433890273
 30
0.0
 10
1142.475316554457
 20
-377.4170212933203
 30
0.0
 10
1142.397474255469
 20
-377.3999953817697
 30
0.0
 10
1142.34474678783
 20
-377.3884626648284
 30
0.0
 11
1142.53616248973
 21
-377.4993185597283
 31
0.0
 11
1142.48832090313
 21
-377.4437977374283
 31
0.0
 11
1142.34474678783
 21
-377.3884626648284
 31
0.0
  0
SPLINE
  5
5607
330
26
100
AcDbEntity
  8
0
  6
Continuous
100
AcDbSpline
210
0.0
220
0.0
230
1.0
 70
     8
 71
     3
 72
     9
 73
     5
 74
     3
 42
0.0000000001
 43
0.0000000001
 44
0.0000000001
 40
0.0
 40
0.0
 40
0.0
 40
0.0
 40
0.0794986538145224
 40
0.249433176011451
 40
0.249433176011451
 40
0.249433176011451
 40
0.249433176011451
 10
1145.53592418913
 20
-374.4974899268283
 30
0.0
 10
1145.517293165445
 20
-374.4780501171731
 30
0.0
 10
1145.45883688742
 20
-374.4170562106016
 30
0.0
 10
1145.373900279242
 20
-374.4011362074736
 30
0.0
 10
1145.31603443253
 20
-374.3902901838283
 30
0.0
 11
1145.53592418913
 21
-374.4974899268283
 31
0.0
 11
1145.47734122813
 21
-374.4437491356283
 31
0.0
 11
1145.31603443253
 21
-374.3902901838283
 31
0.0
  0
SPLINE
  5
5608
330
26
100
AcDbEntity
  8
0
  6
Continuous
100
AcDbSpline
210
0.0
220
0.0
230
1.0
 70
     8
 71
     3
 72
    16
 73
    12
 74
    10
 42
0.0000000001
 43
0.0000000001
 44
0.0000000001
 40
0.0
 40
0.0
 40
0.0
 40
0.0
 40
0.1384797907401472
 40
0.3951222526295295
 40
0.782864339123637
 40
1.299072140311627
 40
1.934177607389039
 40
2.681420343388997
 40
3.504318008904155
 40
4.355456308421638
 40
5.184376644286615
 40
5.184376644286615
 40
5.184376644286615
 40
5.184376644286615
 10
1142.34474678783
 20
-377.3884626648284
 30
0.0
 10
1142.307295557235
 20
-377.360666344789
 30
0.0
 10
1142.200436538186
 20
-377.2813555332252
 30
0.0
 10
1142.086426621005
 20
-377.0376269210772
 30
0.0
 10
1141.934149394757
 20
-376.685896330627
 30
0.0
 10
1141.779227836203
 20
-376.1943674740627
 30
0.0
 10
1141.621623371241
 20
-375.5819087560996
 30
0.0
 10
1141.480454792355
 20
-374.8597834778278
 30
0.0
 10
1141.370575815164
 20
-374.0599590542511
 30
0.0
 10
1141.300279999391
 20
-373.2279270423167
 30
0.0
 10
1141.291617766535
 20
-372.6678457658405
 30
0.0
 10
1141.28734392703
 20
-372.3915085297283
 30
0.0
 11
1142.34474678783
 21
-377.3884626648284
 31
0.0
 11
1142.23845073713
 21
-377.2997056817283
 31
0.0
 11
1142.10699336343
 21
-377.0792871885283
 31
0.0
 11
1141.95608535573
 21
-376.7221167826283
 31
0.0
 11
1141.79528055923
 21
-376.2315942944283
 31
0.0
 11
1141.63647565143
 21
-375.6166634401282
 31
0.0
 11
1141.49192455783
 21
-374.8835354241284
 31
0.0
 11
1141.37885353183
 21
-374.0684430913283
 31
0.0
 11
1141.30954301153
 21
-373.2201315585284
 31
0.0
 11
1141.28734392703
 21
-372.3915085297283
 31
0.0
  0
SPLINE
  5
5609
330
26
100
AcDbEntity
  8
0
  6
Continuous
100
AcDbSpline
210
0.0
220
0.0
230
1.0
 70
     8
 71
     3
 72
    14
 73
    10
 74
     8
 42
0.0000000001
 43
0.0000000001
 44
0.0000000001
 40
0.0
 40
0.0
 40
0.0
 40
0.0
 40
0.6637739771852631
 40
1.328774360324858
 40
1.995262511988502
 40
2.663206173706831
 40
3.332287604721434
 40
4.001967112798162
 40
4.671588757947037
 40
4.671588757947037
 40
4.671588757947037
 40
4.671588757947037
 10
1145.31603443263
 20
-374.3902761204282
 30
0.0
 10
1145.094389201587
 20
-374.4058775879279
 30
0.0
 10
1144.650689222044
 20
-374.4371093486018
 30
0.0
 10
1144.019039935914
 20
-374.6712048488556
 30
0.0
 10
1143.452324469632
 20
-375.0299015879662
 30
0.0
 10
1142.97783625712
 20
-375.5089171448904
 30
0.0
 10
1142.62271506285
 20
-376.0806921237661
 30
0.0
 10
1142.391096209096
 20
-376.7176865931879
 30
0.0
 10
1142.360215742534
 20
-377.1648770808607
 30
0.0
 10
1142.34477617633
 20
-377.3884626645282
 30
0.0
 11
1145.31603443263
 21
-374.3902761204282
 31
0.0
 11
1144.65684907633
 21
-374.4681899114283
 31
0.0
 11
1144.03051644903
 21
-374.6916467295283
 31
0.0
 11
1143.46825261893
 21
-375.0495096106282
 31
0.0
 11
1142.99808050113
 21
-375.5239428671283
 31
0.0
 11
1142.64343321103
 21
-376.0913010088283
 31
0.0
 11
1142.42198617073
 21
-376.7233072207283
 31
0.0
 11
1142.34477617633
 21
-377.3884626645282
 31
0.0
  0
SPLINE
  5
560A
330
26
100
AcDbEntity
  8
0
  6
Continuous
100
AcDbSpline
210
0.0
220
0.0
230
1.0
 70
     8
 71
     3
 72
    16
 73
    12
 74
    10
 42
0.0000000001
 43
0.0000000001
 44
0.0000000001
 40
0.0
 40
0.0
 40
0.0
 40
0.0
 40
0.1275386330629352
 40
0.3025389109790045
 40
0.527263569979297
 40
0.7967301220787401
 40
1.102849753799787
 40
1.439625423451936
 40
1.790336722178983
 40
2.138806687549954
 40
2.472154043193434
 40
2.472154043193434
 40
2.472154043193434
 40
2.472154043193434
 10
1145.31603443253
 20
-374.3902901838283
 30
0.0
 10
1145.274452929753
 20
-374.3803278966622
 30
0.0
 10
1145.175815973525
 20
-374.3566960022492
 30
0.0
 10
1145.026247034123
 20
-374.2594030449271
 30
0.0
 10
1144.854540190527
 20
-374.1174869396115
 30
0.0
 10
1144.672117291846
 20
-373.9214692110454
 30
0.0
 10
1144.490645626535
 20
-373.6768043768707
 30
0.0
 10
1144.326353633819
 20
-373.3879943026061
 30
0.0
 10
1144.198084697048
 20
-373.0664598800743
 30
0.0
 10
1144.115299282111
 20
-372.730215055849
 30
0.0
 10
1144.10503799114
 20
-372.5027288345889
 30
0.0
 10
1144.10002114263
 20
-372.3915085297283
 30
0.0
 11
1145.31603443253
 21
-374.3902901838283
 31
0.0
 11
1145.19356744963
 21
-374.3546820243283
 31
0.0
 11
1145.04242722943
 21
-374.2664679035282
 31
0.0
 11
1144.86894801773
 21
-374.1236178581283
 31
0.0
 11
1144.68413510223
 21
-373.9275148011283
 31
0.0
 11
1144.50163408803
 21
-373.6817453792284
 31
0.0
 11
1144.33550964613
 21
-373.3887939814282
 31
0.0
 11
1144.20548414713
 21
-373.0630766428283
 31
0.0
 11
1144.12568595573
 21
-372.7238664345283
 31
0.0
 11
1144.10002114263
 21
-372.3915085297283
 31
0.0
  0
SPLINE
  5
560B
330
26
100
AcDbEntity
  8
0
  6
Continuous
100
AcDbSpline
210
0.0
220
0.0
230
1.0
 70
     8
 71
     3
 72
     9
 73
     5
 74
     3
 42
0.0000000001
 43
0.0000000001
 44
0.0000000001
 40
0.0
 40
0.0
 40
0.0
 40
0.0
 40
0.4652902100188928
 40
0.9392877627179326
 40
0.9392877627179326
 40
0.9392877627179326
 40
0.9392877627179326
 10
1141.28734392703
 20
-370.7398125240283
 30
0.0
 10
1141.280191554811
 20
-370.5841056298576
 30
0.0
 10
1141.265752962392
 20
-370.2697779755979
 30
0.0
 10
1141.168157039379
 20
-369.9706000012333
 30
0.0
 10
1141.11890671323
 20
-369.8196243010283
 30
0.0
 11
1141.28734392703
 21
-370.7398125240283
 31
0.0
 11
1141.24548113183
 21
-370.2764093670284
 31
0.0
 11
1141.11890671323
 21
-369.8196243010283
 31
0.0
  0
SPLINE
  5
560C
330
26
100
AcDbEntity
  8
0
  6
Continuous
100
AcDbSpline
210
0.0
220
0.0
230
1.0
 70
     8
 71
     3
 72
    10
 73
     6
 74
     4
 42
0.0000000001
 43
0.0000000001
 44
0.0000000001
 40
0.0
 40
0.0
 40
0.0
 40
0.0
 40
0.6186900753756075
 40
1.242511243180558
 40
1.873651953291858
 40
1.873651953291858
 40
1.873651953291858
 40
1.873651953291858
 10
1144.10002114263
 20
-370.7398125240283
 30
0.0
 10
1144.093201629876
 20
-370.5335616187501
 30
0.0
 10
1144.079506046889
 20
-370.1193492708813
 30
0.0
 10
1143.976272261216
 20
-369.5008148884127
 30
0.0
 10
1143.853159589364
 20
-369.1007270381242
 30
0.0
 10
1143.79124422723
 20
-368.8995163604283
 30
0.0
 11
1144.10002114263
 21
-370.7398125240283
 31
0.0
 11
1144.06598448663
 21
-370.1220594055282
 31
0.0
 11
1143.96334066213
 21
-369.5067407119283
 31
0.0
 11
1143.79124422723
 21
-368.8995163604283
 31
0.0
  0
SPLINE
  5
560D
330
26
100
AcDbEntity
  8
0
  6
Continuous
100
AcDbSpline
210
0.0
220
0.0
230
1.0
 70
     8
 71
     3
 72
    15
 73
    11
 74
     9
 42
0.0000000001
 43
0.0000000001
 44
0.0000000001
 40
0.0
 40
0.0
 40
0.0
 40
0.0
 40
0.5763284771847209
 40
1.177179272778525
 40
1.798617488367126
 40
2.43353930332305
 40
3.072913607465178
 40
3.707096274610271
 40
4.327159054060412
 40
4.926201027093921
 40
4.926201027093921
 40
4.926201027093921
 40
4.926201027093921
 10
1141.11891342073
 20
-369.8196644422282
 30
0.0
 10
1141.104686203045
 20
-369.6273675867117
 30
0.0
 10
1141.075626410876
 20
-369.2345917973906
 30
0.0
 10
1141.190774750549
 20
-368.6397745092075
 30
0.0
 10
1141.412438037186
 20
-368.0591354057693
 30
0.0
 10
1141.743248137391
 20
-367.5165871424131
 30
0.0
 10
1142.16466020143
 20
-367.0354964029307
 30
0.0
 10
1142.659799148174
 20
-366.6402006651793
 30
0.0
 10
1143.204219670323
 20
-366.3364548488976
 30
0.0
 10
1143.597866858076
 20
-366.230481012514
 30
0.0
 10
1143.79129665773
 20
-366.1784077383282
 30
0.0
 11
1141.11891342073
 21
-369.8196644422282
 31
0.0
 11
1141.10126129373
 21
-369.2436063583283
 31
0.0
 11
1141.20579997623
 21
-368.6519194965282
 31
0.0
 11
1141.42778084743
 21
-368.0714800521283
 31
0.0
 11
1141.75712081263
 21
-367.5286532856282
 31
0.0
 11
1142.17886029713
 21
-367.0480959966283
 31
0.0
 11
1142.67384271723
 21
-366.6516365925283
 31
0.0
 11
1143.21958457393
 21
-366.3572836134283
 31
0.0
 11
1143.79129665773
 21
-366.1784077383282
 31
0.0
  0
SPLINE
  5
560E
330
26
100
AcDbEntity
  8
0
  6
Continuous
100
AcDbSpline
210
0.0
220
0.0
230
1.0
 70
     8
 71
     3
 72
    10
 73
     6
 74
     4
 42
0.0000000001
 43
0.0000000001
 44
0.0000000001
 40
0.0
 40
0.0
 40
0.0
 40
0.0
 40
0.8616005706105429
 40
1.643008164128434
 40
2.34474335595005
 40
2.34474335595005
 40
2.34474335595005
 40
2.34474335595005
 10
1141.80520605133
 20
-364.9352232731283
 30
0.0
 10
1142.056520193262
 20
-365.0743212166109
 30
0.0
 10
1142.535757558046
 20
-365.3395706425639
 30
0.0
 10
1143.197075311986
 20
-365.7571857923345
 30
0.0
 10
1143.600435175661
 20
-366.0431190602081
 30
0.0
 10
1143.79128113743
 20
-366.1784057221283
 30
0.0
 11
1141.80520605133
 21
-364.9352232731283
 31
0.0
 11
1142.55479278113
 21
-365.3600470928282
 31
0.0
 11
1143.21539657263
 21
-365.7774203764283
 31
0.0
 11
1143.79128113743
 21
-366.1784057221283
 31
0.0
  0
SPLINE
  5
560F
330
26
100
AcDbEntity
  8
0
  6
Continuous
100
AcDbSpline
210
0.0
220
0.0
230
1.0
 70
     8
 71
     3
 72
    16
 73
    12
 74
    10
 42
0.0000000001
 43
0.0000000001
 44
0.0000000001
 40
0.0
 40
0.0
 40
0.0
 40
0.0
 40
0.3860163782584571
 40
0.8611787413001064
 40
1.413370499726236
 40
2.012803981507778
 40
2.62954634342465
 40
3.251497916707487
 40
3.861318273051771
 40
4.444057964763434
 40
4.987022029613428
 40
4.987022029613428
 40
4.987022029613428
 40
4.987022029613428
 10
1139.61550366363
 20
-369.0815001287283
 30
0.0
 10
1139.592491624134
 20
-368.9546190148548
 30
0.0
 10
1139.541153182751
 20
-368.6715550722488
 30
0.0
 10
1139.558918911649
 20
-368.1971140713966
 30
0.0
 10
1139.660671560312
 20
-367.6630166195118
 30
0.0
 10
1139.854315417198
 20
-367.103990253915
 30
0.0
 10
1140.131350622385
 20
-366.5557136831458
 30
0.0
 10
1140.477627422337
 20
-366.0436856151936
 30
0.0
 10
1140.880948146039
 20
-365.591461869809
 30
0.0
 10
1141.319260232616
 20
-365.2084350682836
 30
0.0
 10
1141.647056050234
 20
-365.0240963012853
 30
0.0
 10
1141.80516278883
 20
-364.9351836316283
 30
0.0
 11
1139.61550366363
 21
-369.0815001287283
 31
0.0
 11
1139.55895743443
 21
-368.6996478428283
 31
0.0
 11
1139.56893431983
 21
-368.2245902326282
 31
0.0
 11
1139.67014923673
 21
-367.6817539049283
 31
0.0
 11
1139.86459606163
 21
-367.1147345654283
 31
0.0
 11
1140.14180783833
 21
-366.5638037423283
 31
0.0
 11
1140.49087494273
 21
-366.0490456281283
 31
0.0
 11
1140.89640923673
 21
-365.5936086913283
 31
0.0
 11
1141.34096165503
 21
-365.2168346268283
 31
0.0
 11
1141.80516278883
 21
-364.9351836316283
 31
0.0
  0
SPLINE
  5
5610
330
26
100
AcDbEntity
  8
0
  6
Continuous
100
AcDbSpline
210
0.0
220
0.0
230
1.0
 70
     8
 71
     3
 72
    10
 73
     6
 74
     4
 42
0.0000000001
 43
0.0000000001
 44
0.0000000001
 40
0.0
 40
0.0
 40
0.0
 40
0.0
 40
0.6135480216242145
 40
1.171985399693333
 40
1.67551383302243
 40
1.67551383302243
 40
1.67551383302243
 40
1.67551383302243
 10
1139.61550291543
 20
-369.0815001288282
 30
0.0
 10
1139.802678899961
 20
-369.1639616228699
 30
0.0
 10
1140.160218185088
 20
-369.3214776829786
 30
0.0
 10
1140.660722158356
 20
-369.5698305769367
 30
0.0
 10
1140.97153539464
 20
-369.7392801905527
 30
0.0
 10
1141.11890671323
 20
-369.8196243010283
 30
0.0
 11
1139.61550291543
 21
-369.0815001288282
 31
0.0
 11
1140.17498972823
 21
-369.3333248320283
 31
0.0
 11
1140.67535085763
 21
-369.5812987125283
 31
0.0
 11
1141.11890671323
 21
-369.8196243010283
 31
0.0
  0
SPLINE
  5
5611
330
26
100
AcDbEntity
  8
0
  6
Continuous
100
AcDbSpline
210
0.0
220
0.0
230
1.0
 70
     8
 71
     3
 72
    22
 73
    18
 74
    16
 42
0.0000000001
 43
0.0000000001
 44
0.0000000001
 40
0.0
 40
0.0
 40
0.0
 40
0.0
 40
0.0222209597000088
 40
0.0975110097001881
 40
0.2452344176001953
 40
0.4939009869002176
 40
0.8759635188001425
 40
1.405454654500117
 40
2.11279779800023
 40
3.044850305100261
 40
4.279050179100163
 40
5.848285907200175
 40
7.710202267700248
 40
9.732443433600276
 40
11.88366577200026
 40
14.12197416110111
 40
16.40909090910143
 40
16.40909090910143
 40
16.40909090910143
 40
16.40909090910143
 10
1132.11435310893
 20
-335.2567375117283
 30
0.0
 10
1132.114353103426
 20
-335.264144498295
 30
0.0
 10
1132.114353079275
 20
-335.296648168195
 30
0.0
 10
1132.114353435567
 20
-335.3783929740613
 30
0.0
 10
1132.11435309464
 20
-335.5356196497952
 30
0.0
 10
1132.114353534934
 20
-335.7951038194948
 30
0.0
 10
1132.114353188126
 20
-336.1818438984616
 30
0.0
 10
1132.114353469862
 20
-336.7214761688283
 30
0.0
 10
1132.114353249486
 20
-337.4444384309284
 30
0.0
 10
1132.114353547036
 20
-338.4023036057949
 30
0.0
 10
1132.114353293716
 20
-339.6474663088616
 30
0.0
 10
1132.114353333615
 20
-341.2025836297282
 30
0.0
 10
1132.114353101527
 20
-343.0203813812283
 30
0.0
 10
1132.114352619357
 20
-345.032174669495
 30
0.0
 10
1132.114354757024
 20
-347.1694319672955
 30
0.0
 10
1132.114350757336
 20
-349.3949811257945
 30
0.0
 10
1132.114352319449
 20
-350.9034561714948
 30
0.0
 10
1132.11435310893
 20
-351.6658284208282
 30
0.0
 11
1132.11435310893
 21
-335.2567375117283
 31
0.0
 11
1132.11435310103
 21
-335.2789584714283
 31
0.0
 11
1132.11435327503
 21
-335.3542485214283
 31
0.0
 11
1132.11435323853
 21
-335.5019719293283
 31
0.0
 11
1132.11435337473
 21
-335.7506384986283
 31
0.0
 11
1132.11435330793
 21
-336.1327010305282
 31
0.0
 11
1132.11435337643
 21
-336.6621921662282
 31
0.0
 11
1132.11435333493
 21
-337.3695353097283
 31
0.0
 11
1132.11435344703
 21
-338.3015878168283
 31
0.0
 11
1132.11435335793
 21
-339.5357876908282
 31
0.0
 11
1132.11435329443
 21
-341.1050234189282
 31
0.0
 11
1132.11435307503
 21
-342.9669397794283
 31
0.0
 11
1132.11435303463
 21
-344.9891809453283
 31
0.0
 11
1132.11435374493
 21
-347.1404032837282
 31
0.0
 11
1132.11435183193
 21
-349.3787116728282
 31
0.0
 11
1132.11435310893
 21
-351.6658284208282
 31
0.0
  0
SPLINE
  5
5612
330
26
100
AcDbEntity
  8
0
  6
Continuous
100
AcDbSpline
210
0.0
220
0.0
230
1.0
 70
     8
 71
     3
 72
    13
 73
     9
 74
     7
 42
0.0000000001
 43
0.0000000001
 44
0.0000000001
 40
0.0
 40
0.0
 40
0.0
 40
0.0
 40
0.5962234394141471
 40
1.220148092357843
 40
1.862006458492016
 40
2.509617097063484
 40
3.150061110723698
 40
3.771342529080728
 40
3.771342529080728
 40
3.771342529080728
 40
3.771342529080728
 10
1139.17757183873
 20
-367.4231877336283
 30
0.0
 10
1139.243624443598
 20
-367.2351146549806
 30
0.0
 10
1139.378798531863
 20
-366.8502304103067
 30
0.0
 10
1139.719065344696
 20
-366.3250080056212
 30
0.0
 10
1140.145057129914
 20
-365.8472845454902
 30
0.0
 10
1140.649897452465
 20
-365.4447367614054
 30
0.0
 10
1141.204818603266
 20
-365.1238120872362
 30
0.0
 10
1141.607084546557
 20
-364.9974199184582
 30
0.0
 10
1141.80516278883
 20
-364.9351836316283
 30
0.0
 11
1139.17757183873
 21
-367.4231877336283
 31
0.0
 11
1139.39669387663
 21
-366.8686898326283
 31
0.0
 11
1139.72805743143
 21
-366.3400309945283
 31
0.0
 11
1140.15622099203
 21
-365.8618488874282
 31
0.0
 11
1140.66123056673
 21
-365.4564295136282
 31
0.0
 11
1141.21955093483
 21
-365.1426670219283
 31
0.0
 11
1141.80516278883
 21
-364.9351836316283
 31
0.0
  0
SPLINE
  5
5613
330
26
100
AcDbEntity
  8
0
  6
Continuous
100
AcDbSpline
210
0.0
220
0.0
230
1.0
 70
     8
 71
     3
 72
    16
 73
    12
 74
    10
 42
0.0000000001
 43
0.0000000001
 44
0.0000000001
 40
0.0
 40
0.0
 40
0.0
 40
0.0
 40
1.390156161114988
 40
2.800677564625793
 40
4.274643084918455
 40
5.876870030248071
 40
7.653654004224254
 40
9.636891143926409
 40
11.81249431586021
 40
14.01195080718779
 40
15.93381547707702
 40
15.93381547707702
 40
15.93381547707702
 40
15.93381547707702
 10
1133.62669899613
 20
-351.6658284208282
 30
0.0
 10
1133.650870840116
 20
-352.1297458029467
 30
0.0
 10
1133.69956863612
 20
-353.0643767748349
 30
0.0
 10
1134.076435202507
 20
-354.448131508928
 30
0.0
 10
1134.648170614352
 20
-355.8323926895981
 30
0.0
 10
1135.431056775417
 20
-357.2514938688908
 30
0.0
 10
1136.423597383935
 20
-358.7396897349076
 30
0.0
 10
1137.627153672611
 20
-360.311500214172
 30
0.0
 10
1138.997726775019
 20
-361.9288793576469
 30
0.0
 10
1140.409029117704
 20
-363.4830815278867
 30
0.0
 10
1141.361191388098
 20
-364.4734105813051
 30
0.0
 10
1141.80520605133
 20
-364.9352232731283
 30
0.0
 11
1133.62669899613
 21
-351.6658284208282
 31
0.0
 11
1133.74805125193
 21
-353.0506777925283
 31
0.0
 11
1134.09792491683
 21
-354.4171180760283
 31
0.0
 11
1134.65576301953
 21
-355.7814461180283
 31
0.0
 11
1135.42096118053
 21
-357.1891403173282
 31
0.0
 11
1136.40021965373
 21
-358.6717104279283
 31
0.0
 11
1137.60024256253
 21
-360.2506893925282
 31
0.0
 11
1139.00185560813
 21
-361.9146395216283
 31
0.0
 11
1140.47935271133
 21
-363.5439372744282
 31
0.0
 11
1141.80520605133
 21
-364.9352232731283
 31
0.0
  0
SPLINE
  5
5614
330
26
100
AcDbEntity
  8
0
  6
Continuous
100
AcDbSpline
210
0.0
220
0.0
230
1.0
 70
     8
 71
     3
 72
    16
 73
    12
 74
    10
 42
0.0000000001
 43
0.0000000001
 44
0.0000000001
 40
0.0
 40
0.0
 40
0.0
 40
0.0
 40
1.647796185724107
 40
3.298513494726072
 40
4.98886838328625
 40
6.78635197044527
 40
8.739619326949139
 40
10.88176015746494
 40
13.19845666772618
 40
15.5158089174325
 40
17.52674333562928
 40
17.52674333562928
 40
17.52674333562928
 40
17.52674333562928
 10
1132.11435310893
 20
-351.6658284208282
 30
0.0
 10
1132.135027861574
 20
-352.2154379189786
 30
0.0
 10
1132.176414017936
 20
-353.3156312330456
 30
0.0
 10
1132.498492282223
 20
-354.9531394252728
 30
0.0
 10
1132.990186223781
 20
-356.5956117495812
 30
0.0
 10
1133.664877712377
 20
-358.2815494114269
 30
0.0
 10
1134.521649721091
 20
-360.0504465305413
 30
0.0
 10
1135.561257496907
 20
-361.9190295917505
 30
0.0
 10
1136.746138998029
 20
-363.8426153967694
 30
0.0
 10
1137.966667123194
 20
-365.6914181943724
 30
0.0
 10
1138.793446753228
 20
-366.8738339686192
 30
0.0
 10
1139.17757094413
 20
-367.4231877336283
 30
0.0
 11
1132.11435310893
 21
-351.6658284208282
 31
0.0
 11
1132.21919239293
 21
-353.3102860804282
 31
0.0
 11
1132.52132010773
 21
-354.9331189363282
 31
0.0
 11
1133.00312889553
 21
-356.5533534691283
 31
0.0
 11
1133.66398786563
 21
-358.2249433314284
 31
0.0
 11
1134.50978534573
 21
-359.9855909363283
 31
0.0
 11
1135.54605479233
 21
-361.8604010525284
 31
0.0
 11
1136.75623613463
 21
-363.8358867749283
 31
0.0
 11
1138.03205708583
 21
-365.7704157485283
 31
0.0
 11
1139.17757094413
 21
-367.4231877336283
 31
0.0
  0
SPLINE
  5
5615
330
26
100
AcDbEntity
  8
0
  6
Continuous
100
AcDbSpline
210
0.0
220
0.0
230
1.0
 70
     8
 71
     3
 72
    23
 73
    19
 74
    17
 42
0.0000000001
 43
0.0000000001
 44
0.0000000001
 40
0.0
 40
0.0
 40
0.0
 40
0.0
 40
0.0864615438206709
 40
0.342533633852639
 40
0.7583931399558495
 40
1.318119640362757
 40
2.000262383925293
 40
2.778642915613853
 40
3.62341382801446
 40
4.502056687007772
 40
5.380806105072348
 40
6.225816717191409
 40
7.0045343763883
 40
7.686996008315371
 40
8.246959047166735
 40
8.662941911899948
 40
8.919054167868165
 40
9.005512970493065
 40
9.005512970493065
 40
9.005512970493065
 40
9.005512970493065
 10
1148.07425671853
 20
-310.1658284208284
 30
0.0
 10
1148.073359333425
 20
-310.1946349611014
 30
0.0
 10
1148.069804173899
 20
-310.3087574771056
 30
0.0
 10
1148.061899789807
 20
-310.5614315859925
 30
0.0
 10
1148.048971222613
 20
-310.9717806753127
 30
0.0
 10
1148.0313800244
 20
-311.5240768624087
 30
0.0
 10
1148.009637790615
 20
-312.1971424018068
 30
0.0
 10
1147.984399313778
 20
-312.9651592654786
 30
0.0
 10
1147.956463314285
 20
-313.7986227210704
 30
0.0
 10
1147.926764093385
 20
-314.6655019418648
 30
0.0
 10
1147.896360606107
 20
-315.5324367107238
 30
0.0
 10
1147.866413621739
 20
-316.366058311757
 30
0.0
 10
1147.838152249072
 20
-317.1342687024912
 30
0.0
 10
1147.812822566737
 20
-317.8075065559911
 30
0.0
 10
1147.791622046686
 20
-318.3599024344258
 30
0.0
 10
1147.775612658825
 20
-318.770276349223
 30
0.0
 10
1147.765645471639
 20
-319.0229311375196
 30
0.0
 10
1147.76111356519
 20
-319.1370315254837
 30
0.0
 10
1147.75996979313
 20
-319.1658284208283
 30
0.0
 11
1148.07425671853
 21
-310.1658284208284
 31
0.0
 11
1148.07156361313
 21
-310.2522480120283
 31
0.0
 11
1148.06355792623
 21
-310.5081949289283
 31
0.0
 11
1148.05046103643
 21
-310.9238481501283
 31
0.0
 11
1148.03264108603
 21
-311.4832909127283
 31
0.0
 11
1148.01061428933
 21
-312.1650779343283
 31
0.0
 11
1147.98504466073
 21
-312.9430383743283
 31
0.0
 11
1147.95673930583
 21
-313.7873349462283
 31
0.0
 11
1147.92664688873
 21
-314.6654623402282
 31
0.0
 11
1147.89583917923
 21
-315.5436715549283
 31
0.0
 11
1147.86549380743
 21
-316.3881371214283
 31
0.0
 11
1147.83685738893
 21
-317.1663280673282
 31
0.0
 11
1147.81119316363
 21
-317.8483069721283
 31
0.0
 11
1147.78971386753
 21
-318.4078579034283
 31
0.0
 11
1147.77349778373
 21
-318.8235245756283
 31
0.0
 11
1147.76339915903
 21
-319.0794376574282
 31
0.0
 11
1147.75996979313
 21
-319.1658284208283
 31
0.0
  0
SPLINE
  5
5616
330
26
100
AcDbEntity
  8
0
  6
Continuous
100
AcDbSpline
210
0.0
220
0.0
230
1.0
 70
     8
 71
     3
 72
    23
 73
    19
 74
    17
 42
0.0000000001
 43
0.0000000001
 44
0.0000000001
 40
0.0
 40
0.0
 40
0.0
 40
0.0
 40
0.091840150908341
 40
0.3498925195336417
 40
0.7670090341620409
 40
1.327560446515891
 40
2.010116890938546
 40
2.788506037945509
 40
3.632799888523742
 40
4.510655627517854
 40
5.388338697535717
 40
6.232233333832399
 40
7.009980309832021
 40
7.691784740952273
 40
8.251536337526838
 40
8.667874734236067
 40
8.925135683970693
 40
9.015894283452425
 40
9.015894283452425
 40
9.015894283452425
 40
9.015894283452425
 10
1147.88561358703
 20
-356.7421330896283
 30
0.0
 10
1147.89678135242
 20
-356.7707576249126
 30
0.0
 10
1147.939328294376
 20
-356.8798113521991
 30
0.0
 10
1147.946215526415
 20
-357.1396172492952
 30
0.0
 10
1147.983271324505
 20
-357.5477801713985
 30
0.0
 10
1148.004178021185
 20
-358.1018529897578
 30
0.0
 10
1148.028148939312
 20
-358.7748834004786
 30
0.0
 10
1148.046334151291
 20
-359.5432213253851
 30
0.0
 10
1148.060837627179
 20
-360.3765735219872
 30
0.0
 10
1148.070322179955
 20
-361.2431467265994
 30
0.0
 10
1148.074835868918
 20
-362.1096253900939
 30
0.0
 10
1148.073947126106
 20
-362.9427022390406
 30
0.0
 10
1148.068572682711
 20
-363.7106248981318
 30
0.0
 10
1148.056308020749
 20
-364.3832752187495
 30
0.0
 10
1148.045328153122
 20
-364.9367527964021
 30
0.0
 10
1148.016733551666
 20
-365.3450056932923
 30
0.0
 10
1148.014822163594
 20
-365.6036093153479
 30
0.0
 10
1147.976416565651
 20
-365.7134802868716
 30
0.0
 10
1147.96640092633
 20
-365.7421330896283
 30
0.0
 11
1147.88561358703
 21
-356.7421330896283
 31
0.0
 11
1147.91640201513
 21
-356.8286587275283
 31
0.0
 11
1147.94685921463
 21
-357.0849074035283
 31
0.0
 11
1147.97587457833
 21
-357.5010135143283
 31
0.0
 11
1148.00245594303
 21
-358.0609343274283
 31
0.0
 11
1148.02574675923
 21
-358.7430932808282
 31
0.0
 11
1148.04503443153
 21
-359.5212434269282
 31
0.0
 11
1148.05975220743
 21
-360.3654089872283
 31
0.0
 11
1148.06948361703
 21
-361.2432107861283
 31
0.0
 11
1148.07395846233
 21
-362.1208824486283
 31
0.0
 11
1148.07305511283
 21
-362.9647766014283
 31
0.0
 11
1148.06679863403
 21
-363.7424984123283
 31
0.0
 11
1148.05536112783
 21
-364.4242069026283
 31
0.0
 11
1148.03906210433
 21
-364.9837211488283
 31
0.0
 11
1148.01836800553
 21
-365.3995449274284
 31
0.0
 11
1147.99389509323
 21
-365.6556391929283
 31
0.0
 11
1147.96640092633
 21
-365.7421330896283
 31
0.0
  0
SPLINE
  5
5617
330
26
100
AcDbEntity
  8
0
  6
Continuous
100
AcDbSpline
210
0.0
220
0.0
230
1.0
 70
     8
 71
     3
 72
    14
 73
    10
 74
     8
 42
0.0000000001
 43
0.0000000001
 44
0.0000000001
 40
0.0
 40
0.0
 40
0.0
 40
0.0
 40
0.6720303150144096
 40
1.344015970650574
 40
2.015991059844816
 40
2.687965718418698
 40
3.359933453547522
 40
4.031879950971941
 40
4.703790336143036
 40
4.703790336143036
 40
4.703790336143036
 40
4.703790336143036
 10
1145.53592418913
 20
-374.4974902295283
 30
0.0
 10
1145.311448474925
 20
-374.5121070475736
 30
0.0
 10
1144.862511963918
 20
-374.5413397123124
 30
0.0
 10
1144.222899036197
 20
-374.7739669392629
 30
0.0
 10
1143.649458117307
 20
-375.1324718708646
 30
0.0
 10
1143.169950972656
 20
-375.612521624351
 30
0.0
 10
1142.812039390466
 20
-376.1863066432679
 30
0.0
 10
1142.579907732313
 20
-376.8260057352779
 30
0.0
 10
1142.550743672892
 20
-377.2748849723538
 30
0.0
 10
1142.53616203503
 20
-377.4993185597283
 30
0.0
 11
1145.53592418913
 21
-374.4974902295283
 31
0.0
 11
1144.86812765433
 21
-374.5728064456283
 31
0.0
 11
1144.23392161353
 21
-374.7949492357283
 31
0.0
 11
1143.66511283973
 21
-375.1527300336282
 31
0.0
 11
1143.19021457653
 21
-375.6281473044284
 31
0.0
 11
1142.83299818703
 21
-376.1973020181282
 31
0.0
 11
1142.61130210193
 21
-376.8316228685283
 31
0.0
 11
1142.53616203503
 21
-377.4993185597283
 31
0.0
  0
ARC
  5
5618
330
26
100
AcDbEntity
  8
0
  6
Continuous
100
AcDbCircle
 10
1119.53616248973
 20
-351.6658284208282
 30
0.0
 40
7.12
100
AcDbArc
 50
294.919741527564
 51
179.4306051047187
  0
ARC
  5
5619
330
26
100
AcDbEntity
  8
0
  6
Continuous
100
AcDbCircle
 10
1122.53616248973
 20
-351.6658284208282
 30
0.0
 40
19.0
100
AcDbArc
 50
59.72735868109542
 51
90.0
  0
ARC
  5
561A
330
26
100
AcDbEntity
  8
0
  6
Continuous
100
AcDbCircle
 10
1133.62669899613
 20
-332.6658287520282
 30
0.0
 40
2.9999999477
100
AcDbArc
 50
239.7273554889967
 51
270.0
  0
ARC
  5
561B
330
26
100
AcDbEntity
  8
0
  6
Continuous
100
AcDbCircle
 10
1151.23322881323
 20
-305.6658284881282
 30
0.0
 40
3.0
100
AcDbArc
 50
90.00000003009365
 51
177.9999999999
  0
ARC
  5
561C
330
26
100
AcDbEntity
  8
0
  6
Continuous
100
AcDbCircle
 10
1144.286710772131
 20
-332.6658284208282
 30
0.0
 40
3.0
100
AcDbArc
 50
270.0
 51
357.9999999999998
  0
ARC
  5
561D
330
26
100
AcDbEntity
  8
0
  6
Continuous
100
AcDbCircle
 10
1074.27880317683
 20
-323.6658284208282
 30
0.0
 40
3.0
100
AcDbArc
 50
225.0000000000081
 51
270.0
  0
ARC
  5
561E
330
26
100
AcDbEntity
  8
0
  6
Continuous
100
AcDbCircle
 10
1092.20411168223
 20
-329.6658284208282
 30
0.0
 40
3.0
100
AcDbArc
 50
29.99999999999447
 51
90.0
  0
ARC
  5
561F
330
26
100
AcDbEntity
  8
0
  6
Continuous
100
AcDbCircle
 10
1099.13231491243
 20
-329.6658284208282
 30
0.0
 40
3.0
100
AcDbArc
 50
209.9999999999945
 51
270.0
  0
ARC
  5
5620
330
26
100
AcDbEntity
  8
0
  6
Continuous
100
AcDbCircle
 10
1145.53616248973
 20
-380.6243765364282
 30
0.0
 40
3.0
100
AcDbArc
 50
180.0
 51
240.0000000000002
  0
ARC
  5
5621
330
26
100
AcDbEntity
  8
0
  6
Continuous
100
AcDbCircle
 10
1067.53616248973
 20
-326.1658284208282
 30
0.0
 40
1.0
100
AcDbArc
 50
90.0
 51
180.0
  0
LINE
  5
5622
330
26
100
AcDbEntity
  8
0
  6
Continuous
100
AcDbLine
 10
1153.53616248973
 20
-374.4974899268283
 30
0.0
 11
1153.53616248973
 21
-302.6658284208283
 31
0.0
  0
LINE
  5
5623
330
26
100
AcDbEntity
  8
0
  6
Continuous
100
AcDbLine
 10
1148.07425671853
 20
-310.1658284208284
 30
0.0
 11
1148.23505496703
 21
-305.5611690497283
 31
0.0
  0
LINE
  5
5624
330
26
100
AcDbEntity
  8
0
  6
Continuous
100
AcDbLine
 10
1147.28488325313
 20
-332.7705269109283
 30
0.0
 11
1147.75996979313
 21
-319.1658284208283
 31
0.0
  0
LINE
  5
5625
330
26
100
AcDbEntity
  8
0
  6
Continuous
100
AcDbLine
 10
1147.28488325313
 20
-368.8045381417284
 30
0.0
 11
1147.28488325313
 21
-332.7705269109283
 31
0.0
  0
LINE
  5
5626
330
26
100
AcDbEntity
  8
0
  6
Continuous
100
AcDbLine
 10
1144.28671077213
 20
-368.8995163604283
 30
0.0
 11
1144.28671077213
 21
-335.6658284208283
 31
0.0
  0
LINE
  5
5627
330
26
100
AcDbEntity
  8
0
  6
Continuous
100
AcDbLine
 10
1144.10002114263
 20
-372.3915085297283
 30
0.0
 11
1144.10002114263
 21
-370.7398125240283
 31
0.0
  0
LINE
  5
5628
330
26
100
AcDbEntity
  8
0
  6
Continuous
100
AcDbLine
 10
1143.79129665773
 20
-368.8995163604283
 30
0.0
 11
1143.79129665773
 21
-366.1784057221283
 31
0.0
  0
LINE
  5
5629
330
26
100
AcDbEntity
  8
0
  6
Continuous
100
AcDbLine
 10
1142.53616248973
 20
-380.6243765364282
 30
0.0
 11
1142.53616248973
 21
-377.4993185597283
 31
0.0
  0
LINE
  5
562A
330
26
100
AcDbEntity
  8
0
  6
Continuous
100
AcDbLine
 10
1141.28734392703
 20
-372.3915085297283
 30
0.0
 11
1141.28734392703
 21
-370.7398125240283
 31
0.0
  0
LWPOLYLINE
  5
562B
330
26
100
AcDbEntity
  8
0
  6
Continuous
100
AcDbPolyline
 90
        8
 70
     0
 43
0.0
 10
1147.28488325313
 20
-368.8045510390283
 10
1147.19021501743
 20
-368.2149214484283
 10
1146.95632619853
 20
-367.6581176072283
 10
1146.59443156833
 20
-367.1608377907282
 10
1146.12188366943
 20
-366.7469261473283
 10
1145.56134077573
 20
-366.4362293917283
 10
1144.93968044693
 20
-366.2436451717283
 10
1144.28671077213
 20
-366.1784077383282
  0
LINE
  5
562C
330
26
100
AcDbEntity
  8
0
  6
Continuous
100
AcDbLine
 10
1122.53616248973
 20
-384.6658284208282
 30
0.0
 11
1146.53616248973
 21
-384.6658284208282
 31
0.0
  0
LINE
  5
562D
330
26
100
AcDbEntity
  8
0
  6
Continuous
100
AcDbLine
 10
1122.53616248973
 20
-383.6843335172283
 30
0.0
 11
1144.83616172683
 21
-383.6843335172283
 31
0.0
  0
LINE
  5
562E
330
26
100
AcDbEntity
  8
0
  6
Continuous
100
AcDbLine
 10
1122.53616248973
 20
-383.2224527478282
 30
0.0
 11
1144.03616248973
 21
-383.2224527478282
 31
0.0
  0
LINE
  5
562F
330
26
100
AcDbEntity
  8
0
  6
Continuous
100
AcDbLine
 10
1147.42145102063
 20
-371.8058417432283
 30
0.0
 11
1144.47969738703
 21
-372.3915085297283
 31
0.0
  0
LINE
  5
5630
330
26
100
AcDbEntity
  8
0
  6
Continuous
100
AcDbLine
 10
1143.79129665773
 20
-368.8995163604283
 30
0.0
 11
1141.11891342073
 21
-369.8196644422282
 31
0.0
  0
LINE
  5
5631
330
26
100
AcDbEntity
  8
0
  6
Continuous
100
AcDbLine
 10
1122.53616248973
 20
-380.6243765364282
 30
0.0
 11
1142.53616248973
 21
-380.6243765364282
 31
0.0
  0
LINE
  5
5632
330
26
100
AcDbEntity
  8
0
  6
Continuous
100
AcDbLine
 10
1133.62669899613
 20
-335.6658284208283
 30
0.0
 11
1133.62669899613
 21
-351.6658284208282
 31
0.0
  0
LINE
  5
5633
330
26
100
AcDbEntity
  8
0
  6
Continuous
100
AcDbLine
 10
1145.53592418913
 20
-374.4974899268283
 30
0.0
 11
1153.53616248973
 21
-374.4974899268283
 31
0.0
  0
LINE
  5
5634
330
26
100
AcDbEntity
  8
0
  6
Continuous
100
AcDbLine
 10
1150.32346967103
 20
-374.3902901838283
 30
0.0
 11
1145.31603443253
 21
-374.3902901838283
 31
0.0
  0
LINE
  5
5635
330
26
100
AcDbEntity
  8
0
  6
Continuous
100
AcDbLine
 10
1153.53616248973
 20
-373.2348230138283
 30
0.0
 11
1151.04309018853
 21
-373.2348230138283
 31
0.0
  0
LINE
  5
5636
330
26
100
AcDbEntity
  8
0
  6
Continuous
100
AcDbLine
 10
1144.47969738693
 20
-372.3915085297283
 30
0.0
 11
1141.28734392703
 21
-372.3915085297283
 31
0.0
  0
LINE
  5
5637
330
26
100
AcDbEntity
  8
0
  6
Continuous
100
AcDbLine
 10
1147.36541836423
 20
-371.3160786134282
 30
0.0
 11
1144.36724604023
 21
-371.4131164989283
 31
0.0
  0
LINE
  5
5638
330
26
100
AcDbEntity
  8
0
  6
Continuous
100
AcDbLine
 10
1122.53616248973
 20
-370.7398125240283
 30
0.0
 11
1144.10002114263
 21
-370.7398125240283
 31
0.0
  0
LINE
  5
5639
330
26
100
AcDbEntity
  8
0
  6
Continuous
100
AcDbLine
 10
1122.53616248973
 20
-369.0815001288282
 30
0.0
 11
1139.61550291543
 21
-369.0815001288282
 31
0.0
  0
LINE
  5
563A
330
26
100
AcDbEntity
  8
0
  6
Continuous
100
AcDbLine
 10
1143.79124422723
 20
-368.8995163604283
 30
0.0
 11
1144.28671077213
 21
-368.8995163604283
 31
0.0
  0
LINE
  5
563B
330
26
100
AcDbEntity
  8
0
  6
Continuous
100
AcDbLine
 10
1147.28488325313
 20
-368.8045510390283
 30
0.0
 11
1144.28671077213
 21
-368.8995163604283
 31
0.0
  0
LINE
  5
5641
330
26
100
AcDbEntity
  8
0
  6
Continuous
100
AcDbLine
 10
1122.53616248973
 20
-367.4231877336283
 30
0.0
 11
1139.17757094413
 21
-367.4231877336283
 31
0.0
  0
LINE
  5
5642
330
26
100
AcDbEntity
  8
0
  6
Continuous
100
AcDbLine
 10
1143.79129665773
 20
-366.1784057221283
 30
0.0
 11
1144.28671077213
 21
-366.1784077383282
 31
0.0
  0
LINE
  5
5649
330
26
100
AcDbEntity
  8
0
  6
Continuous
100
AcDbLine
 10
1071.53616248973
 20
-325.1658284208283
 30
0.0
 11
1072.15748283333
 21
-325.7871487643282
 31
0.0
  0
LINE
  5
564A
330
26
100
AcDbEntity
  8
0
  6
Continuous
100
AcDbLine
 10
1146.53616248973
 20
-384.6658284208282
 30
0.0
 11
1144.03616248973
 21
-383.2224527478282
 31
0.0
  0
LINE
  5
564D
330
26
100
AcDbEntity
  8
0
  6
Continuous
100
AcDbLine
 10
1094.80218789353
 20
-328.1658284208282
 30
0.0
 11
1096.53423870113
 21
-331.1658284208282
 31
0.0
  0
LINE
  5
564E
330
26
100
AcDbEntity
  8
0
  6
Continuous
100
AcDbLine
 10
1153.53616248973
 20
-353.9369959415282
 30
0.0
 11
1151.13107724833
 21
-353.9369959415282
 31
0.0
  0
LINE
  5
564F
330
26
100
AcDbEntity
  8
0
  6
CENTER
100
AcDbLine
 10
1059.157379981164
 20
-351.6658284206283
 30
0.0
 11
1164.261687671749
 21
-351.6658284208282
 31
0.0
  0
LINE
  5
5650
330
26
100
AcDbEntity
  8
0
  6
Continuous
100
AcDbLine
 10
1127.53616248973
 20
-351.6658284208282
 30
0.0
 11
1133.62669899403
 21
-351.6658284206283
 31
0.0
  0
LINE
  5
565A
330
26
100
AcDbEntity
  8
0
  6
Continuous
100
AcDbLine
 10
1099.13231491243
 20
-332.6658284208282
 30
0.0
 11
1099.13231491243
 21
-351.6658284208282
 31
0.0
  0
LINE
  5
565E
330
26
100
AcDbEntity
  8
0
  6
Continuous
100
AcDbLine
 10
1096.53423870113
 20
-331.1658284208282
 30
0.0
 11
1096.53423870113
 21
-351.6658284208282
 31
0.0
  0
LINE
  5
565F
330
26
100
AcDbEntity
  8
0
  6
Continuous
100
AcDbLine
 10
1094.80218789353
 20
-351.6658284208282
 30
0.0
 11
1094.80218789353
 21
-328.1658284208282
 31
0.0
  0
LINE
  5
5660
330
26
100
AcDbEntity
  8
0
  6
Continuous
100
AcDbLine
 10
1133.62669899613
 20
-335.6658284208283
 30
0.0
 11
1144.28671077213
 21
-335.6658284208283
 31
0.0
  0
LINE
  5
5661
330
26
100
AcDbEntity
  8
0
  6
Continuous
100
AcDbLine
 10
1092.20411168223
 20
-351.6658284208282
 30
0.0
 11
1092.20411168223
 21
-326.6658284208282
 31
0.0
  0
LWPOLYLINE
  5
5662
330
26
100
AcDbEntity
  8
0
  6
Continuous
100
AcDbPolyline
 90
        4
 70
     0
 43
0.0
 10
1139.61550366363
 20
-369.0815001287283
 10
1139.37533692993
 20
-368.5650209906283
 10
1139.22748722363
 20
-368.0051598742283
 10
1139.17757183873
 20
-367.4231877336283
  0
LINE
  5
5663
330
26
100
AcDbEntity
  8
0
  6
Continuous
100
AcDbLine
 10
1099.13231491243
 20
-332.6658284208282
 30
0.0
 11
1122.53616248973
 21
-332.6658284208282
 31
0.0
  0
LINE
  5
5664
330
26
100
AcDbEntity
  8
0
  6
Continuous
100
AcDbLine
 10
1074.27880317683
 20
-326.6658284208282
 30
0.0
 11
1092.20411168223
 21
-326.6658284208282
 31
0.0
  0
LINE
  5
5665
330
26
100
AcDbEntity
  8
0
  6
Continuous
100
AcDbLine
 10
1067.53616248973
 20
-325.1658284208283
 30
0.0
 11
1071.53616248973
 21
-325.1658284208283
 31
0.0
  0
LINE
  5
5666
330
26
100
AcDbEntity
  8
0
  6
Continuous
100
AcDbLine
 10
1074.27880317683
 20
-326.6658284208282
 30
0.0
 11
1074.27880317683
 21
-351.6658284208282
 31
0.0
  0
LINE
  5
5667
330
26
100
AcDbEntity
  8
0
  6
Continuous
100
AcDbLine
 10
1072.15748283333
 20
-325.7871487643282
 30
0.0
 11
1072.15748283333
 21
-351.6658284208282
 31
0.0
  0
LINE
  5
5668
330
26
100
AcDbEntity
  8
0
  6
Continuous
100
AcDbLine
 10
1071.53616248973
 20
-325.1658284208283
 30
0.0
 11
1071.53616248973
 21
-351.6658284208282
 31
0.0
  0
LINE
  5
5669
330
26
100
AcDbEntity
  8
0
  6
Continuous
100
AcDbLine
 10
1067.53616248973
 20
-351.6658284208282
 30
0.0
 11
1067.53616248973
 21
-325.1658284208283
 31
0.0
  0
LINE
  5
566A
330
26
100
AcDbEntity
  8
0
  6
Continuous
100
AcDbLine
 10
1066.53616248973
 20
-351.6658284208281
 30
0.0
 11
1066.53616248973
 21
-326.1658284208282
 31
0.0
  0
LINE
  5
566B
330
26
100
AcDbEntity
  8
0
  6
Continuous
100
AcDbLine
 10
1151.23322776073
 20
-302.6658284208283
 30
0.0
 11
1153.53616248973
 21
-302.6658284208283
 31
0.0
  0
LINE
  5
566F
330
26
100
AcDbEntity
  8
0
  6
CENTER
100
AcDbLine
 10
1143.009930530549
 20
-314.7164977685483
 30
0.0
 11
1159.731383572206
 21
-314.7164977686616
 31
0.0
  0
LINE
  5
5670
330
26
100
AcDbEntity
  8
0
100
AcDbLine
 10
1148.074256718531
 20
-310.1658284208284
 30
0.0
 11
1153.53616248973
 21
-310.1658284208284
 31
0.0
  0
LINE
  5
5671
330
26
100
AcDbEntity
  8
0
100
AcDbLine
 10
1147.75996979313
 20
-319.1658284208283
 30
0.0
 11
1153.53616248973
 21
-319.1658284208283
 31
0.0
  0
LINE
  5
5672
330
26
100
AcDbEntity
  8
0
  6
Continuous
100
AcDbLine
 10
1102.53616248973
 20
-379.4481083130282
 30
0.0
 11
1106.53616248973
 21
-383.4481083130282
 31
0.0
  0
LINE
  5
5673
330
26
100
AcDbEntity
  8
0
100
AcDbLine
 10
1102.048748321097
 20
-382.2635569536922
 30
0.0
 11
1102.048748143276
 21
-382.2635572262627
 31
0.0
  0
LINE
  5
5674
330
26
100
AcDbEntity
  8
0
100
AcDbLine
 10
1102.048748321097
 20
-382.2635569536922
 30
0.0
 11
1102.048748143276
 21
-382.2635572262627
 31
0.0
  0
LWPOLYLINE
  5
5675
330
26
100
AcDbEntity
  8
0
100
AcDbPolyline
 90
        9
 70
   128
 43
0.0
 10
1147.6248680929
 20
-323.0346349273967
 10
1148.537435952478
 20
-324.2549684834234
 10
1149.217742096976
 20
-324.7984863747432
 10
1149.796001976983
 20
-325.4439134368598
 10
1150.204187034949
 20
-325.7156723825198
 10
1151.462756487622
 20
-326.3610994446361
 10
1152.075034074571
 20
-327.1084374128528
 10
1152.959432748052
 20
-327.3801963585128
 10
1153.53616248973
 20
-327.3801963585128
  0
LINE
  5
5676
330
26
100
AcDbEntity
  8
0
  6
Continuous
100
AcDbLine
 10
1148.189907724396
 20
-306.8540169247249
 30
0.0
 11
1151.501719220499
 21
-310.1658284208284
 31
0.0
  0
LINE
  5
5677
330
26
100
AcDbEntity
  8
0
  6
Continuous
100
AcDbLine
 10
1147.661100284596
 20
-321.9970807090188
 30
0.0
 11
1153.04421593409
 21
-327.3801963585128
 31
0.0
  0
LINE
  5
5678
330
26
100
AcDbEntity
  8
0
  6
Continuous
100
AcDbLine
 10
1147.758654449714
 20
-319.2034949280367
 30
0.0
 11
1153.53616248973
 21
-324.9810029680523
 31
0.0
  0
LINE
  5
5679
330
26
100
AcDbEntity
  8
0
  6
Continuous
100
AcDbLine
 10
1150.819736928354
 20
-319.1658284208283
 30
0.0
 11
1153.53616248973
 21
-321.8822539822724
 31
0.0
  0
LINE
  5
567A
330
26
100
AcDbEntity
  8
0
  6
Continuous
100
AcDbLine
 10
1148.837233173488
 20
-304.1949843483174
 30
0.0
 11
1153.53616248973
 21
-308.8939136645592
 31
0.0
  0
LINE
  5
567B
330
26
100
AcDbEntity
  8
0
  6
Continuous
100
AcDbLine
 10
1150.495849490466
 20
-302.9624607191953
 30
0.0
 11
1153.53616248973
 21
-306.0027737184591
 31
0.0
  0
LINE
  5
567C
330
26
100
AcDbEntity
  8
0
100
AcDbLine
 10
1153.247797618891
 20
-327.3801963585128
 30
0.0
 11
1152.959432748052
 21
-327.3801963585128
 31
0.0
  0
ENDSEC
  0
SECTION
  2
OBJECTS
  0
DICTIONARY
  5
593
330
0
100
AcDbDictionary
281
     1
  3
ACAD_COLOR
350
618
  3
ACAD_GROUP
350
594
  3
ACAD_LAYOUT
350
619
  3
ACAD_MATERIAL
350
617
  3
ACAD_MLINESTYLE
350
595
  3
ACAD_PLOTSETTINGS
350
61A
  3
ACAD_PLOTSTYLENAME
350
615
  3
AcadDim
350
3268
  3
ACDBHEADERROUNDTRIPXREC
350
5F06
  3
AcDbVariableDictionary
350
5EFE
  0
DICTIONARY
  5
618
102
{ACAD_REACTORS
330
593
102
}
330
593
100
AcDbDictionary
281
     1
  0
DICTIONARY
  5
594
102
{ACAD_REACTORS
330
593
102
}
330
593
100
AcDbDictionary
281
     1
  0
DICTIONARY
  5
619
102
{ACAD_REACTORS
330
593
102
}
330
593
100
AcDbDictionary
281
     1
  3
Layout1
350
61C
  3
Model
350
61B
  0
DICTIONARY
  5
617
102
{ACAD_REACTORS
330
593
102
}
330
593
100
AcDbDictionary
281
     1
  0
DICTIONARY
  5
595
102
{ACAD_REACTORS
330
593
102
}
330
593
100
AcDbDictionary
281
     1
  3
STANDARD
350
596
  0
DICTIONARY
  5
61A
102
{ACAD_REACTORS
330
593
102
}
330
593
100
AcDbDictionary
281
     1
  0
ACDBDICTIONARYWDFLT
  5
615
102
{ACAD_REACTORS
330
593
102
}
330
593
100
AcDbDictionary
281
     1
  3
Normal
350
616
100
AcDbDictionaryWithDefault
340
616
  0
XRECORD
  5
3268
102
{ACAD_REACTORS
330
593
102
}
330
593
100
AcDbXrecord
280
     1
 90
   990106
  3

 60
     0
 61
     0
 62
     1
 63
     3
 64
     0
 65
     0
 66
     0
 67
     3
 68
     1
 69
     0
 70
     0
 71
     0
 72
     0
 40
25.0445657995416
170
     0
  0
DICTIONARY
  5
5F06
102
{ACAD_REACTORS
330
593
102
}
330
593
100
AcDbDictionary
281
     1
  3
COLORDICT
350
5F07
  3
MATERIALDICT
350
5F08
  0
DICTIONARY
  5
5EFE
102
{ACAD_REACTORS
330
593
102
}
330
593
100
AcDbDictionary
281
     1
  0
LAYOUT
  5
61C
102
{ACAD_REACTORS
330
619
102
}
330
619
100
AcDbPlotSettings
  1

  2
\\alderaan\HP LaserJet 4050 Ricerca
  4

  6

 40
0.0
 41
0.0
 42
0.0
 43
0.0
 44
0.0
 45
0.0
 46
0.0
 47
0.0
 48
0.0
 49
0.0
140
0.0
141
0.0
142
1.0
143
1.0
 70
   688
 72
     0
 73
     0
 74
     5
  7

 75
    16
147
1.0
148
0.0
149
0.0
100
AcDbLayout
  1
Layout1
 70
     0
 71
     1
 10
0.0
 20
0.0
 11
12.0
 21
9.0
 12
0.0
 22
0.0
 32
0.0
 14
1.000000000000000E+20
 24
1.000000000000000E+20
 34
1.000000000000000E+20
 15
-1.000000000000000E+20
 25
-1.000000000000000E+20
 35
-1.000000000000000E+20
146
0.0
 13
0.0
 23
0.0
 33
0.0
 16
1.0
 26
0.0
 36
0.0
 17
0.0
 27
1.0
 37
0.0
 76
     0
330
27
  0
LAYOUT
  5
61B
102
{ACAD_REACTORS
330
619
102
}
330
619
100
AcDbPlotSettings
  1

  2
\\alderaan\HP LaserJet 4050 Ricerca
  4
A4
  6

 40
5.027083396911621
 41
5.069430828094482
 42
5.365737915039062
 43
5.365753173828125
 44
209.8886566162109
 45
297.0530090332031
 46
0.254
 47
0.0
 48
259.215225634116
 49
-488.3976836719121
140
1317.037973125747
141
245.6809236204426
142
1.0
143
93.74398742770123
 70
 11956
 72
     0
 73
     1
 74
     4
  7

 75
     0
147
0.0106673508076583
148
-6584.066731106545
149
12405.30116526656
100
AcDbLayout
  1
Model
 70
     1
 71
     0
 10
0.0
 20
0.0
 11
12.0
 21
9.0
 12
0.0
 22
0.0
 32
0.0
 14
0.0
 24
0.0
 34
0.0
 15
0.0
 25
0.0
 35
0.0
146
0.0
 13
0.0
 23
0.0
 33
0.0
 16
1.0
 26
0.0
 36
0.0
 17
0.0
 27
1.0
 37
0.0
 76
     0
330
26
  0
MLINESTYLE
  5
596
102
{ACAD_REACTORS
330
595
102
}
330
595
100
AcDbMlineStyle
  2
STANDARD
 70
     0
  3

 62
     0
 51
90.00000000000019
 52
90.00000000000019
 71
     2
 49
0.5
 62
   256
  6
BYLAYER
 49
-0.5
 62
   256
  6
BYLAYER
  0
ACDBPLACEHOLDER
  5
616
102
{ACAD_REACTORS
330
615
102
}
330
615
  0
XRECORD
  5
5F07
102
{ACAD_REACTORS
330
5F06
102
}
330
5F06
100
AcDbXrecord
280
     1
340
618
  0
XRECORD
  5
5F08
102
{ACAD_REACTORS
330
5F06
102
}
330
5F06
100
AcDbXrecord
280
     1
340
617
  0
ENDSEC
  0
EOF
