  0
SECTION
  2
HEADER
  9
$ACADVER
  1
AC1015
  9
$ACADMAINTVER
 70
     6
  9
$DWGCODEPAGE
  3
ANSI_1252
  9
$INSBASE
 10
0.0
 20
0.0
 30
0.0
  9
$EXTMIN
 10
2747.116518310379
 20
973.4747315265694
 30
0.0
  9
$EXTMAX
 10
3824.348813189383
 20
1493.871645239833
 30
0.0
  9
$LIMMIN
 10
0.0
 20
0.0
  9
$LIMMAX
 10
594.0
 20
420.0
  9
$ORTHOMODE
 70
     0
  9
$REGENMODE
 70
     1
  9
$FILLMODE
 70
     1
  9
$QTEXTMODE
 70
     0
  9
$MIRRTEXT
 70
     1
  9
$LTSCALE
 40
32.67
  9
$ATTMODE
 70
     1
  9
$TEXTSIZE
 40
0.2
  9
$TRACEWID
 40
0.05
  9
$TEXTSTYLE
  7
STANDARD
  9
$CLAYER
  8
0
  9
$CELTYPE
  6
BYLAYER
  9
$CECOLOR
 62
   256
  9
$CELTSCALE
 40
1.0
  9
$DISPSILH
 70
     0
  9
$DIMSCALE
 40
2.0
  9
$DIMASZ
 40
3.0
  9
$DIMEXO
 40
3.712499999999999
  9
$DIMDLI
 40
22.572
  9
$DIMRND
 40
0.0
  9
$DIMDLE
 40
0.0
  9
$DIMEXE
 40
10.692
  9
$DIMTP
 40
0.003
  9
$DIMTM
 40
0.003
  9
$DIMTXT
 40
1.5
  9
$DIMCEN
 40
5.346
  9
$DIMTSZ
 40
0.0
  9
$DIMTOL
 70
     1
  9
$DIMLIM
 70
     0
  9
$DIMTIH
 70
     1
  9
$DIMTOH
 70
     1
  9
$DIMSE1
 70
     0
  9
$DIMSE2
 70
     0
  9
$DIMTAD
 70
     0
  9
$DIMZIN
 70
     0
  9
$DIMBLK
  1

  9
$DIMASO
 70
     1
  9
$DIMSHO
 70
     1
  9
$DIMPOST
  1

  9
$DIMAPOST
  1

  9
$DIMALT
 70
     0
  9
$DIMALTD
 70
     2
  9
$DIMALTF
 40
25.4
  9
$DIMLFAC
 40
0.5
  9
$DIMTOFL
 70
     0
  9
$DIMTVP
 40
0.0
  9
$DIMTIX
 70
     0
  9
$DIMSOXD
 70
     0
  9
$DIMSAH
 70
     0
  9
$DIMBLK1
  1

  9
$DIMBLK2
  1

  9
$DIMSTYLE
  2
STANDARD
  9
$DIMCLRD
 70
     0
  9
$DIMCLRE
 70
     0
  9
$DIMCLRT
 70
     0
  9
$DIMTFAC
 40
1.0
  9
$DIMGAP
 40
0.09
  9
$DIMJUST
 70
     0
  9
$DIMSD1
 70
     0
  9
$DIMSD2
 70
     0
  9
$DIMTOLJ
 70
     1
  9
$DIMTZIN
 70
     0
  9
$DIMALTZ
 70
     0
  9
$DIMALTTZ
 70
     0
  9
$DIMUPT
 70
     0
  9
$DIMDEC
 70
     4
  9
$DIMTDEC
 70
     4
  9
$DIMALTU
 70
     2
  9
$DIMALTTD
 70
     2
  9
$DIMTXSTY
  7
STANDARD
  9
$DIMAUNIT
 70
     0
  9
$DIMADEC
 70
     0
  9
$DIMALTRND
 40
0.0
  9
$DIMAZIN
 70
     0
  9
$DIMDSEP
 70
    46
  9
$DIMATFIT
 70
     3
  9
$DIMFRAC
 70
     0
  9
$DIMLDRBLK
  1

  9
$DIMLUNIT
 70
     2
  9
$DIMLWD
 70
    -2
  9
$DIMLWE
 70
    -2
  9
$DIMTMOVE
 70
     0
  9
$LUNITS
 70
     2
  9
$LUPREC
 70
     4
  9
$SKETCHINC
 40
0.1
  9
$FILLETRAD
 40
0.0
  9
$AUNITS
 70
     0
  9
$AUPREC
 70
     0
  9
$MENU
  1
acad
  9
$ELEVATION
 40
0.0
  9
$PELEVATION
 40
0.0
  9
$THICKNESS
 40
0.0
  9
$LIMCHECK
 70
     0
  9
$CHAMFERA
 40
0.0
  9
$CHAMFERB
 40
0.0
  9
$CHAMFERC
 40
0.0
  9
$CHAMFERD
 40
0.0
  9
$SKPOLY
 70
     0
  9
$TDCREATE
 40
2444972.041666667
  9
$TDUCREATE
 40
2444972.0
  9
$TDUPDATE
 40
2453410.621848322
  9
$TDUUPDATE
 40
2453410.580181655
  9
$TDINDWG
 40
0.6881154282
  9
$TDUSRTIMER
 40
0.6881154282
  9
$USRTIMER
 70
     1
  9
$ANGBASE
 50
0.0
  9
$ANGDIR
 70
     0
  9
$PDMODE
 70
     0
  9
$PDSIZE
 40
0.0
  9
$PLINEWID
 40
0.0
  9
$SPLFRAME
 70
     0
  9
$SPLINETYPE
 70
     6
  9
$SPLINESEGS
 70
     8
  9
$HANDSEED
  5
2ADF6
  9
$SURFTAB1
 70
     6
  9
$SURFTAB2
 70
     6
  9
$SURFTYPE
 70
     6
  9
$SURFU
 70
     6
  9
$SURFV
 70
     6
  9
$UCSBASE
  2

  9
$UCSNAME
  2

  9
$UCSORG
 10
0.0
 20
0.0
 30
0.0
  9
$UCSXDIR
 10
1.0
 20
0.0
 30
0.0
  9
$UCSYDIR
 10
0.0
 20
1.0
 30
0.0
  9
$UCSORTHOREF
  2

  9
$UCSORTHOVIEW
 70
     0
  9
$UCSORGTOP
 10
0.0
 20
0.0
 30
0.0
  9
$UCSORGBOTTOM
 10
0.0
 20
0.0
 30
0.0
  9
$UCSORGLEFT
 10
0.0
 20
0.0
 30
0.0
  9
$UCSORGRIGHT
 10
0.0
 20
0.0
 30
0.0
  9
$UCSORGFRONT
 10
0.0
 20
0.0
 30
0.0
  9
$UCSORGBACK
 10
0.0
 20
0.0
 30
0.0
  9
$PUCSBASE
  2

  9
$PUCSNAME
  2

  9
$PUCSORG
 10
0.0
 20
0.0
 30
0.0
  9
$PUCSXDIR
 10
1.0
 20
0.0
 30
0.0
  9
$PUCSYDIR
 10
0.0
 20
1.0
 30
0.0
  9
$PUCSORTHOREF
  2

  9
$PUCSORTHOVIEW
 70
     0
  9
$PUCSORGTOP
 10
0.0
 20
0.0
 30
0.0
  9
$PUCSORGBOTTOM
 10
0.0
 20
0.0
 30
0.0
  9
$PUCSORGLEFT
 10
0.0
 20
0.0
 30
0.0
  9
$PUCSORGRIGHT
 10
0.0
 20
0.0
 30
0.0
  9
$PUCSORGFRONT
 10
0.0
 20
0.0
 30
0.0
  9
$PUCSORGBACK
 10
0.0
 20
0.0
 30
0.0
  9
$USERI1
 70
     0
  9
$USERI2
 70
     0
  9
$USERI3
 70
     0
  9
$USERI4
 70
     0
  9
$USERI5
 70
     0
  9
$USERR1
 40
0.0
  9
$USERR2
 40
0.0
  9
$USERR3
 40
0.0
  9
$USERR4
 40
0.0
  9
$USERR5
 40
0.0
  9
$WORLDVIEW
 70
     1
  9
$SHADEDGE
 70
     3
  9
$SHADEDIF
 70
    70
  9
$TILEMODE
 70
     1
  9
$MAXACTVP
 70
    16
  9
$PINSBASE
 10
0.0
 20
0.0
 30
0.0
  9
$PLIMCHECK
 70
     0
  9
$PEXTMIN
 10
1.000000000000000E+20
 20
1.000000000000000E+20
 30
1.000000000000000E+20
  9
$PEXTMAX
 10
-1.000000000000000E+20
 20
-1.000000000000000E+20
 30
-1.000000000000000E+20
  9
$PLIMMIN
 10
0.0
 20
0.0
  9
$PLIMMAX
 10
12.0
 20
9.0
  9
$UNITMODE
 70
     0
  9
$VISRETAIN
 70
     0
  9
$PLINEGEN
 70
     1
  9
$PSLTSCALE
 70
     0
  9
$TREEDEPTH
 70
  3020
  9
$CMLSTYLE
  2
STANDARD
  9
$CMLJUST
 70
     0
  9
$CMLSCALE
 40
1.0
  9
$PROXYGRAPHICS
 70
     1
  9
$MEASUREMENT
 70
     0
  9
$CELWEIGHT
370
    -1
  9
$ENDCAPS
280
     0
  9
$JOINSTYLE
280
     0
  9
$LWDISPLAY
290
     0
  9
$INSUNITS
 70
     0
  9
$HYPERLINKBASE
  1

  9
$STYLESHEET
  1

  9
$XEDIT
290
     1
  9
$CEPSNTYPE
380
     0
  9
$PSTYLEMODE
290
     1
  9
$FINGERPRINTGUID
  2
{CA13A069-F2C0-40A5-844C-DBDF6CEA9423}
  9
$VERSIONGUID
  2
{55EA5EAE-15CF-458F-8EF8-6073D6682C80}
  9
$EXTNAMES
290
     1
  9
$PSVPSCALE
 40
0.0
  9
$OLESTARTUP
290
     0
  0
ENDSEC
  0
SECTION
  2
CLASSES
  0
CLASS
  1
IMAGE
  2
AcDbRasterImage
  3
ISM
 90
      127
280
     0
281
     1
  0
CLASS
  1
DICTIONARYVAR
  2
AcDbDictionaryVar
  3
ObjectDBX Classes
 90
        0
280
     0
281
     0
  0
CLASS
  1
RASTERVARIABLES
  2
AcDbRasterVariables
  3
ISM
 90
        0
280
     0
281
     0
  0
CLASS
  1
IMAGEDEF
  2
AcDbRasterImageDef
  3
ISM
 90
        0
280
     0
281
     0
  0
CLASS
  1
IMAGEDEF_REACTOR
  2
AcDbRasterImageDefReactor
  3
ISM
 90
        1
280
     0
281
     0
  0
CLASS
  1
IDBUFFER
  2
AcDbIdBuffer
  3
ObjectDBX Classes
 90
        0
280
     0
281
     0
  0
CLASS
  1
SPATIAL_FILTER
  2
AcDbSpatialFilter
  3
ObjectDBX Classes
 90
        0
280
     0
281
     0
  0
CLASS
  1
SORTENTSTABLE
  2
AcDbSortentsTable
  3
ObjectDBX Classes
 90
        0
280
     0
281
     0
  0
CLASS
  1
LAYER_INDEX
  2
AcDbLayerIndex
  3
ObjectDBX Classes
 90
        0
280
     0
281
     0
  0
CLASS
  1
SPATIAL_INDEX
  2
AcDbSpatialIndex
  3
AutoCAD 2000
 90
        0
280
     0
281
     0
  0
CLASS
  1
OBJECT_PTR
  2
CAseDLPNTableRecord
  3
ASE-LPNTableRecord
 90
        1
280
     0
281
     0
  0
CLASS
  1
PLOTSETTINGS
  2
AcDbPlotSettings
  3
ObjectDBX Classes
 90
        0
280
     0
281
     0
  0
CLASS
  1
ACDBDICTIONARYWDFLT
  2
AcDbDictionaryWithDefault
  3
ObjectDBX Classes
 90
        0
280
     0
281
     0
  0
CLASS
  1
WIPEOUT
  2
AcDbWipeout
  3
WipeOut|AutoCAD Express Tool|expresstools@autodesk.com
 90
      127
280
     0
281
     1
  0
CLASS
  1
WIPEOUTVARIABLES
  2
AcDbWipeoutVariables
  3
WipeOut|AutoCAD Express Tool|expresstools@autodesk.com
 90
        0
280
     0
281
     0
  0
CLASS
  1
RTEXT
  2
RText
  3
RText|AutoCAD Express Tool|expresstools@autodesk.com
 90
        0
280
     0
281
     1
  0
CLASS
  1
ARCALIGNEDTEXT
  2
AcDbArcAlignedText
  3
ATEXT|AutoCAD Express Tool|expresstools@autodesk.com
 90
        0
280
     0
281
     1
  0
CLASS
  1
ACDBPLACEHOLDER
  2
AcDbPlaceHolder
  3
ObjectDBX Classes
 90
        0
280
     0
281
     0
  0
CLASS
  1
LAYOUT
  2
AcDbLayout
  3
ObjectDBX Classes
 90
        0
280
     0
281
     0
  0
ENDSEC
  0
SECTION
  2
TABLES
  0
TABLE
  2
VPORT
  5
8
330
0
100
AcDbSymbolTable
 70
     1
  0
VPORT
  5
2ADEA
330
8
100
AcDbSymbolTableRecord
100
AcDbViewportTableRecord
  2
*Active
 70
     0
 10
0.0
 20
0.0
 11
1.0
 21
1.0
 12
3352.589140689146
 22
1256.298491192947
 13
0.0
 23
0.0
 14
1.0
 24
1.0
 15
0.0
 25
0.0
 16
0.0
 26
0.0
 36
1.0
 17
0.0
 27
0.0
 37
0.0
 40
832.1140606410081
 41
1.888667992047713
 42
50.0
 43
0.0
 44
0.0
 50
0.0
 51
0.0
 71
     0
 72
   100
 73
     1
 74
     1
 75
     0
 76
     0
 77
     0
 78
     0
281
     0
 65
     1
110
0.0
120
0.0
130
0.0
111
1.0
121
0.0
131
0.0
112
0.0
122
1.0
132
0.0
 79
     0
146
0.0
  0
ENDTAB
  0
TABLE
  2
LTYPE
  5
5
330
0
100
AcDbSymbolTable
 70
     2
  0
LTYPE
  5
14
330
5
100
AcDbSymbolTableRecord
100
AcDbLinetypeTableRecord
  2
BYBLOCK
 70
     0
  3

 72
    65
 73
     0
 40
0.0
  0
LTYPE
  5
15
330
5
100
AcDbSymbolTableRecord
100
AcDbLinetypeTableRecord
  2
BYLAYER
 70
     0
  3

 72
    65
 73
     0
 40
0.0
  0
LTYPE
  5
16
330
5
100
AcDbSymbolTableRecord
100
AcDbLinetypeTableRecord
  2
CONTINUOUS
 70
     0
  3
Solid line
 72
    65
 73
     0
 40
0.0
  0
LTYPE
  5
1F5
330
5
100
AcDbSymbolTableRecord
100
AcDbLinetypeTableRecord
  2
CENTER
 70
     0
  3
____ _ ____ _ ____ _ ____ _ ____ _ ____ _ ____
 72
    65
 73
     4
 40
0.6
 49
0.375
 74
     0
 49
-0.075
 74
     0
 49
0.075
 74
     0
 49
-0.075
 74
     0
  0
ENDTAB
  0
TABLE
  2
LAYER
  5
2
330
0
100
AcDbSymbolTable
 70
     3
  0
LAYER
  5
10
330
2
100
AcDbSymbolTableRecord
100
AcDbLayerTableRecord
  2
0
 70
     0
 62
     7
  6
CONTINUOUS
370
    -3
390
41B
  0
LAYER
  5
1FA
330
2
100
AcDbSymbolTableRecord
100
AcDbLayerTableRecord
  2
DEFAULT_1
 70
     0
 62
     7
  6
CENTER
370
    -3
390
41B
  0
LAYER
  5
424
330
2
100
AcDbSymbolTableRecord
100
AcDbLayerTableRecord
  2
Defpoints
 70
     0
 62
     7
  6
CONTINUOUS
290
     0
370
    -3
390
41B
  0
ENDTAB
  0
TABLE
  2
STYLE
  5
3
330
0
100
AcDbSymbolTable
 70
     1
  0
STYLE
  5
11
330
3
100
AcDbSymbolTableRecord
100
AcDbTextStyleTableRecord
  2
STANDARD
 70
     0
 40
10.0
 41
1.0
 50
0.0
 71
     0
 42
0.2
  3
VERDANA.TTF
  4

1001
ACAD
1000
Verdana
1071
       34
  0
ENDTAB
  0
TABLE
  2
VIEW
  5
6
330
0
100
AcDbSymbolTable
 70
     0
  0
ENDTAB
  0
TABLE
  2
UCS
  5
7
330
0
100
AcDbSymbolTable
 70
     0
  0
ENDTAB
  0
TABLE
  2
APPID
  5
9
330
0
100
AcDbSymbolTable
 70
     1
  0
APPID
  5
20E
330
9
100
AcDbSymbolTableRecord
100
AcDbRegAppTableRecord
  2
ACAD
 70
     0
  0
ENDTAB
  0
TABLE
  2
DIMSTYLE
  5
A
330
0
100
AcDbSymbolTable
 70
     1
100
AcDbDimStyleTable
  0
DIMSTYLE
105
20F
330
A
100
AcDbSymbolTableRecord
100
AcDbDimStyleTableRecord
  2
STANDARD
 70
     0
 41
3.0
 47
0.003
 48
0.003
 71
     1
 73
     0
 74
     0
 77
     1
 78
     8
140
1.5
271
     3
272
     3
284
     8
340
11
  0
ENDTAB
  0
TABLE
  2
BLOCK_RECORD
  5
1
330
0
100
AcDbSymbolTable
 70
     0
  0
BLOCK_RECORD
  5
1B
330
1
100
AcDbSymbolTableRecord
100
AcDbBlockTableRecord
  2
*MODEL_SPACE
340
420
  0
BLOCK_RECORD
  5
1C
330
1
100
AcDbSymbolTableRecord
100
AcDbBlockTableRecord
  2
*PAPER_SPACE
340
421
  0
ENDTAB
  0
ENDSEC
  0
SECTION
  2
BLOCKS
  0
BLOCK
  5
1E
330
1B
100
AcDbEntity
  8
0
100
AcDbBlockBegin
  2
*MODEL_SPACE
 70
     0
 71
     0
 10
0.0
 20
0.0
 30
0.0
  3
*MODEL_SPACE
  1

  0
ENDBLK
  5
1F
330
1B
100
AcDbEntity
  8
0
100
AcDbBlockEnd
  0
BLOCK
  5
20
330
1C
100
AcDbEntity
 67
     1
  8
0
100
AcDbBlockBegin
  2
*PAPER_SPACE
 70
     0
 71
     0
 10
0.0
 20
0.0
 30
0.0
  3
*PAPER_SPACE
  1

  0
ENDBLK
  5
21
330
1C
100
AcDbEntity
 67
     1
  8
0
100
AcDbBlockEnd
  0
ENDSEC
  0
SECTION
  2
ENTITIES
  0
LINE
  5
7FB
330
1B
100
AcDbEntity
  8
DEFAULT_1
  6
CENTER
100
AcDbLine
 10
2890.845173734471
 20
1233.673188383201
 30
0.0
 11
3357.642670143817
 21
1233.673188383201
 31
0.0
  0
LINE
  5
99F
330
1B
100
AcDbEntity
  8
0
  6
Continuous
100
AcDbLine
 10
3340.845173734471
 20
1271.173188383201
 30
0.0
 11
3340.845173734471
 21
1196.173188383201
 31
0.0
  0
LINE
  5
9A0
330
1B
100
AcDbEntity
  8
0
  6
Continuous
100
AcDbLine
 10
3340.845173734471
 20
1271.173188383201
 30
0.0
 11
3338.824447792271
 21
1274.673188383201
 31
0.0
  0
SPLINE
  5
9A1
330
1B
100
AcDbEntity
  8
0
  6
Continuous
100
AcDbSpline
210
0.0
220
0.0
230
1.0
 70
     8
 71
     3
 72
     9
 73
     5
 74
     3
 42
0.0000000001
 43
0.0000000001
 44
0.0000000001
 40
0.0
 40
0.0
 40
0.0
 40
0.0
 40
2.58617008236923
 40
5.081701351830956
 40
5.081701351830956
 40
5.081701351830956
 40
5.081701351830956
 10
3337.479675461471
 20
1272.673188383201
 30
0.0
 10
3337.872704685887
 20
1271.905935165307
 30
0.0
 10
3338.644988440403
 20
1270.3983190417
 30
0.0
 10
3339.404336622584
 20
1268.884146772285
 30
0.0
 10
3339.777238727971
 20
1268.140564262401
 30
0.0
 11
3337.479675461471
 21
1272.673188383201
 31
0.0
 11
3338.655412851371
 21
1270.369730702901
 31
0.0
 11
3339.777238727971
 21
1268.140564262401
 31
0.0
  0
SPLINE
  5
9A2
330
1B
100
AcDbEntity
  8
0
  6
Continuous
100
AcDbSpline
210
0.0
220
0.0
230
1.0
 70
     8
 71
     3
 72
     9
 73
     5
 74
     3
 42
0.0000000001
 43
0.0000000001
 44
0.0000000001
 40
0.0
 40
0.0
 40
0.0
 40
0.0
 40
0.6143954606337194
 40
1.120800616393147
 40
1.120800616393147
 40
1.120800616393147
 40
1.120800616393147
 10
3340.845173734471
 20
1264.857957035801
 30
0.0
 10
3340.829646774022
 20
1265.062748035067
 30
0.0
 10
3340.801321976794
 20
1265.43633458138
 30
0.0
 10
3340.702640084739
 20
1265.797536986024
 30
0.0
 10
3340.65805319017
 20
1265.960737074701
 30
0.0
 11
3340.845173734471
 21
1264.857957035801
 31
0.0
 11
3340.777450799371
 21
1265.468608643601
 31
0.0
 11
3340.65805319017
 21
1265.960737074701
 31
0.0
  0
SPLINE
  5
9A3
330
1B
100
AcDbEntity
  8
0
  6
Continuous
100
AcDbSpline
210
0.0
220
0.0
230
1.0
 70
     8
 71
     3
 72
    10
 73
     6
 74
     4
 42
0.0000000001
 43
0.0000000001
 44
0.0000000001
 40
0.0
 40
0.0
 40
0.0
 40
0.0
 40
0.2823209678098925
 40
1.239916756225026
 40
2.353757657118456
 40
2.353757657118456
 40
2.353757657118456
 40
2.353757657118456
 10
3340.65805319017
 20
1265.960737074701
 30
0.0
 10
3340.631197329204
 20
1266.050934446085
 30
0.0
 10
3340.513249901236
 20
1266.447069501211
 30
0.0
 10
3340.234901896203
 20
1267.182272691542
 30
0.0
 10
3339.937276257252
 20
1267.805464944876
 30
0.0
 10
3339.777238727971
 20
1268.140564262401
 30
0.0
 11
3340.65805319017
 21
1265.960737074701
 31
0.0
 11
3340.575998647671
 21
1266.230870710001
 31
0.0
 11
3340.242124220771
 21
1267.128377011401
 31
0.0
 11
3339.777238727971
 21
1268.140564262401
 31
0.0
  0
SPLINE
  5
9A4
330
1B
100
AcDbEntity
  8
0
  6
Continuous
100
AcDbSpline
210
0.0
220
0.0
230
1.0
 70
     8
 71
     3
 72
    11
 73
     7
 74
     5
 42
0.0000000001
 43
0.0000000001
 44
0.0000000001
 40
0.0
 40
0.0
 40
0.0
 40
0.0
 40
0.8511078916131729
 40
1.542649903661202
 40
1.981076798366821
 40
2.153488104795743
 40
2.153488104795743
 40
2.153488104795743
 40
2.153488104795743
 10
3337.479675461471
 20
1272.673188383201
 30
0.0
 10
3337.350570956538
 20
1272.930490204768
 30
0.0
 10
3337.116566485355
 20
1273.396854850382
 30
0.0
 10
3336.941885750751
 20
1273.997807053327
 30
0.0
 10
3336.753315620259
 20
1274.467840534599
 30
0.0
 10
3336.892932813275
 20
1274.627986579041
 30
0.0
 10
3336.932340274371
 20
1274.673188383201
 30
0.0
 11
3337.479675461471
 21
1272.673188383201
 31
0.0
 11
3337.122186929871
 21
1273.445578565001
 31
0.0
 11
3336.895606905271
 21
1274.098948174701
 31
0.0
 11
3336.832286754271
 21
1274.532778441601
 31
0.0
 11
3336.932340274371
 21
1274.673188383201
 31
0.0
  0
SPLINE
  5
9A5
330
1B
100
AcDbEntity
  8
0
  6
Continuous
100
AcDbSpline
210
0.0
220
0.0
230
1.0
 70
     8
 71
     3
 72
    11
 73
     7
 74
     5
 42
0.0000000001
 43
0.0000000001
 44
0.0000000001
 40
0.0
 40
0.0
 40
0.0
 40
0.0
 40
0.8511078916133792
 40
1.542649903661194
 40
1.981076798366813
 40
2.153488104795735
 40
2.153488104795735
 40
2.153488104795735
 40
2.153488104795735
 10
3337.479675461471
 20
1194.673188383201
 30
0.0
 10
3337.350570956539
 20
1194.415886561635
 30
0.0
 10
3337.116566485357
 20
1193.94952191602
 30
0.0
 10
3336.941885750749
 20
1193.348569713076
 30
0.0
 10
3336.753315620259
 20
1192.878536231803
 30
0.0
 10
3336.892932813275
 20
1192.718390187362
 30
0.0
 10
3336.932340274371
 20
1192.673188383201
 30
0.0
 11
3337.479675461471
 21
1194.673188383201
 31
0.0
 11
3337.122186929871
 21
1193.900798201401
 31
0.0
 11
3336.895606905271
 21
1193.247428591701
 31
0.0
 11
3336.832286754271
 21
1192.813598324801
 31
0.0
 11
3336.932340274371
 21
1192.673188383201
 31
0.0
  0
SPLINE
  5
9A6
330
1B
100
AcDbEntity
  8
0
  6
Continuous
100
AcDbSpline
210
0.0
220
0.0
230
1.0
 70
     8
 71
     3
 72
    10
 73
     6
 74
     4
 42
0.0000000001
 43
0.0000000001
 44
0.0000000001
 40
0.0
 40
0.0
 40
0.0
 40
0.0
 40
0.2823209678098925
 40
1.239916756225026
 40
2.353757657118456
 40
2.353757657118456
 40
2.353757657118456
 40
2.353757657118456
 10
3340.65805319017
 20
1201.385639691701
 30
0.0
 10
3340.631197329204
 20
1201.295442320317
 30
0.0
 10
3340.513249901236
 20
1200.899307265192
 30
0.0
 10
3340.234901896203
 20
1200.16410407486
 30
0.0
 10
3339.937276257252
 20
1199.540911821526
 30
0.0
 10
3339.777238727971
 20
1199.205812504001
 30
0.0
 11
3340.65805319017
 21
1201.385639691701
 31
0.0
 11
3340.575998647671
 21
1201.115506056401
 31
0.0
 11
3340.242124220771
 21
1200.217999755001
 31
0.0
 11
3339.777238727971
 21
1199.205812504001
 31
0.0
  0
SPLINE
  5
9A7
330
1B
100
AcDbEntity
  8
0
  6
Continuous
100
AcDbSpline
210
0.0
220
0.0
230
1.0
 70
     8
 71
     3
 72
     9
 73
     5
 74
     3
 42
0.0000000001
 43
0.0000000001
 44
0.0000000001
 40
0.0
 40
0.0
 40
0.0
 40
0.0
 40
0.6143954606337194
 40
1.120800616393147
 40
1.120800616393147
 40
1.120800616393147
 40
1.120800616393147
 10
3340.845173734471
 20
1202.488419730601
 30
0.0
 10
3340.829646774022
 20
1202.283628731336
 30
0.0
 10
3340.801321976794
 20
1201.910042185023
 30
0.0
 10
3340.702640084739
 20
1201.548839780378
 30
0.0
 10
3340.65805319017
 20
1201.385639691701
 30
0.0
 11
3340.845173734471
 21
1202.488419730601
 31
0.0
 11
3340.777450799371
 21
1201.877768122801
 31
0.0
 11
3340.65805319017
 21
1201.385639691701
 31
0.0
  0
SPLINE
  5
9A8
330
1B
100
AcDbEntity
  8
0
  6
Continuous
100
AcDbSpline
210
0.0
220
0.0
230
1.0
 70
     8
 71
     3
 72
     9
 73
     5
 74
     3
 42
0.0000000001
 43
0.0000000001
 44
0.0000000001
 40
0.0
 40
0.0
 40
0.0
 40
0.0
 40
2.58617008236923
 40
5.081701351830956
 40
5.081701351830956
 40
5.081701351830956
 40
5.081701351830956
 10
3337.479675461471
 20
1194.673188383201
 30
0.0
 10
3337.872704685887
 20
1195.440441601095
 30
0.0
 10
3338.644988440403
 20
1196.948057724702
 30
0.0
 10
3339.404336622584
 20
1198.462229994117
 30
0.0
 10
3339.777238727971
 20
1199.205812504001
 30
0.0
 11
3337.479675461471
 21
1194.673188383201
 31
0.0
 11
3338.655412851371
 21
1196.976646063501
 31
0.0
 11
3339.777238727971
 21
1199.205812504001
 31
0.0
  0
LINE
  5
9A9
330
1B
100
AcDbEntity
  8
0
  6
Continuous
100
AcDbLine
 10
3340.845173734471
 20
1196.173188383201
 30
0.0
 11
3338.824447792271
 21
1192.673188383201
 31
0.0
  0
LINE
  5
9AA
330
1B
100
AcDbEntity
  8
0
  6
Continuous
100
AcDbLine
 10
2900.845173734471
 20
1196.173188383201
 30
0.0
 11
2902.865899676671
 21
1192.673188383201
 31
0.0
  0
SPLINE
  5
9AB
330
1B
100
AcDbEntity
  8
0
  6
Continuous
100
AcDbSpline
210
0.0
220
0.0
230
1.0
 70
     8
 71
     3
 72
     9
 73
     5
 74
     3
 42
0.0000000001
 43
0.0000000001
 44
0.0000000001
 40
0.0
 40
0.0
 40
0.0
 40
0.0
 40
2.586170082369437
 40
5.081701351831367
 40
5.081701351831367
 40
5.081701351831367
 40
5.081701351831367
 10
2904.210672007471
 20
1194.673188383201
 30
0.0
 10
2903.817642783055
 20
1195.440441601095
 30
0.0
 10
2903.04535902854
 20
1196.948057724702
 30
0.0
 10
2902.286010846357
 20
1198.462229994117
 30
0.0
 10
2901.91310874097
 20
1199.205812504001
 30
0.0
 11
2904.210672007471
 21
1194.673188383201
 31
0.0
 11
2903.034934617571
 21
1196.976646063501
 31
0.0
 11
2901.91310874097
 21
1199.205812504001
 31
0.0
  0
SPLINE
  5
9AC
330
1B
100
AcDbEntity
  8
0
  6
Continuous
100
AcDbSpline
210
0.0
220
0.0
230
1.0
 70
     8
 71
     3
 72
     9
 73
     5
 74
     3
 42
0.0000000001
 43
0.0000000001
 44
0.0000000001
 40
0.0
 40
0.0
 40
0.0
 40
0.0
 40
0.6143954606337696
 40
1.120800616392983
 40
1.120800616392983
 40
1.120800616392983
 40
1.120800616392983
 10
2900.845173734471
 20
1202.488419730601
 30
0.0
 10
2900.86070069492
 20
1202.283628731335
 30
0.0
 10
2900.889025492148
 20
1201.910042185022
 30
0.0
 10
2900.987707384203
 20
1201.548839780378
 30
0.0
 10
2901.032294278771
 20
1201.385639691701
 30
0.0
 11
2900.845173734471
 21
1202.488419730601
 31
0.0
 11
2900.912896669571
 21
1201.877768122801
 31
0.0
 11
2901.032294278771
 21
1201.385639691701
 31
0.0
  0
SPLINE
  5
9AD
330
1B
100
AcDbEntity
  8
0
  6
Continuous
100
AcDbSpline
210
0.0
220
0.0
230
1.0
 70
     8
 71
     3
 72
    10
 73
     6
 74
     4
 42
0.0000000001
 43
0.0000000001
 44
0.0000000001
 40
0.0
 40
0.0
 40
0.0
 40
0.0
 40
0.2823209678101569
 40
1.239916756224973
 40
2.353757657118402
 40
2.353757657118402
 40
2.353757657118402
 40
2.353757657118402
 10
2901.032294278771
 20
1201.385639691701
 30
0.0
 10
2901.059150139738
 20
1201.295442320317
 30
0.0
 10
2901.177097567707
 20
1200.899307265191
 30
0.0
 10
2901.455445572738
 20
1200.16410407486
 30
0.0
 10
2901.75307121169
 20
1199.540911821526
 30
0.0
 10
2901.91310874097
 20
1199.205812504001
 30
0.0
 11
2901.032294278771
 21
1201.385639691701
 31
0.0
 11
2901.114348821271
 21
1201.115506056401
 31
0.0
 11
2901.44822324817
 21
1200.217999755001
 31
0.0
 11
2901.91310874097
 21
1199.205812504001
 31
0.0
  0
SPLINE
  5
9AE
330
1B
100
AcDbEntity
  8
0
  6
Continuous
100
AcDbSpline
210
0.0
220
0.0
230
1.0
 70
     8
 71
     3
 72
    11
 73
     7
 74
     5
 42
0.0000000001
 43
0.0000000001
 44
0.0000000001
 40
0.0
 40
0.0
 40
0.0
 40
0.0
 40
0.8511078916133792
 40
1.542649903661194
 40
1.981076798366813
 40
2.153488104795735
 40
2.153488104795735
 40
2.153488104795735
 40
2.153488104795735
 10
2904.210672007471
 20
1194.673188383201
 30
0.0
 10
2904.339776512404
 20
1194.415886561635
 30
0.0
 10
2904.573780983586
 20
1193.94952191602
 30
0.0
 10
2904.748461718192
 20
1193.348569713076
 30
0.0
 10
2904.937031848683
 20
1192.878536231803
 30
0.0
 10
2904.797414655668
 20
1192.718390187362
 30
0.0
 10
2904.758007194571
 20
1192.673188383201
 30
0.0
 11
2904.210672007471
 21
1194.673188383201
 31
0.0
 11
2904.568160539071
 21
1193.900798201401
 31
0.0
 11
2904.794740563671
 21
1193.247428591701
 31
0.0
 11
2904.858060714671
 21
1192.813598324801
 31
0.0
 11
2904.758007194571
 21
1192.673188383201
 31
0.0
  0
LINE
  5
9AF
330
1B
100
AcDbEntity
  8
0
  6
Continuous
100
AcDbLine
 10
3271.845173734471
 20
1168.838873808201
 30
0.0
 11
3271.845173734471
 21
1178.273188383201
 31
0.0
  0
LINE
  5
9B0
330
1B
100
AcDbEntity
  8
0
  6
Continuous
100
AcDbLine
 10
3273.545173734471
 20
1166.973188383201
 30
0.0
 11
3273.545173734471
 21
1179.973188383201
 31
0.0
  0
LINE
  5
9B1
330
1B
100
AcDbEntity
  8
0
  6
Continuous
100
AcDbLine
 10
3275.845173734471
 20
1182.273188383201
 30
0.0
 11
3275.845173734471
 21
1190.273188383201
 31
0.0
  0
LINE
  5
9B2
330
1B
100
AcDbEntity
  8
0
  6
Continuous
100
AcDbLine
 10
3277.345173734471
 20
1191.073188383201
 30
0.0
 11
3277.345173734471
 21
1192.273188383201
 31
0.0
  0
LINE
  5
9B3
330
1B
100
AcDbEntity
  8
0
  6
Continuous
100
AcDbLine
 10
3273.728016469071
 20
1166.790345648701
 30
0.0
 11
3271.96233102207
 21
1168.556031095701
 31
0.0
  0
LINE
  5
9B4
330
1B
100
AcDbEntity
  8
0
  6
Continuous
100
AcDbLine
 10
3314.345173734471
 20
1191.073188383201
 30
0.0
 11
3314.345173734471
 21
1192.273188383201
 31
0.0
  0
LINE
  5
9B5
330
1B
100
AcDbEntity
  8
0
  6
Continuous
100
AcDbLine
 10
3315.845173734471
 20
1182.273188383201
 30
0.0
 11
3315.845173734471
 21
1190.273188383201
 31
0.0
  0
LINE
  5
9B6
330
1B
100
AcDbEntity
  8
0
  6
Continuous
100
AcDbLine
 10
3318.145173734471
 20
1166.973188383201
 30
0.0
 11
3318.145173734471
 21
1179.973188383201
 31
0.0
  0
LINE
  5
9B7
330
1B
100
AcDbEntity
  8
0
  6
Continuous
100
AcDbLine
 10
3319.845173734471
 20
1168.838873808201
 30
0.0
 11
3319.845173734471
 21
1178.273188383201
 31
0.0
  0
LINE
  5
9B8
330
1B
100
AcDbEntity
  8
0
  6
Continuous
100
AcDbLine
 10
3319.845173734471
 20
1178.273188383201
 30
0.0
 11
3317.845173734471
 21
1180.273188383201
 31
0.0
  0
LINE
  5
9B9
330
1B
100
AcDbEntity
  8
0
  6
Continuous
100
AcDbLine
 10
3271.845173734471
 20
1178.273188383201
 30
0.0
 11
3273.845173734471
 21
1180.273188383201
 31
0.0
  0
LINE
  5
9BA
330
1B
100
AcDbEntity
  8
0
  6
Continuous
100
AcDbLine
 10
3317.962330999971
 20
1166.790345648701
 30
0.0
 11
3319.728016446971
 21
1168.556031095701
 31
0.0
  0
LINE
  5
9BB
330
1B
100
AcDbEntity
  8
0
  6
Continuous
100
AcDbLine
 10
3317.679488267171
 20
1166.673188383201
 30
0.0
 11
3274.010859201871
 21
1166.673188383201
 31
0.0
  0
LINE
  5
9BC
330
1B
100
AcDbEntity
  8
0
  6
Continuous
100
AcDbLine
 10
3319.845173734471
 20
1168.838873808201
 30
0.0
 11
3271.845173734471
 21
1168.838873808201
 31
0.0
  0
LINE
  5
9BD
330
1B
100
AcDbEntity
  8
0
  6
Continuous
100
AcDbLine
 10
3271.845173734471
 20
1178.273188383201
 30
0.0
 11
3319.845173734471
 21
1178.273188383201
 31
0.0
  0
LINE
  5
9BE
330
1B
100
AcDbEntity
  8
0
  6
Continuous
100
AcDbLine
 10
3273.545173734471
 20
1179.973188573901
 30
0.0
 11
3318.145173734471
 21
1179.973188573901
 31
0.0
  0
LINE
  5
9BF
330
1B
100
AcDbEntity
  8
0
  6
Continuous
100
AcDbLine
 10
3275.845173734471
 20
1182.273188383201
 30
0.0
 11
3315.845173734471
 21
1182.273188383201
 31
0.0
  0
LINE
  5
9C0
330
1B
100
AcDbEntity
  8
0
  6
Continuous
100
AcDbLine
 10
3315.445173732271
 20
1190.673188383201
 30
0.0
 11
3276.245173736671
 21
1190.673188383201
 31
0.0
  0
ARC
  5
9C1
330
1B
100
AcDbEntity
  8
0
  6
Continuous
100
AcDbCircle
 10
3317.679488309571
 20
1167.073188383201
 30
0.0
 40
0.4
100
AcDbArc
 50
270.0000000000006
 51
314.9999955290007
  0
ARC
  5
9C2
330
1B
100
AcDbEntity
  8
0
  6
Continuous
100
AcDbCircle
 10
3274.010859159471
 20
1167.073188383201
 30
0.0
 40
0.4
100
AcDbArc
 50
225.0000044710005
 51
270.0000000000006
  0
ARC
  5
9C3
330
1B
100
AcDbEntity
  8
0
  6
Continuous
100
AcDbCircle
 10
3319.445173734471
 20
1168.838873808201
 30
0.0
 40
0.4
100
AcDbArc
 50
314.9999999991007
 51
0.0000000000007994
  0
ARC
  5
9C4
330
1B
100
AcDbEntity
  8
0
  6
Continuous
100
AcDbCircle
 10
3272.245173734471
 20
1168.838873808201
 30
0.0
 40
0.4
100
AcDbArc
 50
180.0000000000004
 51
225.0000000010005
  0
ARC
  5
9C5
330
1B
100
AcDbEntity
  8
0
  6
Continuous
100
AcDbCircle
 10
3277.745173734472
 20
1192.273188383201
 30
0.0
 40
0.4
100
AcDbArc
 50
90.00000000000019
 51
180.0000000000004
  0
ARC
  5
9C6
330
1B
100
AcDbEntity
  8
0
  6
Continuous
100
AcDbCircle
 10
3313.945173734471
 20
1192.273188383201
 30
0.0
 40
0.4
100
AcDbArc
 50
0.0
 51
90.00000000000019
  0
ARC
  5
9C7
330
1B
100
AcDbEntity
  8
0
  6
Continuous
100
AcDbCircle
 10
3276.945173734471
 20
1191.073188383201
 30
0.0
 40
0.4
100
AcDbArc
 50
270.0000097618006
 51
0.0000000000007994
  0
ARC
  5
9C8
330
1B
100
AcDbEntity
  8
0
  6
Continuous
100
AcDbCircle
 10
3314.745173734471
 20
1191.073188383201
 30
0.0
 40
0.4
100
AcDbArc
 50
180.0000000000004
 51
269.9999902382006
  0
ARC
  5
9C9
330
1B
100
AcDbEntity
  8
0
  6
Continuous
100
AcDbCircle
 10
3317.845173734471
 20
1182.273188383201
 30
0.0
 40
2.0
100
AcDbArc
 50
180.0000000000004
 51
270.0000000000006
  0
ARC
  5
9CA
330
1B
100
AcDbEntity
  8
0
  6
Continuous
100
AcDbCircle
 10
3273.845173734471
 20
1182.273188383201
 30
0.0
 40
2.0
100
AcDbArc
 50
270.0000000000006
 51
0.0000000000007994
  0
ARC
  5
9CB
330
1B
100
AcDbEntity
  8
0
  6
Continuous
100
AcDbCircle
 10
3315.445173734471
 20
1190.273188383201
 30
0.0
 40
0.4
100
AcDbArc
 50
0.0
 51
90.00000000000019
  0
ARC
  5
9CC
330
1B
100
AcDbEntity
  8
0
  6
Continuous
100
AcDbCircle
 10
3276.245173734471
 20
1190.273188383201
 30
0.0
 40
0.4
100
AcDbArc
 50
90.00000000000019
 51
180.0000000000004
  0
LINE
  5
9CD
330
1B
100
AcDbEntity
  8
0
  6
Continuous
100
AcDbLine
 10
3201.845173734471
 20
1168.838873808201
 30
0.0
 11
3201.845173734471
 21
1178.273188383201
 31
0.0
  0
LINE
  5
9CE
330
1B
100
AcDbEntity
  8
0
  6
Continuous
100
AcDbLine
 10
3203.545173734471
 20
1166.973188383201
 30
0.0
 11
3203.545173734471
 21
1179.973188383201
 31
0.0
  0
LINE
  5
9CF
330
1B
100
AcDbEntity
  8
0
  6
Continuous
100
AcDbLine
 10
3205.845173734471
 20
1182.273188383201
 30
0.0
 11
3205.845173734471
 21
1190.273188383201
 31
0.0
  0
LINE
  5
9D0
330
1B
100
AcDbEntity
  8
0
  6
Continuous
100
AcDbLine
 10
3207.345173734471
 20
1191.073188383201
 30
0.0
 11
3207.345173734471
 21
1192.273188383201
 31
0.0
  0
LINE
  5
9D1
330
1B
100
AcDbEntity
  8
0
  6
Continuous
100
AcDbLine
 10
3203.728016469071
 20
1166.790345648701
 30
0.0
 11
3201.962331022071
 21
1168.556031095701
 31
0.0
  0
LINE
  5
9D2
330
1B
100
AcDbEntity
  8
0
  6
Continuous
100
AcDbLine
 10
3244.345173734471
 20
1191.073188383201
 30
0.0
 11
3244.345173734471
 21
1192.273188383201
 31
0.0
  0
LINE
  5
9D3
330
1B
100
AcDbEntity
  8
0
  6
Continuous
100
AcDbLine
 10
3245.845173734471
 20
1182.273188383201
 30
0.0
 11
3245.845173734471
 21
1190.273188383201
 31
0.0
  0
LINE
  5
9D4
330
1B
100
AcDbEntity
  8
0
  6
Continuous
100
AcDbLine
 10
3248.145173734471
 20
1166.973188383201
 30
0.0
 11
3248.145173734471
 21
1179.973188383201
 31
0.0
  0
LINE
  5
9D5
330
1B
100
AcDbEntity
  8
0
  6
Continuous
100
AcDbLine
 10
3249.845173734471
 20
1168.838873808201
 30
0.0
 11
3249.845173734471
 21
1178.273188383201
 31
0.0
  0
LINE
  5
9D6
330
1B
100
AcDbEntity
  8
0
  6
Continuous
100
AcDbLine
 10
3249.845173734471
 20
1178.273188383201
 30
0.0
 11
3247.845173734471
 21
1180.273188383201
 31
0.0
  0
LINE
  5
9D7
330
1B
100
AcDbEntity
  8
0
  6
Continuous
100
AcDbLine
 10
3201.845173734471
 20
1178.273188383201
 30
0.0
 11
3203.845173734471
 21
1180.273188383201
 31
0.0
  0
LINE
  5
9D8
330
1B
100
AcDbEntity
  8
0
  6
Continuous
100
AcDbLine
 10
3247.962330999971
 20
1166.790345648701
 30
0.0
 11
3249.728016446971
 21
1168.556031095701
 31
0.0
  0
LINE
  5
9D9
330
1B
100
AcDbEntity
  8
0
  6
Continuous
100
AcDbLine
 10
3247.67948826717
 20
1166.673188383201
 30
0.0
 11
3204.010859201871
 21
1166.673188383201
 31
0.0
  0
LINE
  5
9DA
330
1B
100
AcDbEntity
  8
0
  6
Continuous
100
AcDbLine
 10
3249.845173734471
 20
1168.838873808201
 30
0.0
 11
3201.845173734471
 21
1168.838873808201
 31
0.0
  0
LINE
  5
9DB
330
1B
100
AcDbEntity
  8
0
  6
Continuous
100
AcDbLine
 10
3201.845173734471
 20
1178.273188383201
 30
0.0
 11
3249.845173734471
 21
1178.273188383201
 31
0.0
  0
LINE
  5
9DC
330
1B
100
AcDbEntity
  8
0
  6
Continuous
100
AcDbLine
 10
3203.545173734471
 20
1179.973188573901
 30
0.0
 11
3248.145173734471
 21
1179.973188573901
 31
0.0
  0
LINE
  5
9DD
330
1B
100
AcDbEntity
  8
0
  6
Continuous
100
AcDbLine
 10
3205.845173734471
 20
1182.273188383201
 30
0.0
 11
3245.845173734471
 21
1182.273188383201
 31
0.0
  0
LINE
  5
9DE
330
1B
100
AcDbEntity
  8
0
  6
Continuous
100
AcDbLine
 10
3245.445173732271
 20
1190.673188383201
 30
0.0
 11
3206.245173736671
 21
1190.673188383201
 31
0.0
  0
ARC
  5
9DF
330
1B
100
AcDbEntity
  8
0
  6
Continuous
100
AcDbCircle
 10
3247.679488309571
 20
1167.073188383201
 30
0.0
 40
0.4
100
AcDbArc
 50
270.0000000000006
 51
314.9999955290007
  0
ARC
  5
9E0
330
1B
100
AcDbEntity
  8
0
  6
Continuous
100
AcDbCircle
 10
3204.010859159471
 20
1167.073188383201
 30
0.0
 40
0.4
100
AcDbArc
 50
225.0000044710005
 51
270.0000000000006
  0
ARC
  5
9E1
330
1B
100
AcDbEntity
  8
0
  6
Continuous
100
AcDbCircle
 10
3249.44517373447
 20
1168.838873808201
 30
0.0
 40
0.4
100
AcDbArc
 50
314.9999999991007
 51
0.0000000000007994
  0
ARC
  5
9E2
330
1B
100
AcDbEntity
  8
0
  6
Continuous
100
AcDbCircle
 10
3202.245173734471
 20
1168.838873808201
 30
0.0
 40
0.4
100
AcDbArc
 50
180.0000000000004
 51
225.0000000010005
  0
ARC
  5
9E3
330
1B
100
AcDbEntity
  8
0
  6
Continuous
100
AcDbCircle
 10
3207.745173734471
 20
1192.273188383201
 30
0.0
 40
0.4
100
AcDbArc
 50
90.00000000000019
 51
180.0000000000004
  0
ARC
  5
9E4
330
1B
100
AcDbEntity
  8
0
  6
Continuous
100
AcDbCircle
 10
3243.94517373447
 20
1192.273188383201
 30
0.0
 40
0.4
100
AcDbArc
 50
0.0
 51
90.00000000000019
  0
ARC
  5
9E5
330
1B
100
AcDbEntity
  8
0
  6
Continuous
100
AcDbCircle
 10
3206.945173734471
 20
1191.073188383201
 30
0.0
 40
0.4
100
AcDbArc
 50
270.0000097618006
 51
0.0000000000007994
  0
ARC
  5
9E6
330
1B
100
AcDbEntity
  8
0
  6
Continuous
100
AcDbCircle
 10
3244.745173734471
 20
1191.073188383201
 30
0.0
 40
0.4
100
AcDbArc
 50
180.0000000000004
 51
269.9999902382006
  0
ARC
  5
9E7
330
1B
100
AcDbEntity
  8
0
  6
Continuous
100
AcDbCircle
 10
3247.845173734471
 20
1182.273188383201
 30
0.0
 40
2.0
100
AcDbArc
 50
180.0000000000004
 51
270.0000000000006
  0
ARC
  5
9E8
330
1B
100
AcDbEntity
  8
0
  6
Continuous
100
AcDbCircle
 10
3203.845173734471
 20
1182.273188383201
 30
0.0
 40
2.0
100
AcDbArc
 50
270.0000000000006
 51
0.0000000000007994
  0
ARC
  5
9E9
330
1B
100
AcDbEntity
  8
0
  6
Continuous
100
AcDbCircle
 10
3245.44517373447
 20
1190.273188383201
 30
0.0
 40
0.4
100
AcDbArc
 50
0.0
 51
90.00000000000019
  0
ARC
  5
9EA
330
1B
100
AcDbEntity
  8
0
  6
Continuous
100
AcDbCircle
 10
3206.245173734471
 20
1190.273188383201
 30
0.0
 40
0.4
100
AcDbArc
 50
90.00000000000019
 51
180.0000000000004
  0
LINE
  5
9EB
330
1B
100
AcDbEntity
  8
0
  6
Continuous
100
AcDbLine
 10
3131.845173734471
 20
1168.838873808201
 30
0.0
 11
3131.845173734471
 21
1178.273188383201
 31
0.0
  0
LINE
  5
9EC
330
1B
100
AcDbEntity
  8
0
  6
Continuous
100
AcDbLine
 10
3133.545173734471
 20
1166.973188383201
 30
0.0
 11
3133.545173734471
 21
1179.973188383201
 31
0.0
  0
LINE
  5
9ED
330
1B
100
AcDbEntity
  8
0
  6
Continuous
100
AcDbLine
 10
3135.845173734471
 20
1182.273188383201
 30
0.0
 11
3135.845173734471
 21
1190.273188383201
 31
0.0
  0
LINE
  5
9EE
330
1B
100
AcDbEntity
  8
0
  6
Continuous
100
AcDbLine
 10
3137.345173734471
 20
1191.073188383201
 30
0.0
 11
3137.345173734471
 21
1192.273188383201
 31
0.0
  0
LINE
  5
9EF
330
1B
100
AcDbEntity
  8
0
  6
Continuous
100
AcDbLine
 10
3133.728016469071
 20
1166.790345648701
 30
0.0
 11
3131.962331022071
 21
1168.556031095701
 31
0.0
  0
LINE
  5
9F0
330
1B
100
AcDbEntity
  8
0
  6
Continuous
100
AcDbLine
 10
3174.345173734471
 20
1191.073188383201
 30
0.0
 11
3174.345173734471
 21
1192.273188383201
 31
0.0
  0
LINE
  5
9F1
330
1B
100
AcDbEntity
  8
0
  6
Continuous
100
AcDbLine
 10
3175.845173734471
 20
1182.273188383201
 30
0.0
 11
3175.845173734471
 21
1190.273188383201
 31
0.0
  0
LINE
  5
9F2
330
1B
100
AcDbEntity
  8
0
  6
Continuous
100
AcDbLine
 10
3178.145173734471
 20
1166.973188383201
 30
0.0
 11
3178.145173734471
 21
1179.973188383201
 31
0.0
  0
LINE
  5
9F3
330
1B
100
AcDbEntity
  8
0
  6
Continuous
100
AcDbLine
 10
3179.845173734471
 20
1168.838873808201
 30
0.0
 11
3179.845173734471
 21
1178.273188383201
 31
0.0
  0
LINE
  5
9F4
330
1B
100
AcDbEntity
  8
0
  6
Continuous
100
AcDbLine
 10
3179.845173734471
 20
1178.273188383201
 30
0.0
 11
3177.84517373447
 21
1180.273188383201
 31
0.0
  0
LINE
  5
9F5
330
1B
100
AcDbEntity
  8
0
  6
Continuous
100
AcDbLine
 10
3131.845173734471
 20
1178.273188383201
 30
0.0
 11
3133.845173734471
 21
1180.273188383201
 31
0.0
  0
LINE
  5
9F6
330
1B
100
AcDbEntity
  8
0
  6
Continuous
100
AcDbLine
 10
3177.962330999971
 20
1166.790345648701
 30
0.0
 11
3179.728016446971
 21
1168.556031095701
 31
0.0
  0
LINE
  5
9F7
330
1B
100
AcDbEntity
  8
0
  6
Continuous
100
AcDbLine
 10
3177.679488267171
 20
1166.673188383201
 30
0.0
 11
3134.01085920187
 21
1166.673188383201
 31
0.0
  0
LINE
  5
9F8
330
1B
100
AcDbEntity
  8
0
  6
Continuous
100
AcDbLine
 10
3179.845173734471
 20
1168.838873808201
 30
0.0
 11
3131.845173734471
 21
1168.838873808201
 31
0.0
  0
LINE
  5
9F9
330
1B
100
AcDbEntity
  8
0
  6
Continuous
100
AcDbLine
 10
3131.845173734471
 20
1178.273188383201
 30
0.0
 11
3179.845173734471
 21
1178.273188383201
 31
0.0
  0
LINE
  5
9FA
330
1B
100
AcDbEntity
  8
0
  6
Continuous
100
AcDbLine
 10
3133.545173734471
 20
1179.973188573901
 30
0.0
 11
3178.145173734471
 21
1179.973188573901
 31
0.0
  0
LINE
  5
9FB
330
1B
100
AcDbEntity
  8
0
  6
Continuous
100
AcDbLine
 10
3135.845173734471
 20
1182.273188383201
 30
0.0
 11
3175.845173734471
 21
1182.273188383201
 31
0.0
  0
LINE
  5
9FC
330
1B
100
AcDbEntity
  8
0
  6
Continuous
100
AcDbLine
 10
3175.445173732271
 20
1190.673188383201
 30
0.0
 11
3136.24517373667
 21
1190.673188383201
 31
0.0
  0
ARC
  5
9FD
330
1B
100
AcDbEntity
  8
0
  6
Continuous
100
AcDbCircle
 10
3177.67948830957
 20
1167.073188383201
 30
0.0
 40
0.4
100
AcDbArc
 50
270.0000000000006
 51
314.9999955290007
  0
ARC
  5
9FE
330
1B
100
AcDbEntity
  8
0
  6
Continuous
100
AcDbCircle
 10
3134.010859159471
 20
1167.073188383201
 30
0.0
 40
0.4
100
AcDbArc
 50
225.0000044710005
 51
270.0000000000006
  0
ARC
  5
9FF
330
1B
100
AcDbEntity
  8
0
  6
Continuous
100
AcDbCircle
 10
3179.445173734471
 20
1168.838873808201
 30
0.0
 40
0.4
100
AcDbArc
 50
314.9999999991007
 51
0.0000000000007994
  0
ARC
  5
A00
330
1B
100
AcDbEntity
  8
0
  6
Continuous
100
AcDbCircle
 10
3132.24517373447
 20
1168.838873808201
 30
0.0
 40
0.4
100
AcDbArc
 50
180.0000000000004
 51
225.0000000010005
  0
ARC
  5
A01
330
1B
100
AcDbEntity
  8
0
  6
Continuous
100
AcDbCircle
 10
3137.745173734471
 20
1192.273188383201
 30
0.0
 40
0.4
100
AcDbArc
 50
90.00000000000019
 51
180.0000000000004
  0
ARC
  5
A02
330
1B
100
AcDbEntity
  8
0
  6
Continuous
100
AcDbCircle
 10
3173.945173734471
 20
1192.273188383201
 30
0.0
 40
0.4
100
AcDbArc
 50
0.0
 51
90.00000000000019
  0
ARC
  5
A03
330
1B
100
AcDbEntity
  8
0
  6
Continuous
100
AcDbCircle
 10
3136.945173734471
 20
1191.073188383201
 30
0.0
 40
0.4
100
AcDbArc
 50
270.0000097618006
 51
0.0000000000007994
  0
ARC
  5
A04
330
1B
100
AcDbEntity
  8
0
  6
Continuous
100
AcDbCircle
 10
3174.74517373447
 20
1191.073188383201
 30
0.0
 40
0.4
100
AcDbArc
 50
180.0000000000004
 51
269.9999902382006
  0
ARC
  5
A05
330
1B
100
AcDbEntity
  8
0
  6
Continuous
100
AcDbCircle
 10
3177.84517373447
 20
1182.273188383201
 30
0.0
 40
2.0
100
AcDbArc
 50
180.0000000000004
 51
270.0000000000006
  0
ARC
  5
A06
330
1B
100
AcDbEntity
  8
0
  6
Continuous
100
AcDbCircle
 10
3133.845173734471
 20
1182.273188383201
 30
0.0
 40
2.0
100
AcDbArc
 50
270.0000000000006
 51
0.0000000000007994
  0
ARC
  5
A07
330
1B
100
AcDbEntity
  8
0
  6
Continuous
100
AcDbCircle
 10
3175.445173734471
 20
1190.273188383201
 30
0.0
 40
0.4
100
AcDbArc
 50
0.0
 51
90.00000000000019
  0
ARC
  5
A08
330
1B
100
AcDbEntity
  8
0
  6
Continuous
100
AcDbCircle
 10
3136.245173734471
 20
1190.273188383201
 30
0.0
 40
0.4
100
AcDbArc
 50
90.00000000000019
 51
180.0000000000004
  0
LINE
  5
A09
330
1B
100
AcDbEntity
  8
0
  6
Continuous
100
AcDbLine
 10
3061.845173734471
 20
1168.838873808201
 30
0.0
 11
3061.845173734471
 21
1178.273188383201
 31
0.0
  0
LINE
  5
A0A
330
1B
100
AcDbEntity
  8
0
  6
Continuous
100
AcDbLine
 10
3063.545173734471
 20
1166.973188383201
 30
0.0
 11
3063.545173734471
 21
1179.973188383201
 31
0.0
  0
LINE
  5
A0B
330
1B
100
AcDbEntity
  8
0
  6
Continuous
100
AcDbLine
 10
3065.845173734471
 20
1182.273188383201
 30
0.0
 11
3065.845173734471
 21
1190.273188383201
 31
0.0
  0
LINE
  5
A0C
330
1B
100
AcDbEntity
  8
0
  6
Continuous
100
AcDbLine
 10
3067.345173734471
 20
1191.073188383201
 30
0.0
 11
3067.345173734471
 21
1192.273188383201
 31
0.0
  0
LINE
  5
A0D
330
1B
100
AcDbEntity
  8
0
  6
Continuous
100
AcDbLine
 10
3063.728016469071
 20
1166.790345648701
 30
0.0
 11
3061.96233102207
 21
1168.556031095701
 31
0.0
  0
LINE
  5
A0E
330
1B
100
AcDbEntity
  8
0
  6
Continuous
100
AcDbLine
 10
3104.345173734471
 20
1191.073188383201
 30
0.0
 11
3104.345173734471
 21
1192.273188383201
 31
0.0
  0
LINE
  5
A0F
330
1B
100
AcDbEntity
  8
0
  6
Continuous
100
AcDbLine
 10
3105.845173734471
 20
1182.273188383201
 30
0.0
 11
3105.845173734471
 21
1190.273188383201
 31
0.0
  0
LINE
  5
A10
330
1B
100
AcDbEntity
  8
0
  6
Continuous
100
AcDbLine
 10
3108.145173734471
 20
1166.973188383201
 30
0.0
 11
3108.145173734471
 21
1179.973188383201
 31
0.0
  0
LINE
  5
A11
330
1B
100
AcDbEntity
  8
0
  6
Continuous
100
AcDbLine
 10
3109.845173734471
 20
1168.838873808201
 30
0.0
 11
3109.845173734471
 21
1178.273188383201
 31
0.0
  0
LINE
  5
A12
330
1B
100
AcDbEntity
  8
0
  6
Continuous
100
AcDbLine
 10
3109.845173734471
 20
1178.273188383201
 30
0.0
 11
3107.845173734471
 21
1180.273188383201
 31
0.0
  0
LINE
  5
A13
330
1B
100
AcDbEntity
  8
0
  6
Continuous
100
AcDbLine
 10
3061.845173734471
 20
1178.273188383201
 30
0.0
 11
3063.845173734471
 21
1180.273188383201
 31
0.0
  0
LINE
  5
A14
330
1B
100
AcDbEntity
  8
0
  6
Continuous
100
AcDbLine
 10
3107.962330999971
 20
1166.790345648701
 30
0.0
 11
3109.728016446971
 21
1168.556031095701
 31
0.0
  0
LINE
  5
A15
330
1B
100
AcDbEntity
  8
0
  6
Continuous
100
AcDbLine
 10
3107.679488267171
 20
1166.673188383201
 30
0.0
 11
3064.010859201871
 21
1166.673188383201
 31
0.0
  0
LINE
  5
A16
330
1B
100
AcDbEntity
  8
0
  6
Continuous
100
AcDbLine
 10
3109.845173734471
 20
1168.838873808201
 30
0.0
 11
3061.845173734471
 21
1168.838873808201
 31
0.0
  0
LINE
  5
A17
330
1B
100
AcDbEntity
  8
0
  6
Continuous
100
AcDbLine
 10
3061.845173734471
 20
1178.273188383201
 30
0.0
 11
3109.845173734471
 21
1178.273188383201
 31
0.0
  0
LINE
  5
A18
330
1B
100
AcDbEntity
  8
0
  6
Continuous
100
AcDbLine
 10
3063.545173734471
 20
1179.973188573901
 30
0.0
 11
3108.145173734471
 21
1179.973188573901
 31
0.0
  0
LINE
  5
A19
330
1B
100
AcDbEntity
  8
0
  6
Continuous
100
AcDbLine
 10
3065.845173734471
 20
1182.273188383201
 30
0.0
 11
3105.845173734471
 21
1182.273188383201
 31
0.0
  0
LINE
  5
A1A
330
1B
100
AcDbEntity
  8
0
  6
Continuous
100
AcDbLine
 10
3105.445173732271
 20
1190.673188383201
 30
0.0
 11
3066.245173736671
 21
1190.673188383201
 31
0.0
  0
ARC
  5
A1B
330
1B
100
AcDbEntity
  8
0
  6
Continuous
100
AcDbCircle
 10
3107.679488309571
 20
1167.073188383201
 30
0.0
 40
0.4
100
AcDbArc
 50
270.0000000000006
 51
314.9999955290007
  0
ARC
  5
A1C
330
1B
100
AcDbEntity
  8
0
  6
Continuous
100
AcDbCircle
 10
3064.010859159471
 20
1167.073188383201
 30
0.0
 40
0.4
100
AcDbArc
 50
225.0000044710005
 51
270.0000000000006
  0
ARC
  5
A1D
330
1B
100
AcDbEntity
  8
0
  6
Continuous
100
AcDbCircle
 10
3109.445173734471
 20
1168.838873808201
 30
0.0
 40
0.4
100
AcDbArc
 50
314.9999999991007
 51
0.0000000000007994
  0
ARC
  5
A1E
330
1B
100
AcDbEntity
  8
0
  6
Continuous
100
AcDbCircle
 10
3062.245173734471
 20
1168.838873808201
 30
0.0
 40
0.4
100
AcDbArc
 50
180.0000000000004
 51
225.0000000010005
  0
ARC
  5
A1F
330
1B
100
AcDbEntity
  8
0
  6
Continuous
100
AcDbCircle
 10
3067.745173734471
 20
1192.273188383201
 30
0.0
 40
0.4
100
AcDbArc
 50
90.00000000000019
 51
180.0000000000004
  0
ARC
  5
A20
330
1B
100
AcDbEntity
  8
0
  6
Continuous
100
AcDbCircle
 10
3103.945173734471
 20
1192.273188383201
 30
0.0
 40
0.4
100
AcDbArc
 50
0.0
 51
90.00000000000019
  0
ARC
  5
A21
330
1B
100
AcDbEntity
  8
0
  6
Continuous
100
AcDbCircle
 10
3066.945173734471
 20
1191.073188383201
 30
0.0
 40
0.4
100
AcDbArc
 50
270.0000097618006
 51
0.0000000000007994
  0
ARC
  5
A22
330
1B
100
AcDbEntity
  8
0
  6
Continuous
100
AcDbCircle
 10
3104.745173734471
 20
1191.073188383201
 30
0.0
 40
0.4
100
AcDbArc
 50
180.0000000000004
 51
269.9999902382006
  0
ARC
  5
A23
330
1B
100
AcDbEntity
  8
0
  6
Continuous
100
AcDbCircle
 10
3107.845173734471
 20
1182.273188383201
 30
0.0
 40
2.0
100
AcDbArc
 50
180.0000000000004
 51
270.0000000000006
  0
ARC
  5
A24
330
1B
100
AcDbEntity
  8
0
  6
Continuous
100
AcDbCircle
 10
3063.845173734471
 20
1182.273188383201
 30
0.0
 40
2.0
100
AcDbArc
 50
270.0000000000006
 51
0.0000000000007994
  0
ARC
  5
A25
330
1B
100
AcDbEntity
  8
0
  6
Continuous
100
AcDbCircle
 10
3105.445173734471
 20
1190.273188383201
 30
0.0
 40
0.4
100
AcDbArc
 50
0.0
 51
90.00000000000019
  0
ARC
  5
A26
330
1B
100
AcDbEntity
  8
0
  6
Continuous
100
AcDbCircle
 10
3066.245173734471
 20
1190.273188383201
 30
0.0
 40
0.4
100
AcDbArc
 50
90.00000000000019
 51
180.0000000000004
  0
LINE
  5
A27
330
1B
100
AcDbEntity
  8
0
  6
Continuous
100
AcDbLine
 10
2991.845173734471
 20
1168.838873808201
 30
0.0
 11
2991.845173734471
 21
1178.273188383201
 31
0.0
  0
LINE
  5
A28
330
1B
100
AcDbEntity
  8
0
  6
Continuous
100
AcDbLine
 10
2993.545173734471
 20
1166.973188383201
 30
0.0
 11
2993.545173734471
 21
1179.973188383201
 31
0.0
  0
LINE
  5
A29
330
1B
100
AcDbEntity
  8
0
  6
Continuous
100
AcDbLine
 10
2995.845173734471
 20
1182.273188383201
 30
0.0
 11
2995.845173734471
 21
1190.273188383201
 31
0.0
  0
LINE
  5
A2A
330
1B
100
AcDbEntity
  8
0
  6
Continuous
100
AcDbLine
 10
2997.345173734471
 20
1191.073188383201
 30
0.0
 11
2997.345173734471
 21
1192.273188383201
 31
0.0
  0
LINE
  5
A2B
330
1B
100
AcDbEntity
  8
0
  6
Continuous
100
AcDbLine
 10
2993.72801646907
 20
1166.790345648701
 30
0.0
 11
2991.962331022071
 21
1168.556031095701
 31
0.0
  0
LINE
  5
A2C
330
1B
100
AcDbEntity
  8
0
  6
Continuous
100
AcDbLine
 10
3034.34517373447
 20
1191.073188383201
 30
0.0
 11
3034.34517373447
 21
1192.273188383201
 31
0.0
  0
LINE
  5
A2D
330
1B
100
AcDbEntity
  8
0
  6
Continuous
100
AcDbLine
 10
3035.84517373447
 20
1182.273188383201
 30
0.0
 11
3035.84517373447
 21
1190.273188383201
 31
0.0
  0
LINE
  5
A2E
330
1B
100
AcDbEntity
  8
0
  6
Continuous
100
AcDbLine
 10
3038.14517373447
 20
1166.973188383201
 30
0.0
 11
3038.14517373447
 21
1179.973188383201
 31
0.0
  0
LINE
  5
A2F
330
1B
100
AcDbEntity
  8
0
  6
Continuous
100
AcDbLine
 10
3039.84517373447
 20
1168.838873808201
 30
0.0
 11
3039.84517373447
 21
1178.273188383201
 31
0.0
  0
LINE
  5
A30
330
1B
100
AcDbEntity
  8
0
  6
Continuous
100
AcDbLine
 10
3039.84517373447
 20
1178.273188383201
 30
0.0
 11
3037.845173734471
 21
1180.273188383201
 31
0.0
  0
LINE
  5
A31
330
1B
100
AcDbEntity
  8
0
  6
Continuous
100
AcDbLine
 10
2991.845173734471
 20
1178.273188383201
 30
0.0
 11
2993.845173734471
 21
1180.273188383201
 31
0.0
  0
LINE
  5
A32
330
1B
100
AcDbEntity
  8
0
  6
Continuous
100
AcDbLine
 10
3037.962330999971
 20
1166.790345648701
 30
0.0
 11
3039.728016446971
 21
1168.556031095701
 31
0.0
  0
LINE
  5
A33
330
1B
100
AcDbEntity
  8
0
  6
Continuous
100
AcDbLine
 10
3037.679488267171
 20
1166.673188383201
 30
0.0
 11
2994.010859201871
 21
1166.673188383201
 31
0.0
  0
LINE
  5
A34
330
1B
100
AcDbEntity
  8
0
  6
Continuous
100
AcDbLine
 10
3039.84517373447
 20
1168.838873808201
 30
0.0
 11
2991.845173734471
 21
1168.838873808201
 31
0.0
  0
LINE
  5
A35
330
1B
100
AcDbEntity
  8
0
  6
Continuous
100
AcDbLine
 10
2991.845173734471
 20
1178.273188383201
 30
0.0
 11
3039.84517373447
 21
1178.273188383201
 31
0.0
  0
LINE
  5
A36
330
1B
100
AcDbEntity
  8
0
  6
Continuous
100
AcDbLine
 10
2993.545173734471
 20
1179.973188573901
 30
0.0
 11
3038.14517373447
 21
1179.973188573901
 31
0.0
  0
LINE
  5
A37
330
1B
100
AcDbEntity
  8
0
  6
Continuous
100
AcDbLine
 10
2995.845173734471
 20
1182.273188383201
 30
0.0
 11
3035.84517373447
 21
1182.273188383201
 31
0.0
  0
LINE
  5
A38
330
1B
100
AcDbEntity
  8
0
  6
Continuous
100
AcDbLine
 10
3035.44517373227
 20
1190.673188383201
 30
0.0
 11
2996.245173736671
 21
1190.673188383201
 31
0.0
  0
ARC
  5
A39
330
1B
100
AcDbEntity
  8
0
  6
Continuous
100
AcDbCircle
 10
3037.679488309571
 20
1167.073188383201
 30
0.0
 40
0.4
100
AcDbArc
 50
270.0000000000006
 51
314.9999955290007
  0
ARC
  5
A3A
330
1B
100
AcDbEntity
  8
0
  6
Continuous
100
AcDbCircle
 10
2994.010859159471
 20
1167.073188383201
 30
0.0
 40
0.4
100
AcDbArc
 50
225.0000044710005
 51
270.0000000000006
  0
ARC
  5
A3B
330
1B
100
AcDbEntity
  8
0
  6
Continuous
100
AcDbCircle
 10
3039.445173734471
 20
1168.838873808201
 30
0.0
 40
0.4
100
AcDbArc
 50
314.9999999991007
 51
0.0000000000007994
  0
ARC
  5
A3C
330
1B
100
AcDbEntity
  8
0
  6
Continuous
100
AcDbCircle
 10
2992.245173734471
 20
1168.838873808201
 30
0.0
 40
0.4
100
AcDbArc
 50
180.0000000000004
 51
225.0000000010005
  0
ARC
  5
A3D
330
1B
100
AcDbEntity
  8
0
  6
Continuous
100
AcDbCircle
 10
2997.745173734471
 20
1192.273188383201
 30
0.0
 40
0.4
100
AcDbArc
 50
90.00000000000019
 51
180.0000000000004
  0
ARC
  5
A3E
330
1B
100
AcDbEntity
  8
0
  6
Continuous
100
AcDbCircle
 10
3033.945173734471
 20
1192.273188383201
 30
0.0
 40
0.4
100
AcDbArc
 50
0.0
 51
90.00000000000019
  0
ARC
  5
A3F
330
1B
100
AcDbEntity
  8
0
  6
Continuous
100
AcDbCircle
 10
2996.945173734471
 20
1191.073188383201
 30
0.0
 40
0.4
100
AcDbArc
 50
270.0000097618006
 51
0.0000000000007994
  0
ARC
  5
A40
330
1B
100
AcDbEntity
  8
0
  6
Continuous
100
AcDbCircle
 10
3034.745173734471
 20
1191.073188383201
 30
0.0
 40
0.4
100
AcDbArc
 50
180.0000000000004
 51
269.9999902382006
  0
ARC
  5
A41
330
1B
100
AcDbEntity
  8
0
  6
Continuous
100
AcDbCircle
 10
3037.845173734471
 20
1182.273188383201
 30
0.0
 40
2.0
100
AcDbArc
 50
180.0000000000004
 51
270.0000000000006
  0
ARC
  5
A42
330
1B
100
AcDbEntity
  8
0
  6
Continuous
100
AcDbCircle
 10
2993.845173734471
 20
1182.273188383201
 30
0.0
 40
2.0
100
AcDbArc
 50
270.0000000000006
 51
0.0000000000007994
  0
ARC
  5
A43
330
1B
100
AcDbEntity
  8
0
  6
Continuous
100
AcDbCircle
 10
3035.445173734471
 20
1190.273188383201
 30
0.0
 40
0.4
100
AcDbArc
 50
0.0
 51
90.00000000000019
  0
ARC
  5
A44
330
1B
100
AcDbEntity
  8
0
  6
Continuous
100
AcDbCircle
 10
2996.245173734471
 20
1190.273188383201
 30
0.0
 40
0.4
100
AcDbArc
 50
90.00000000000019
 51
180.0000000000004
  0
SPLINE
  5
A45
330
1B
100
AcDbEntity
  8
0
  6
Continuous
100
AcDbSpline
210
0.0
220
0.0
230
1.0
 70
     8
 71
     3
 72
    11
 73
     7
 74
     5
 42
0.0000000001
 43
0.0000000001
 44
0.0000000001
 40
0.0
 40
0.0
 40
0.0
 40
0.0
 40
0.8511078916131729
 40
1.542649903661202
 40
1.981076798366821
 40
2.153488104795743
 40
2.153488104795743
 40
2.153488104795743
 40
2.153488104795743
 10
2904.210672007471
 20
1272.673188383201
 30
0.0
 10
2904.339776512404
 20
1272.930490204768
 30
0.0
 10
2904.573780983586
 20
1273.396854850382
 30
0.0
 10
2904.748461718193
 20
1273.997807053327
 30
0.0
 10
2904.937031848682
 20
1274.467840534599
 30
0.0
 10
2904.797414655668
 20
1274.627986579041
 30
0.0
 10
2904.758007194571
 20
1274.673188383201
 30
0.0
 11
2904.210672007471
 21
1272.673188383201
 31
0.0
 11
2904.568160539071
 21
1273.445578565001
 31
0.0
 11
2904.794740563671
 21
1274.098948174701
 31
0.0
 11
2904.858060714671
 21
1274.532778441601
 31
0.0
 11
2904.758007194571
 21
1274.673188383201
 31
0.0
  0
SPLINE
  5
A46
330
1B
100
AcDbEntity
  8
0
  6
Continuous
100
AcDbSpline
210
0.0
220
0.0
230
1.0
 70
     8
 71
     3
 72
    10
 73
     6
 74
     4
 42
0.0000000001
 43
0.0000000001
 44
0.0000000001
 40
0.0
 40
0.0
 40
0.0
 40
0.0
 40
0.2823209678101569
 40
1.239916756224973
 40
2.353757657118402
 40
2.353757657118402
 40
2.353757657118402
 40
2.353757657118402
 10
2901.032294278771
 20
1265.960737074701
 30
0.0
 10
2901.059150139738
 20
1266.050934446085
 30
0.0
 10
2901.177097567707
 20
1266.44706950121
 30
0.0
 10
2901.455445572738
 20
1267.182272691542
 30
0.0
 10
2901.75307121169
 20
1267.805464944876
 30
0.0
 10
2901.91310874097
 20
1268.140564262401
 30
0.0
 11
2901.032294278771
 21
1265.960737074701
 31
0.0
 11
2901.114348821271
 21
1266.230870710001
 31
0.0
 11
2901.44822324817
 21
1267.128377011401
 31
0.0
 11
2901.91310874097
 21
1268.140564262401
 31
0.0
  0
SPLINE
  5
A47
330
1B
100
AcDbEntity
  8
0
  6
Continuous
100
AcDbSpline
210
0.0
220
0.0
230
1.0
 70
     8
 71
     3
 72
     9
 73
     5
 74
     3
 42
0.0000000001
 43
0.0000000001
 44
0.0000000001
 40
0.0
 40
0.0
 40
0.0
 40
0.0
 40
0.6143954606337696
 40
1.120800616392983
 40
1.120800616392983
 40
1.120800616392983
 40
1.120800616392983
 10
2900.845173734471
 20
1264.857957035801
 30
0.0
 10
2900.86070069492
 20
1265.062748035067
 30
0.0
 10
2900.889025492148
 20
1265.43633458138
 30
0.0
 10
2900.987707384203
 20
1265.797536986024
 30
0.0
 10
2901.032294278771
 20
1265.960737074701
 30
0.0
 11
2900.845173734471
 21
1264.857957035801
 31
0.0
 11
2900.912896669571
 21
1265.468608643601
 31
0.0
 11
2901.032294278771
 21
1265.960737074701
 31
0.0
  0
SPLINE
  5
A48
330
1B
100
AcDbEntity
  8
0
  6
Continuous
100
AcDbSpline
210
0.0
220
0.0
230
1.0
 70
     8
 71
     3
 72
     9
 73
     5
 74
     3
 42
0.0000000001
 43
0.0000000001
 44
0.0000000001
 40
0.0
 40
0.0
 40
0.0
 40
0.0
 40
2.586170082369437
 40
5.081701351831367
 40
5.081701351831367
 40
5.081701351831367
 40
5.081701351831367
 10
2904.210672007471
 20
1272.673188383201
 30
0.0
 10
2903.817642783055
 20
1271.905935165307
 30
0.0
 10
2903.04535902854
 20
1270.398319041701
 30
0.0
 10
2902.286010846357
 20
1268.884146772286
 30
0.0
 10
2901.91310874097
 20
1268.140564262401
 30
0.0
 11
2904.210672007471
 21
1272.673188383201
 31
0.0
 11
2903.034934617571
 21
1270.369730702901
 31
0.0
 11
2901.91310874097
 21
1268.140564262401
 31
0.0
  0
ARC
  5
A49
330
1B
100
AcDbEntity
  8
0
  6
Continuous
100
AcDbCircle
 10
2926.245173734471
 20
1190.273188383201
 30
0.0
 40
0.4
100
AcDbArc
 50
90.00000000000019
 51
180.0000000000004
  0
ARC
  5
A4A
330
1B
100
AcDbEntity
  8
0
  6
Continuous
100
AcDbCircle
 10
2965.445173734471
 20
1190.273188383201
 30
0.0
 40
0.4
100
AcDbArc
 50
0.0
 51
90.00000000000019
  0
ARC
  5
A4B
330
1B
100
AcDbEntity
  8
0
  6
Continuous
100
AcDbCircle
 10
2923.845173734471
 20
1182.273188383201
 30
0.0
 40
2.0
100
AcDbArc
 50
270.0000000000006
 51
0.0000000000007994
  0
ARC
  5
A4C
330
1B
100
AcDbEntity
  8
0
  6
Continuous
100
AcDbCircle
 10
2967.845173734471
 20
1182.273188383201
 30
0.0
 40
2.0
100
AcDbArc
 50
180.0000000000004
 51
270.0000000000006
  0
ARC
  5
A4D
330
1B
100
AcDbEntity
  8
0
  6
Continuous
100
AcDbCircle
 10
2964.745173734471
 20
1191.073188383201
 30
0.0
 40
0.4
100
AcDbArc
 50
180.0000000000004
 51
269.9999902382006
  0
ARC
  5
A4E
330
1B
100
AcDbEntity
  8
0
  6
Continuous
100
AcDbCircle
 10
2926.945173734471
 20
1191.073188383201
 30
0.0
 40
0.4
100
AcDbArc
 50
270.0000097618006
 51
0.0000000000007994
  0
ARC
  5
A4F
330
1B
100
AcDbEntity
  8
0
  6
Continuous
100
AcDbCircle
 10
2963.945173734471
 20
1192.273188383201
 30
0.0
 40
0.4
100
AcDbArc
 50
0.0
 51
90.00000000000019
  0
ARC
  5
A50
330
1B
100
AcDbEntity
  8
0
  6
Continuous
100
AcDbCircle
 10
2927.745173734471
 20
1192.273188383201
 30
0.0
 40
0.4
100
AcDbArc
 50
90.00000000000019
 51
180.0000000000004
  0
ARC
  5
A51
330
1B
100
AcDbEntity
  8
0
  6
Continuous
100
AcDbCircle
 10
2922.245173734471
 20
1168.838873808201
 30
0.0
 40
0.4
100
AcDbArc
 50
180.0000000000004
 51
225.0000000010005
  0
ARC
  5
A52
330
1B
100
AcDbEntity
  8
0
  6
Continuous
100
AcDbCircle
 10
2969.445173734471
 20
1168.838873808201
 30
0.0
 40
0.4
100
AcDbArc
 50
314.9999999991007
 51
0.0000000000007994
  0
ARC
  5
A53
330
1B
100
AcDbEntity
  8
0
  6
Continuous
100
AcDbCircle
 10
2924.010859159471
 20
1167.073188383201
 30
0.0
 40
0.4
100
AcDbArc
 50
225.0000044710005
 51
270.0000000000006
  0
ARC
  5
A54
330
1B
100
AcDbEntity
  8
0
  6
Continuous
100
AcDbCircle
 10
2967.679488309571
 20
1167.073188383201
 30
0.0
 40
0.4
100
AcDbArc
 50
270.0000000000006
 51
314.9999955290007
  0
LINE
  5
A55
330
1B
100
AcDbEntity
  8
DEFAULT_1
  6
CENTER
100
AcDbLine
 10
3295.84517373447
 20
1156.328820852527
 30
0.0
 11
3295.845173734471
 21
1284.673188383201
 31
0.0
  0
LINE
  5
A56
330
1B
100
AcDbEntity
  8
DEFAULT_1
  6
CENTER
100
AcDbLine
 10
3225.845173734471
 20
1156.328820852527
 30
0.0
 11
3225.845173734471
 21
1284.673188383201
 31
0.0
  0
LINE
  5
A57
330
1B
100
AcDbEntity
  8
0
  6
Continuous
100
AcDbLine
 10
2902.865899676671
 20
1274.673188383201
 30
0.0
 11
3338.824447792371
 21
1274.673188383201
 31
0.0
  0
LINE
  5
A58
330
1B
100
AcDbEntity
  8
0
  6
Continuous
100
AcDbLine
 10
2904.210672007471
 20
1272.673188383201
 30
0.0
 11
3337.479675461493
 21
1272.673188383201
 31
0.0
  0
LINE
  5
A59
330
1B
100
AcDbEntity
  8
0
  6
Continuous
100
AcDbLine
 10
3339.777238727971
 20
1268.140564262401
 30
0.0
 11
2901.91310874097
 21
1268.140564262401
 31
0.0
  0
LINE
  5
A5A
330
1B
100
AcDbEntity
  8
0
  6
Continuous
100
AcDbLine
 10
3340.845173734471
 20
1264.857957035801
 30
0.0
 11
2900.845173734471
 21
1264.857957035801
 31
0.0
  0
LINE
  5
A5B
330
1B
100
AcDbEntity
  8
DEFAULT_1
  6
CENTER
100
AcDbLine
 10
3155.845173734471
 20
1156.328820852527
 30
0.0
 11
3155.845173734471
 21
1284.673188383201
 31
0.0
  0
LINE
  5
A5C
330
1B
100
AcDbEntity
  8
0
  6
Continuous
100
AcDbLine
 10
3340.845173734471
 20
1202.488419730601
 30
0.0
 11
2900.845173734471
 21
1202.488419730601
 31
0.0
  0
LINE
  5
A5D
330
1B
100
AcDbEntity
  8
0
  6
Continuous
100
AcDbLine
 10
3339.777238727971
 20
1199.205812504001
 30
0.0
 11
2901.91310874097
 21
1199.205812504001
 31
0.0
  0
LINE
  5
A5E
330
1B
100
AcDbEntity
  8
0
  6
Continuous
100
AcDbLine
 10
2904.210672007448
 20
1194.673188383201
 30
0.0
 11
3337.479675461493
 21
1194.673188383201
 31
0.0
  0
LINE
  5
A5F
330
1B
100
AcDbEntity
  8
0
  6
Continuous
100
AcDbLine
 10
2902.865899676671
 20
1192.673188383201
 30
0.0
 11
3338.824447792371
 21
1192.673188383201
 31
0.0
  0
LINE
  5
A60
330
1B
100
AcDbEntity
  8
0
  6
Continuous
100
AcDbLine
 10
2965.445173732271
 20
1190.673188383201
 30
0.0
 11
2926.245173736671
 21
1190.673188383201
 31
0.0
  0
LINE
  5
A61
330
1B
100
AcDbEntity
  8
0
  6
Continuous
100
AcDbLine
 10
2925.845173734471
 20
1182.273188383201
 30
0.0
 11
2965.845173734471
 21
1182.273188383201
 31
0.0
  0
LINE
  5
A62
330
1B
100
AcDbEntity
  8
0
  6
Continuous
100
AcDbLine
 10
2923.545173734471
 20
1179.973188573901
 30
0.0
 11
2968.145173734471
 21
1179.973188573901
 31
0.0
  0
LINE
  5
A63
330
1B
100
AcDbEntity
  8
0
  6
Continuous
100
AcDbLine
 10
2921.845173734471
 20
1178.273188383201
 30
0.0
 11
2969.845173734471
 21
1178.273188383201
 31
0.0
  0
LINE
  5
A64
330
1B
100
AcDbEntity
  8
DEFAULT_1
  6
CENTER
100
AcDbLine
 10
3085.845173734471
 20
1156.328820852527
 30
0.0
 11
3085.845173734471
 21
1284.673188383201
 31
0.0
  0
LINE
  5
A65
330
1B
100
AcDbEntity
  8
0
  6
Continuous
100
AcDbLine
 10
2969.845173734471
 20
1168.838873808201
 30
0.0
 11
2921.845173734471
 21
1168.838873808201
 31
0.0
  0
LINE
  5
A66
330
1B
100
AcDbEntity
  8
0
  6
Continuous
100
AcDbLine
 10
2967.679488267171
 20
1166.673188383201
 30
0.0
 11
2924.010859201871
 21
1166.673188383201
 31
0.0
  0
LINE
  5
A67
330
1B
100
AcDbEntity
  8
0
  6
Continuous
100
AcDbLine
 10
2967.96233099997
 20
1166.790345648701
 30
0.0
 11
2969.728016446971
 21
1168.556031095701
 31
0.0
  0
LINE
  5
A68
330
1B
100
AcDbEntity
  8
0
  6
Continuous
100
AcDbLine
 10
2921.845173734471
 20
1178.273188383201
 30
0.0
 11
2923.845173734471
 21
1180.273188383201
 31
0.0
  0
LINE
  5
A69
330
1B
100
AcDbEntity
  8
DEFAULT_1
  6
CENTER
100
AcDbLine
 10
3015.845173734471
 20
1156.328820852527
 30
0.0
 11
3015.845173734471
 21
1284.673188383201
 31
0.0
  0
LINE
  5
A6A
330
1B
100
AcDbEntity
  8
0
  6
Continuous
100
AcDbLine
 10
2969.845173734471
 20
1178.273188383201
 30
0.0
 11
2967.845173734471
 21
1180.273188383201
 31
0.0
  0
LINE
  5
A6B
330
1B
100
AcDbEntity
  8
0
  6
Continuous
100
AcDbLine
 10
2969.845173734471
 20
1168.838873808201
 30
0.0
 11
2969.845173734471
 21
1178.273188383201
 31
0.0
  0
LINE
  5
A6C
330
1B
100
AcDbEntity
  8
0
  6
Continuous
100
AcDbLine
 10
2968.145173734471
 20
1166.973188383201
 30
0.0
 11
2968.145173734471
 21
1179.973188383201
 31
0.0
  0
LINE
  5
A6D
330
1B
100
AcDbEntity
  8
0
  6
Continuous
100
AcDbLine
 10
2965.845173734471
 20
1182.273188383201
 30
0.0
 11
2965.845173734471
 21
1190.273188383201
 31
0.0
  0
LINE
  5
A6E
330
1B
100
AcDbEntity
  8
0
  6
Continuous
100
AcDbLine
 10
2964.345173734471
 20
1191.073188383201
 30
0.0
 11
2964.345173734471
 21
1192.273188383201
 31
0.0
  0
LINE
  5
A6F
330
1B
100
AcDbEntity
  8
0
  6
Continuous
100
AcDbLine
 10
2923.728016469071
 20
1166.790345648701
 30
0.0
 11
2921.962331022071
 21
1168.556031095701
 31
0.0
  0
LINE
  5
A70
330
1B
100
AcDbEntity
  8
DEFAULT_1
  6
CENTER
100
AcDbLine
 10
2945.845173734471
 20
1156.328820852527
 30
0.0
 11
2945.845173734471
 21
1284.673188383201
 31
0.0
  0
LINE
  5
A71
330
1B
100
AcDbEntity
  8
0
  6
Continuous
100
AcDbLine
 10
2927.345173734471
 20
1191.073188383201
 30
0.0
 11
2927.345173734471
 21
1192.273188383201
 31
0.0
  0
LINE
  5
A72
330
1B
100
AcDbEntity
  8
0
  6
Continuous
100
AcDbLine
 10
2925.845173734471
 20
1182.273188383201
 30
0.0
 11
2925.845173734471
 21
1190.273188383201
 31
0.0
  0
LINE
  5
A73
330
1B
100
AcDbEntity
  8
0
  6
Continuous
100
AcDbLine
 10
2923.545173734471
 20
1166.973188383201
 30
0.0
 11
2923.545173734471
 21
1179.973188383201
 31
0.0
  0
LINE
  5
A74
330
1B
100
AcDbEntity
  8
0
  6
Continuous
100
AcDbLine
 10
2921.845173734471
 20
1168.838873808201
 30
0.0
 11
2921.845173734471
 21
1178.273188383201
 31
0.0
  0
LINE
  5
A75
330
1B
100
AcDbEntity
  8
0
  6
Continuous
100
AcDbLine
 10
2900.845173734471
 20
1271.173188383201
 30
0.0
 11
2902.865899676671
 21
1274.673188383201
 31
0.0
  0
LINE
  5
A76
330
1B
100
AcDbEntity
  8
0
  6
Continuous
100
AcDbLine
 10
2900.845173734471
 20
1271.173188383201
 30
0.0
 11
2900.845173734471
 21
1196.173188383201
 31
0.0
  0
CIRCLE
  5
A77
330
1B
100
AcDbEntity
  8
0
100
AcDbCircle
 10
3440.845173734471
 20
1233.673188383201
 30
0.0
 40
33.25
  0
ARC
  5
A78
330
1B
100
AcDbEntity
  8
0
  6
Continuous
100
AcDbCircle
 10
3421.245173734471
 20
1190.273188383201
 30
0.0
 40
0.4
100
AcDbArc
 50
90.00000000000019
 51
180.0000000000004
  0
ARC
  5
A79
330
1B
100
AcDbEntity
  8
0
  6
Continuous
100
AcDbCircle
 10
3460.445173734471
 20
1190.273188383201
 30
0.0
 40
0.4
100
AcDbArc
 50
0.0
 51
90.00000000000019
  0
ARC
  5
A7A
330
1B
100
AcDbEntity
  8
0
  6
Continuous
100
AcDbCircle
 10
3418.845173734471
 20
1182.273188383201
 30
0.0
 40
2.0
100
AcDbArc
 50
270.0000000000006
 51
0.0000000000007994
  0
ARC
  5
A7B
330
1B
100
AcDbEntity
  8
0
  6
Continuous
100
AcDbCircle
 10
3462.84517373447
 20
1182.273188383201
 30
0.0
 40
2.0
100
AcDbArc
 50
180.0000000000004
 51
270.0000000000006
  0
ARC
  5
A7C
330
1B
100
AcDbEntity
  8
0
  6
Continuous
100
AcDbCircle
 10
3459.745173734471
 20
1191.073188383201
 30
0.0
 40
0.4
100
AcDbArc
 50
180.0000000000004
 51
269.9999902382006
  0
ARC
  5
A7D
330
1B
100
AcDbEntity
  8
0
  6
Continuous
100
AcDbCircle
 10
3421.945173734471
 20
1191.073188383201
 30
0.0
 40
0.4
100
AcDbArc
 50
270.0000097618006
 51
0.0000000000007994
  0
ARC
  5
A7E
330
1B
100
AcDbEntity
  8
0
  6
Continuous
100
AcDbCircle
 10
3458.945173734471
 20
1192.273188383201
 30
0.0
 40
0.4
100
AcDbArc
 50
0.0
 51
90.00000000000019
  0
ARC
  5
A7F
330
1B
100
AcDbEntity
  8
0
  6
Continuous
100
AcDbCircle
 10
3422.745173734471
 20
1192.273188383201
 30
0.0
 40
0.4
100
AcDbArc
 50
90.00000000000019
 51
180.0000000000004
  0
ARC
  5
A80
330
1B
100
AcDbEntity
  8
0
  6
Continuous
100
AcDbCircle
 10
3417.245173734471
 20
1168.838873808201
 30
0.0
 40
0.4
100
AcDbArc
 50
180.0000000000004
 51
225.0000000010005
  0
ARC
  5
A81
330
1B
100
AcDbEntity
  8
0
  6
Continuous
100
AcDbCircle
 10
3464.445173734471
 20
1168.838873808201
 30
0.0
 40
0.4
100
AcDbArc
 50
314.9999999991007
 51
0.0000000000007994
  0
ARC
  5
A82
330
1B
100
AcDbEntity
  8
0
  6
Continuous
100
AcDbCircle
 10
3419.01085915947
 20
1167.073188383201
 30
0.0
 40
0.4
100
AcDbArc
 50
225.0000044710005
 51
270.0000000000006
  0
ARC
  5
A83
330
1B
100
AcDbEntity
  8
0
  6
Continuous
100
AcDbCircle
 10
3462.679488309571
 20
1167.073188383201
 30
0.0
 40
0.4
100
AcDbArc
 50
270.0000000000006
 51
314.9999955290007
  0
LINE
  5
A84
330
1B
100
AcDbEntity
  8
0
  6
Continuous
100
AcDbLine
 10
3460.445173732271
 20
1190.673188383201
 30
0.0
 11
3421.245173736671
 21
1190.673188383201
 31
0.0
  0
LINE
  5
A85
330
1B
100
AcDbEntity
  8
0
  6
Continuous
100
AcDbLine
 10
3420.84517373447
 20
1182.273188383201
 30
0.0
 11
3460.84517373447
 21
1182.273188383201
 31
0.0
  0
LINE
  5
A86
330
1B
100
AcDbEntity
  8
0
  6
Continuous
100
AcDbLine
 10
3418.545173734471
 20
1179.973188573901
 30
0.0
 11
3463.145173734471
 21
1179.973188573901
 31
0.0
  0
LINE
  5
A87
330
1B
100
AcDbEntity
  8
0
  6
Continuous
100
AcDbLine
 10
3416.845173734471
 20
1178.273188383201
 30
0.0
 11
3464.845173734471
 21
1178.273188383201
 31
0.0
  0
LINE
  5
A88
330
1B
100
AcDbEntity
  8
0
  6
Continuous
100
AcDbLine
 10
3464.845173734471
 20
1168.838873808201
 30
0.0
 11
3416.845173734471
 21
1168.838873808201
 31
0.0
  0
LINE
  5
A89
330
1B
100
AcDbEntity
  8
0
  6
Continuous
100
AcDbLine
 10
3462.679488267171
 20
1166.673188383201
 30
0.0
 11
3419.010859201871
 21
1166.673188383201
 31
0.0
  0
LINE
  5
A8A
330
1B
100
AcDbEntity
  8
0
  6
Continuous
100
AcDbLine
 10
3462.962330999971
 20
1166.790345648701
 30
0.0
 11
3464.728016446971
 21
1168.556031095701
 31
0.0
  0
LINE
  5
A8B
330
1B
100
AcDbEntity
  8
0
  6
Continuous
100
AcDbLine
 10
3416.845173734471
 20
1178.273188383201
 30
0.0
 11
3418.845173734471
 21
1180.273188383201
 31
0.0
  0
LINE
  5
A8C
330
1B
100
AcDbEntity
  8
0
  6
Continuous
100
AcDbLine
 10
3464.845173734471
 20
1178.273188383201
 30
0.0
 11
3462.84517373447
 21
1180.273188383201
 31
0.0
  0
LINE
  5
A8D
330
1B
100
AcDbEntity
  8
0
  6
Continuous
100
AcDbLine
 10
3464.845173734471
 20
1168.838873808201
 30
0.0
 11
3464.845173734471
 21
1178.273188383201
 31
0.0
  0
LINE
  5
A8E
330
1B
100
AcDbEntity
  8
0
  6
Continuous
100
AcDbLine
 10
3463.145173734471
 20
1166.973188383201
 30
0.0
 11
3463.145173734471
 21
1179.973188383201
 31
0.0
  0
LINE
  5
A8F
330
1B
100
AcDbEntity
  8
0
  6
Continuous
100
AcDbLine
 10
3460.84517373447
 20
1182.273188383201
 30
0.0
 11
3460.84517373447
 21
1190.273188383201
 31
0.0
  0
LINE
  5
A90
330
1B
100
AcDbEntity
  8
0
  6
Continuous
100
AcDbLine
 10
3459.34517373447
 20
1191.073188383201
 30
0.0
 11
3459.34517373447
 21
1192.273188383201
 31
0.0
  0
LINE
  5
A91
330
1B
100
AcDbEntity
  8
0
  6
Continuous
100
AcDbLine
 10
3418.728016469071
 20
1166.790345648701
 30
0.0
 11
3416.962331022071
 21
1168.556031095701
 31
0.0
  0
LINE
  5
A92
330
1B
100
AcDbEntity
  8
0
  6
Continuous
100
AcDbLine
 10
3422.34517373447
 20
1191.073188383201
 30
0.0
 11
3422.34517373447
 21
1192.273188383201
 31
0.0
  0
LINE
  5
A93
330
1B
100
AcDbEntity
  8
0
  6
Continuous
100
AcDbLine
 10
3420.84517373447
 20
1182.273188383201
 30
0.0
 11
3420.84517373447
 21
1190.273188383201
 31
0.0
  0
LINE
  5
A94
330
1B
100
AcDbEntity
  8
0
  6
Continuous
100
AcDbLine
 10
3418.545173734471
 20
1166.973188383201
 30
0.0
 11
3418.545173734471
 21
1179.973188383201
 31
0.0
  0
LINE
  5
A95
330
1B
100
AcDbEntity
  8
0
  6
Continuous
100
AcDbLine
 10
3416.845173734471
 20
1168.838873808201
 30
0.0
 11
3416.845173734471
 21
1178.273188383201
 31
0.0
  0
CIRCLE
  5
A98
330
1B
100
AcDbEntity
  8
0
  6
Continuous
100
AcDbCircle
 10
3440.845173734471
 20
1233.673188383201
 30
0.0
 40
38.0
  0
ARC
  5
A99
330
1B
100
AcDbEntity
  8
0
  6
Continuous
100
AcDbCircle
 10
3416.845173734471
 20
1199.205812504001
 30
0.0
 40
4.0
100
AcDbArc
 50
0.0
 51
55.15009542100013
  0
ARC
  5
A9A
330
1B
100
AcDbEntity
  8
0
  6
Continuous
100
AcDbCircle
 10
3416.845173734471
 20
1268.140564262401
 30
0.0
 40
4.0
100
AcDbArc
 50
304.8499045790007
 51
0.0000000000007994
  0
ARC
  5
A9B
330
1B
100
AcDbEntity
  8
0
  6
Continuous
100
AcDbCircle
 10
3464.845173734471
 20
1199.205812504001
 30
0.0
 40
4.0
100
AcDbArc
 50
124.8499045790003
 51
180.0000000000004
  0
ARC
  5
A9C
330
1B
100
AcDbEntity
  8
0
  6
Continuous
100
AcDbCircle
 10
3464.845173734471
 20
1268.140564262401
 30
0.0
 40
4.0
100
AcDbArc
 50
180.0000000000004
 51
235.1500954210005
  0
ARC
  5
A9D
330
1B
100
AcDbEntity
  8
0
  6
Continuous
100
AcDbCircle
 10
3458.84517373447
 20
1194.673188383201
 30
0.0
 40
2.0
100
AcDbArc
 50
270.0000000000006
 51
0.0000000000007994
  0
ARC
  5
A9E
330
1B
100
AcDbEntity
  8
0
  6
Continuous
100
AcDbCircle
 10
3422.845173734471
 20
1194.673188383201
 30
0.0
 40
2.0
100
AcDbArc
 50
180.0000000000004
 51
270.0000000000006
  0
ARC
  5
A9F
330
1B
100
AcDbEntity
  8
0
  6
Continuous
100
AcDbCircle
 10
3458.84517373447
 20
1272.673188383201
 30
0.0
 40
2.0
100
AcDbArc
 50
0.0
 51
90.00000000000019
  0
ARC
  5
AA0
330
1B
100
AcDbEntity
  8
0
  6
Continuous
100
AcDbCircle
 10
3422.845173734471
 20
1272.673188383201
 30
0.0
 40
2.0
100
AcDbArc
 50
90.00000000000019
 51
180.0000000000004
  0
CIRCLE
  5
AA1
330
1B
100
AcDbEntity
  8
0
  6
Continuous
100
AcDbCircle
 10
3440.845173734471
 20
1233.673188383201
 30
0.0
 40
30.3
  0
LINE
  5
AAE
330
1B
100
AcDbEntity
  8
0
  6
Continuous
100
AcDbLine
 10
3422.845173734471
 20
1274.673188383201
 30
0.0
 11
3458.84517373447
 21
1274.673188383201
 31
0.0
  0
LINE
  5
AB7
330
1B
100
AcDbEntity
  8
0
  6
Continuous
100
AcDbLine
 10
3460.84517373447
 20
1199.205812504001
 30
0.0
 11
3460.84517373447
 21
1194.673188383201
 31
0.0
  0
LINE
  5
AB8
330
1B
100
AcDbEntity
  8
0
  6
Continuous
100
AcDbLine
 10
3460.84517373447
 20
1272.673188383201
 30
0.0
 11
3460.84517373447
 21
1268.140564262401
 31
0.0
  0
LINE
  5
AD7
330
1B
100
AcDbEntity
  8
DEFAULT_1
  6
CENTER
100
AcDbLine
 10
3440.845173734471
 20
1284.673188383201
 30
0.0
 11
3440.845173734471
 21
1156.328820852527
 31
0.0
  0
LINE
  5
AE5
330
1B
100
AcDbEntity
  8
0
  6
Continuous
100
AcDbLine
 10
3420.84517373447
 20
1268.140564262401
 30
0.0
 11
3420.84517373447
 21
1272.673188383201
 31
0.0
  0
LINE
  5
AE6
330
1B
100
AcDbEntity
  8
0
  6
Continuous
100
AcDbLine
 10
3420.84517373447
 20
1194.673188383201
 30
0.0
 11
3420.84517373447
 21
1199.205812504001
 31
0.0
  0
LINE
  5
AE7
330
1B
100
AcDbEntity
  8
0
  6
Continuous
100
AcDbLine
 10
3458.84517373447
 20
1192.673188383201
 30
0.0
 11
3422.845173734471
 21
1192.673188383201
 31
0.0
  0
LINE
  5
DCB3
330
1B
100
AcDbEntity
  8
DEFAULT_1
  6
CENTER
100
AcDbLine
 10
3390.136285052714
 20
1233.673188383201
 30
0.0
 11
3489.396698917579
 21
1233.673188383201
 31
0.0
  0
ENDSEC
  0
SECTION
  2
OBJECTS
  0
DICTIONARY
  5
412
330
0
100
AcDbDictionary
281
     1
  3
ACAD_COLOR
350
41D
  3
ACAD_GROUP
350
413
  3
ACAD_LAYOUT
350
41E
  3
ACAD_MATERIAL
350
41C
  3
ACAD_MLINESTYLE
350
414
  3
ACAD_PLOTSETTINGS
350
41F
  3
ACAD_PLOTSTYLENAME
350
41A
  3
ACDBHEADERROUNDTRIPXREC
350
2ADF3
  3
AcDbVariableDictionary
350
2ADEB
  0
DICTIONARY
  5
41D
102
{ACAD_REACTORS
330
412
102
}
330
412
100
AcDbDictionary
281
     1
  0
DICTIONARY
  5
413
102
{ACAD_REACTORS
330
412
102
}
330
412
100
AcDbDictionary
281
     1
  0
DICTIONARY
  5
41E
102
{ACAD_REACTORS
330
412
102
}
330
412
100
AcDbDictionary
281
     1
  3
Layout1
350
421
  3
Model
350
420
  0
DICTIONARY
  5
41C
102
{ACAD_REACTORS
330
412
102
}
330
412
100
AcDbDictionary
281
     1
  0
DICTIONARY
  5
414
102
{ACAD_REACTORS
330
412
102
}
330
412
100
AcDbDictionary
281
     1
  3
STANDARD
350
415
  0
DICTIONARY
  5
41F
102
{ACAD_REACTORS
330
412
102
}
330
412
100
AcDbDictionary
281
     1
  0
ACDBDICTIONARYWDFLT
  5
41A
102
{ACAD_REACTORS
330
412
102
}
330
412
100
AcDbDictionary
281
     1
  3
Normal
350
41B
100
AcDbDictionaryWithDefault
340
41B
  0
DICTIONARY
  5
2ADF3
102
{ACAD_REACTORS
330
412
102
}
330
412
100
AcDbDictionary
281
     1
  3
COLORDICT
350
2ADF4
  3
MATERIALDICT
350
2ADF5
  0
DICTIONARY
  5
2ADEB
102
{ACAD_REACTORS
330
412
102
}
330
412
100
AcDbDictionary
281
     1
  0
LAYOUT
  5
421
102
{ACAD_REACTORS
330
41E
102
}
330
41E
100
AcDbPlotSettings
  1

  2
\\alderaan\HP LaserJet 4050 Ricerca
  4

  6

 40
0.0
 41
0.0
 42
0.0
 43
0.0
 44
0.0
 45
0.0
 46
0.0
 47
0.0
 48
0.0
 49
0.0
140
0.0
141
0.0
142
1.0
143
1.0
 70
   688
 72
     0
 73
     0
 74
     5
  7

 75
    16
147
1.0
148
0.0
149
0.0
100
AcDbLayout
  1
Layout1
 70
     0
 71
     1
 10
0.0
 20
0.0
 11
12.0
 21
9.0
 12
0.0
 22
0.0
 32
0.0
 14
1.000000000000000E+20
 24
1.000000000000000E+20
 34
1.000000000000000E+20
 15
-1.000000000000000E+20
 25
-1.000000000000000E+20
 35
-1.000000000000000E+20
146
0.0
 13
0.0
 23
0.0
 33
0.0
 16
1.0
 26
0.0
 36
0.0
 17
0.0
 27
1.0
 37
0.0
 76
     0
330
1C
  0
LAYOUT
  5
420
102
{ACAD_REACTORS
330
41E
102
}
330
41E
100
AcDbPlotSettings
  1

  2
\\alderaan\HP LaserJet 4050 Ricerca
  4
A4
  6

 40
5.027083396911621
 41
5.069430828094482
 42
5.365737915039062
 43
5.365753173828125
 44
209.8886566162109
 45
297.0530090332031
 46
49.784
 47
-1.016
 48
-230.9841981638419
 49
1816.890201395042
140
904.7601850852935
141
2209.683276104576
142
1.0
143
100.0
 70
 11956
 72
     0
 73
     1
 74
     4
  7

 75
    26
147
0.01
148
5866.998633361586
149
-46149.01111543406
100
AcDbLayout
  1
Model
 70
     1
 71
     0
 10
0.0
 20
0.0
 11
12.0
 21
9.0
 12
0.0
 22
0.0
 32
0.0
 14
0.0
 24
0.0
 34
0.0
 15
0.0
 25
0.0
 35
0.0
146
0.0
 13
0.0
 23
0.0
 33
0.0
 16
1.0
 26
0.0
 36
0.0
 17
0.0
 27
1.0
 37
0.0
 76
     0
330
1B
  0
MLINESTYLE
  5
415
102
{ACAD_REACTORS
330
414
102
}
330
414
100
AcDbMlineStyle
  2
STANDARD
 70
     0
  3

 62
   256
 51
90.00000000000019
 52
90.00000000000019
 71
     2
 49
0.5
 62
   256
  6
BYLAYER
 49
-0.5
 62
   256
  6
BYLAYER
  0
ACDBPLACEHOLDER
  5
41B
102
{ACAD_REACTORS
330
41A
102
}
330
41A
  0
XRECORD
  5
2ADF4
102
{ACAD_REACTORS
330
2ADF3
102
}
330
2ADF3
100
AcDbXrecord
280
     1
340
41D
  0
XRECORD
  5
2ADF5
102
{ACAD_REACTORS
330
2ADF3
102
}
330
2ADF3
100
AcDbXrecord
280
     1
340
41C
  0
ENDSEC
  0
EOF
