  0
SECTION
  2
HEADER
  9
$ACADVER
  1
AC1015
  9
$ACADMAINTVER
 70
     6
  9
$DWGCODEPAGE
  3
ANSI_1252
  9
$INSBASE
 10
0.0
 20
0.0
 30
0.0
  9
$EXTMIN
 10
1669.884223431374
 20
973.4747315265694
 30
0.0
  9
$EXTMAX
 10
2747.116518310379
 20
1493.871645239833
 30
0.0
  9
$LIMMIN
 10
0.0
 20
0.0
  9
$LIMMAX
 10
594.0
 20
420.0
  9
$ORTHOMODE
 70
     0
  9
$REGENMODE
 70
     1
  9
$FILLMODE
 70
     1
  9
$QTEXTMODE
 70
     0
  9
$MIRRTEXT
 70
     1
  9
$LTSCALE
 40
32.67
  9
$ATTMODE
 70
     1
  9
$TEXTSIZE
 40
0.2
  9
$TRACEWID
 40
0.05
  9
$TEXTSTYLE
  7
STANDARD
  9
$CLAYER
  8
0
  9
$CELTYPE
  6
BYLAYER
  9
$CECOLOR
 62
   256
  9
$CELTSCALE
 40
1.0
  9
$DISPSILH
 70
     0
  9
$DIMSCALE
 40
2.0
  9
$DIMASZ
 40
3.0
  9
$DIMEXO
 40
3.712499999999999
  9
$DIMDLI
 40
22.572
  9
$DIMRND
 40
0.0
  9
$DIMDLE
 40
0.0
  9
$DIMEXE
 40
10.692
  9
$DIMTP
 40
0.003
  9
$DIMTM
 40
0.003
  9
$DIMTXT
 40
1.5
  9
$DIMCEN
 40
5.346
  9
$DIMTSZ
 40
0.0
  9
$DIMTOL
 70
     1
  9
$DIMLIM
 70
     0
  9
$DIMTIH
 70
     1
  9
$DIMTOH
 70
     1
  9
$DIMSE1
 70
     0
  9
$DIMSE2
 70
     0
  9
$DIMTAD
 70
     0
  9
$DIMZIN
 70
     0
  9
$DIMBLK
  1

  9
$DIMASO
 70
     1
  9
$DIMSHO
 70
     1
  9
$DIMPOST
  1

  9
$DIMAPOST
  1

  9
$DIMALT
 70
     0
  9
$DIMALTD
 70
     2
  9
$DIMALTF
 40
25.4
  9
$DIMLFAC
 40
0.5
  9
$DIMTOFL
 70
     0
  9
$DIMTVP
 40
0.0
  9
$DIMTIX
 70
     0
  9
$DIMSOXD
 70
     0
  9
$DIMSAH
 70
     0
  9
$DIMBLK1
  1

  9
$DIMBLK2
  1

  9
$DIMSTYLE
  2
STANDARD
  9
$DIMCLRD
 70
     0
  9
$DIMCLRE
 70
     0
  9
$DIMCLRT
 70
     0
  9
$DIMTFAC
 40
1.0
  9
$DIMGAP
 40
0.09
  9
$DIMJUST
 70
     0
  9
$DIMSD1
 70
     0
  9
$DIMSD2
 70
     0
  9
$DIMTOLJ
 70
     1
  9
$DIMTZIN
 70
     0
  9
$DIMALTZ
 70
     0
  9
$DIMALTTZ
 70
     0
  9
$DIMUPT
 70
     0
  9
$DIMDEC
 70
     4
  9
$DIMTDEC
 70
     4
  9
$DIMALTU
 70
     2
  9
$DIMALTTD
 70
     2
  9
$DIMTXSTY
  7
STANDARD
  9
$DIMAUNIT
 70
     0
  9
$DIMADEC
 70
     0
  9
$DIMALTRND
 40
0.0
  9
$DIMAZIN
 70
     0
  9
$DIMDSEP
 70
    46
  9
$DIMATFIT
 70
     3
  9
$DIMFRAC
 70
     0
  9
$DIMLDRBLK
  1

  9
$DIMLUNIT
 70
     2
  9
$DIMLWD
 70
    -2
  9
$DIMLWE
 70
    -2
  9
$DIMTMOVE
 70
     0
  9
$LUNITS
 70
     2
  9
$LUPREC
 70
     4
  9
$SKETCHINC
 40
0.1
  9
$FILLETRAD
 40
0.0
  9
$AUNITS
 70
     0
  9
$AUPREC
 70
     0
  9
$MENU
  1
acad
  9
$ELEVATION
 40
0.0
  9
$PELEVATION
 40
0.0
  9
$THICKNESS
 40
0.0
  9
$LIMCHECK
 70
     0
  9
$CHAMFERA
 40
0.0
  9
$CHAMFERB
 40
0.0
  9
$CHAMFERC
 40
0.0
  9
$CHAMFERD
 40
0.0
  9
$SKPOLY
 70
     0
  9
$TDCREATE
 40
2444972.041666667
  9
$TDUCREATE
 40
2444972.0
  9
$TDUPDATE
 40
2453410.622151238
  9
$TDUUPDATE
 40
2453410.580484572
  9
$TDINDWG
 40
0.6883045833
  9
$TDUSRTIMER
 40
0.6883045833
  9
$USRTIMER
 70
     1
  9
$ANGBASE
 50
0.0
  9
$ANGDIR
 70
     0
  9
$PDMODE
 70
     0
  9
$PDSIZE
 40
0.0
  9
$PLINEWID
 40
0.0
  9
$SPLFRAME
 70
     0
  9
$SPLINETYPE
 70
     6
  9
$SPLINESEGS
 70
     8
  9
$HANDSEED
  5
2ADF8
  9
$SURFTAB1
 70
     6
  9
$SURFTAB2
 70
     6
  9
$SURFTYPE
 70
     6
  9
$SURFU
 70
     6
  9
$SURFV
 70
     6
  9
$UCSBASE
  2

  9
$UCSNAME
  2

  9
$UCSORG
 10
0.0
 20
0.0
 30
0.0
  9
$UCSXDIR
 10
1.0
 20
0.0
 30
0.0
  9
$UCSYDIR
 10
0.0
 20
1.0
 30
0.0
  9
$UCSORTHOREF
  2

  9
$UCSORTHOVIEW
 70
     0
  9
$UCSORGTOP
 10
0.0
 20
0.0
 30
0.0
  9
$UCSORGBOTTOM
 10
0.0
 20
0.0
 30
0.0
  9
$UCSORGLEFT
 10
0.0
 20
0.0
 30
0.0
  9
$UCSORGRIGHT
 10
0.0
 20
0.0
 30
0.0
  9
$UCSORGFRONT
 10
0.0
 20
0.0
 30
0.0
  9
$UCSORGBACK
 10
0.0
 20
0.0
 30
0.0
  9
$PUCSBASE
  2

  9
$PUCSNAME
  2

  9
$PUCSORG
 10
0.0
 20
0.0
 30
0.0
  9
$PUCSXDIR
 10
1.0
 20
0.0
 30
0.0
  9
$PUCSYDIR
 10
0.0
 20
1.0
 30
0.0
  9
$PUCSORTHOREF
  2

  9
$PUCSORTHOVIEW
 70
     0
  9
$PUCSORGTOP
 10
0.0
 20
0.0
 30
0.0
  9
$PUCSORGBOTTOM
 10
0.0
 20
0.0
 30
0.0
  9
$PUCSORGLEFT
 10
0.0
 20
0.0
 30
0.0
  9
$PUCSORGRIGHT
 10
0.0
 20
0.0
 30
0.0
  9
$PUCSORGFRONT
 10
0.0
 20
0.0
 30
0.0
  9
$PUCSORGBACK
 10
0.0
 20
0.0
 30
0.0
  9
$USERI1
 70
     0
  9
$USERI2
 70
     0
  9
$USERI3
 70
     0
  9
$USERI4
 70
     0
  9
$USERI5
 70
     0
  9
$USERR1
 40
0.0
  9
$USERR2
 40
0.0
  9
$USERR3
 40
0.0
  9
$USERR4
 40
0.0
  9
$USERR5
 40
0.0
  9
$WORLDVIEW
 70
     1
  9
$SHADEDGE
 70
     3
  9
$SHADEDIF
 70
    70
  9
$TILEMODE
 70
     1
  9
$MAXACTVP
 70
    16
  9
$PINSBASE
 10
0.0
 20
0.0
 30
0.0
  9
$PLIMCHECK
 70
     0
  9
$PEXTMIN
 10
1.000000000000000E+20
 20
1.000000000000000E+20
 30
1.000000000000000E+20
  9
$PEXTMAX
 10
-1.000000000000000E+20
 20
-1.000000000000000E+20
 30
-1.000000000000000E+20
  9
$PLIMMIN
 10
0.0
 20
0.0
  9
$PLIMMAX
 10
12.0
 20
9.0
  9
$UNITMODE
 70
     0
  9
$VISRETAIN
 70
     0
  9
$PLINEGEN
 70
     1
  9
$PSLTSCALE
 70
     0
  9
$TREEDEPTH
 70
  3020
  9
$CMLSTYLE
  2
STANDARD
  9
$CMLJUST
 70
     0
  9
$CMLSCALE
 40
1.0
  9
$PROXYGRAPHICS
 70
     1
  9
$MEASUREMENT
 70
     0
  9
$CELWEIGHT
370
    -1
  9
$ENDCAPS
280
     0
  9
$JOINSTYLE
280
     0
  9
$LWDISPLAY
290
     0
  9
$INSUNITS
 70
     0
  9
$HYPERLINKBASE
  1

  9
$STYLESHEET
  1

  9
$XEDIT
290
     1
  9
$CEPSNTYPE
380
     0
  9
$PSTYLEMODE
290
     1
  9
$FINGERPRINTGUID
  2
{CA13A069-F2C0-40A5-844C-DBDF6CEA9423}
  9
$VERSIONGUID
  2
{6D720572-78A3-414C-A494-B555646C1243}
  9
$EXTNAMES
290
     1
  9
$PSVPSCALE
 40
0.0
  9
$OLESTARTUP
290
     0
  0
ENDSEC
  0
SECTION
  2
CLASSES
  0
CLASS
  1
IMAGE
  2
AcDbRasterImage
  3
ISM
 90
      127
280
     0
281
     1
  0
CLASS
  1
DICTIONARYVAR
  2
AcDbDictionaryVar
  3
ObjectDBX Classes
 90
        0
280
     0
281
     0
  0
CLASS
  1
RASTERVARIABLES
  2
AcDbRasterVariables
  3
ISM
 90
        0
280
     0
281
     0
  0
CLASS
  1
IMAGEDEF
  2
AcDbRasterImageDef
  3
ISM
 90
        0
280
     0
281
     0
  0
CLASS
  1
IMAGEDEF_REACTOR
  2
AcDbRasterImageDefReactor
  3
ISM
 90
        1
280
     0
281
     0
  0
CLASS
  1
IDBUFFER
  2
AcDbIdBuffer
  3
ObjectDBX Classes
 90
        0
280
     0
281
     0
  0
CLASS
  1
SPATIAL_FILTER
  2
AcDbSpatialFilter
  3
ObjectDBX Classes
 90
        0
280
     0
281
     0
  0
CLASS
  1
SORTENTSTABLE
  2
AcDbSortentsTable
  3
ObjectDBX Classes
 90
        0
280
     0
281
     0
  0
CLASS
  1
LAYER_INDEX
  2
AcDbLayerIndex
  3
ObjectDBX Classes
 90
        0
280
     0
281
     0
  0
CLASS
  1
SPATIAL_INDEX
  2
AcDbSpatialIndex
  3
AutoCAD 2000
 90
        0
280
     0
281
     0
  0
CLASS
  1
OBJECT_PTR
  2
CAseDLPNTableRecord
  3
ASE-LPNTableRecord
 90
        1
280
     0
281
     0
  0
CLASS
  1
PLOTSETTINGS
  2
AcDbPlotSettings
  3
ObjectDBX Classes
 90
        0
280
     0
281
     0
  0
CLASS
  1
ACDBDICTIONARYWDFLT
  2
AcDbDictionaryWithDefault
  3
ObjectDBX Classes
 90
        0
280
     0
281
     0
  0
CLASS
  1
WIPEOUT
  2
AcDbWipeout
  3
WipeOut|AutoCAD Express Tool|expresstools@autodesk.com
 90
      127
280
     0
281
     1
  0
CLASS
  1
WIPEOUTVARIABLES
  2
AcDbWipeoutVariables
  3
WipeOut|AutoCAD Express Tool|expresstools@autodesk.com
 90
        0
280
     0
281
     0
  0
CLASS
  1
RTEXT
  2
RText
  3
RText|AutoCAD Express Tool|expresstools@autodesk.com
 90
        0
280
     0
281
     1
  0
CLASS
  1
ARCALIGNEDTEXT
  2
AcDbArcAlignedText
  3
ATEXT|AutoCAD Express Tool|expresstools@autodesk.com
 90
        0
280
     0
281
     1
  0
CLASS
  1
ACDBPLACEHOLDER
  2
AcDbPlaceHolder
  3
ObjectDBX Classes
 90
        0
280
     0
281
     0
  0
CLASS
  1
LAYOUT
  2
AcDbLayout
  3
ObjectDBX Classes
 90
        0
280
     0
281
     0
  0
ENDSEC
  0
SECTION
  2
TABLES
  0
TABLE
  2
VPORT
  5
8
330
0
100
AcDbSymbolTable
 70
     1
  0
VPORT
  5
2ADEC
330
8
100
AcDbSymbolTableRecord
100
AcDbViewportTableRecord
  2
*Active
 70
     0
 10
0.0
 20
0.0
 11
1.0
 21
1.0
 12
2125.270106329068
 22
1225.41933635901
 13
0.0
 23
0.0
 14
1.0
 24
1.0
 15
0.0
 25
0.0
 16
0.0
 26
0.0
 36
1.0
 17
0.0
 27
0.0
 37
0.0
 40
404.5157525222175
 41
1.888667992047713
 42
50.0
 43
0.0
 44
0.0
 50
0.0
 51
0.0
 71
     0
 72
   100
 73
     1
 74
     1
 75
     0
 76
     0
 77
     0
 78
     0
281
     0
 65
     1
110
0.0
120
0.0
130
0.0
111
1.0
121
0.0
131
0.0
112
0.0
122
1.0
132
0.0
 79
     0
146
0.0
  0
ENDTAB
  0
TABLE
  2
LTYPE
  5
5
330
0
100
AcDbSymbolTable
 70
     2
  0
LTYPE
  5
14
330
5
100
AcDbSymbolTableRecord
100
AcDbLinetypeTableRecord
  2
BYBLOCK
 70
     0
  3

 72
    65
 73
     0
 40
0.0
  0
LTYPE
  5
15
330
5
100
AcDbSymbolTableRecord
100
AcDbLinetypeTableRecord
  2
BYLAYER
 70
     0
  3

 72
    65
 73
     0
 40
0.0
  0
LTYPE
  5
16
330
5
100
AcDbSymbolTableRecord
100
AcDbLinetypeTableRecord
  2
CONTINUOUS
 70
     0
  3
Solid line
 72
    65
 73
     0
 40
0.0
  0
LTYPE
  5
1F5
330
5
100
AcDbSymbolTableRecord
100
AcDbLinetypeTableRecord
  2
CENTER
 70
     0
  3
____ _ ____ _ ____ _ ____ _ ____ _ ____ _ ____
 72
    65
 73
     4
 40
0.6
 49
0.375
 74
     0
 49
-0.075
 74
     0
 49
0.075
 74
     0
 49
-0.075
 74
     0
  0
ENDTAB
  0
TABLE
  2
LAYER
  5
2
330
0
100
AcDbSymbolTable
 70
     3
  0
LAYER
  5
10
330
2
100
AcDbSymbolTableRecord
100
AcDbLayerTableRecord
  2
0
 70
     0
 62
     7
  6
CONTINUOUS
370
    -3
390
41B
  0
LAYER
  5
1FA
330
2
100
AcDbSymbolTableRecord
100
AcDbLayerTableRecord
  2
DEFAULT_1
 70
     0
 62
     7
  6
CENTER
370
    -3
390
41B
  0
LAYER
  5
424
330
2
100
AcDbSymbolTableRecord
100
AcDbLayerTableRecord
  2
Defpoints
 70
     0
 62
     7
  6
CONTINUOUS
290
     0
370
    -3
390
41B
  0
ENDTAB
  0
TABLE
  2
STYLE
  5
3
330
0
100
AcDbSymbolTable
 70
     1
  0
STYLE
  5
11
330
3
100
AcDbSymbolTableRecord
100
AcDbTextStyleTableRecord
  2
STANDARD
 70
     0
 40
10.0
 41
1.0
 50
0.0
 71
     0
 42
0.2
  3
VERDANA.TTF
  4

1001
ACAD
1000
Verdana
1071
       34
  0
ENDTAB
  0
TABLE
  2
VIEW
  5
6
330
0
100
AcDbSymbolTable
 70
     0
  0
ENDTAB
  0
TABLE
  2
UCS
  5
7
330
0
100
AcDbSymbolTable
 70
     0
  0
ENDTAB
  0
TABLE
  2
APPID
  5
9
330
0
100
AcDbSymbolTable
 70
     1
  0
APPID
  5
20E
330
9
100
AcDbSymbolTableRecord
100
AcDbRegAppTableRecord
  2
ACAD
 70
     0
  0
ENDTAB
  0
TABLE
  2
DIMSTYLE
  5
A
330
0
100
AcDbSymbolTable
 70
     1
100
AcDbDimStyleTable
  0
DIMSTYLE
105
20F
330
A
100
AcDbSymbolTableRecord
100
AcDbDimStyleTableRecord
  2
STANDARD
 70
     0
 41
3.0
 47
0.003
 48
0.003
 71
     1
 73
     0
 74
     0
 77
     1
 78
     8
140
1.5
271
     3
272
     3
284
     8
340
11
  0
ENDTAB
  0
TABLE
  2
BLOCK_RECORD
  5
1
330
0
100
AcDbSymbolTable
 70
     0
  0
BLOCK_RECORD
  5
1B
330
1
100
AcDbSymbolTableRecord
100
AcDbBlockTableRecord
  2
*MODEL_SPACE
340
420
  0
BLOCK_RECORD
  5
1C
330
1
100
AcDbSymbolTableRecord
100
AcDbBlockTableRecord
  2
*PAPER_SPACE
340
421
  0
ENDTAB
  0
ENDSEC
  0
SECTION
  2
BLOCKS
  0
BLOCK
  5
1E
330
1B
100
AcDbEntity
  8
0
100
AcDbBlockBegin
  2
*MODEL_SPACE
 70
     0
 71
     0
 10
0.0
 20
0.0
 30
0.0
  3
*MODEL_SPACE
  1

  0
ENDBLK
  5
1F
330
1B
100
AcDbEntity
  8
0
100
AcDbBlockEnd
  0
BLOCK
  5
20
330
1C
100
AcDbEntity
 67
     1
  8
0
100
AcDbBlockBegin
  2
*PAPER_SPACE
 70
     0
 71
     0
 10
0.0
 20
0.0
 30
0.0
  3
*PAPER_SPACE
  1

  0
ENDBLK
  5
21
330
1C
100
AcDbEntity
 67
     1
  8
0
100
AcDbBlockEnd
  0
ENDSEC
  0
SECTION
  2
ENTITIES
  0
LINE
  5
259
330
1B
100
AcDbEntity
  8
0
  6
Continuous
100
AcDbLine
 10
1823.612878855466
 20
1271.173188383201
 30
0.0
 11
1823.612878855466
 21
1196.173188383201
 31
0.0
  0
LINE
  5
25B
330
1B
100
AcDbEntity
  8
0
  6
Continuous
100
AcDbLine
 10
1823.612878855466
 20
1271.173188383201
 30
0.0
 11
1825.633604797667
 21
1274.673188383201
 31
0.0
  0
LINE
  5
25C
330
1B
100
AcDbEntity
  8
0
  6
Continuous
100
AcDbLine
 10
1844.612878855467
 20
1168.838873808201
 30
0.0
 11
1844.612878855467
 21
1178.273188383201
 31
0.0
  0
LINE
  5
25D
330
1B
100
AcDbEntity
  8
0
  6
Continuous
100
AcDbLine
 10
1846.312878855466
 20
1166.973188383201
 30
0.0
 11
1846.312878855466
 21
1179.973188383201
 31
0.0
  0
LINE
  5
25E
330
1B
100
AcDbEntity
  8
0
  6
Continuous
100
AcDbLine
 10
1848.612878855466
 20
1182.273188383201
 30
0.0
 11
1848.612878855466
 21
1190.273188383201
 31
0.0
  0
LINE
  5
260
330
1B
100
AcDbEntity
  8
0
  6
Continuous
100
AcDbLine
 10
1850.112878855467
 20
1191.073188383201
 30
0.0
 11
1850.112878855467
 21
1192.273188383201
 31
0.0
  0
LINE
  5
261
330
1B
100
AcDbEntity
  8
DEFAULT_1
  6
CENTER
100
AcDbLine
 10
1868.612878855466
 20
1156.673188383201
 30
0.0
 11
1868.612878855466
 21
1284.673188383201
 31
0.0
  0
LINE
  5
262
330
1B
100
AcDbEntity
  8
0
  6
Continuous
100
AcDbLine
 10
1846.495721590066
 20
1166.790345648701
 30
0.0
 11
1844.730036143066
 21
1168.556031095701
 31
0.0
  0
LINE
  5
263
330
1B
100
AcDbEntity
  8
0
  6
Continuous
100
AcDbLine
 10
1887.112878855466
 20
1191.073188383201
 30
0.0
 11
1887.112878855466
 21
1192.273188383201
 31
0.0
  0
LINE
  5
264
330
1B
100
AcDbEntity
  8
0
  6
Continuous
100
AcDbLine
 10
1888.612878855466
 20
1182.273188383201
 30
0.0
 11
1888.612878855466
 21
1190.273188383201
 31
0.0
  0
LINE
  5
265
330
1B
100
AcDbEntity
  8
0
  6
Continuous
100
AcDbLine
 10
1890.912878855466
 20
1166.973188383201
 30
0.0
 11
1890.912878855466
 21
1179.973188383201
 31
0.0
  0
LINE
  5
266
330
1B
100
AcDbEntity
  8
0
  6
Continuous
100
AcDbLine
 10
1892.612878855467
 20
1168.838873808201
 30
0.0
 11
1892.612878855467
 21
1178.273188383201
 31
0.0
  0
LINE
  5
267
330
1B
100
AcDbEntity
  8
0
  6
Continuous
100
AcDbLine
 10
1892.612878855467
 20
1178.273188383201
 30
0.0
 11
1890.612878855466
 21
1180.273188383201
 31
0.0
  0
LINE
  5
26D
330
1B
100
AcDbEntity
  8
DEFAULT_1
  6
CENTER
100
AcDbLine
 10
1938.612878855466
 20
1156.673188383201
 30
0.0
 11
1938.612878855466
 21
1284.673188383201
 31
0.0
  0
LINE
  5
26E
330
1B
100
AcDbEntity
  8
0
  6
Continuous
100
AcDbLine
 10
1844.612878855467
 20
1178.273188383201
 30
0.0
 11
1846.612878855466
 21
1180.273188383201
 31
0.0
  0
LINE
  5
276
330
1B
100
AcDbEntity
  8
0
  6
Continuous
100
AcDbLine
 10
1890.730036120966
 20
1166.790345648701
 30
0.0
 11
1892.495721567966
 21
1168.556031095701
 31
0.0
  0
LINE
  5
27E
330
1B
100
AcDbEntity
  8
0
  6
Continuous
100
AcDbLine
 10
1890.447193388166
 20
1166.673188383201
 30
0.0
 11
1846.778564322866
 21
1166.673188383201
 31
0.0
  0
LINE
  5
294
330
1B
100
AcDbEntity
  8
0
  6
Continuous
100
AcDbLine
 10
1892.612878855467
 20
1168.838873808201
 30
0.0
 11
1844.612878855467
 21
1168.838873808201
 31
0.0
  0
LINE
  5
299
330
1B
100
AcDbEntity
  8
DEFAULT_1
  6
CENTER
100
AcDbLine
 10
2008.612878855467
 20
1156.673188383201
 30
0.0
 11
2008.612878855467
 21
1284.673188383201
 31
0.0
  0
LINE
  5
29A
330
1B
100
AcDbEntity
  8
0
  6
Continuous
100
AcDbLine
 10
1844.612878855467
 20
1178.273188383201
 30
0.0
 11
1892.612878855467
 21
1178.273188383201
 31
0.0
  0
LINE
  5
2A0
330
1B
100
AcDbEntity
  8
0
  6
Continuous
100
AcDbLine
 10
1846.312878855466
 20
1179.973188573901
 30
0.0
 11
1890.912878855466
 21
1179.973188573901
 31
0.0
  0
LINE
  5
2AC
330
1B
100
AcDbEntity
  8
0
  6
Continuous
100
AcDbLine
 10
1848.612878855466
 20
1182.273188383201
 30
0.0
 11
1888.612878855466
 21
1182.273188383201
 31
0.0
  0
LINE
  5
2B9
330
1B
100
AcDbEntity
  8
0
  6
Continuous
100
AcDbLine
 10
1888.212878853266
 20
1190.673188383201
 30
0.0
 11
1849.012878857666
 21
1190.673188383201
 31
0.0
  0
LINE
  5
2CF
330
1B
100
AcDbEntity
  8
0
  6
Continuous
100
AcDbLine
 10
1825.633604797667
 20
1192.673188383201
 30
0.0
 11
2261.592152913367
 21
1192.673188383201
 31
0.0
  0
LINE
  5
2DC
330
1B
100
AcDbEntity
  8
0
  6
Continuous
100
AcDbLine
 10
1826.978377128443
 20
1194.673188383201
 30
0.0
 11
2260.247380582489
 21
1194.673188383201
 31
0.0
  0
LINE
  5
2DD
330
1B
100
AcDbEntity
  8
0
  6
Continuous
100
AcDbLine
 10
2262.544943848967
 20
1199.205812504001
 30
0.0
 11
1824.680813861966
 21
1199.205812504001
 31
0.0
  0
LINE
  5
2DE
330
1B
100
AcDbEntity
  8
0
  6
Continuous
100
AcDbLine
 10
2263.612878855466
 20
1202.488419730601
 30
0.0
 11
1823.612878855466
 21
1202.488419730601
 31
0.0
  0
LINE
  5
2E6
330
1B
100
AcDbEntity
  8
DEFAULT_1
  6
CENTER
100
AcDbLine
 10
1813.612878855466
 20
1233.673188383201
 30
0.0
 11
2280.410375264812
 21
1233.673188383201
 31
0.0
  0
LINE
  5
2EA
330
1B
100
AcDbEntity
  8
DEFAULT_1
  6
CENTER
100
AcDbLine
 10
2078.612878855466
 20
1156.673188383201
 30
0.0
 11
2078.612878855467
 21
1284.673188383201
 31
0.0
  0
LINE
  5
2EC
330
1B
100
AcDbEntity
  8
0
  6
Continuous
100
AcDbLine
 10
2263.612878855466
 20
1264.857957035801
 30
0.0
 11
1823.612878855466
 21
1264.857957035801
 31
0.0
  0
LINE
  5
2F1
330
1B
100
AcDbEntity
  8
0
  6
Continuous
100
AcDbLine
 10
2262.544943848967
 20
1268.140564262401
 30
0.0
 11
1824.680813861966
 21
1268.140564262401
 31
0.0
  0
LINE
  5
2F2
330
1B
100
AcDbEntity
  8
0
  6
Continuous
100
AcDbLine
 10
1826.978377128466
 20
1272.673188383201
 30
0.0
 11
2260.247380582489
 21
1272.673188383201
 31
0.0
  0
LINE
  5
2F3
330
1B
100
AcDbEntity
  8
0
  6
Continuous
100
AcDbLine
 10
1825.633604797667
 20
1274.673188383201
 30
0.0
 11
2261.592152913367
 21
1274.673188383201
 31
0.0
  0
LINE
  5
2FC
330
1B
100
AcDbEntity
  8
DEFAULT_1
  6
CENTER
100
AcDbLine
 10
2148.612878855467
 20
1156.673188383201
 30
0.0
 11
2148.612878855467
 21
1284.673188383201
 31
0.0
  0
LINE
  5
308
330
1B
100
AcDbEntity
  8
DEFAULT_1
  6
CENTER
100
AcDbLine
 10
2218.612878855466
 20
1156.673188383201
 30
0.0
 11
2218.612878855466
 21
1284.673188383201
 31
0.0
  0
LINE
  5
32A
330
1B
100
AcDbEntity
  8
0
  6
Continuous
100
AcDbLine
 10
2381.612878855516
 20
1192.673188383201
 30
0.0
 11
2345.612878855516
 21
1192.673188383201
 31
0.0
  0
LINE
  5
32E
330
1B
100
AcDbEntity
  8
0
  6
Continuous
100
AcDbLine
 10
2343.612878855516
 20
1194.673188383201
 30
0.0
 11
2343.612878855516
 21
1199.205812504001
 31
0.0
  0
LINE
  5
32F
330
1B
100
AcDbEntity
  8
0
  6
Continuous
100
AcDbLine
 10
2343.612878855516
 20
1268.140564262401
 30
0.0
 11
2343.612878855516
 21
1272.673188383201
 31
0.0
  0
LINE
  5
333
330
1B
100
AcDbEntity
  8
0
  6
Continuous
100
AcDbLine
 10
2349.612878855516
 20
1206.818978176301
 30
0.0
 11
2349.612878855516
 21
1215.873188383201
 31
0.0
  0
LINE
  5
335
330
1B
100
AcDbEntity
  8
0
  6
Continuous
100
AcDbLine
 10
2350.112878855516
 20
1230.658974820801
 30
0.0
 11
2350.112878855516
 21
1228.073188383201
 31
0.0
  0
LINE
  5
336
330
1B
100
AcDbEntity
  8
0
  6
Continuous
100
AcDbLine
 10
2352.727092417817
 20
1233.687401945601
 30
0.0
 11
2350.405772074316
 21
1231.366081602001
 31
0.0
  0
LINE
  5
339
330
1B
100
AcDbEntity
  8
0
  6
Continuous
100
AcDbLine
 10
2352.612878855516
 20
1227.023446122901
 30
0.0
 11
2352.612878855516
 21
1228.073188383201
 31
0.0
  0
LINE
  5
33A
330
1B
100
AcDbEntity
  8
0
  6
Continuous
100
AcDbLine
 10
2353.312878855517
 20
1258.041970232201
 30
0.0
 11
2353.312878855517
 21
1235.101615507901
 31
0.0
  0
LINE
  5
33B
330
1B
100
AcDbEntity
  8
0
  6
Continuous
100
AcDbLine
 10
2354.748221959316
 20
1255.473188383201
 30
0.0
 11
2354.748221959316
 21
1258.041970232201
 31
0.0
  0
LINE
  5
33E
330
1B
100
AcDbEntity
  8
0
  6
Continuous
100
AcDbLine
 10
2354.833439336017
 20
1221.612738767701
 30
0.0
 11
2354.130976853516
 21
1224.234364443001
 31
0.0
  0
LINE
  5
33F
330
1B
100
AcDbEntity
  8
0
  6
Continuous
100
AcDbLine
 10
2355.612878855516
 20
1228.073188383201
 30
0.0
 11
2355.612878855516
 21
1216.273188383201
 31
0.0
  0
LINE
  5
340
330
1B
100
AcDbEntity
  8
0
  6
Continuous
100
AcDbLine
 10
2377.612878855516
 20
1215.273188383201
 30
0.0
 11
2349.612878855516
 21
1215.273188383201
 31
0.0
  0
LINE
  5
343
330
1B
100
AcDbEntity
  8
0
  6
Continuous
100
AcDbLine
 10
2377.212878851616
 20
1216.273188383201
 30
0.0
 11
2350.012878859316
 21
1216.273188383201
 31
0.0
  0
LINE
  5
345
330
1B
100
AcDbEntity
  8
0
  6
Continuous
100
AcDbLine
 10
2353.978904259316
 20
1224.550241041301
 30
0.0
 11
2354.130976853516
 21
1224.234364443001
 31
0.0
  0
LINE
  5
346
330
1B
100
AcDbEntity
  8
0
  6
Continuous
100
AcDbLine
 10
2353.978904259316
 20
1224.550241041301
 30
0.0
 11
2352.666468687516
 21
1226.823446133201
 31
0.0
  0
LINE
  5
348
330
1B
100
AcDbEntity
  8
DEFAULT_1
  6
CENTER
100
AcDbLine
 10
2363.612878855516
 20
1284.673188383201
 30
0.0
 11
2363.612878855516
 21
1156.673188383201
 31
0.0
  0
LINE
  5
34C
330
1B
100
AcDbEntity
  8
0
  6
Continuous
100
AcDbLine
 10
2373.246853451716
 20
1224.550241041301
 30
0.0
 11
2373.094780857516
 21
1224.234364443001
 31
0.0
  0
LINE
  5
34D
330
1B
100
AcDbEntity
  8
0
  6
Continuous
100
AcDbLine
 10
2372.005564022717
 20
1221.316266445001
 30
0.0
 11
2371.612878855516
 21
1221.316266445001
 31
0.0
  0
LINE
  5
34E
330
1B
100
AcDbEntity
  8
0
  6
Continuous
100
AcDbLine
 10
2355.612878855516
 20
1221.316266445001
 30
0.0
 11
2355.220193688216
 21
1221.316266445001
 31
0.0
  0
LINE
  5
351
330
1B
100
AcDbEntity
  8
0
  6
Continuous
100
AcDbLine
 10
2354.130976853516
 20
1224.234364443001
 30
0.0
 11
2355.612878855516
 21
1224.234364443001
 31
0.0
  0
LINE
  5
352
330
1B
100
AcDbEntity
  8
0
  6
Continuous
100
AcDbLine
 10
2371.612878855516
 20
1224.234364443001
 30
0.0
 11
2373.094780857516
 21
1224.234364443001
 31
0.0
  0
LINE
  5
355
330
1B
100
AcDbEntity
  8
0
  6
Continuous
100
AcDbLine
 10
2353.978904259316
 20
1224.550241041301
 30
0.0
 11
2355.612878855516
 21
1224.550241041301
 31
0.0
  0
LINE
  5
356
330
1B
100
AcDbEntity
  8
0
  6
Continuous
100
AcDbLine
 10
2371.612878855516
 20
1224.550241041301
 30
0.0
 11
2373.246853451716
 21
1224.550241041301
 31
0.0
  0
LINE
  5
357
330
1B
100
AcDbEntity
  8
0
  6
Continuous
100
AcDbLine
 10
2371.612878855516
 20
1216.273188383201
 30
0.0
 11
2371.612878855516
 21
1228.073188383201
 31
0.0
  0
LINE
  5
358
330
1B
100
AcDbEntity
  8
0
  6
Continuous
100
AcDbLine
 10
2372.477535751617
 20
1258.041970232201
 30
0.0
 11
2372.477535751617
 21
1255.473188383201
 31
0.0
  0
LINE
  5
359
330
1B
100
AcDbEntity
  8
0
  6
Continuous
100
AcDbLine
 10
2372.392318374916
 20
1221.612738767701
 30
0.0
 11
2373.094780857516
 21
1224.234364443001
 31
0.0
  0
LINE
  5
35A
330
1B
100
AcDbEntity
  8
0
  6
Continuous
100
AcDbLine
 10
2373.246853451716
 20
1224.550241041301
 30
0.0
 11
2374.559289023516
 21
1226.823446133201
 31
0.0
  0
LINE
  5
35D
330
1B
100
AcDbEntity
  8
0
  6
Continuous
100
AcDbLine
 10
2374.612878855416
 20
1227.023446125201
 30
0.0
 11
2371.612878855516
 21
1227.023446045801
 31
0.0
  0
LINE
  5
35E
330
1B
100
AcDbEntity
  8
0
  6
Continuous
100
AcDbLine
 10
2355.612878855516
 20
1227.023446035501
 30
0.0
 11
2352.612878855616
 21
1227.023446125201
 31
0.0
  0
LINE
  5
35F
330
1B
100
AcDbEntity
  8
0
  6
Continuous
100
AcDbLine
 10
2377.112878855516
 20
1228.073188383201
 30
0.0
 11
2371.612878855516
 21
1228.073188383201
 31
0.0
  0
LINE
  5
360
330
1B
100
AcDbEntity
  8
0
  6
Continuous
100
AcDbLine
 10
2355.612878855516
 20
1228.073188383201
 30
0.0
 11
2350.112878855516
 21
1228.073188383201
 31
0.0
  0
LINE
  5
362
330
1B
100
AcDbEntity
  8
0
  6
Continuous
100
AcDbLine
 10
2373.912878855517
 20
1258.041970232201
 30
0.0
 11
2373.912878855517
 21
1235.101615507901
 31
0.0
  0
LINE
  5
363
330
1B
100
AcDbEntity
  8
0
  6
Continuous
100
AcDbLine
 10
2374.612878855516
 20
1227.023446122901
 30
0.0
 11
2374.612878855516
 21
1228.073188383201
 31
0.0
  0
LINE
  5
364
330
1B
100
AcDbEntity
  8
0
  6
Continuous
100
AcDbLine
 10
2377.112878855516
 20
1230.658974820801
 30
0.0
 11
2377.112878855516
 21
1228.073188383201
 31
0.0
  0
LINE
  5
368
330
1B
100
AcDbEntity
  8
0
  6
Continuous
100
AcDbLine
 10
2350.112878855516
 20
1230.658974820801
 30
0.0
 11
2377.112878855516
 21
1230.658974820801
 31
0.0
  0
LINE
  5
369
330
1B
100
AcDbEntity
  8
0
  6
Continuous
100
AcDbLine
 10
2350.405772074316
 20
1231.366081602001
 30
0.0
 11
2376.819985636716
 21
1231.366081602001
 31
0.0
  0
LINE
  5
36A
330
1B
100
AcDbEntity
  8
0
  6
Continuous
100
AcDbLine
 10
2365.097878855516
 20
1233.673188383201
 30
0.0
 11
2362.127878855517
 21
1233.673188383201
 31
0.0
  0
LINE
  5
36D
330
1B
100
AcDbEntity
  8
0
  6
Continuous
100
AcDbLine
 10
2374.498665293116
 20
1233.687401945601
 30
0.0
 11
2352.727092417817
 21
1233.687401945601
 31
0.0
  0
LINE
  5
36E
330
1B
100
AcDbEntity
  8
0
  6
Continuous
100
AcDbLine
 10
2377.612878855516
 20
1206.818978176301
 30
0.0
 11
2377.612878855516
 21
1215.873188383201
 31
0.0
  0
LINE
  5
36F
330
1B
100
AcDbEntity
  8
0
  6
Continuous
100
AcDbLine
 10
2373.912878855517
 20
1235.101615507901
 30
0.0
 11
2353.312878855517
 21
1235.101615507901
 31
0.0
  0
LINE
  5
370
330
1B
100
AcDbEntity
  8
0
  6
Continuous
100
AcDbLine
 10
2374.498665293116
 20
1233.687401945601
 30
0.0
 11
2376.819985636716
 21
1231.366081602001
 31
0.0
  0
LINE
  5
372
330
1B
100
AcDbEntity
  8
0
  6
Continuous
100
AcDbLine
 10
2383.612878855516
 20
1272.673188383201
 30
0.0
 11
2383.612878855516
 21
1268.140564262401
 31
0.0
  0
LINE
  5
373
330
1B
100
AcDbEntity
  8
0
  6
Continuous
100
AcDbLine
 10
2383.612878855516
 20
1199.205812504001
 30
0.0
 11
2383.612878855516
 21
1194.673188383201
 31
0.0
  0
LINE
  5
377
330
1B
100
AcDbEntity
  8
0
  6
Continuous
100
AcDbLine
 10
2377.555981674817
 20
1260.557810766801
 30
0.0
 11
2375.391060805217
 21
1259.972697018301
 31
0.0
  0
LINE
  5
378
330
1B
100
AcDbEntity
  8
0
  6
Continuous
100
AcDbLine
 10
2372.477535751617
 20
1255.473188383201
 30
0.0
 11
2354.748221959316
 21
1255.473188383201
 31
0.0
  0
LINE
  5
379
330
1B
100
AcDbEntity
  8
0
  6
Continuous
100
AcDbLine
 10
2349.669776036116
 20
1260.557810766801
 30
0.0
 11
2351.834696905816
 21
1259.972697018301
 31
0.0
  0
LINE
  5
37A
330
1B
100
AcDbEntity
  8
0
  6
Continuous
100
AcDbLine
 10
2373.912878855517
 20
1258.041970232201
 30
0.0
 11
2372.477535751617
 21
1258.041970232201
 31
0.0
  0
LINE
  5
37B
330
1B
100
AcDbEntity
  8
0
  6
Continuous
100
AcDbLine
 10
2354.748221959316
 20
1258.041970232201
 30
0.0
 11
2353.312878855517
 21
1258.041970232201
 31
0.0
  0
LINE
  5
37C
330
1B
100
AcDbEntity
  8
0
  6
Continuous
100
AcDbLine
 10
2351.834696905816
 20
1259.972697018301
 30
0.0
 11
2352.538111263516
 21
1259.972697018301
 31
0.0
  0
LINE
  5
37D
330
1B
100
AcDbEntity
  8
0
  6
Continuous
100
AcDbLine
 10
2374.687646447416
 20
1259.972697018301
 30
0.0
 11
2375.391060805217
 21
1259.972697018301
 31
0.0
  0
LINE
  5
37E
330
1B
100
AcDbEntity
  8
0
  6
Continuous
100
AcDbLine
 10
2370.884766826216
 20
1263.073188383201
 30
0.0
 11
2356.340990884816
 21
1263.073188383201
 31
0.0
  0
LINE
  5
380
330
1B
100
AcDbEntity
  8
0
  6
Continuous
100
AcDbLine
 10
2345.612878855516
 20
1274.673188383201
 30
0.0
 11
2381.612878855516
 21
1274.673188383201
 31
0.0
  0
ARC
  5
381
330
1B
100
AcDbEntity
  8
0
  6
Continuous
100
AcDbCircle
 10
1890.447193430566
 20
1167.073188383201
 30
0.0
 40
0.4
100
AcDbArc
 50
270.0000000000006
 51
314.9999955290007
  0
ARC
  5
382
330
1B
100
AcDbEntity
  8
0
  6
Continuous
100
AcDbCircle
 10
1846.778564280467
 20
1167.073188383201
 30
0.0
 40
0.4
100
AcDbArc
 50
225.0000044710005
 51
270.0000000000006
  0
ARC
  5
383
330
1B
100
AcDbEntity
  8
0
  6
Continuous
100
AcDbCircle
 10
1892.212878855466
 20
1168.838873808201
 30
0.0
 40
0.4
100
AcDbArc
 50
314.9999999991007
 51
0.0000000000007994
  0
ARC
  5
384
330
1B
100
AcDbEntity
  8
0
  6
Continuous
100
AcDbCircle
 10
1845.012878855466
 20
1168.838873808201
 30
0.0
 40
0.4
100
AcDbArc
 50
180.0000000000004
 51
225.0000000010005
  0
ARC
  5
385
330
1B
100
AcDbEntity
  8
0
  6
Continuous
100
AcDbCircle
 10
1850.512878855466
 20
1192.273188383201
 30
0.0
 40
0.4
100
AcDbArc
 50
90.00000000000019
 51
180.0000000000004
  0
ARC
  5
386
330
1B
100
AcDbEntity
  8
0
  6
Continuous
100
AcDbCircle
 10
1886.712878855466
 20
1192.273188383201
 30
0.0
 40
0.4
100
AcDbArc
 50
0.0
 51
90.00000000000019
  0
ARC
  5
387
330
1B
100
AcDbEntity
  8
0
  6
Continuous
100
AcDbCircle
 10
1849.712878855466
 20
1191.073188383201
 30
0.0
 40
0.4
100
AcDbArc
 50
270.0000097618006
 51
0.0000000000007994
  0
ARC
  5
388
330
1B
100
AcDbEntity
  8
0
  6
Continuous
100
AcDbCircle
 10
1887.512878855466
 20
1191.073188383201
 30
0.0
 40
0.4
100
AcDbArc
 50
180.0000000000004
 51
269.9999902382006
  0
ARC
  5
389
330
1B
100
AcDbEntity
  8
0
  6
Continuous
100
AcDbCircle
 10
1890.612878855466
 20
1182.273188383201
 30
0.0
 40
2.0
100
AcDbArc
 50
180.0000000000004
 51
270.0000000000006
  0
ARC
  5
38A
330
1B
100
AcDbEntity
  8
0
  6
Continuous
100
AcDbCircle
 10
1846.612878855466
 20
1182.273188383201
 30
0.0
 40
2.0
100
AcDbArc
 50
270.0000000000006
 51
0.0000000000007994
  0
ARC
  5
38B
330
1B
100
AcDbEntity
  8
0
  6
Continuous
100
AcDbCircle
 10
1888.212878855466
 20
1190.273188383201
 30
0.0
 40
0.4
100
AcDbArc
 50
0.0
 51
90.00000000000019
  0
ARC
  5
38C
330
1B
100
AcDbEntity
  8
0
  6
Continuous
100
AcDbCircle
 10
1849.012878855466
 20
1190.273188383201
 30
0.0
 40
0.4
100
AcDbArc
 50
90.00000000000019
 51
180.0000000000004
  0
ARC
  5
3C6
330
1B
100
AcDbEntity
  8
0
  6
Continuous
100
AcDbCircle
 10
2355.219809650717
 20
1221.716266445001
 30
0.0
 40
0.4
100
AcDbArc
 50
195.0000087894005
 51
270.0000000000006
  0
ARC
  5
3C7
330
1B
100
AcDbEntity
  8
0
  6
Continuous
100
AcDbCircle
 10
2372.005948060317
 20
1221.716266445001
 30
0.0
 40
0.4
100
AcDbArc
 50
270.0000000000006
 51
344.9999912106008
  0
ARC
  5
3C8
330
1B
100
AcDbEntity
  8
0
  6
Continuous
100
AcDbCircle
 10
2353.012878855516
 20
1227.023446122001
 30
0.0
 40
0.4
100
AcDbArc
 50
179.9999998787004
 51
209.9999981441005
  0
ARC
  5
3C9
330
1B
100
AcDbEntity
  8
0
  6
Continuous
100
AcDbCircle
 10
2374.212878855516
 20
1227.023446122001
 30
0.0
 40
0.4
100
AcDbArc
 50
330.0000018559007
 51
0.0000001213
  0
ARC
  5
3CA
330
1B
100
AcDbEntity
  8
0
  6
Continuous
100
AcDbCircle
 10
2376.112878855516
 20
1230.658974820801
 30
0.0
 40
1.0
100
AcDbArc
 50
0.0
 51
45.00000000050009
  0
ARC
  5
3CB
330
1B
100
AcDbEntity
  8
0
  6
Continuous
100
AcDbCircle
 10
2351.112878855516
 20
1230.658974820801
 30
0.0
 40
1.0
100
AcDbArc
 50
134.9999999996003
 51
180.0000000000004
  0
ARC
  5
3CC
330
1B
100
AcDbEntity
  8
0
  6
Continuous
100
AcDbCircle
 10
2375.912878855516
 20
1258.041970232201
 30
0.0
 40
2.0
100
AcDbArc
 50
105.1240073083002
 51
180.0000000000004
  0
ARC
  5
3CD
330
1B
100
AcDbEntity
  8
0
  6
Continuous
100
AcDbCircle
 10
2351.312878855516
 20
1258.041970232201
 30
0.0
 40
2.0
100
AcDbArc
 50
0.0
 51
74.87599269170018
  0
ARC
  5
3CE
330
1B
100
AcDbEntity
  8
0
  6
Continuous
100
AcDbCircle
 10
2375.912878855516
 20
1235.101615507901
 30
0.0
 40
2.0
100
AcDbArc
 50
180.0000000000004
 51
225.0000000001005
  0
ARC
  5
3CF
330
1B
100
AcDbEntity
  8
0
  6
Continuous
100
AcDbCircle
 10
2351.312878855516
 20
1235.101615507901
 30
0.0
 40
2.0
100
AcDbArc
 50
315.0000000000007
 51
0.0000000000007994
  0
ARC
  5
3D4
330
1B
100
AcDbEntity
  8
0
  6
Continuous
100
AcDbCircle
 10
2377.212878855516
 20
1215.873188383201
 30
0.0
 40
0.4
100
AcDbArc
 50
0.0
 51
90.00000000000019
  0
ARC
  5
3D5
330
1B
100
AcDbEntity
  8
0
  6
Continuous
100
AcDbCircle
 10
2350.012878855516
 20
1215.873188383201
 30
0.0
 40
0.4
100
AcDbArc
 50
90.00000000000019
 51
180.0000000000004
  0
CIRCLE
  5
3E6
330
1B
100
AcDbEntity
  8
0
  6
Continuous
100
AcDbCircle
 10
2363.612878855516
 20
1233.673188383201
 30
0.0
 40
30.3
  0
ARC
  5
3E9
330
1B
100
AcDbEntity
  8
0
  6
Continuous
100
AcDbCircle
 10
2345.612878855516
 20
1272.673188383201
 30
0.0
 40
2.0
100
AcDbArc
 50
90.00000000000019
 51
180.0000000000004
  0
ARC
  5
3EA
330
1B
100
AcDbEntity
  8
0
  6
Continuous
100
AcDbCircle
 10
2381.612878855516
 20
1272.673188383201
 30
0.0
 40
2.0
100
AcDbArc
 50
0.0
 51
90.00000000000019
  0
ARC
  5
3EB
330
1B
100
AcDbEntity
  8
0
  6
Continuous
100
AcDbCircle
 10
2345.612878855516
 20
1194.673188383201
 30
0.0
 40
2.0
100
AcDbArc
 50
180.0000000000004
 51
270.0000000000006
  0
ARC
  5
3EC
330
1B
100
AcDbEntity
  8
0
  6
Continuous
100
AcDbCircle
 10
2381.612878855516
 20
1194.673188383201
 30
0.0
 40
2.0
100
AcDbArc
 50
270.0000000000006
 51
0.0000000000007994
  0
ARC
  5
3ED
330
1B
100
AcDbEntity
  8
0
  6
Continuous
100
AcDbCircle
 10
2387.612878855516
 20
1268.140564262401
 30
0.0
 40
4.0
100
AcDbArc
 50
180.0000000000004
 51
235.1500954210005
  0
ARC
  5
3EE
330
1B
100
AcDbEntity
  8
0
  6
Continuous
100
AcDbCircle
 10
2387.612878855516
 20
1199.205812504001
 30
0.0
 40
4.0
100
AcDbArc
 50
124.8499045790003
 51
180.0000000000004
  0
ARC
  5
3EF
330
1B
100
AcDbEntity
  8
0
  6
Continuous
100
AcDbCircle
 10
2339.612878855516
 20
1268.140564262401
 30
0.0
 40
4.0
100
AcDbArc
 50
304.8499045790007
 51
0.0000000000007994
  0
ARC
  5
3F0
330
1B
100
AcDbEntity
  8
0
  6
Continuous
100
AcDbCircle
 10
2339.612878855516
 20
1199.205812504001
 30
0.0
 40
4.0
100
AcDbArc
 50
0.0
 51
55.15009542100013
  0
CIRCLE
  5
3F1
330
1B
100
AcDbEntity
  8
0
  6
Continuous
100
AcDbCircle
 10
2363.612878855516
 20
1233.673188383201
 30
0.0
 40
38.0
  0
SPLINE
  5
400
330
1B
100
AcDbEntity
  8
0
  6
Continuous
100
AcDbSpline
210
0.0
220
0.0
230
1.0
 70
     8
 71
     3
 72
     9
 73
     5
 74
     3
 42
0.0000000001
 43
0.0000000001
 44
0.0000000001
 40
0.0
 40
0.0
 40
0.0
 40
0.0
 40
2.58617008236923
 40
5.081701351830854
 40
5.081701351830854
 40
5.081701351830854
 40
5.081701351830854
 10
1826.978377128466
 20
1272.673188383201
 30
0.0
 10
1826.58534790405
 20
1271.905935165307
 30
0.0
 10
1825.813064149535
 20
1270.398319041701
 30
0.0
 10
1825.053715967353
 20
1268.884146772286
 30
0.0
 10
1824.680813861966
 20
1268.140564262401
 30
0.0
 11
1826.978377128466
 21
1272.673188383201
 31
0.0
 11
1825.802639738566
 21
1270.369730702901
 31
0.0
 11
1824.680813861966
 21
1268.140564262401
 31
0.0
  0
SPLINE
  5
406
330
1B
100
AcDbEntity
  8
0
  6
Continuous
100
AcDbSpline
210
0.0
220
0.0
230
1.0
 70
     8
 71
     3
 72
     9
 73
     5
 74
     3
 42
0.0000000001
 43
0.0000000001
 44
0.0000000001
 40
0.0
 40
0.0
 40
0.0
 40
0.0
 40
0.6143954606337194
 40
1.120800616392933
 40
1.120800616392933
 40
1.120800616392933
 40
1.120800616392933
 10
1823.612878855466
 20
1264.857957035801
 30
0.0
 10
1823.628405815914
 20
1265.062748035067
 30
0.0
 10
1823.656730613144
 20
1265.43633458138
 30
0.0
 10
1823.755412505197
 20
1265.797536986024
 30
0.0
 10
1823.799999399766
 20
1265.960737074701
 30
0.0
 11
1823.612878855466
 21
1264.857957035801
 31
0.0
 11
1823.680601790566
 21
1265.468608643601
 31
0.0
 11
1823.799999399766
 21
1265.960737074701
 31
0.0
  0
SPLINE
  5
407
330
1B
100
AcDbEntity
  8
0
  6
Continuous
100
AcDbSpline
210
0.0
220
0.0
230
1.0
 70
     8
 71
     3
 72
    10
 73
     6
 74
     4
 42
0.0000000001
 43
0.0000000001
 44
0.0000000001
 40
0.0
 40
0.0
 40
0.0
 40
0.0
 40
0.2823209678102229
 40
1.239916756225673
 40
2.353757657118723
 40
2.353757657118723
 40
2.353757657118723
 40
2.353757657118723
 10
1823.799999399766
 20
1265.960737074701
 30
0.0
 10
1823.826855260733
 20
1266.050934446085
 30
0.0
 10
1823.944802688704
 20
1266.447069501211
 30
0.0
 10
1824.223150693735
 20
1267.182272691541
 30
0.0
 10
1824.520776332685
 20
1267.805464944876
 30
0.0
 10
1824.680813861966
 20
1268.140564262401
 30
0.0
 11
1823.799999399766
 21
1265.960737074701
 31
0.0
 11
1823.882053942266
 21
1266.230870710001
 31
0.0
 11
1824.215928369167
 21
1267.128377011401
 31
0.0
 11
1824.680813861966
 21
1268.140564262401
 31
0.0
  0
SPLINE
  5
40D
330
1B
100
AcDbEntity
  8
0
  6
Continuous
100
AcDbSpline
210
0.0
220
0.0
230
1.0
 70
     8
 71
     3
 72
    11
 73
     7
 74
     5
 42
0.0000000001
 43
0.0000000001
 44
0.0000000001
 40
0.0
 40
0.0
 40
0.0
 40
0.0
 40
0.8511078916132684
 40
1.542649903661298
 40
1.981076798366916
 40
2.153488104795839
 40
2.153488104795839
 40
2.153488104795839
 40
2.153488104795839
 10
1826.978377128466
 20
1272.673188383201
 30
0.0
 10
1827.107481633399
 20
1272.930490204768
 30
0.0
 10
1827.341486104581
 20
1273.396854850382
 30
0.0
 10
1827.516166839188
 20
1273.997807053326
 30
0.0
 10
1827.704736969678
 20
1274.467840534599
 30
0.0
 10
1827.565119776663
 20
1274.627986579041
 30
0.0
 10
1827.525712315566
 20
1274.673188383201
 30
0.0
 11
1826.978377128466
 21
1272.673188383201
 31
0.0
 11
1827.335865660066
 21
1273.445578565001
 31
0.0
 11
1827.562445684666
 21
1274.098948174701
 31
0.0
 11
1827.625765835666
 21
1274.532778441601
 31
0.0
 11
1827.525712315566
 21
1274.673188383201
 31
0.0
  0
SPLINE
  5
40F
330
1B
100
AcDbEntity
  8
0
  6
Continuous
100
AcDbSpline
210
0.0
220
0.0
230
1.0
 70
     8
 71
     3
 72
    15
 73
    11
 74
     9
 42
0.0000000001
 43
0.0000000001
 44
0.0000000001
 40
0.0
 40
0.0
 40
0.0
 40
0.0
 40
0.5028731602933146
 40
0.9731530352987028
 40
1.407828954250755
 40
1.808638735418221
 40
2.182784665919217
 40
2.527231918981381
 40
2.850312450637924
 40
3.141228719367359
 40
3.141228719367359
 40
3.141228719367359
 40
3.141228719367359
 10
2374.687646447416
 20
1259.972697018301
 30
0.0
 10
2374.524575109167
 20
1259.932784353623
 30
0.0
 10
2374.209001759228
 20
1259.855545928818
 30
0.0
 10
2373.7763852917
 20
1259.668680647551
 30
0.0
 10
2373.398776253985
 20
1259.450358412837
 30
0.0
 10
2373.078566547798
 20
1259.203317332183
 30
0.0
 10
2372.817791211495
 20
1258.933848504403
 30
0.0
 10
2372.624041187327
 20
1258.644112817947
 30
0.0
 10
2372.50024096869
 20
1258.34429999559
 30
0.0
 10
2372.484835145622
 20
1258.139164813308
 30
0.0
 10
2372.477535751617
 20
1258.041970232201
 30
0.0
 11
2374.687646447416
 21
1259.972697018301
 31
0.0
 11
2374.202846356516
 21
1259.839092051301
 31
0.0
 11
2373.769869723216
 21
1259.655531718301
 31
0.0
 11
2373.394516301516
 21
1259.436321856901
 31
0.0
 11
2373.078091497816
 21
1259.190305954401
 31
0.0
 11
2372.820020752216
 21
1258.919409908701
 31
0.0
 11
2372.630167908016
 21
1258.632008086001
 31
0.0
 11
2372.513779711916
 21
1258.330619934701
 31
0.0
 11
2372.477535751617
 21
1258.041970232201
 31
0.0
  0
SPLINE
  5
410
330
1B
100
AcDbEntity
  8
0
  6
Continuous
100
AcDbSpline
210
0.0
220
0.0
230
1.0
 70
     8
 71
     3
 72
    15
 73
    11
 74
     9
 42
0.0000000001
 43
0.0000000001
 44
0.0000000001
 40
0.0
 40
0.0
 40
0.0
 40
0.0
 40
0.2909162687295482
 40
0.6139968003860911
 40
0.9584440534485061
 40
1.332589983949502
 40
1.733399765037628
 40
2.168075683990073
 40
2.638355558995042
 40
3.141228719385244
 40
3.141228719385244
 40
3.141228719385244
 40
3.141228719385244
 10
2354.748221959316
 20
1258.041970232201
 30
0.0
 10
2354.740922565311
 20
1258.139164813308
 30
0.0
 10
2354.725516742242
 20
1258.34429999559
 30
0.0
 10
2354.601716523605
 20
1258.644112817947
 30
0.0
 10
2354.40796649944
 20
1258.933848504407
 30
0.0
 10
2354.147191163141
 20
1259.203317332149
 30
0.0
 10
2353.82698145704
 20
1259.450358412871
 30
0.0
 10
2353.449372419327
 20
1259.668680647544
 30
0.0
 10
2353.016755951778
 20
1259.855545928838
 30
0.0
 10
2352.701182601801
 20
1259.932784353628
 30
0.0
 10
2352.538111263516
 20
1259.972697018301
 30
0.0
 11
2354.748221959316
 21
1258.041970232201
 31
0.0
 11
2354.711977999016
 21
1258.330619934701
 31
0.0
 11
2354.595589802916
 21
1258.632008086001
 31
0.0
 11
2354.405736958716
 21
1258.919409908701
 31
0.0
 11
2354.147666213116
 21
1259.190305954401
 31
0.0
 11
2353.831241409516
 21
1259.436321856901
 31
0.0
 11
2353.455887987816
 21
1259.655531718301
 31
0.0
 11
2353.022911354516
 21
1259.839092051301
 31
0.0
 11
2352.538111263516
 21
1259.972697018301
 31
0.0
  0
ARC
  5
47C
330
1B
100
AcDbEntity
  8
0
  6
Continuous
100
AcDbCircle
 10
1919.012878855467
 20
1190.273188383201
 30
0.0
 40
0.4
100
AcDbArc
 50
90.00000000000019
 51
180.0000000000004
  0
ARC
  5
47D
330
1B
100
AcDbEntity
  8
0
  6
Continuous
100
AcDbCircle
 10
1958.212878855466
 20
1190.273188383201
 30
0.0
 40
0.4
100
AcDbArc
 50
0.0
 51
90.00000000000019
  0
ARC
  5
47E
330
1B
100
AcDbEntity
  8
0
  6
Continuous
100
AcDbCircle
 10
1916.612878855466
 20
1182.273188383201
 30
0.0
 40
2.0
100
AcDbArc
 50
270.0000000000006
 51
0.0000000000007994
  0
ARC
  5
47F
330
1B
100
AcDbEntity
  8
0
  6
Continuous
100
AcDbCircle
 10
1960.612878855467
 20
1182.273188383201
 30
0.0
 40
2.0
100
AcDbArc
 50
180.0000000000004
 51
270.0000000000006
  0
ARC
  5
480
330
1B
100
AcDbEntity
  8
0
  6
Continuous
100
AcDbCircle
 10
1957.512878855467
 20
1191.073188383201
 30
0.0
 40
0.4
100
AcDbArc
 50
180.0000000000004
 51
269.9999902382006
  0
ARC
  5
481
330
1B
100
AcDbEntity
  8
0
  6
Continuous
100
AcDbCircle
 10
1919.712878855466
 20
1191.073188383201
 30
0.0
 40
0.4
100
AcDbArc
 50
270.0000097618006
 51
0.0000000000007994
  0
ARC
  5
482
330
1B
100
AcDbEntity
  8
0
  6
Continuous
100
AcDbCircle
 10
1956.712878855466
 20
1192.273188383201
 30
0.0
 40
0.4
100
AcDbArc
 50
0.0
 51
90.00000000000019
  0
ARC
  5
483
330
1B
100
AcDbEntity
  8
0
  6
Continuous
100
AcDbCircle
 10
1920.512878855467
 20
1192.273188383201
 30
0.0
 40
0.4
100
AcDbArc
 50
90.00000000000019
 51
180.0000000000004
  0
ARC
  5
484
330
1B
100
AcDbEntity
  8
0
  6
Continuous
100
AcDbCircle
 10
1915.012878855467
 20
1168.838873808201
 30
0.0
 40
0.4
100
AcDbArc
 50
180.0000000000004
 51
225.0000000010005
  0
ARC
  5
485
330
1B
100
AcDbEntity
  8
0
  6
Continuous
100
AcDbCircle
 10
1962.212878855466
 20
1168.838873808201
 30
0.0
 40
0.4
100
AcDbArc
 50
314.9999999991007
 51
0.0000000000007994
  0
ARC
  5
486
330
1B
100
AcDbEntity
  8
0
  6
Continuous
100
AcDbCircle
 10
1916.778564280466
 20
1167.073188383201
 30
0.0
 40
0.4
100
AcDbArc
 50
225.0000044710005
 51
270.0000000000006
  0
ARC
  5
487
330
1B
100
AcDbEntity
  8
0
  6
Continuous
100
AcDbCircle
 10
1960.447193430567
 20
1167.073188383201
 30
0.0
 40
0.4
100
AcDbArc
 50
270.0000000000006
 51
314.9999955290007
  0
LINE
  5
488
330
1B
100
AcDbEntity
  8
0
  6
Continuous
100
AcDbLine
 10
1958.212878853266
 20
1190.673188383201
 30
0.0
 11
1919.012878857667
 21
1190.673188383201
 31
0.0
  0
LINE
  5
489
330
1B
100
AcDbEntity
  8
0
  6
Continuous
100
AcDbLine
 10
1918.612878855466
 20
1182.273188383201
 30
0.0
 11
1958.612878855467
 21
1182.273188383201
 31
0.0
  0
LINE
  5
48A
330
1B
100
AcDbEntity
  8
0
  6
Continuous
100
AcDbLine
 10
1916.312878855466
 20
1179.973188573901
 30
0.0
 11
1960.912878855466
 21
1179.973188573901
 31
0.0
  0
LINE
  5
48B
330
1B
100
AcDbEntity
  8
0
  6
Continuous
100
AcDbLine
 10
1914.612878855466
 20
1178.273188383201
 30
0.0
 11
1962.612878855466
 21
1178.273188383201
 31
0.0
  0
LINE
  5
48C
330
1B
100
AcDbEntity
  8
0
  6
Continuous
100
AcDbLine
 10
1962.612878855466
 20
1168.838873808201
 30
0.0
 11
1914.612878855466
 21
1168.838873808201
 31
0.0
  0
LINE
  5
48E
330
1B
100
AcDbEntity
  8
0
  6
Continuous
100
AcDbLine
 10
1960.447193388166
 20
1166.673188383201
 30
0.0
 11
1916.778564322866
 21
1166.673188383201
 31
0.0
  0
LINE
  5
48F
330
1B
100
AcDbEntity
  8
0
  6
Continuous
100
AcDbLine
 10
1960.730036120966
 20
1166.790345648701
 30
0.0
 11
1962.495721567966
 21
1168.556031095701
 31
0.0
  0
LINE
  5
490
330
1B
100
AcDbEntity
  8
0
  6
Continuous
100
AcDbLine
 10
1914.612878855466
 20
1178.273188383201
 30
0.0
 11
1916.612878855466
 21
1180.273188383201
 31
0.0
  0
LINE
  5
491
330
1B
100
AcDbEntity
  8
0
  6
Continuous
100
AcDbLine
 10
1962.612878855466
 20
1178.273188383201
 30
0.0
 11
1960.612878855467
 21
1180.273188383201
 31
0.0
  0
LINE
  5
492
330
1B
100
AcDbEntity
  8
0
  6
Continuous
100
AcDbLine
 10
1962.612878855466
 20
1168.838873808201
 30
0.0
 11
1962.612878855466
 21
1178.273188383201
 31
0.0
  0
LINE
  5
493
330
1B
100
AcDbEntity
  8
0
  6
Continuous
100
AcDbLine
 10
1960.912878855466
 20
1166.973188383201
 30
0.0
 11
1960.912878855466
 21
1179.973188383201
 31
0.0
  0
LINE
  5
494
330
1B
100
AcDbEntity
  8
0
  6
Continuous
100
AcDbLine
 10
1958.612878855467
 20
1182.273188383201
 30
0.0
 11
1958.612878855467
 21
1190.273188383201
 31
0.0
  0
LINE
  5
495
330
1B
100
AcDbEntity
  8
0
  6
Continuous
100
AcDbLine
 10
1957.112878855467
 20
1191.073188383201
 30
0.0
 11
1957.112878855467
 21
1192.273188383201
 31
0.0
  0
LINE
  5
496
330
1B
100
AcDbEntity
  8
0
  6
Continuous
100
AcDbLine
 10
1916.495721590066
 20
1166.790345648701
 30
0.0
 11
1914.730036143066
 21
1168.556031095701
 31
0.0
  0
LINE
  5
497
330
1B
100
AcDbEntity
  8
0
  6
Continuous
100
AcDbLine
 10
1920.112878855466
 20
1191.073188383201
 30
0.0
 11
1920.112878855466
 21
1192.273188383201
 31
0.0
  0
LINE
  5
498
330
1B
100
AcDbEntity
  8
0
  6
Continuous
100
AcDbLine
 10
1918.612878855466
 20
1182.273188383201
 30
0.0
 11
1918.612878855466
 21
1190.273188383201
 31
0.0
  0
LINE
  5
499
330
1B
100
AcDbEntity
  8
0
  6
Continuous
100
AcDbLine
 10
1916.312878855466
 20
1166.973188383201
 30
0.0
 11
1916.312878855466
 21
1179.973188383201
 31
0.0
  0
LINE
  5
49A
330
1B
100
AcDbEntity
  8
0
  6
Continuous
100
AcDbLine
 10
1914.612878855466
 20
1168.838873808201
 30
0.0
 11
1914.612878855466
 21
1178.273188383201
 31
0.0
  0
ARC
  5
49B
330
1B
100
AcDbEntity
  8
0
  6
Continuous
100
AcDbCircle
 10
1989.012878855466
 20
1190.273188383201
 30
0.0
 40
0.4
100
AcDbArc
 50
90.00000000000019
 51
180.0000000000004
  0
ARC
  5
49C
330
1B
100
AcDbEntity
  8
0
  6
Continuous
100
AcDbCircle
 10
2028.212878855466
 20
1190.273188383201
 30
0.0
 40
0.4
100
AcDbArc
 50
0.0
 51
90.00000000000019
  0
ARC
  5
49D
330
1B
100
AcDbEntity
  8
0
  6
Continuous
100
AcDbCircle
 10
1986.612878855466
 20
1182.273188383201
 30
0.0
 40
2.0
100
AcDbArc
 50
270.0000000000006
 51
0.0000000000007994
  0
ARC
  5
49E
330
1B
100
AcDbEntity
  8
0
  6
Continuous
100
AcDbCircle
 10
2030.612878855467
 20
1182.273188383201
 30
0.0
 40
2.0
100
AcDbArc
 50
180.0000000000004
 51
270.0000000000006
  0
ARC
  5
49F
330
1B
100
AcDbEntity
  8
0
  6
Continuous
100
AcDbCircle
 10
2027.512878855467
 20
1191.073188383201
 30
0.0
 40
0.4
100
AcDbArc
 50
180.0000000000004
 51
269.9999902382006
  0
ARC
  5
4A0
330
1B
100
AcDbEntity
  8
0
  6
Continuous
100
AcDbCircle
 10
1989.712878855466
 20
1191.073188383201
 30
0.0
 40
0.4
100
AcDbArc
 50
270.0000097618006
 51
0.0000000000007994
  0
ARC
  5
4A1
330
1B
100
AcDbEntity
  8
0
  6
Continuous
100
AcDbCircle
 10
2026.712878855466
 20
1192.273188383201
 30
0.0
 40
0.4
100
AcDbArc
 50
0.0
 51
90.00000000000019
  0
ARC
  5
4A2
330
1B
100
AcDbEntity
  8
0
  6
Continuous
100
AcDbCircle
 10
1990.512878855466
 20
1192.273188383201
 30
0.0
 40
0.4
100
AcDbArc
 50
90.00000000000019
 51
180.0000000000004
  0
ARC
  5
4A3
330
1B
100
AcDbEntity
  8
0
  6
Continuous
100
AcDbCircle
 10
1985.012878855467
 20
1168.838873808201
 30
0.0
 40
0.4
100
AcDbArc
 50
180.0000000000004
 51
225.0000000010005
  0
ARC
  5
4A4
330
1B
100
AcDbEntity
  8
0
  6
Continuous
100
AcDbCircle
 10
2032.212878855466
 20
1168.838873808201
 30
0.0
 40
0.4
100
AcDbArc
 50
314.9999999991007
 51
0.0000000000007994
  0
ARC
  5
4A5
330
1B
100
AcDbEntity
  8
0
  6
Continuous
100
AcDbCircle
 10
1986.778564280466
 20
1167.073188383201
 30
0.0
 40
0.4
100
AcDbArc
 50
225.0000044710005
 51
270.0000000000006
  0
ARC
  5
4A6
330
1B
100
AcDbEntity
  8
0
  6
Continuous
100
AcDbCircle
 10
2030.447193430567
 20
1167.073188383201
 30
0.0
 40
0.4
100
AcDbArc
 50
270.0000000000006
 51
314.9999955290007
  0
LINE
  5
4A7
330
1B
100
AcDbEntity
  8
0
  6
Continuous
100
AcDbLine
 10
2028.212878853266
 20
1190.673188383201
 30
0.0
 11
1989.012878857667
 21
1190.673188383201
 31
0.0
  0
LINE
  5
4A8
330
1B
100
AcDbEntity
  8
0
  6
Continuous
100
AcDbLine
 10
1988.612878855466
 20
1182.273188383201
 30
0.0
 11
2028.612878855467
 21
1182.273188383201
 31
0.0
  0
LINE
  5
4A9
330
1B
100
AcDbEntity
  8
0
  6
Continuous
100
AcDbLine
 10
1986.312878855466
 20
1179.973188573901
 30
0.0
 11
2030.912878855466
 21
1179.973188573901
 31
0.0
  0
LINE
  5
4AA
330
1B
100
AcDbEntity
  8
0
  6
Continuous
100
AcDbLine
 10
1984.612878855466
 20
1178.273188383201
 30
0.0
 11
2032.612878855466
 21
1178.273188383201
 31
0.0
  0
LINE
  5
4AB
330
1B
100
AcDbEntity
  8
0
  6
Continuous
100
AcDbLine
 10
2032.612878855466
 20
1168.838873808201
 30
0.0
 11
1984.612878855466
 21
1168.838873808201
 31
0.0
  0
LINE
  5
4AD
330
1B
100
AcDbEntity
  8
0
  6
Continuous
100
AcDbLine
 10
2030.447193388166
 20
1166.673188383201
 30
0.0
 11
1986.778564322866
 21
1166.673188383201
 31
0.0
  0
LINE
  5
4AE
330
1B
100
AcDbEntity
  8
0
  6
Continuous
100
AcDbLine
 10
2030.730036120966
 20
1166.790345648701
 30
0.0
 11
2032.495721567967
 21
1168.556031095701
 31
0.0
  0
LINE
  5
4AF
330
1B
100
AcDbEntity
  8
0
  6
Continuous
100
AcDbLine
 10
1984.612878855466
 20
1178.273188383201
 30
0.0
 11
1986.612878855466
 21
1180.273188383201
 31
0.0
  0
LINE
  5
4B0
330
1B
100
AcDbEntity
  8
0
  6
Continuous
100
AcDbLine
 10
2032.612878855466
 20
1178.273188383201
 30
0.0
 11
2030.612878855467
 21
1180.273188383201
 31
0.0
  0
LINE
  5
4B1
330
1B
100
AcDbEntity
  8
0
  6
Continuous
100
AcDbLine
 10
2032.612878855466
 20
1168.838873808201
 30
0.0
 11
2032.612878855466
 21
1178.273188383201
 31
0.0
  0
LINE
  5
4B2
330
1B
100
AcDbEntity
  8
0
  6
Continuous
100
AcDbLine
 10
2030.912878855466
 20
1166.973188383201
 30
0.0
 11
2030.912878855466
 21
1179.973188383201
 31
0.0
  0
LINE
  5
4B3
330
1B
100
AcDbEntity
  8
0
  6
Continuous
100
AcDbLine
 10
2028.612878855467
 20
1182.273188383201
 30
0.0
 11
2028.612878855467
 21
1190.273188383201
 31
0.0
  0
LINE
  5
4B4
330
1B
100
AcDbEntity
  8
0
  6
Continuous
100
AcDbLine
 10
2027.112878855467
 20
1191.073188383201
 30
0.0
 11
2027.112878855467
 21
1192.273188383201
 31
0.0
  0
LINE
  5
4B5
330
1B
100
AcDbEntity
  8
0
  6
Continuous
100
AcDbLine
 10
1986.495721590066
 20
1166.790345648701
 30
0.0
 11
1984.730036143066
 21
1168.556031095701
 31
0.0
  0
LINE
  5
4B6
330
1B
100
AcDbEntity
  8
0
  6
Continuous
100
AcDbLine
 10
1990.112878855466
 20
1191.073188383201
 30
0.0
 11
1990.112878855466
 21
1192.273188383201
 31
0.0
  0
LINE
  5
4B7
330
1B
100
AcDbEntity
  8
0
  6
Continuous
100
AcDbLine
 10
1988.612878855466
 20
1182.273188383201
 30
0.0
 11
1988.612878855466
 21
1190.273188383201
 31
0.0
  0
LINE
  5
4B8
330
1B
100
AcDbEntity
  8
0
  6
Continuous
100
AcDbLine
 10
1986.312878855466
 20
1166.973188383201
 30
0.0
 11
1986.312878855466
 21
1179.973188383201
 31
0.0
  0
LINE
  5
4B9
330
1B
100
AcDbEntity
  8
0
  6
Continuous
100
AcDbLine
 10
1984.612878855466
 20
1168.838873808201
 30
0.0
 11
1984.612878855466
 21
1178.273188383201
 31
0.0
  0
ARC
  5
4BA
330
1B
100
AcDbEntity
  8
0
  6
Continuous
100
AcDbCircle
 10
2059.012878855466
 20
1190.273188383201
 30
0.0
 40
0.4
100
AcDbArc
 50
90.00000000000019
 51
180.0000000000004
  0
ARC
  5
4BB
330
1B
100
AcDbEntity
  8
0
  6
Continuous
100
AcDbCircle
 10
2098.212878855466
 20
1190.273188383201
 30
0.0
 40
0.4
100
AcDbArc
 50
0.0
 51
90.00000000000019
  0
ARC
  5
4BC
330
1B
100
AcDbEntity
  8
0
  6
Continuous
100
AcDbCircle
 10
2056.612878855466
 20
1182.273188383201
 30
0.0
 40
2.0
100
AcDbArc
 50
270.0000000000006
 51
0.0000000000007994
  0
ARC
  5
4BD
330
1B
100
AcDbEntity
  8
0
  6
Continuous
100
AcDbCircle
 10
2100.612878855466
 20
1182.273188383201
 30
0.0
 40
2.0
100
AcDbArc
 50
180.0000000000004
 51
270.0000000000006
  0
ARC
  5
4BE
330
1B
100
AcDbEntity
  8
0
  6
Continuous
100
AcDbCircle
 10
2097.512878855466
 20
1191.073188383201
 30
0.0
 40
0.4
100
AcDbArc
 50
180.0000000000004
 51
269.9999902382006
  0
ARC
  5
4BF
330
1B
100
AcDbEntity
  8
0
  6
Continuous
100
AcDbCircle
 10
2059.712878855467
 20
1191.073188383201
 30
0.0
 40
0.4
100
AcDbArc
 50
270.0000097618006
 51
0.0000000000007994
  0
ARC
  5
4C0
330
1B
100
AcDbEntity
  8
0
  6
Continuous
100
AcDbCircle
 10
2096.712878855466
 20
1192.273188383201
 30
0.0
 40
0.4
100
AcDbArc
 50
0.0
 51
90.00000000000019
  0
ARC
  5
4C1
330
1B
100
AcDbEntity
  8
0
  6
Continuous
100
AcDbCircle
 10
2060.512878855466
 20
1192.273188383201
 30
0.0
 40
0.4
100
AcDbArc
 50
90.00000000000019
 51
180.0000000000004
  0
ARC
  5
4C2
330
1B
100
AcDbEntity
  8
0
  6
Continuous
100
AcDbCircle
 10
2055.012878855466
 20
1168.838873808201
 30
0.0
 40
0.4
100
AcDbArc
 50
180.0000000000004
 51
225.0000000010005
  0
ARC
  5
4C3
330
1B
100
AcDbEntity
  8
0
  6
Continuous
100
AcDbCircle
 10
2102.212878855466
 20
1168.838873808201
 30
0.0
 40
0.4
100
AcDbArc
 50
314.9999999991007
 51
0.0000000000007994
  0
ARC
  5
4C4
330
1B
100
AcDbEntity
  8
0
  6
Continuous
100
AcDbCircle
 10
2056.778564280467
 20
1167.073188383201
 30
0.0
 40
0.4
100
AcDbArc
 50
225.0000044710005
 51
270.0000000000006
  0
ARC
  5
4C5
330
1B
100
AcDbEntity
  8
0
  6
Continuous
100
AcDbCircle
 10
2100.447193430566
 20
1167.073188383201
 30
0.0
 40
0.4
100
AcDbArc
 50
270.0000000000006
 51
314.9999955290007
  0
LINE
  5
4C6
330
1B
100
AcDbEntity
  8
0
  6
Continuous
100
AcDbLine
 10
2098.212878853266
 20
1190.673188383201
 30
0.0
 11
2059.012878857666
 21
1190.673188383201
 31
0.0
  0
LINE
  5
4C7
330
1B
100
AcDbEntity
  8
0
  6
Continuous
100
AcDbLine
 10
2058.612878855466
 20
1182.273188383201
 30
0.0
 11
2098.612878855466
 21
1182.273188383201
 31
0.0
  0
LINE
  5
4C8
330
1B
100
AcDbEntity
  8
0
  6
Continuous
100
AcDbLine
 10
2056.312878855466
 20
1179.973188573901
 30
0.0
 11
2100.912878855466
 21
1179.973188573901
 31
0.0
  0
LINE
  5
4C9
330
1B
100
AcDbEntity
  8
0
  6
Continuous
100
AcDbLine
 10
2054.612878855466
 20
1178.273188383201
 30
0.0
 11
2102.612878855466
 21
1178.273188383201
 31
0.0
  0
LINE
  5
4CA
330
1B
100
AcDbEntity
  8
0
  6
Continuous
100
AcDbLine
 10
2102.612878855466
 20
1168.838873808201
 30
0.0
 11
2054.612878855466
 21
1168.838873808201
 31
0.0
  0
LINE
  5
4CC
330
1B
100
AcDbEntity
  8
0
  6
Continuous
100
AcDbLine
 10
2100.447193388166
 20
1166.673188383201
 30
0.0
 11
2056.778564322867
 21
1166.673188383201
 31
0.0
  0
LINE
  5
4CD
330
1B
100
AcDbEntity
  8
0
  6
Continuous
100
AcDbLine
 10
2100.730036120967
 20
1166.790345648701
 30
0.0
 11
2102.495721567967
 21
1168.556031095701
 31
0.0
  0
LINE
  5
4CE
330
1B
100
AcDbEntity
  8
0
  6
Continuous
100
AcDbLine
 10
2054.612878855466
 20
1178.273188383201
 30
0.0
 11
2056.612878855466
 21
1180.273188383201
 31
0.0
  0
LINE
  5
4CF
330
1B
100
AcDbEntity
  8
0
  6
Continuous
100
AcDbLine
 10
2102.612878855466
 20
1178.273188383201
 30
0.0
 11
2100.612878855466
 21
1180.273188383201
 31
0.0
  0
LINE
  5
4D0
330
1B
100
AcDbEntity
  8
0
  6
Continuous
100
AcDbLine
 10
2102.612878855466
 20
1168.838873808201
 30
0.0
 11
2102.612878855466
 21
1178.273188383201
 31
0.0
  0
LINE
  5
4D1
330
1B
100
AcDbEntity
  8
0
  6
Continuous
100
AcDbLine
 10
2100.912878855466
 20
1166.973188383201
 30
0.0
 11
2100.912878855466
 21
1179.973188383201
 31
0.0
  0
LINE
  5
4D2
330
1B
100
AcDbEntity
  8
0
  6
Continuous
100
AcDbLine
 10
2098.612878855466
 20
1182.273188383201
 30
0.0
 11
2098.612878855466
 21
1190.273188383201
 31
0.0
  0
LINE
  5
4D3
330
1B
100
AcDbEntity
  8
0
  6
Continuous
100
AcDbLine
 10
2097.112878855466
 20
1191.073188383201
 30
0.0
 11
2097.112878855466
 21
1192.273188383201
 31
0.0
  0
LINE
  5
4D4
330
1B
100
AcDbEntity
  8
0
  6
Continuous
100
AcDbLine
 10
2056.495721590066
 20
1166.790345648701
 30
0.0
 11
2054.730036143066
 21
1168.556031095701
 31
0.0
  0
LINE
  5
4D5
330
1B
100
AcDbEntity
  8
0
  6
Continuous
100
AcDbLine
 10
2060.112878855466
 20
1191.073188383201
 30
0.0
 11
2060.112878855466
 21
1192.273188383201
 31
0.0
  0
LINE
  5
4D6
330
1B
100
AcDbEntity
  8
0
  6
Continuous
100
AcDbLine
 10
2058.612878855466
 20
1182.273188383201
 30
0.0
 11
2058.612878855466
 21
1190.273188383201
 31
0.0
  0
LINE
  5
4D7
330
1B
100
AcDbEntity
  8
0
  6
Continuous
100
AcDbLine
 10
2056.312878855466
 20
1166.973188383201
 30
0.0
 11
2056.312878855466
 21
1179.973188383201
 31
0.0
  0
LINE
  5
4D8
330
1B
100
AcDbEntity
  8
0
  6
Continuous
100
AcDbLine
 10
2054.612878855466
 20
1168.838873808201
 30
0.0
 11
2054.612878855466
 21
1178.273188383201
 31
0.0
  0
ARC
  5
4D9
330
1B
100
AcDbEntity
  8
0
  6
Continuous
100
AcDbCircle
 10
2129.012878855467
 20
1190.273188383201
 30
0.0
 40
0.4
100
AcDbArc
 50
90.00000000000019
 51
180.0000000000004
  0
ARC
  5
4DA
330
1B
100
AcDbEntity
  8
0
  6
Continuous
100
AcDbCircle
 10
2168.212878855467
 20
1190.273188383201
 30
0.0
 40
0.4
100
AcDbArc
 50
0.0
 51
90.00000000000019
  0
ARC
  5
4DB
330
1B
100
AcDbEntity
  8
0
  6
Continuous
100
AcDbCircle
 10
2126.612878855467
 20
1182.273188383201
 30
0.0
 40
2.0
100
AcDbArc
 50
270.0000000000006
 51
0.0000000000007994
  0
ARC
  5
4DC
330
1B
100
AcDbEntity
  8
0
  6
Continuous
100
AcDbCircle
 10
2170.612878855466
 20
1182.273188383201
 30
0.0
 40
2.0
100
AcDbArc
 50
180.0000000000004
 51
270.0000000000006
  0
ARC
  5
4DD
330
1B
100
AcDbEntity
  8
0
  6
Continuous
100
AcDbCircle
 10
2167.512878855466
 20
1191.073188383201
 30
0.0
 40
0.4
100
AcDbArc
 50
180.0000000000004
 51
269.9999902382006
  0
ARC
  5
4DE
330
1B
100
AcDbEntity
  8
0
  6
Continuous
100
AcDbCircle
 10
2129.712878855467
 20
1191.073188383201
 30
0.0
 40
0.4
100
AcDbArc
 50
270.0000097618006
 51
0.0000000000007994
  0
ARC
  5
4DF
330
1B
100
AcDbEntity
  8
0
  6
Continuous
100
AcDbCircle
 10
2166.712878855467
 20
1192.273188383201
 30
0.0
 40
0.4
100
AcDbArc
 50
0.0
 51
90.00000000000019
  0
ARC
  5
4E0
330
1B
100
AcDbEntity
  8
0
  6
Continuous
100
AcDbCircle
 10
2130.512878855467
 20
1192.273188383201
 30
0.0
 40
0.4
100
AcDbArc
 50
90.00000000000019
 51
180.0000000000004
  0
ARC
  5
4E1
330
1B
100
AcDbEntity
  8
0
  6
Continuous
100
AcDbCircle
 10
2125.012878855466
 20
1168.838873808201
 30
0.0
 40
0.4
100
AcDbArc
 50
180.0000000000004
 51
225.0000000010005
  0
ARC
  5
4E2
330
1B
100
AcDbEntity
  8
0
  6
Continuous
100
AcDbCircle
 10
2172.212878855467
 20
1168.838873808201
 30
0.0
 40
0.4
100
AcDbArc
 50
314.9999999991007
 51
0.0000000000007994
  0
ARC
  5
4E3
330
1B
100
AcDbEntity
  8
0
  6
Continuous
100
AcDbCircle
 10
2126.778564280467
 20
1167.073188383201
 30
0.0
 40
0.4
100
AcDbArc
 50
225.0000044710005
 51
270.0000000000006
  0
ARC
  5
4E4
330
1B
100
AcDbEntity
  8
0
  6
Continuous
100
AcDbCircle
 10
2170.447193430566
 20
1167.073188383201
 30
0.0
 40
0.4
100
AcDbArc
 50
270.0000000000006
 51
314.9999955290007
  0
LINE
  5
4E5
330
1B
100
AcDbEntity
  8
0
  6
Continuous
100
AcDbLine
 10
2168.212878853267
 20
1190.673188383201
 30
0.0
 11
2129.012878857666
 21
1190.673188383201
 31
0.0
  0
LINE
  5
4E6
330
1B
100
AcDbEntity
  8
0
  6
Continuous
100
AcDbLine
 10
2128.612878855467
 20
1182.273188383201
 30
0.0
 11
2168.612878855467
 21
1182.273188383201
 31
0.0
  0
LINE
  5
4E7
330
1B
100
AcDbEntity
  8
0
  6
Continuous
100
AcDbLine
 10
2126.312878855467
 20
1179.973188573901
 30
0.0
 11
2170.912878855466
 21
1179.973188573901
 31
0.0
  0
LINE
  5
4E8
330
1B
100
AcDbEntity
  8
0
  6
Continuous
100
AcDbLine
 10
2124.612878855467
 20
1178.273188383201
 30
0.0
 11
2172.612878855467
 21
1178.273188383201
 31
0.0
  0
LINE
  5
4E9
330
1B
100
AcDbEntity
  8
0
  6
Continuous
100
AcDbLine
 10
2172.612878855467
 20
1168.838873808201
 30
0.0
 11
2124.612878855467
 21
1168.838873808201
 31
0.0
  0
LINE
  5
4EB
330
1B
100
AcDbEntity
  8
0
  6
Continuous
100
AcDbLine
 10
2170.447193388167
 20
1166.673188383201
 30
0.0
 11
2126.778564322866
 21
1166.673188383201
 31
0.0
  0
LINE
  5
4EC
330
1B
100
AcDbEntity
  8
0
  6
Continuous
100
AcDbLine
 10
2170.730036120966
 20
1166.790345648701
 30
0.0
 11
2172.495721567967
 21
1168.556031095701
 31
0.0
  0
LINE
  5
4ED
330
1B
100
AcDbEntity
  8
0
  6
Continuous
100
AcDbLine
 10
2124.612878855467
 20
1178.273188383201
 30
0.0
 11
2126.612878855467
 21
1180.273188383201
 31
0.0
  0
LINE
  5
4EE
330
1B
100
AcDbEntity
  8
0
  6
Continuous
100
AcDbLine
 10
2172.612878855467
 20
1178.273188383201
 30
0.0
 11
2170.612878855466
 21
1180.273188383201
 31
0.0
  0
LINE
  5
4EF
330
1B
100
AcDbEntity
  8
0
  6
Continuous
100
AcDbLine
 10
2172.612878855467
 20
1168.838873808201
 30
0.0
 11
2172.612878855467
 21
1178.273188383201
 31
0.0
  0
LINE
  5
4F0
330
1B
100
AcDbEntity
  8
0
  6
Continuous
100
AcDbLine
 10
2170.912878855466
 20
1166.973188383201
 30
0.0
 11
2170.912878855466
 21
1179.973188383201
 31
0.0
  0
LINE
  5
4F1
330
1B
100
AcDbEntity
  8
0
  6
Continuous
100
AcDbLine
 10
2168.612878855467
 20
1182.273188383201
 30
0.0
 11
2168.612878855467
 21
1190.273188383201
 31
0.0
  0
LINE
  5
4F2
330
1B
100
AcDbEntity
  8
0
  6
Continuous
100
AcDbLine
 10
2167.112878855466
 20
1191.073188383201
 30
0.0
 11
2167.112878855466
 21
1192.273188383201
 31
0.0
  0
LINE
  5
4F3
330
1B
100
AcDbEntity
  8
0
  6
Continuous
100
AcDbLine
 10
2126.495721590066
 20
1166.790345648701
 30
0.0
 11
2124.730036143067
 21
1168.556031095701
 31
0.0
  0
LINE
  5
4F4
330
1B
100
AcDbEntity
  8
0
  6
Continuous
100
AcDbLine
 10
2130.112878855467
 20
1191.073188383201
 30
0.0
 11
2130.112878855467
 21
1192.273188383201
 31
0.0
  0
LINE
  5
4F5
330
1B
100
AcDbEntity
  8
0
  6
Continuous
100
AcDbLine
 10
2128.612878855467
 20
1182.273188383201
 30
0.0
 11
2128.612878855467
 21
1190.273188383201
 31
0.0
  0
LINE
  5
4F6
330
1B
100
AcDbEntity
  8
0
  6
Continuous
100
AcDbLine
 10
2126.312878855467
 20
1166.973188383201
 30
0.0
 11
2126.312878855467
 21
1179.973188383201
 31
0.0
  0
LINE
  5
4F7
330
1B
100
AcDbEntity
  8
0
  6
Continuous
100
AcDbLine
 10
2124.612878855467
 20
1168.838873808201
 30
0.0
 11
2124.612878855467
 21
1178.273188383201
 31
0.0
  0
ARC
  5
4F8
330
1B
100
AcDbEntity
  8
0
  6
Continuous
100
AcDbCircle
 10
2199.012878855467
 20
1190.273188383201
 30
0.0
 40
0.4
100
AcDbArc
 50
90.00000000000019
 51
180.0000000000004
  0
ARC
  5
4F9
330
1B
100
AcDbEntity
  8
0
  6
Continuous
100
AcDbCircle
 10
2238.212878855466
 20
1190.273188383201
 30
0.0
 40
0.4
100
AcDbArc
 50
0.0
 51
90.00000000000019
  0
ARC
  5
4FA
330
1B
100
AcDbEntity
  8
0
  6
Continuous
100
AcDbCircle
 10
2196.612878855467
 20
1182.273188383201
 30
0.0
 40
2.0
100
AcDbArc
 50
270.0000000000006
 51
0.0000000000007994
  0
ARC
  5
4FB
330
1B
100
AcDbEntity
  8
0
  6
Continuous
100
AcDbCircle
 10
2240.612878855467
 20
1182.273188383201
 30
0.0
 40
2.0
100
AcDbArc
 50
180.0000000000004
 51
270.0000000000006
  0
ARC
  5
4FC
330
1B
100
AcDbEntity
  8
0
  6
Continuous
100
AcDbCircle
 10
2237.512878855467
 20
1191.073188383201
 30
0.0
 40
0.4
100
AcDbArc
 50
180.0000000000004
 51
269.9999902382006
  0
ARC
  5
4FD
330
1B
100
AcDbEntity
  8
0
  6
Continuous
100
AcDbCircle
 10
2199.712878855466
 20
1191.073188383201
 30
0.0
 40
0.4
100
AcDbArc
 50
270.0000097618006
 51
0.0000000000007994
  0
ARC
  5
4FE
330
1B
100
AcDbEntity
  8
0
  6
Continuous
100
AcDbCircle
 10
2236.712878855467
 20
1192.273188383201
 30
0.0
 40
0.4
100
AcDbArc
 50
0.0
 51
90.00000000000019
  0
ARC
  5
4FF
330
1B
100
AcDbEntity
  8
0
  6
Continuous
100
AcDbCircle
 10
2200.512878855467
 20
1192.273188383201
 30
0.0
 40
0.4
100
AcDbArc
 50
90.00000000000019
 51
180.0000000000004
  0
ARC
  5
500
330
1B
100
AcDbEntity
  8
0
  6
Continuous
100
AcDbCircle
 10
2195.012878855467
 20
1168.838873808201
 30
0.0
 40
0.4
100
AcDbArc
 50
180.0000000000004
 51
225.0000000010005
  0
ARC
  5
501
330
1B
100
AcDbEntity
  8
0
  6
Continuous
100
AcDbCircle
 10
2242.212878855466
 20
1168.838873808201
 30
0.0
 40
0.4
100
AcDbArc
 50
314.9999999991007
 51
0.0000000000007994
  0
ARC
  5
502
330
1B
100
AcDbEntity
  8
0
  6
Continuous
100
AcDbCircle
 10
2196.778564280467
 20
1167.073188383201
 30
0.0
 40
0.4
100
AcDbArc
 50
225.0000044710005
 51
270.0000000000006
  0
ARC
  5
503
330
1B
100
AcDbEntity
  8
0
  6
Continuous
100
AcDbCircle
 10
2240.447193430567
 20
1167.073188383201
 30
0.0
 40
0.4
100
AcDbArc
 50
270.0000000000006
 51
314.9999955290007
  0
LINE
  5
504
330
1B
100
AcDbEntity
  8
0
  6
Continuous
100
AcDbLine
 10
2238.212878853266
 20
1190.673188383201
 30
0.0
 11
2199.012878857666
 21
1190.673188383201
 31
0.0
  0
LINE
  5
505
330
1B
100
AcDbEntity
  8
0
  6
Continuous
100
AcDbLine
 10
2198.612878855467
 20
1182.273188383201
 30
0.0
 11
2238.612878855466
 21
1182.273188383201
 31
0.0
  0
LINE
  5
506
330
1B
100
AcDbEntity
  8
0
  6
Continuous
100
AcDbLine
 10
2196.312878855466
 20
1179.973188573901
 30
0.0
 11
2240.912878855466
 21
1179.973188573901
 31
0.0
  0
LINE
  5
507
330
1B
100
AcDbEntity
  8
0
  6
Continuous
100
AcDbLine
 10
2194.612878855467
 20
1178.273188383201
 30
0.0
 11
2242.612878855467
 21
1178.273188383201
 31
0.0
  0
LINE
  5
508
330
1B
100
AcDbEntity
  8
0
  6
Continuous
100
AcDbLine
 10
2242.612878855467
 20
1168.838873808201
 30
0.0
 11
2194.612878855467
 21
1168.838873808201
 31
0.0
  0
LINE
  5
50A
330
1B
100
AcDbEntity
  8
0
  6
Continuous
100
AcDbLine
 10
2240.447193388166
 20
1166.673188383201
 30
0.0
 11
2196.778564322866
 21
1166.673188383201
 31
0.0
  0
LINE
  5
50B
330
1B
100
AcDbEntity
  8
0
  6
Continuous
100
AcDbLine
 10
2240.730036120966
 20
1166.790345648701
 30
0.0
 11
2242.495721567967
 21
1168.556031095701
 31
0.0
  0
LINE
  5
50C
330
1B
100
AcDbEntity
  8
0
  6
Continuous
100
AcDbLine
 10
2194.612878855467
 20
1178.273188383201
 30
0.0
 11
2196.612878855467
 21
1180.273188383201
 31
0.0
  0
LINE
  5
50D
330
1B
100
AcDbEntity
  8
0
  6
Continuous
100
AcDbLine
 10
2242.612878855467
 20
1178.273188383201
 30
0.0
 11
2240.612878855467
 21
1180.273188383201
 31
0.0
  0
LINE
  5
50E
330
1B
100
AcDbEntity
  8
0
  6
Continuous
100
AcDbLine
 10
2242.612878855467
 20
1168.838873808201
 30
0.0
 11
2242.612878855467
 21
1178.273188383201
 31
0.0
  0
LINE
  5
50F
330
1B
100
AcDbEntity
  8
0
  6
Continuous
100
AcDbLine
 10
2240.912878855466
 20
1166.973188383201
 30
0.0
 11
2240.912878855466
 21
1179.973188383201
 31
0.0
  0
LINE
  5
510
330
1B
100
AcDbEntity
  8
0
  6
Continuous
100
AcDbLine
 10
2238.612878855466
 20
1182.273188383201
 30
0.0
 11
2238.612878855466
 21
1190.273188383201
 31
0.0
  0
LINE
  5
511
330
1B
100
AcDbEntity
  8
0
  6
Continuous
100
AcDbLine
 10
2237.112878855467
 20
1191.073188383201
 30
0.0
 11
2237.112878855467
 21
1192.273188383201
 31
0.0
  0
LINE
  5
512
330
1B
100
AcDbEntity
  8
0
  6
Continuous
100
AcDbLine
 10
2196.495721590066
 20
1166.790345648701
 30
0.0
 11
2194.730036143067
 21
1168.556031095701
 31
0.0
  0
LINE
  5
513
330
1B
100
AcDbEntity
  8
0
  6
Continuous
100
AcDbLine
 10
2200.112878855467
 20
1191.073188383201
 30
0.0
 11
2200.112878855467
 21
1192.273188383201
 31
0.0
  0
LINE
  5
514
330
1B
100
AcDbEntity
  8
0
  6
Continuous
100
AcDbLine
 10
2198.612878855467
 20
1182.273188383201
 30
0.0
 11
2198.612878855467
 21
1190.273188383201
 31
0.0
  0
LINE
  5
515
330
1B
100
AcDbEntity
  8
0
  6
Continuous
100
AcDbLine
 10
2196.312878855466
 20
1166.973188383201
 30
0.0
 11
2196.312878855466
 21
1179.973188383201
 31
0.0
  0
LINE
  5
516
330
1B
100
AcDbEntity
  8
0
  6
Continuous
100
AcDbLine
 10
2194.612878855467
 20
1168.838873808201
 30
0.0
 11
2194.612878855467
 21
1178.273188383201
 31
0.0
  0
SPLINE
  5
517
330
1B
100
AcDbEntity
  8
0
  6
Continuous
100
AcDbSpline
210
0.0
220
0.0
230
1.0
 70
     8
 71
     3
 72
    11
 73
     7
 74
     5
 42
0.0000000001
 43
0.0000000001
 44
0.0000000001
 40
0.0
 40
0.0
 40
0.0
 40
0.0
 40
0.8511078916134747
 40
1.542649903661289
 40
1.981076798366908
 40
2.15348810479583
 40
2.15348810479583
 40
2.15348810479583
 40
2.15348810479583
 10
1826.978377128466
 20
1194.673188383201
 30
0.0
 10
1827.107481633399
 20
1194.415886561634
 30
0.0
 10
1827.341486104582
 20
1193.94952191602
 30
0.0
 10
1827.516166839187
 20
1193.348569713076
 30
0.0
 10
1827.704736969678
 20
1192.878536231803
 30
0.0
 10
1827.565119776663
 20
1192.718390187362
 30
0.0
 10
1827.525712315566
 20
1192.673188383201
 30
0.0
 11
1826.978377128466
 21
1194.673188383201
 31
0.0
 11
1827.335865660066
 21
1193.900798201401
 31
0.0
 11
1827.562445684666
 21
1193.247428591701
 31
0.0
 11
1827.625765835666
 21
1192.813598324801
 31
0.0
 11
1827.525712315566
 21
1192.673188383201
 31
0.0
  0
SPLINE
  5
518
330
1B
100
AcDbEntity
  8
0
  6
Continuous
100
AcDbSpline
210
0.0
220
0.0
230
1.0
 70
     8
 71
     3
 72
    10
 73
     6
 74
     4
 42
0.0000000001
 43
0.0000000001
 44
0.0000000001
 40
0.0
 40
0.0
 40
0.0
 40
0.0
 40
0.2823209678102229
 40
1.239916756225673
 40
2.353757657118723
 40
2.353757657118723
 40
2.353757657118723
 40
2.353757657118723
 10
1823.799999399766
 20
1201.385639691701
 30
0.0
 10
1823.826855260733
 20
1201.295442320317
 30
0.0
 10
1823.944802688704
 20
1200.899307265192
 30
0.0
 10
1824.223150693735
 20
1200.16410407486
 30
0.0
 10
1824.520776332685
 20
1199.540911821526
 30
0.0
 10
1824.680813861966
 20
1199.205812504001
 30
0.0
 11
1823.799999399766
 21
1201.385639691701
 31
0.0
 11
1823.882053942266
 21
1201.115506056401
 31
0.0
 11
1824.215928369167
 21
1200.217999755001
 31
0.0
 11
1824.680813861966
 21
1199.205812504001
 31
0.0
  0
SPLINE
  5
519
330
1B
100
AcDbEntity
  8
0
  6
Continuous
100
AcDbSpline
210
0.0
220
0.0
230
1.0
 70
     8
 71
     3
 72
     9
 73
     5
 74
     3
 42
0.0000000001
 43
0.0000000001
 44
0.0000000001
 40
0.0
 40
0.0
 40
0.0
 40
0.0
 40
0.6143954606337194
 40
1.120800616392933
 40
1.120800616392933
 40
1.120800616392933
 40
1.120800616392933
 10
1823.612878855466
 20
1202.488419730601
 30
0.0
 10
1823.628405815914
 20
1202.283628731336
 30
0.0
 10
1823.656730613144
 20
1201.910042185022
 30
0.0
 10
1823.755412505197
 20
1201.548839780378
 30
0.0
 10
1823.799999399766
 20
1201.385639691701
 30
0.0
 11
1823.612878855466
 21
1202.488419730601
 31
0.0
 11
1823.680601790566
 21
1201.877768122801
 31
0.0
 11
1823.799999399766
 21
1201.385639691701
 31
0.0
  0
SPLINE
  5
51A
330
1B
100
AcDbEntity
  8
0
  6
Continuous
100
AcDbSpline
210
0.0
220
0.0
230
1.0
 70
     8
 71
     3
 72
     9
 73
     5
 74
     3
 42
0.0000000001
 43
0.0000000001
 44
0.0000000001
 40
0.0
 40
0.0
 40
0.0
 40
0.0
 40
2.58617008236923
 40
5.081701351830854
 40
5.081701351830854
 40
5.081701351830854
 40
5.081701351830854
 10
1826.978377128466
 20
1194.673188383201
 30
0.0
 10
1826.58534790405
 20
1195.440441601095
 30
0.0
 10
1825.813064149535
 20
1196.948057724702
 30
0.0
 10
1825.053715967353
 20
1198.462229994117
 30
0.0
 10
1824.680813861966
 20
1199.205812504001
 30
0.0
 11
1826.978377128466
 21
1194.673188383201
 31
0.0
 11
1825.802639738566
 21
1196.976646063501
 31
0.0
 11
1824.680813861966
 21
1199.205812504001
 31
0.0
  0
LINE
  5
51B
330
1B
100
AcDbEntity
  8
0
  6
Continuous
100
AcDbLine
 10
1823.612878855466
 20
1196.173188383201
 30
0.0
 11
1825.633604797667
 21
1192.673188383201
 31
0.0
  0
LINE
  5
51C
330
1B
100
AcDbEntity
  8
0
  6
Continuous
100
AcDbLine
 10
2263.612878855466
 20
1196.173188383201
 30
0.0
 11
2261.592152913267
 21
1192.673188383201
 31
0.0
  0
SPLINE
  5
51D
330
1B
100
AcDbEntity
  8
0
  6
Continuous
100
AcDbSpline
210
0.0
220
0.0
230
1.0
 70
     8
 71
     3
 72
     9
 73
     5
 74
     3
 42
0.0000000001
 43
0.0000000001
 44
0.0000000001
 40
0.0
 40
0.0
 40
0.0
 40
0.0
 40
2.586170082369644
 40
5.081701351831165
 40
5.081701351831165
 40
5.081701351831165
 40
5.081701351831165
 10
2260.247380582466
 20
1194.673188383201
 30
0.0
 10
2260.640409806883
 20
1195.440441601095
 30
0.0
 10
2261.412693561398
 20
1196.948057724701
 30
0.0
 10
2262.17204174358
 20
1198.462229994117
 30
0.0
 10
2262.544943848967
 20
1199.205812504001
 30
0.0
 11
2260.247380582466
 21
1194.673188383201
 31
0.0
 11
2261.423117972367
 21
1196.976646063501
 31
0.0
 11
2262.544943848967
 21
1199.205812504001
 31
0.0
  0
SPLINE
  5
51E
330
1B
100
AcDbEntity
  8
0
  6
Continuous
100
AcDbSpline
210
0.0
220
0.0
230
1.0
 70
     8
 71
     3
 72
     9
 73
     5
 74
     3
 42
0.0000000001
 43
0.0000000001
 44
0.0000000001
 40
0.0
 40
0.0
 40
0.0
 40
0.0
 40
0.6143954606337194
 40
1.120800616392933
 40
1.120800616392933
 40
1.120800616392933
 40
1.120800616392933
 10
2263.612878855466
 20
1202.488419730601
 30
0.0
 10
2263.597351895018
 20
1202.283628731336
 30
0.0
 10
2263.569027097788
 20
1201.910042185022
 30
0.0
 10
2263.470345205735
 20
1201.548839780378
 30
0.0
 10
2263.425758311166
 20
1201.385639691701
 30
0.0
 11
2263.612878855466
 21
1202.488419730601
 31
0.0
 11
2263.545155920366
 21
1201.877768122801
 31
0.0
 11
2263.425758311166
 21
1201.385639691701
 31
0.0
  0
SPLINE
  5
51F
330
1B
100
AcDbEntity
  8
0
  6
Continuous
100
AcDbSpline
210
0.0
220
0.0
230
1.0
 70
     8
 71
     3
 72
    10
 73
     6
 74
     4
 42
0.0000000001
 43
0.0000000001
 44
0.0000000001
 40
0.0
 40
0.0
 40
0.0
 40
0.0
 40
0.282320967810289
 40
1.239916756225105
 40
2.353757657118535
 40
2.353757657118535
 40
2.353757657118535
 40
2.353757657118535
 10
2263.425758311166
 20
1201.385639691701
 30
0.0
 10
2263.3989024502
 20
1201.295442320317
 30
0.0
 10
2263.280955022229
 20
1200.899307265192
 30
0.0
 10
2263.002607017199
 20
1200.16410407486
 30
0.0
 10
2262.704981378248
 20
1199.540911821526
 30
0.0
 10
2262.544943848967
 20
1199.205812504001
 30
0.0
 11
2263.425758311166
 21
1201.385639691701
 31
0.0
 11
2263.343703768666
 21
1201.115506056401
 31
0.0
 11
2263.009829341767
 21
1200.217999755001
 31
0.0
 11
2262.544943848967
 21
1199.205812504001
 31
0.0
  0
SPLINE
  5
520
330
1B
100
AcDbEntity
  8
0
  6
Continuous
100
AcDbSpline
210
0.0
220
0.0
230
1.0
 70
     8
 71
     3
 72
    11
 73
     7
 74
     5
 42
0.0000000001
 43
0.0000000001
 44
0.0000000001
 40
0.0
 40
0.0
 40
0.0
 40
0.0
 40
0.8511078916135703
 40
1.542649903661385
 40
1.981076798367004
 40
2.153488104796454
 40
2.153488104796454
 40
2.153488104796454
 40
2.153488104796454
 10
2260.247380582466
 20
1194.673188383201
 30
0.0
 10
2260.118276077534
 20
1194.415886561634
 30
0.0
 10
2259.884271606351
 20
1193.949521916021
 30
0.0
 10
2259.709590871743
 20
1193.348569713076
 30
0.0
 10
2259.521020741253
 20
1192.878536231803
 30
0.0
 10
2259.66063793427
 20
1192.718390187362
 30
0.0
 10
2259.700045395367
 20
1192.673188383201
 30
0.0
 11
2260.247380582466
 21
1194.673188383201
 31
0.0
 11
2259.889892050866
 21
1193.900798201401
 31
0.0
 11
2259.663312026266
 21
1193.247428591701
 31
0.0
 11
2259.599991875266
 21
1192.813598324801
 31
0.0
 11
2259.700045395367
 21
1192.673188383201
 31
0.0
  0
SPLINE
  5
521
330
1B
100
AcDbEntity
  8
0
  6
Continuous
100
AcDbSpline
210
0.0
220
0.0
230
1.0
 70
     8
 71
     3
 72
    11
 73
     7
 74
     5
 42
0.0000000001
 43
0.0000000001
 44
0.0000000001
 40
0.0
 40
0.0
 40
0.0
 40
0.0
 40
0.8511078916133639
 40
1.542649903661393
 40
1.981076798367012
 40
2.153488104796462
 40
2.153488104796462
 40
2.153488104796462
 40
2.153488104796462
 10
2260.247380582466
 20
1272.673188383201
 30
0.0
 10
2260.118276077534
 20
1272.930490204768
 30
0.0
 10
2259.884271606351
 20
1273.396854850382
 30
0.0
 10
2259.709590871744
 20
1273.997807053325
 30
0.0
 10
2259.521020741254
 20
1274.4678405346
 30
0.0
 10
2259.660637934269
 20
1274.62798657904
 30
0.0
 10
2259.700045395367
 20
1274.673188383201
 30
0.0
 11
2260.247380582466
 21
1272.673188383201
 31
0.0
 11
2259.889892050866
 21
1273.445578565001
 31
0.0
 11
2259.663312026266
 21
1274.098948174701
 31
0.0
 11
2259.599991875266
 21
1274.532778441601
 31
0.0
 11
2259.700045395367
 21
1274.673188383201
 31
0.0
  0
SPLINE
  5
522
330
1B
100
AcDbEntity
  8
0
  6
Continuous
100
AcDbSpline
210
0.0
220
0.0
230
1.0
 70
     8
 71
     3
 72
    10
 73
     6
 74
     4
 42
0.0000000001
 43
0.0000000001
 44
0.0000000001
 40
0.0
 40
0.0
 40
0.0
 40
0.0
 40
0.282320967810289
 40
1.239916756225105
 40
2.353757657118535
 40
2.353757657118535
 40
2.353757657118535
 40
2.353757657118535
 10
2263.425758311166
 20
1265.960737074701
 30
0.0
 10
2263.3989024502
 20
1266.050934446085
 30
0.0
 10
2263.280955022229
 20
1266.44706950121
 30
0.0
 10
2263.002607017199
 20
1267.182272691542
 30
0.0
 10
2262.704981378248
 20
1267.805464944876
 30
0.0
 10
2262.544943848967
 20
1268.140564262401
 30
0.0
 11
2263.425758311166
 21
1265.960737074701
 31
0.0
 11
2263.343703768666
 21
1266.230870710001
 31
0.0
 11
2263.009829341767
 21
1267.128377011401
 31
0.0
 11
2262.544943848967
 21
1268.140564262401
 31
0.0
  0
SPLINE
  5
523
330
1B
100
AcDbEntity
  8
0
  6
Continuous
100
AcDbSpline
210
0.0
220
0.0
230
1.0
 70
     8
 71
     3
 72
     9
 73
     5
 74
     3
 42
0.0000000001
 43
0.0000000001
 44
0.0000000001
 40
0.0
 40
0.0
 40
0.0
 40
0.0
 40
0.6143954606337194
 40
1.120800616392933
 40
1.120800616392933
 40
1.120800616392933
 40
1.120800616392933
 10
2263.612878855466
 20
1264.857957035801
 30
0.0
 10
2263.597351895018
 20
1265.062748035067
 30
0.0
 10
2263.569027097788
 20
1265.43633458138
 30
0.0
 10
2263.470345205735
 20
1265.797536986024
 30
0.0
 10
2263.425758311166
 20
1265.960737074701
 30
0.0
 11
2263.612878855466
 21
1264.857957035801
 31
0.0
 11
2263.545155920366
 21
1265.468608643601
 31
0.0
 11
2263.425758311166
 21
1265.960737074701
 31
0.0
  0
SPLINE
  5
524
330
1B
100
AcDbEntity
  8
0
  6
Continuous
100
AcDbSpline
210
0.0
220
0.0
230
1.0
 70
     8
 71
     3
 72
     9
 73
     5
 74
     3
 42
0.0000000001
 43
0.0000000001
 44
0.0000000001
 40
0.0
 40
0.0
 40
0.0
 40
0.0
 40
2.586170082369644
 40
5.081701351831165
 40
5.081701351831165
 40
5.081701351831165
 40
5.081701351831165
 10
2260.247380582466
 20
1272.673188383201
 30
0.0
 10
2260.640409806883
 20
1271.905935165307
 30
0.0
 10
2261.412693561398
 20
1270.398319041701
 30
0.0
 10
2262.17204174358
 20
1268.884146772286
 30
0.0
 10
2262.544943848967
 20
1268.140564262401
 30
0.0
 11
2260.247380582466
 21
1272.673188383201
 31
0.0
 11
2261.423117972367
 21
1270.369730702901
 31
0.0
 11
2262.544943848967
 21
1268.140564262401
 31
0.0
  0
LINE
  5
525
330
1B
100
AcDbEntity
  8
0
  6
Continuous
100
AcDbLine
 10
2263.612878855466
 20
1271.173188383201
 30
0.0
 11
2261.592152913267
 21
1274.673188383201
 31
0.0
  0
LINE
  5
526
330
1B
100
AcDbEntity
  8
0
  6
Continuous
100
AcDbLine
 10
2263.612878855466
 20
1271.173188383201
 30
0.0
 11
2263.612878855466
 21
1196.173188383201
 31
0.0
  0
LINE
  5
528
330
1B
100
AcDbEntity
  8
0
  6
Continuous
100
AcDbLine
 10
2339.612878855516
 20
1168.838873808201
 30
0.0
 11
2339.612878855516
 21
1178.273188383201
 31
0.0
  0
LINE
  5
529
330
1B
100
AcDbEntity
  8
0
  6
Continuous
100
AcDbLine
 10
2341.312878855516
 20
1166.973188383201
 30
0.0
 11
2341.312878855516
 21
1179.973188383201
 31
0.0
  0
LINE
  5
52A
330
1B
100
AcDbEntity
  8
0
  6
Continuous
100
AcDbLine
 10
2343.612878855516
 20
1182.273188383201
 30
0.0
 11
2343.612878855516
 21
1190.273188383201
 31
0.0
  0
LINE
  5
52B
330
1B
100
AcDbEntity
  8
0
  6
Continuous
100
AcDbLine
 10
2345.112878855516
 20
1191.073188383201
 30
0.0
 11
2345.112878855516
 21
1192.273188383201
 31
0.0
  0
LINE
  5
52C
330
1B
100
AcDbEntity
  8
0
  6
Continuous
100
AcDbLine
 10
2341.495721590117
 20
1166.790345648701
 30
0.0
 11
2339.730036143116
 21
1168.556031095701
 31
0.0
  0
LINE
  5
52D
330
1B
100
AcDbEntity
  8
0
  6
Continuous
100
AcDbLine
 10
2382.112878855516
 20
1191.073188383201
 30
0.0
 11
2382.112878855516
 21
1192.273188383201
 31
0.0
  0
LINE
  5
52E
330
1B
100
AcDbEntity
  8
0
  6
Continuous
100
AcDbLine
 10
2383.612878855516
 20
1182.273188383201
 30
0.0
 11
2383.612878855516
 21
1190.273188383201
 31
0.0
  0
LINE
  5
52F
330
1B
100
AcDbEntity
  8
0
  6
Continuous
100
AcDbLine
 10
2385.912878855517
 20
1166.973188383201
 30
0.0
 11
2385.912878855517
 21
1179.973188383201
 31
0.0
  0
LINE
  5
530
330
1B
100
AcDbEntity
  8
0
  6
Continuous
100
AcDbLine
 10
2387.612878855516
 20
1168.838873808201
 30
0.0
 11
2387.612878855516
 21
1178.273188383201
 31
0.0
  0
LINE
  5
531
330
1B
100
AcDbEntity
  8
0
  6
Continuous
100
AcDbLine
 10
2387.612878855516
 20
1178.273188383201
 30
0.0
 11
2385.612878855516
 21
1180.273188383201
 31
0.0
  0
LINE
  5
532
330
1B
100
AcDbEntity
  8
0
  6
Continuous
100
AcDbLine
 10
2339.612878855516
 20
1178.273188383201
 30
0.0
 11
2341.612878855516
 21
1180.273188383201
 31
0.0
  0
LINE
  5
533
330
1B
100
AcDbEntity
  8
0
  6
Continuous
100
AcDbLine
 10
2385.730036121016
 20
1166.790345648701
 30
0.0
 11
2387.495721568016
 21
1168.556031095701
 31
0.0
  0
LINE
  5
534
330
1B
100
AcDbEntity
  8
0
  6
Continuous
100
AcDbLine
 10
2385.447193388216
 20
1166.673188383201
 30
0.0
 11
2341.778564322916
 21
1166.673188383201
 31
0.0
  0
LINE
  5
536
330
1B
100
AcDbEntity
  8
0
  6
Continuous
100
AcDbLine
 10
2387.612878855516
 20
1168.838873808201
 30
0.0
 11
2339.612878855516
 21
1168.838873808201
 31
0.0
  0
LINE
  5
537
330
1B
100
AcDbEntity
  8
0
  6
Continuous
100
AcDbLine
 10
2339.612878855516
 20
1178.273188383201
 30
0.0
 11
2387.612878855516
 21
1178.273188383201
 31
0.0
  0
LINE
  5
538
330
1B
100
AcDbEntity
  8
0
  6
Continuous
100
AcDbLine
 10
2341.312878855516
 20
1179.973188573901
 30
0.0
 11
2385.912878855517
 21
1179.973188573901
 31
0.0
  0
LINE
  5
539
330
1B
100
AcDbEntity
  8
0
  6
Continuous
100
AcDbLine
 10
2343.612878855516
 20
1182.273188383201
 30
0.0
 11
2383.612878855516
 21
1182.273188383201
 31
0.0
  0
LINE
  5
53A
330
1B
100
AcDbEntity
  8
0
  6
Continuous
100
AcDbLine
 10
2383.212878853317
 20
1190.673188383201
 30
0.0
 11
2344.012878857716
 21
1190.673188383201
 31
0.0
  0
ARC
  5
53B
330
1B
100
AcDbEntity
  8
0
  6
Continuous
100
AcDbCircle
 10
2385.447193430616
 20
1167.073188383201
 30
0.0
 40
0.4
100
AcDbArc
 50
270.0000000000006
 51
314.9999955290007
  0
ARC
  5
53C
330
1B
100
AcDbEntity
  8
0
  6
Continuous
100
AcDbCircle
 10
2341.778564280516
 20
1167.073188383201
 30
0.0
 40
0.4
100
AcDbArc
 50
225.0000044710005
 51
270.0000000000006
  0
ARC
  5
53D
330
1B
100
AcDbEntity
  8
0
  6
Continuous
100
AcDbCircle
 10
2387.212878855517
 20
1168.838873808201
 30
0.0
 40
0.4
100
AcDbArc
 50
314.9999999991007
 51
0.0000000000007994
  0
ARC
  5
53E
330
1B
100
AcDbEntity
  8
0
  6
Continuous
100
AcDbCircle
 10
2340.012878855516
 20
1168.838873808201
 30
0.0
 40
0.4
100
AcDbArc
 50
180.0000000000004
 51
225.0000000010005
  0
ARC
  5
53F
330
1B
100
AcDbEntity
  8
0
  6
Continuous
100
AcDbCircle
 10
2345.512878855516
 20
1192.273188383201
 30
0.0
 40
0.4
100
AcDbArc
 50
90.00000000000019
 51
180.0000000000004
  0
ARC
  5
540
330
1B
100
AcDbEntity
  8
0
  6
Continuous
100
AcDbCircle
 10
2381.712878855517
 20
1192.273188383201
 30
0.0
 40
0.4
100
AcDbArc
 50
0.0
 51
90.00000000000019
  0
ARC
  5
541
330
1B
100
AcDbEntity
  8
0
  6
Continuous
100
AcDbCircle
 10
2344.712878855517
 20
1191.073188383201
 30
0.0
 40
0.4
100
AcDbArc
 50
270.0000097618006
 51
0.0000000000007994
  0
ARC
  5
542
330
1B
100
AcDbEntity
  8
0
  6
Continuous
100
AcDbCircle
 10
2382.512878855516
 20
1191.073188383201
 30
0.0
 40
0.4
100
AcDbArc
 50
180.0000000000004
 51
269.9999902382006
  0
ARC
  5
543
330
1B
100
AcDbEntity
  8
0
  6
Continuous
100
AcDbCircle
 10
2385.612878855516
 20
1182.273188383201
 30
0.0
 40
2.0
100
AcDbArc
 50
180.0000000000004
 51
270.0000000000006
  0
ARC
  5
544
330
1B
100
AcDbEntity
  8
0
  6
Continuous
100
AcDbCircle
 10
2341.612878855516
 20
1182.273188383201
 30
0.0
 40
2.0
100
AcDbArc
 50
270.0000000000006
 51
0.0000000000007994
  0
ARC
  5
545
330
1B
100
AcDbEntity
  8
0
  6
Continuous
100
AcDbCircle
 10
2383.212878855516
 20
1190.273188383201
 30
0.0
 40
0.4
100
AcDbArc
 50
0.0
 51
90.00000000000019
  0
ARC
  5
546
330
1B
100
AcDbEntity
  8
0
  6
Continuous
100
AcDbCircle
 10
2344.012878855517
 20
1190.273188383201
 30
0.0
 40
0.4
100
AcDbArc
 50
90.00000000000019
 51
180.0000000000004
  0
CIRCLE
  5
548
330
1B
100
AcDbEntity
  8
0
100
AcDbCircle
 10
2363.612878855516
 20
1233.673188383201
 30
0.0
 40
33.25
  0
LINE
  5
DCB0
330
1B
100
AcDbEntity
  8
DEFAULT_1
  6
CENTER
100
AcDbLine
 10
2312.903990173709
 20
1233.673188383201
 30
0.0
 11
2412.164404038574
 21
1233.673188383201
 31
0.0
  0
ENDSEC
  0
SECTION
  2
OBJECTS
  0
DICTIONARY
  5
412
330
0
100
AcDbDictionary
281
     1
  3
ACAD_COLOR
350
41D
  3
ACAD_GROUP
350
413
  3
ACAD_LAYOUT
350
41E
  3
ACAD_MATERIAL
350
41C
  3
ACAD_MLINESTYLE
350
414
  3
ACAD_PLOTSETTINGS
350
41F
  3
ACAD_PLOTSTYLENAME
350
41A
  3
ACDBHEADERROUNDTRIPXREC
350
2ADF5
  3
AcDbVariableDictionary
350
2ADED
  0
DICTIONARY
  5
41D
102
{ACAD_REACTORS
330
412
102
}
330
412
100
AcDbDictionary
281
     1
  0
DICTIONARY
  5
413
102
{ACAD_REACTORS
330
412
102
}
330
412
100
AcDbDictionary
281
     1
  0
DICTIONARY
  5
41E
102
{ACAD_REACTORS
330
412
102
}
330
412
100
AcDbDictionary
281
     1
  3
Layout1
350
421
  3
Model
350
420
  0
DICTIONARY
  5
41C
102
{ACAD_REACTORS
330
412
102
}
330
412
100
AcDbDictionary
281
     1
  0
DICTIONARY
  5
414
102
{ACAD_REACTORS
330
412
102
}
330
412
100
AcDbDictionary
281
     1
  3
STANDARD
350
415
  0
DICTIONARY
  5
41F
102
{ACAD_REACTORS
330
412
102
}
330
412
100
AcDbDictionary
281
     1
  0
ACDBDICTIONARYWDFLT
  5
41A
102
{ACAD_REACTORS
330
412
102
}
330
412
100
AcDbDictionary
281
     1
  3
Normal
350
41B
100
AcDbDictionaryWithDefault
340
41B
  0
DICTIONARY
  5
2ADF5
102
{ACAD_REACTORS
330
412
102
}
330
412
100
AcDbDictionary
281
     1
  3
COLORDICT
350
2ADF6
  3
MATERIALDICT
350
2ADF7
  0
DICTIONARY
  5
2ADED
102
{ACAD_REACTORS
330
412
102
}
330
412
100
AcDbDictionary
281
     1
  0
LAYOUT
  5
421
102
{ACAD_REACTORS
330
41E
102
}
330
41E
100
AcDbPlotSettings
  1

  2
\\alderaan\HP LaserJet 4050 Ricerca
  4

  6

 40
0.0
 41
0.0
 42
0.0
 43
0.0
 44
0.0
 45
0.0
 46
0.0
 47
0.0
 48
0.0
 49
0.0
140
0.0
141
0.0
142
1.0
143
1.0
 70
   688
 72
     0
 73
     0
 74
     5
  7

 75
    16
147
1.0
148
0.0
149
0.0
100
AcDbLayout
  1
Layout1
 70
     0
 71
     1
 10
0.0
 20
0.0
 11
12.0
 21
9.0
 12
0.0
 22
0.0
 32
0.0
 14
1.000000000000000E+20
 24
1.000000000000000E+20
 34
1.000000000000000E+20
 15
-1.000000000000000E+20
 25
-1.000000000000000E+20
 35
-1.000000000000000E+20
146
0.0
 13
0.0
 23
0.0
 33
0.0
 16
1.0
 26
0.0
 36
0.0
 17
0.0
 27
1.0
 37
0.0
 76
     0
330
1C
  0
LAYOUT
  5
420
102
{ACAD_REACTORS
330
41E
102
}
330
41E
100
AcDbPlotSettings
  1

  2
\\alderaan\HP LaserJet 4050 Ricerca
  4
A4
  6

 40
5.027083396911621
 41
5.069430828094482
 42
5.365737915039062
 43
5.365753173828125
 44
209.8886566162109
 45
297.0530090332031
 46
49.784
 47
-1.016
 48
-230.9841981638419
 49
1816.890201395042
140
904.7601850852935
141
2209.683276104576
142
1.0
143
100.0
 70
 11956
 72
     0
 73
     1
 74
     4
  7

 75
    26
147
0.01
148
5866.998633361586
149
-46149.01111543406
100
AcDbLayout
  1
Model
 70
     1
 71
     0
 10
0.0
 20
0.0
 11
12.0
 21
9.0
 12
0.0
 22
0.0
 32
0.0
 14
0.0
 24
0.0
 34
0.0
 15
0.0
 25
0.0
 35
0.0
146
0.0
 13
0.0
 23
0.0
 33
0.0
 16
1.0
 26
0.0
 36
0.0
 17
0.0
 27
1.0
 37
0.0
 76
     0
330
1B
  0
MLINESTYLE
  5
415
102
{ACAD_REACTORS
330
414
102
}
330
414
100
AcDbMlineStyle
  2
STANDARD
 70
     0
  3

 62
   256
 51
90.00000000000019
 52
90.00000000000019
 71
     2
 49
0.5
 62
   256
  6
BYLAYER
 49
-0.5
 62
   256
  6
BYLAYER
  0
ACDBPLACEHOLDER
  5
41B
102
{ACAD_REACTORS
330
41A
102
}
330
41A
  0
XRECORD
  5
2ADF6
102
{ACAD_REACTORS
330
2ADF5
102
}
330
2ADF5
100
AcDbXrecord
280
     1
340
41D
  0
XRECORD
  5
2ADF7
102
{ACAD_REACTORS
330
2ADF5
102
}
330
2ADF5
100
AcDbXrecord
280
     1
340
41C
  0
ENDSEC
  0
EOF
