  0
SECTION
  2
HEADER
  9
$ACADVER
  1
AC1015
  9
$ACADMAINTVER
 70
     6
  9
$DWGCODEPAGE
  3
ANSI_1252
  9
$INSBASE
 10
0.0
 20
0.0
 30
0.0
  9
$EXTMIN
 10
-0.1
 20
-0.1
 30
0.0
  9
$EXTMAX
 10
210.1
 20
297.1
 30
0.0
  9
$LIMMIN
 10
0.0
 20
0.0
  9
$LIMMAX
 10
210.0
 20
297.0
  9
$ORTHOMODE
 70
     0
  9
$REGENMODE
 70
     1
  9
$FILLMODE
 70
     1
  9
$QTEXTMODE
 70
     0
  9
$MIRRTEXT
 70
     1
  9
$LTSCALE
 40
19.36
  9
$ATTMODE
 70
     1
  9
$TEXTSIZE
 40
0.2
  9
$TRACEWID
 40
0.05
  9
$TEXTSTYLE
  7
STANDARD
  9
$CLAYER
  8
0
  9
$CELTYPE
  6
BYLAYER
  9
$CECOLOR
 62
   256
  9
$CELTSCALE
 40
1.0
  9
$DISPSILH
 70
     0
  9
$DIMSCALE
 40
1.0
  9
$DIMASZ
 40
3.0
  9
$DIMEXO
 40
2.2
  9
$DIMDLI
 40
13.376
  9
$DIMRND
 40
0.0
  9
$DIMDLE
 40
0.0
  9
$DIMEXE
 40
6.336
  9
$DIMTP
 40
0.003
  9
$DIMTM
 40
0.003
  9
$DIMTXT
 40
1.5
  9
$DIMCEN
 40
3.168
  9
$DIMTSZ
 40
0.0
  9
$DIMTOL
 70
     1
  9
$DIMLIM
 70
     0
  9
$DIMTIH
 70
     1
  9
$DIMTOH
 70
     1
  9
$DIMSE1
 70
     0
  9
$DIMSE2
 70
     0
  9
$DIMTAD
 70
     0
  9
$DIMZIN
 70
     0
  9
$DIMBLK
  1

  9
$DIMASO
 70
     1
  9
$DIMSHO
 70
     1
  9
$DIMPOST
  1

  9
$DIMAPOST
  1

  9
$DIMALT
 70
     0
  9
$DIMALTD
 70
     2
  9
$DIMALTF
 40
25.4
  9
$DIMLFAC
 40
1.0
  9
$DIMTOFL
 70
     0
  9
$DIMTVP
 40
0.0
  9
$DIMTIX
 70
     0
  9
$DIMSOXD
 70
     0
  9
$DIMSAH
 70
     0
  9
$DIMBLK1
  1

  9
$DIMBLK2
  1

  9
$DIMSTYLE
  2
STANDARD
  9
$DIMCLRD
 70
     0
  9
$DIMCLRE
 70
     0
  9
$DIMCLRT
 70
     0
  9
$DIMTFAC
 40
1.0
  9
$DIMGAP
 40
0.09
  9
$DIMJUST
 70
     0
  9
$DIMSD1
 70
     0
  9
$DIMSD2
 70
     0
  9
$DIMTOLJ
 70
     1
  9
$DIMTZIN
 70
     0
  9
$DIMALTZ
 70
     0
  9
$DIMALTTZ
 70
     0
  9
$DIMUPT
 70
     0
  9
$DIMDEC
 70
     4
  9
$DIMTDEC
 70
     4
  9
$DIMALTU
 70
     2
  9
$DIMALTTD
 70
     2
  9
$DIMTXSTY
  7
STANDARD
  9
$DIMAUNIT
 70
     0
  9
$DIMADEC
 70
     0
  9
$DIMALTRND
 40
0.0
  9
$DIMAZIN
 70
     0
  9
$DIMDSEP
 70
    46
  9
$DIMATFIT
 70
     3
  9
$DIMFRAC
 70
     0
  9
$DIMLDRBLK
  1

  9
$DIMLUNIT
 70
     2
  9
$DIMLWD
 70
    -2
  9
$DIMLWE
 70
    -2
  9
$DIMTMOVE
 70
     0
  9
$LUNITS
 70
     2
  9
$LUPREC
 70
     4
  9
$SKETCHINC
 40
0.1
  9
$FILLETRAD
 40
0.0
  9
$AUNITS
 70
     0
  9
$AUPREC
 70
     0
  9
$MENU
  1
acad
  9
$ELEVATION
 40
0.0
  9
$PELEVATION
 40
0.0
  9
$THICKNESS
 40
0.0
  9
$LIMCHECK
 70
     0
  9
$CHAMFERA
 40
0.0
  9
$CHAMFERB
 40
0.0
  9
$CHAMFERC
 40
0.0
  9
$CHAMFERD
 40
0.0
  9
$SKPOLY
 70
     0
  9
$TDCREATE
 40
2444972.041666667
  9
$TDUCREATE
 40
2444972.0
  9
$TDUPDATE
 40
2453410.660930567
  9
$TDUUPDATE
 40
2453410.6192639
  9
$TDINDWG
 40
0.0004372917
  9
$TDUSRTIMER
 40
0.0004372917
  9
$USRTIMER
 70
     1
  9
$ANGBASE
 50
0.0
  9
$ANGDIR
 70
     0
  9
$PDMODE
 70
     3
  9
$PDSIZE
 40
0.3125
  9
$PLINEWID
 40
0.0
  9
$SPLFRAME
 70
     0
  9
$SPLINETYPE
 70
     6
  9
$SPLINESEGS
 70
     8
  9
$HANDSEED
  5
6DF
  9
$SURFTAB1
 70
     6
  9
$SURFTAB2
 70
     6
  9
$SURFTYPE
 70
     6
  9
$SURFU
 70
     6
  9
$SURFV
 70
     6
  9
$UCSBASE
  2

  9
$UCSNAME
  2

  9
$UCSORG
 10
0.0
 20
0.0
 30
0.0
  9
$UCSXDIR
 10
1.0
 20
0.0
 30
0.0
  9
$UCSYDIR
 10
0.0
 20
1.0
 30
0.0
  9
$UCSORTHOREF
  2

  9
$UCSORTHOVIEW
 70
     0
  9
$UCSORGTOP
 10
0.0
 20
0.0
 30
0.0
  9
$UCSORGBOTTOM
 10
0.0
 20
0.0
 30
0.0
  9
$UCSORGLEFT
 10
0.0
 20
0.0
 30
0.0
  9
$UCSORGRIGHT
 10
0.0
 20
0.0
 30
0.0
  9
$UCSORGFRONT
 10
0.0
 20
0.0
 30
0.0
  9
$UCSORGBACK
 10
0.0
 20
0.0
 30
0.0
  9
$PUCSBASE
  2

  9
$PUCSNAME
  2

  9
$PUCSORG
 10
0.0
 20
0.0
 30
0.0
  9
$PUCSXDIR
 10
1.0
 20
0.0
 30
0.0
  9
$PUCSYDIR
 10
0.0
 20
1.0
 30
0.0
  9
$PUCSORTHOREF
  2

  9
$PUCSORTHOVIEW
 70
     0
  9
$PUCSORGTOP
 10
0.0
 20
0.0
 30
0.0
  9
$PUCSORGBOTTOM
 10
0.0
 20
0.0
 30
0.0
  9
$PUCSORGLEFT
 10
0.0
 20
0.0
 30
0.0
  9
$PUCSORGRIGHT
 10
0.0
 20
0.0
 30
0.0
  9
$PUCSORGFRONT
 10
0.0
 20
0.0
 30
0.0
  9
$PUCSORGBACK
 10
0.0
 20
0.0
 30
0.0
  9
$USERI1
 70
     0
  9
$USERI2
 70
     0
  9
$USERI3
 70
     0
  9
$USERI4
 70
     0
  9
$USERI5
 70
     0
  9
$USERR1
 40
0.0
  9
$USERR2
 40
0.0
  9
$USERR3
 40
0.0
  9
$USERR4
 40
0.0
  9
$USERR5
 40
0.0
  9
$WORLDVIEW
 70
     1
  9
$SHADEDGE
 70
     3
  9
$SHADEDIF
 70
    70
  9
$TILEMODE
 70
     1
  9
$MAXACTVP
 70
    16
  9
$PINSBASE
 10
0.0
 20
0.0
 30
0.0
  9
$PLIMCHECK
 70
     0
  9
$PEXTMIN
 10
1.000000000000000E+20
 20
1.000000000000000E+20
 30
1.000000000000000E+20
  9
$PEXTMAX
 10
-1.000000000000000E+20
 20
-1.000000000000000E+20
 30
-1.000000000000000E+20
  9
$PLIMMIN
 10
0.0
 20
0.0
  9
$PLIMMAX
 10
12.0
 20
9.0
  9
$UNITMODE
 70
     0
  9
$VISRETAIN
 70
     0
  9
$PLINEGEN
 70
     1
  9
$PSLTSCALE
 70
     0
  9
$TREEDEPTH
 70
  3020
  9
$CMLSTYLE
  2
STANDARD
  9
$CMLJUST
 70
     0
  9
$CMLSCALE
 40
1.0
  9
$PROXYGRAPHICS
 70
     1
  9
$MEASUREMENT
 70
     0
  9
$CELWEIGHT
370
    -1
  9
$ENDCAPS
280
     0
  9
$JOINSTYLE
280
     0
  9
$LWDISPLAY
290
     0
  9
$INSUNITS
 70
     0
  9
$HYPERLINKBASE
  1

  9
$STYLESHEET
  1

  9
$XEDIT
290
     1
  9
$CEPSNTYPE
380
     0
  9
$PSTYLEMODE
290
     1
  9
$FINGERPRINTGUID
  2
{E60DE6E6-26A3-4E34-BF9C-010B1F0780E7}
  9
$VERSIONGUID
  2
{BE01254D-CC78-4F62-AFF1-9B604BB2E2DE}
  9
$EXTNAMES
290
     1
  9
$PSVPSCALE
 40
0.0
  9
$OLESTARTUP
290
     0
  0
ENDSEC
  0
SECTION
  2
CLASSES
  0
CLASS
  1
IMAGE
  2
AcDbRasterImage
  3
ISM
 90
      127
280
     0
281
     1
  0
CLASS
  1
DICTIONARYVAR
  2
AcDbDictionaryVar
  3
ObjectDBX Classes
 90
        0
280
     0
281
     0
  0
CLASS
  1
RASTERVARIABLES
  2
AcDbRasterVariables
  3
ISM
 90
        0
280
     0
281
     0
  0
CLASS
  1
IMAGEDEF
  2
AcDbRasterImageDef
  3
ISM
 90
        0
280
     0
281
     0
  0
CLASS
  1
IMAGEDEF_REACTOR
  2
AcDbRasterImageDefReactor
  3
ISM
 90
        1
280
     0
281
     0
  0
CLASS
  1
IDBUFFER
  2
AcDbIdBuffer
  3
ObjectDBX Classes
 90
        0
280
     0
281
     0
  0
CLASS
  1
SPATIAL_FILTER
  2
AcDbSpatialFilter
  3
ObjectDBX Classes
 90
        0
280
     0
281
     0
  0
CLASS
  1
SORTENTSTABLE
  2
AcDbSortentsTable
  3
ObjectDBX Classes
 90
        0
280
     0
281
     0
  0
CLASS
  1
LAYER_INDEX
  2
AcDbLayerIndex
  3
ObjectDBX Classes
 90
        0
280
     0
281
     0
  0
CLASS
  1
SPATIAL_INDEX
  2
AcDbSpatialIndex
  3
AutoCAD 2000
 90
        0
280
     0
281
     0
  0
CLASS
  1
OBJECT_PTR
  2
CAseDLPNTableRecord
  3
ASE-LPNTableRecord
 90
        1
280
     0
281
     0
  0
CLASS
  1
PLOTSETTINGS
  2
AcDbPlotSettings
  3
ObjectDBX Classes
 90
        0
280
     0
281
     0
  0
CLASS
  1
ACDBDICTIONARYWDFLT
  2
AcDbDictionaryWithDefault
  3
ObjectDBX Classes
 90
        0
280
     0
281
     0
  0
CLASS
  1
WIPEOUT
  2
AcDbWipeout
  3
WipeOut|AutoCAD Express Tool|expresstools@autodesk.com
 90
      127
280
     0
281
     1
  0
CLASS
  1
WIPEOUTVARIABLES
  2
AcDbWipeoutVariables
  3
WipeOut|AutoCAD Express Tool|expresstools@autodesk.com
 90
        0
280
     0
281
     0
  0
CLASS
  1
RTEXT
  2
RText
  3
RText|AutoCAD Express Tool|expresstools@autodesk.com
 90
        0
280
     0
281
     1
  0
CLASS
  1
ARCALIGNEDTEXT
  2
AcDbArcAlignedText
  3
ATEXT|AutoCAD Express Tool|expresstools@autodesk.com
 90
        0
280
     0
281
     1
  0
CLASS
  1
ACDBPLACEHOLDER
  2
AcDbPlaceHolder
  3
ObjectDBX Classes
 90
        0
280
     0
281
     0
  0
CLASS
  1
LAYOUT
  2
AcDbLayout
  3
ObjectDBX Classes
 90
        0
280
     0
281
     0
  0
ENDSEC
  0
SECTION
  2
TABLES
  0
TABLE
  2
VPORT
  5
8
330
0
100
AcDbSymbolTable
 70
     1
  0
VPORT
  5
6D8
330
8
100
AcDbSymbolTableRecord
100
AcDbViewportTableRecord
  2
*Active
 70
     0
 10
0.0
 20
0.0
 11
1.0
 21
1.0
 12
80.61410475517005
 22
166.3612198672362
 13
0.0
 23
0.0
 14
1.0
 24
1.0
 15
0.0
 25
0.0
 16
0.0
 26
0.0
 36
1.0
 17
0.0
 27
0.0
 37
0.0
 40
129.4285293849456
 41
1.888667992047713
 42
50.0
 43
0.0
 44
0.0
 50
0.0
 51
0.0
 71
     0
 72
   100
 73
     1
 74
     1
 75
     0
 76
     0
 77
     0
 78
     0
281
     0
 65
     1
110
0.0
120
0.0
130
0.0
111
1.0
121
0.0
131
0.0
112
0.0
122
1.0
132
0.0
 79
     0
146
0.0
  0
ENDTAB
  0
TABLE
  2
LTYPE
  5
5
330
0
100
AcDbSymbolTable
 70
     1
  0
LTYPE
  5
14
330
5
100
AcDbSymbolTableRecord
100
AcDbLinetypeTableRecord
  2
BYBLOCK
 70
     0
  3

 72
    65
 73
     0
 40
0.0
  0
LTYPE
  5
15
330
5
100
AcDbSymbolTableRecord
100
AcDbLinetypeTableRecord
  2
BYLAYER
 70
     0
  3

 72
    65
 73
     0
 40
0.0
  0
LTYPE
  5
16
330
5
100
AcDbSymbolTableRecord
100
AcDbLinetypeTableRecord
  2
CONTINUOUS
 70
     0
  3
Solid line
 72
    65
 73
     0
 40
0.0
  0
ENDTAB
  0
TABLE
  2
LAYER
  5
2
330
0
100
AcDbSymbolTable
 70
     1
  0
LAYER
  5
10
330
2
100
AcDbSymbolTableRecord
100
AcDbLayerTableRecord
  2
0
 70
     0
 62
     7
  6
CONTINUOUS
370
    -3
390
6CF
  0
ENDTAB
  0
TABLE
  2
STYLE
  5
3
330
0
100
AcDbSymbolTable
 70
     1
  0
STYLE
  5
11
330
3
100
AcDbSymbolTableRecord
100
AcDbTextStyleTableRecord
  2
STANDARD
 70
     0
 40
0.0
 41
1.0
 50
0.0
 71
     0
 42
0.2
  3
txt
  4

  0
ENDTAB
  0
TABLE
  2
VIEW
  5
6
330
0
100
AcDbSymbolTable
 70
     0
  0
ENDTAB
  0
TABLE
  2
UCS
  5
7
330
0
100
AcDbSymbolTable
 70
     0
  0
ENDTAB
  0
TABLE
  2
APPID
  5
9
330
0
100
AcDbSymbolTable
 70
     1
  0
APPID
  5
20B
330
9
100
AcDbSymbolTableRecord
100
AcDbRegAppTableRecord
  2
ACAD
 70
     0
  0
ENDTAB
  0
TABLE
  2
DIMSTYLE
  5
A
330
0
100
AcDbSymbolTable
 70
     1
100
AcDbDimStyleTable
  0
DIMSTYLE
105
20C
330
A
100
AcDbSymbolTableRecord
100
AcDbDimStyleTableRecord
  2
STANDARD
 70
     0
 41
3.0
 47
0.003
 48
0.003
 71
     1
 73
     0
 74
     0
 77
     1
 78
     8
140
1.5
271
     3
272
     3
284
     8
340
11
  0
ENDTAB
  0
TABLE
  2
BLOCK_RECORD
  5
1
330
0
100
AcDbSymbolTable
 70
     0
  0
BLOCK_RECORD
  5
1B
330
1
100
AcDbSymbolTableRecord
100
AcDbBlockTableRecord
  2
*MODEL_SPACE
340
6D4
  0
BLOCK_RECORD
  5
1C
330
1
100
AcDbSymbolTableRecord
100
AcDbBlockTableRecord
  2
*PAPER_SPACE
340
6D5
  0
ENDTAB
  0
ENDSEC
  0
SECTION
  2
BLOCKS
  0
BLOCK
  5
1E
330
1B
100
AcDbEntity
  8
0
100
AcDbBlockBegin
  2
*MODEL_SPACE
 70
     0
 71
     0
 10
0.0
 20
0.0
 30
0.0
  3
*MODEL_SPACE
  1

  0
ENDBLK
  5
1F
330
1B
100
AcDbEntity
  8
0
100
AcDbBlockEnd
  0
BLOCK
  5
20
330
1C
100
AcDbEntity
 67
     1
  8
0
100
AcDbBlockBegin
  2
*PAPER_SPACE
 70
     0
 71
     0
 10
0.0
 20
0.0
 30
0.0
  3
*PAPER_SPACE
  1

  0
ENDBLK
  5
21
330
1C
100
AcDbEntity
 67
     1
  8
0
100
AcDbBlockEnd
  0
ENDSEC
  0
SECTION
  2
ENTITIES
  0
LINE
  5
42D
330
1B
100
AcDbEntity
  8
0
  6
Continuous
100
AcDbLine
 10
51.95304199129999
 20
122.6812255614
 30
0.0
 11
54.9530419913
 21
122.6812255614
 31
0.0
  0
LINE
  5
42E
330
1B
100
AcDbEntity
  8
0
  6
Continuous
100
AcDbLine
 10
55.9530419913
 20
122.8012255614
 30
0.0
 11
60.9530419913
 21
122.8012255614
 31
0.0
  0
LINE
  5
42F
330
1B
100
AcDbEntity
  8
0
  6
Continuous
100
AcDbLine
 10
69.9160329066
 20
125.5812255614
 30
0.0
 11
77.7591109684
 21
125.5812255614
 31
0.0
  0
LINE
  5
430
330
1B
100
AcDbEntity
  8
0
  6
Continuous
100
AcDbLine
 10
79.6124053325
 20
128.3912255614
 30
0.0
 11
68.29367865010001
 21
128.3912255614
 31
0.0
  0
LINE
  5
431
330
1B
100
AcDbEntity
  8
0
  6
Continuous
100
AcDbLine
 10
38.2209911838
 20
180.1453271765
 30
0.0
 11
39.3386826374
 21
182.0812255614
 31
0.0
  0
LINE
  5
432
330
1B
100
AcDbEntity
  8
0
  6
Continuous
100
AcDbLine
 10
38.2209911838
 20
137.2171239462
 30
0.0
 11
39.3386826374
 21
135.2812255614
 31
0.0
  0
LINE
  5
433
330
1B
100
AcDbEntity
  8
0
  6
Continuous
100
AcDbLine
 10
41.070733445
 20
134.2812255614
 30
0.0
 11
46.95304199129999
 21
134.2812255614
 31
0.0
  0
LINE
  5
434
330
1B
100
AcDbEntity
  8
0
  6
Continuous
100
AcDbLine
 10
41.070733445
 20
134.2979256784
 30
0.0
 11
46.95304199129999
 21
134.2979256784
 31
0.0
  0
LINE
  5
435
330
1B
100
AcDbEntity
  8
0
  6
Continuous
100
AcDbLine
 10
41.07073344079999
 20
134.5645060088
 30
0.0
 11
46.95304199129999
 21
134.5645060088
 31
0.0
  0
LINE
  5
436
330
1B
100
AcDbEntity
  8
0
  6
Continuous
100
AcDbLine
 10
37.9530419913
 20
179.1453187557
 30
0.0
 11
37.9530419913
 21
138.2594370789
 31
0.0
  0
LINE
  5
437
330
1B
100
AcDbEntity
  8
0
  6
Continuous
100
AcDbLine
 10
37.9530419913
 20
138.2171239462
 30
0.0
 11
37.9530419913
 21
138.2594370789
 31
0.0
  0
LINE
  5
438
330
1B
100
AcDbEntity
  8
0
  6
Continuous
100
AcDbLine
 10
38.2209911838
 20
180.1453271765
 30
0.0
 11
38.2209911838
 21
179.378303722
 31
0.0
  0
LINE
  5
439
330
1B
100
AcDbEntity
  8
0
  6
Continuous
100
AcDbLine
 10
38.2209911838
 20
137.9841474007
 30
0.0
 11
38.2209911838
 21
137.2171239462
 31
0.0
  0
LINE
  5
43A
330
1B
100
AcDbEntity
  8
0
  6
Continuous
100
AcDbLine
 10
38.2209911838
 20
143.4078554873
 30
0.0
 11
38.2209911838
 21
153.2575174747
 31
0.0
  0
LINE
  5
43B
330
1B
100
AcDbEntity
  8
0
  6
Continuous
100
AcDbLine
 10
38.2209911838
 20
164.104933648
 30
0.0
 11
38.2209911838
 21
173.9545956354
 31
0.0
  0
LINE
  5
43C
330
1B
100
AcDbEntity
  8
0
  6
Continuous
100
AcDbLine
 10
39.3386826374
 20
182.0812255614
 30
0.0
 11
39.3386826374
 21
182.0652099236
 31
0.0
  0
LINE
  5
43D
330
1B
100
AcDbEntity
  8
0
  6
Continuous
100
AcDbLine
 10
39.3386826374
 20
171.1228403857
 30
0.0
 11
39.3386826374
 21
169.6235961568
 31
0.0
  0
LINE
  5
43E
330
1B
100
AcDbEntity
  8
0
  6
Continuous
100
AcDbLine
 10
39.3386826374
 20
147.7388549662
 30
0.0
 11
39.3386826374
 21
146.2396107404
 31
0.0
  0
LINE
  5
43F
330
1B
100
AcDbEntity
  8
0
  6
Continuous
100
AcDbLine
 10
39.3386826374
 20
135.2972411983
 30
0.0
 11
39.3386826374
 21
135.2812255614
 31
0.0
  0
LINE
  5
440
330
1B
100
AcDbEntity
  8
0
  6
Continuous
100
AcDbLine
 10
39.9530419913
 20
180.1445274699
 30
0.0
 11
39.9530419913
 21
174.9745112817
 31
0.0
  0
LINE
  5
441
330
1B
100
AcDbEntity
  8
0
  6
Continuous
100
AcDbLine
 10
39.9530419913
 20
163.8521454424
 30
0.0
 11
39.9530419913
 21
153.5103056457
 31
0.0
  0
LINE
  5
442
330
1B
100
AcDbEntity
  8
0
  6
Continuous
100
AcDbLine
 10
39.9530419913
 20
142.387937584
 30
0.0
 11
39.9530419913
 21
137.2179767191
 31
0.0
  0
LINE
  5
443
330
1B
100
AcDbEntity
  8
0
  6
Continuous
100
AcDbLine
 10
41.070733445
 20
183.0812255614
 30
0.0
 11
41.070733445
 21
182.7979451139
 31
0.0
  0
LINE
  5
444
330
1B
100
AcDbEntity
  8
0
  6
Continuous
100
AcDbLine
 10
41.070733445
 20
172.3232136138
 30
0.0
 11
41.070733445
 21
169.1559570615
 31
0.0
  0
LINE
  5
445
330
1B
100
AcDbEntity
  8
0
  6
Continuous
100
AcDbLine
 10
41.070733445
 20
148.2064940612
 30
0.0
 11
41.070733445
 21
145.0392375089
 31
0.0
  0
LINE
  5
446
330
1B
100
AcDbEntity
  8
0
  6
Continuous
100
AcDbLine
 10
41.070733445
 20
134.5645060088
 30
0.0
 11
41.070733445
 21
134.2812255614
 31
0.0
  0
LINE
  5
447
330
1B
100
AcDbEntity
  8
0
  6
Continuous
100
AcDbLine
 10
46.95304199129999
 20
145.0392375089
 30
0.0
 11
41.0707333642
 21
145.0392375089
 31
0.0
  0
LINE
  5
448
330
1B
100
AcDbEntity
  8
0
  6
Continuous
100
AcDbLine
 10
46.95304199129999
 20
134.2812255614
 30
0.0
 11
46.95304199129999
 21
183.0812255614
 31
0.0
  0
LINE
  5
449
330
1B
100
AcDbEntity
  8
0
  6
Continuous
100
AcDbLine
 10
46.95304199129999
 20
145.7079010625
 30
0.0
 11
41.070733445
 21
145.7079010625
 31
0.0
  0
LINE
  5
44A
330
1B
100
AcDbEntity
  8
0
  6
Continuous
100
AcDbLine
 10
41.070733445
 20
147.2712501773
 30
0.0
 11
46.95304199129999
 21
147.2712501773
 31
0.0
  0
LINE
  5
44B
330
1B
100
AcDbEntity
  8
0
  6
Continuous
100
AcDbLine
 10
49.9530419913
 20
192.6812255614
 30
0.0
 11
49.9530419913
 21
124.6812255614
 31
0.0
  0
LINE
  5
44C
330
1B
100
AcDbEntity
  8
0
  6
Continuous
100
AcDbLine
 10
41.0707333597
 20
148.2064940612
 30
0.0
 11
49.9530419913
 21
148.2064940612
 31
0.0
  0
LINE
  5
44D
330
1B
100
AcDbEntity
  8
0
  6
Continuous
100
AcDbLine
 10
51.95304199129999
 20
122.6812255614
 30
0.0
 11
51.95304199129999
 21
194.6812255614
 31
0.0
  0
LINE
  5
44E
330
1B
100
AcDbEntity
  8
0
  6
Continuous
100
AcDbLine
 10
68.0870165875
 20
188.6132763689
 30
0.0
 11
69.9160329066
 21
191.7812255614
 31
0.0
  0
LINE
  5
44F
330
1B
100
AcDbEntity
  8
0
  6
Continuous
100
AcDbLine
 10
41.07073344489999
 20
148.2064940596
 30
0.0
 11
39.3386826357
 21
147.7388721206
 31
0.0
  0
LINE
  5
450
330
1B
100
AcDbEntity
  8
0
  6
Continuous
100
AcDbLine
 10
68.0870165875
 20
128.7491747538
 30
0.0
 11
69.9160329066
 21
125.5812255614
 31
0.0
  0
LINE
  5
451
330
1B
100
AcDbEntity
  8
0
  6
Continuous
100
AcDbLine
 10
54.9530419913
 20
194.6812255614
 30
0.0
 11
54.9530419913
 21
122.6812255614
 31
0.0
  0
LINE
  5
452
330
1B
100
AcDbEntity
  8
0
  6
Continuous
100
AcDbLine
 10
55.8358847038
 20
123.5640682738
 30
0.0
 11
55.8358847038
 21
193.7983828489
 31
0.0
  0
LINE
  5
453
330
1B
100
AcDbEntity
  8
0
  6
Continuous
100
AcDbLine
 10
55.9530419913
 20
194.5612255614
 30
0.0
 11
55.9530419913
 21
122.8012255614
 31
0.0
  0
LINE
  5
454
330
1B
100
AcDbEntity
  8
0
  6
Continuous
100
AcDbLine
 10
39.9530419913
 20
153.5102048773
 30
0.0
 11
37.9530419913
 21
153.5102048773
 31
0.0
  0
LINE
  5
455
330
1B
100
AcDbEntity
  8
0
  6
Continuous
100
AcDbLine
 10
39.9530419937
 20
153.5102048774
 30
0.0
 11
38.2209911833
 21
153.2575174749
 31
0.0
  0
LINE
  5
456
330
1B
100
AcDbEntity
  8
0
  6
Continuous
100
AcDbLine
 10
60.9530419913
 20
194.5612255614
 30
0.0
 11
60.9530419913
 21
122.8012255614
 31
0.0
  0
LINE
  5
457
330
1B
100
AcDbEntity
  8
0
  6
Continuous
100
AcDbLine
 10
39.9530419937
 20
163.8522462454
 30
0.0
 11
38.2209911833
 21
164.1049336478
 31
0.0
  0
LINE
  5
458
330
1B
100
AcDbEntity
  8
0
  6
Continuous
100
AcDbLine
 10
39.9530419913
 20
163.8522462454
 30
0.0
 11
37.9530419913
 21
163.8522462454
 31
0.0
  0
LINE
  5
459
330
1B
100
AcDbEntity
  8
0
  6
Continuous
100
AcDbLine
 10
41.07073344489999
 20
169.1559570631
 30
0.0
 11
39.3386826357
 21
169.6235790023
 31
0.0
  0
LINE
  5
45A
330
1B
100
AcDbEntity
  8
0
  6
Continuous
100
AcDbLine
 10
67.9530419913
 20
190.6810622012
 30
0.0
 11
67.9530419913
 21
126.6813889215
 31
0.0
  0
LINE
  5
45B
330
1B
100
AcDbEntity
  8
0
  6
Continuous
100
AcDbLine
 10
68.0870165875
 20
128.7491747538
 30
0.0
 11
68.0870165875
 21
188.6132763689
 31
0.0
  0
LINE
  5
45C
330
1B
100
AcDbEntity
  8
0
  6
Continuous
100
AcDbLine
 10
68.2936782447
 20
128.3912255614
 30
0.0
 11
68.2936782447
 21
188.9712255614
 31
0.0
  0
LINE
  5
45D
330
1B
100
AcDbEntity
  8
0
  6
Continuous
100
AcDbLine
 10
69.9160329066
 20
191.7812255614
 30
0.0
 11
69.9160329066
 21
125.5812255614
 31
0.0
  0
LINE
  5
45E
330
1B
100
AcDbEntity
  8
0
  6
Continuous
100
AcDbLine
 10
49.9530419913
 20
169.1559570615
 30
0.0
 11
41.0707333597
 21
169.1559570615
 31
0.0
  0
LINE
  5
45F
330
1B
100
AcDbEntity
  8
0
  6
Continuous
100
AcDbLine
 10
46.95304199129999
 20
170.0912009454
 30
0.0
 11
41.070733445
 21
170.0912009454
 31
0.0
  0
LINE
  5
460
330
1B
100
AcDbEntity
  8
0
  6
Continuous
100
AcDbLine
 10
41.070733445
 20
171.6545500602
 30
0.0
 11
46.95304199129999
 21
171.6545500602
 31
0.0
  0
LINE
  5
461
330
1B
100
AcDbEntity
  8
0
  6
Continuous
100
AcDbLine
 10
41.0707333654
 20
172.3232136138
 30
0.0
 11
46.95304199129999
 21
172.3232136138
 31
0.0
  0
LINE
  5
462
330
1B
100
AcDbEntity
  8
0
  6
Continuous
100
AcDbLine
 10
77.7591109684
 20
125.5812255614
 30
0.0
 11
77.7591109684
 21
191.7812255614
 31
0.0
  0
LINE
  5
463
330
1B
100
AcDbEntity
  8
0
  6
Continuous
100
AcDbLine
 10
78.10552112989998
 20
125.7812255614
 30
0.0
 11
78.10552112989998
 21
191.5812255614
 31
0.0
  0
LINE
  5
464
330
1B
100
AcDbEntity
  8
0
  6
Continuous
100
AcDbLine
 10
79.61240478429998
 20
128.3912255614
 30
0.0
 11
79.61240478429998
 21
188.9712255614
 31
0.0
  0
LINE
  5
465
330
1B
100
AcDbEntity
  8
0
  6
Continuous
100
AcDbLine
 10
79.8994521528
 20
128.8884052383
 30
0.0
 11
79.8994521528
 21
188.4740458844
 31
0.0
  0
LINE
  5
466
330
1B
100
AcDbEntity
  8
0
  6
Continuous
100
AcDbLine
 10
79.9530419913
 20
129.0884052383
 30
0.0
 11
79.9530419913
 21
188.2740458844
 31
0.0
  0
LINE
  5
467
330
1B
100
AcDbEntity
  8
0
  6
Continuous
100
AcDbLine
 10
54.9530419913
 20
122.6812255614
 30
0.0
 11
55.8358847038
 21
123.5640682738
 31
0.0
  0
LINE
  5
468
330
1B
100
AcDbEntity
  8
0
  6
Continuous
100
AcDbLine
 10
46.95304199129999
 20
182.7979451139
 30
0.0
 11
41.0707334403
 21
182.7979451139
 31
0.0
  0
LINE
  5
469
330
1B
100
AcDbEntity
  8
0
  6
Continuous
100
AcDbLine
 10
46.95304199129999
 20
183.0645254443
 30
0.0
 11
41.070733445
 21
183.0645254443
 31
0.0
  0
LINE
  5
46A
330
1B
100
AcDbEntity
  8
0
  6
Continuous
100
AcDbLine
 10
41.070733445
 20
183.0812255614
 30
0.0
 11
46.95304199129999
 21
183.0812255614
 31
0.0
  0
LINE
  5
46B
330
1B
100
AcDbEntity
  8
0
  6
Continuous
100
AcDbLine
 10
54.9530419913
 20
194.6812255614
 30
0.0
 11
55.8358847038
 21
193.7983828489
 31
0.0
  0
LINE
  5
46C
330
1B
100
AcDbEntity
  8
0
  6
Continuous
100
AcDbLine
 10
79.6124053325
 20
188.9712255614
 30
0.0
 11
68.29367865010001
 21
188.9712255614
 31
0.0
  0
LINE
  5
46D
330
1B
100
AcDbEntity
  8
0
  6
Continuous
100
AcDbLine
 10
78.10552112989998
 20
125.7812255614
 30
0.0
 11
79.8994521528
 21
128.8884052383
 31
0.0
  0
LINE
  5
46E
330
1B
100
AcDbEntity
  8
0
  6
Continuous
100
AcDbLine
 10
60.9530419913
 20
122.8012255614
 30
0.0
 11
67.9530419913
 21
126.6813889215
 31
0.0
  0
LINE
  5
46F
330
1B
100
AcDbEntity
  8
0
  6
Continuous
100
AcDbLine
 10
69.9160329066
 20
191.7812255614
 30
0.0
 11
77.7591109684
 21
191.7812255614
 31
0.0
  0
LINE
  5
470
330
1B
100
AcDbEntity
  8
0
  6
Continuous
100
AcDbLine
 10
60.9530419913
 20
194.5612255614
 30
0.0
 11
67.9530419913
 21
190.6810622012
 31
0.0
  0
LINE
  5
471
330
1B
100
AcDbEntity
  8
0
  6
Continuous
100
AcDbLine
 10
78.10552112989998
 20
191.5812255614
 30
0.0
 11
79.8994521528
 21
188.4740458844
 31
0.0
  0
LINE
  5
472
330
1B
100
AcDbEntity
  8
0
  6
Continuous
100
AcDbLine
 10
55.9530419913
 20
194.5612255614
 30
0.0
 11
60.9530419913
 21
194.5612255614
 31
0.0
  0
LINE
  5
473
330
1B
100
AcDbEntity
  8
0
  6
Continuous
100
AcDbLine
 10
51.95304199129999
 20
194.6812255614
 30
0.0
 11
54.9530419913
 21
194.6812255614
 31
0.0
  0
ARC
  5
4D4
330
1B
100
AcDbEntity
  8
0
  6
Continuous
100
AcDbCircle
 10
79.55304199130001
 20
188.2740458844
 30
0.0
 40
0.4
100
AcDbArc
 50
0.0
 51
29.99999999770007
  0
ARC
  5
4D5
330
1B
100
AcDbEntity
  8
0
  6
Continuous
100
AcDbCircle
 10
79.55304199130001
 20
129.0884052383
 30
0.0
 40
0.4
100
AcDbArc
 50
330.0000000028007
 51
360.0000000000008
  0
ARC
  5
4D6
330
1B
100
AcDbEntity
  8
0
  6
Continuous
100
AcDbCircle
 10
77.7591109684
 20
191.3812255614
 30
0.0
 40
0.4
100
AcDbArc
 50
29.99999999760007
 51
90.00000000000019
  0
ARC
  5
4D7
330
1B
100
AcDbEntity
  8
0
  6
Continuous
100
AcDbCircle
 10
77.7591109684
 20
125.9812255614
 30
0.0
 40
0.4
100
AcDbArc
 50
270.0000000000006
 51
330.0000000027007
  0
ARC
  5
4D8
330
1B
100
AcDbEntity
  8
0
  6
Continuous
100
AcDbCircle
 10
68.95304199129998
 20
188.1132763689
 30
0.0
 40
1.0
100
AcDbArc
 50
150.0000000010003
 51
180.0000000000004
  0
ARC
  5
4D9
330
1B
100
AcDbEntity
  8
0
  6
Continuous
100
AcDbCircle
 10
68.95304199129998
 20
129.2491747538
 30
0.0
 40
1.0
100
AcDbArc
 50
180.0000000000004
 51
209.9999999993005
  0
ARC
  5
4DA
330
1B
100
AcDbEntity
  8
0
  6
Continuous
100
AcDbCircle
 10
55.5530419913
 20
193.5155401364
 30
0.0
 40
0.4
100
AcDbArc
 50
0.0
 51
44.99999999790009
  0
ARC
  5
4DB
330
1B
100
AcDbEntity
  8
0
  6
Continuous
100
AcDbCircle
 10
55.5530419913
 20
123.8469109863
 30
0.0
 40
0.4
100
AcDbArc
 50
315.0000000026007
 51
360.0000000000008
  0
ARC
  5
4DC
330
1B
100
AcDbEntity
  8
0
  6
Continuous
100
AcDbCircle
 10
41.070733445
 20
181.0812255614
 30
0.0
 40
2.0
100
AcDbArc
 50
90.00000000000019
 51
150.0000000000003
  0
ARC
  5
4DD
330
1B
100
AcDbEntity
  8
0
  6
Continuous
100
AcDbCircle
 10
41.070733445
 20
136.2812255614
 30
0.0
 40
2.0
100
AcDbArc
 50
210.0000000000005
 51
270.0000000000006
  0
ARC
  5
4DE
330
1B
100
AcDbEntity
  8
0
  6
Continuous
100
AcDbCircle
 10
39.9530419913
 20
179.1453271765
 30
0.0
 40
2.0
100
AcDbArc
 50
150.0000000000003
 51
180.0000000000004
  0
ARC
  5
4DF
330
1B
100
AcDbEntity
  8
0
  6
Continuous
100
AcDbCircle
 10
39.9530419913
 20
138.2171239462
 30
0.0
 40
2.0
100
AcDbArc
 50
180.0000000000004
 51
210.0000000000005
  0
ARC
  5
4E0
330
1B
100
AcDbEntity
  8
0
  6
Continuous
100
AcDbCircle
 10
51.95304199129999
 20
192.6812255614
 30
0.0
 40
2.0
100
AcDbArc
 50
90.00000000000019
 51
180.0000000000004
  0
ARC
  5
4E1
330
1B
100
AcDbEntity
  8
0
  6
Continuous
100
AcDbCircle
 10
51.95304199129999
 20
124.6812255614
 30
0.0
 40
2.0
100
AcDbArc
 50
180.0000000000004
 51
270.0000000000006
  0
ARC
  5
4E2
330
1B
100
AcDbEntity
  8
0
  6
Continuous
100
AcDbCircle
 10
46.95304199129999
 20
186.0812255614
 30
0.0
 40
3.0
100
AcDbArc
 50
270.0000000000006
 51
359.9989933012008
  0
ARC
  5
4E3
330
1B
100
AcDbEntity
  8
0
  6
Continuous
100
AcDbCircle
 10
46.95304199129999
 20
131.2812255614
 30
0.0
 40
3.0
100
AcDbArc
 50
0.0006568038
 51
90.00000000000019
  0
SPLINE
  5
51C
330
1B
100
AcDbEntity
  8
0
  6
Continuous
100
AcDbSpline
210
0.0
220
0.0
230
1.0
 70
     8
 71
     3
 72
    10
 73
     6
 74
     4
 42
0.0000000001
 43
0.0000000001
 44
0.0000000001
 12
-0.2524390594378083
 22
-0.9676127951149441
 32
0.0
 13
-0.1381440806935856
 23
-0.9904121429835784
 33
0.0
 40
0.0
 40
0.0
 40
0.0
 40
0.0
 40
1.92356318466821
 40
3.796412114744653
 40
5.633553116421203
 40
5.633553116421203
 40
5.633553116421203
 40
5.633553116421203
 10
39.3386826374
 20
169.6235961568
 30
0.0
 10
39.17682181036439
 20
169.003174706901
 30
0.0
 10
38.87797915500433
 20
167.7731636174169
 30
0.0
 10
38.50317101758613
 20
165.932661764002
 30
0.0
 10
38.30558790206037
 20
164.7114425668112
 30
0.0
 10
38.2209911838
 20
164.104933648
 30
0.0
 11
39.3386826374
 21
169.6235961568
 31
0.0
 11
38.8858636507
 21
167.7540907969
 31
0.0
 11
38.5133453804
 21
165.9186635297
 31
0.0
 11
38.2209911838
 21
164.104933648
 31
0.0
  0
SPLINE
  5
51D
330
1B
100
AcDbEntity
  8
0
  6
Continuous
100
AcDbSpline
210
0.0
220
0.0
230
1.0
 70
     8
 71
     3
 72
    10
 73
     6
 74
     4
 42
0.0000000001
 43
0.0000000001
 44
0.0000000001
 12
-0.9161034628363671
 22
0.4009419476423203
 32
0.0
 13
-0.0003079035426187001
 23
0.9999999525977031
 33
0.0
 40
0.0
 40
0.0
 40
0.0
 40
0.0
 40
0.1675759751849176
 40
0.2916000466449994
 40
0.3843998860365316
 40
0.3843998860365316
 40
0.3843998860365316
 40
0.3843998860365316
 10
38.2209911833
 20
153.2575174749
 30
0.0
 10
38.16981887291497
 20
153.2799135541896
 30
0.0
 10
38.0830975437671
 20
153.3246915105927
 30
0.0
 10
37.98279407855435
 20
153.4075783524361
 30
0.0
 10
37.95305151476644
 20
153.4791988054691
 30
0.0
 10
37.9530419903
 20
153.5101320838
 30
0.0
 11
38.2209911833
 21
153.2575174749
 31
0.0
 11
38.0736567498
 21
153.337356514
 31
0.0
 11
37.9834264853
 21
153.4224474634
 31
0.0
 11
37.9530419903
 21
153.5101320838
 31
0.0
  0
SPLINE
  5
51E
330
1B
100
AcDbEntity
  8
0
  6
Continuous
100
AcDbSpline
210
0.0
220
0.0
230
1.0
 70
     8
 71
     3
 72
     9
 73
     5
 74
     3
 42
0.0000000001
 43
0.0000000001
 44
0.0000000001
 12
0.1443239031981441
 22
-0.9895305002705337
 32
0.0
 13
0.2606573322965211
 23
-0.9654313829164977
 33
0.0
 40
0.0
 40
0.0
 40
0.0
 40
0.0
 40
2.655878157723539
 40
5.422699802674005
 40
5.422699802674005
 40
5.422699802674005
 40
5.422699802674005
 10
39.9530419913
 20
153.5103056457
 30
0.0
 10
40.08081089201378
 20
152.6342814983434
 30
0.0
 10
40.40281429173685
 20
150.8541899596658
 30
0.0
 10
40.83033591006231
 20
149.0968862101893
 30
0.0
 10
41.0707333597
 20
148.2064940612
 30
0.0
 11
39.9530419913
 21
153.5103056457
 31
0.0
 11
40.4215375894
 21
150.8960752306
 31
0.0
 11
41.0707333597
 21
148.2064940612
 31
0.0
  0
SPLINE
  5
51F
330
1B
100
AcDbEntity
  8
0
  6
Continuous
100
AcDbSpline
210
0.0
220
0.0
230
1.0
 70
     8
 71
     3
 72
    10
 73
     6
 74
     4
 42
0.0000000001
 43
0.0000000001
 44
0.0000000001
 12
0.1381440811236177
 22
-0.9904121429235969
 32
0.0
 13
0.2524390625543616
 23
-0.9676127943018712
 33
0.0
 40
0.0
 40
0.0
 40
0.0
 40
0.0
 40
1.837139123855281
 40
3.709987846649231
 40
5.633553116149691
 40
5.633553116149691
 40
5.633553116149691
 40
5.633553116149691
 10
38.2209911838
 20
153.2575174747
 30
0.0
 10
38.30558781585375
 20
152.6510091758646
 30
0.0
 10
38.50317079431483
 20
151.4297906617294
 30
0.0
 10
38.87797885436223
 20
149.5892887926889
 30
0.0
 10
39.17682163293506
 20
148.3592770880145
 30
0.0
 10
39.3386826374
 20
147.7388549662
 30
0.0
 11
38.2209911838
 21
153.2575174747
 31
0.0
 11
38.5133450444
 21
151.4437894409
 31
0.0
 11
38.8858631969
 21
149.6083623613
 31
0.0
 11
39.3386826374
 21
147.7388549662
 31
0.0
  0
SPLINE
  5
520
330
1B
100
AcDbEntity
  8
0
  6
Continuous
100
AcDbSpline
210
0.0
220
0.0
230
1.0
 70
     8
 71
     3
 72
    11
 73
     7
 74
     5
 42
0.0000000001
 43
0.0000000001
 44
0.0000000001
 12
-0.9999999999999811
 22
-1.949785061000000E-7
 32
0.0
 13
-0.7355929650013822
 23
0.6774237889537653
 33
0.0
 40
0.0
 40
0.0
 40
0.0
 40
0.0
 40
0.5190100310940422
 40
1.013046589249465
 40
1.460450350631089
 40
1.846870237914827
 40
1.846870237914827
 40
1.846870237914827
 40
1.846870237914827
 10
41.070733445
 20
145.7079010625
 30
0.0
 10
40.89773010130199
 20
145.7079010287681
 30
0.0
 10
40.55956760514101
 20
145.730967051539
 30
0.0
 10
40.08172257063841
 20
145.8335031609052
 30
0.0
 10
39.66804075772664
 20
145.9966728730339
 30
0.0
 10
39.43343188760751
 20
146.1523380147764
 30
0.0
 10
39.3386826374
 20
146.2395946895
 30
0.0
 11
41.070733445
 21
145.7079010625
 31
0.0
 11
40.5529908166
 21
145.7441499675
 31
0.0
 11
40.07052210389999
 21
145.8504329015
 31
0.0
 11
39.6562857498
 21
146.0194842802
 31
0.0
 11
39.3386826374
 21
146.2395946895
 31
0.0
  0
SPLINE
  5
521
330
1B
100
AcDbEntity
  8
0
  6
Continuous
100
AcDbSpline
210
0.0
220
0.0
230
1.0
 70
     8
 71
     3
 72
    11
 73
     7
 74
     5
 42
0.0000000001
 43
0.0000000001
 44
0.0000000001
 12
-1.0
 22
0.0
 32
0.0
 13
-0.7770847964251
 23
0.6293959160694967
 33
0.0
 40
0.0
 40
0.0
 40
0.0
 40
0.0
 40
0.5186181065511001
 40
1.009945301122218
 40
1.450016953817862
 40
1.822224427148145
 40
1.822224427148145
 40
1.822224427148145
 40
1.822224427148145
 10
41.070733445
 20
147.2712501773
 30
0.0
 10
40.8978607428163
 20
147.2712501773
 30
0.0
 10
40.56085010320588
 20
147.2914248970774
 30
0.0
 10
40.08435240081094
 20
147.3810870455867
 30
0.0
 10
39.67218516223826
 20
147.5235240037416
 30
0.0
 10
39.43509489361359
 20
147.6607834979851
 30
0.0
 10
39.3386826374
 20
147.7388721192
 30
0.0
 11
41.070733445
 21
147.2712501773
 31
0.0
 11
40.5530953547
 21
147.3031178398
 31
0.0
 11
40.070733445
 21
147.396549099
 31
0.0
 11
39.6565198826
 21
147.5451767688
 31
0.0
 11
39.3386826374
 21
147.7388721192
 31
0.0
  0
SPLINE
  5
522
330
1B
100
AcDbEntity
  8
0
  6
Continuous
100
AcDbSpline
210
0.0
220
0.0
230
1.0
 70
     8
 71
     3
 72
     9
 73
     5
 74
     3
 42
0.0000000001
 43
0.0000000001
 44
0.0000000001
 12
-0.4751379947212914
 22
-0.8799112943770129
 32
0.0
 13
-0.2800232600159244
 23
-0.9599932155229297
 33
0.0
 40
0.0
 40
0.0
 40
0.0
 40
0.0
 40
1.492652404164401
 40
2.881258216394503
 40
2.881258216394503
 40
2.881258216394503
 40
2.881258216394503
 10
41.0707333642
 20
145.0392375089
 30
0.0
 10
40.83432807415647
 20
144.6014369392322
 30
0.0
 10
40.41216551992329
 20
143.7371208835693
 30
0.0
 10
40.08265596677258
 20
142.8322883035922
 30
0.0
 10
39.9530419913
 20
142.387937584
 30
0.0
 11
41.0707333642
 21
145.0392375089
 31
0.0
 11
40.4217869677
 21
143.6950352272
 31
0.0
 11
39.9530419913
 21
142.387937584
 31
0.0
  0
SPLINE
  5
523
330
1B
100
AcDbEntity
  8
0
  6
Continuous
100
AcDbSpline
210
0.0
220
0.0
230
1.0
 70
     8
 71
     3
 72
    11
 73
     7
 74
     5
 42
0.0000000001
 43
0.0000000001
 44
0.0000000001
 12
-0.997786033730262
 22
0.06650587111550721
 32
0.0
 13
-0.5185820210640779
 23
0.8550278869306522
 33
0.0
 40
0.0
 40
0.0
 40
0.0
 40
0.0
 40
0.5300966519449668
 40
1.059870036779925
 40
1.579418210885619
 40
2.081657573639352
 40
2.081657573639352
 40
2.081657573639352
 40
2.081657573639352
 10
39.9530419891
 20
142.3873821009
 30
0.0
 10
39.77673431048739
 20
142.3991336141043
 30
0.0
 10
39.42624121072306
 20
142.4676472569519
 30
0.0
 10
38.94052595442248
 20
142.6813689368185
 30
0.0
 10
38.52388038365624
 20
142.99585652603
 30
0.0
 10
38.30780861879826
 20
143.2647125997771
 30
0.0
 10
38.2209911842
 20
143.4078554868
 30
0.0
 11
39.9530419891
 21
142.3873821009
 31
0.0
 11
39.4322764112
 21
142.4864057005
 31
0.0
 11
38.9478112707
 21
142.7007730649
 31
0.0
 11
38.5343084926
 21
143.0153295109
 31
0.0
 11
38.2209911842
 21
143.4078554868
 31
0.0
  0
SPLINE
  5
524
330
1B
100
AcDbEntity
  8
0
  6
Continuous
100
AcDbSpline
210
0.0
220
0.0
230
1.0
 70
     8
 71
     3
 72
    10
 73
     6
 74
     4
 42
0.0000000001
 43
0.0000000001
 44
0.0000000001
 12
-0.4515980158158567
 22
-0.8922215151581928
 32
0.0
 13
-0.2638445344440701
 23
-0.9645652189686252
 33
0.0
 40
0.0
 40
0.0
 40
0.0
 40
0.0
 40
1.06388832965817
 40
2.076713551852986
 40
3.04892660018878
 40
3.04892660018878
 40
3.04892660018878
 40
3.04892660018878
 10
39.3386826374
 20
146.2396107404
 30
0.0
 10
39.17853268449224
 20
145.9232027212511
 30
0.0
 10
38.88255525590146
 20
145.2968947211356
 30
0.0
 10
38.50688046458154
 20
144.3518399142278
 30
0.0
 10
38.30649555017287
 20
143.7204431179174
 30
0.0
 10
38.2209911838
 20
143.4078554873
 30
0.0
 11
39.3386826374
 21
146.2396107404
 31
0.0
 11
38.8858001966
 21
145.2769291353
 31
0.0
 11
38.5133838212
 21
144.3350581388
 31
0.0
 11
38.2209911838
 21
143.4078554873
 31
0.0
  0
SPLINE
  5
525
330
1B
100
AcDbEntity
  8
0
  6
Continuous
100
AcDbSpline
210
0.0
220
0.0
230
1.0
 70
     8
 71
     3
 72
    11
 73
     7
 74
     5
 42
0.0000000001
 43
0.0000000001
 44
0.0000000001
 12
-0.9910244931681238
 22
0.1336804171928835
 32
0.0
 13
-0.4551915962517881
 23
0.890393514521388
 33
0.0
 40
0.0
 40
0.0
 40
0.0
 40
0.0
 40
0.5480882669823117
 40
1.102796638762702
 40
1.651472203785568
 40
2.182923388721058
 40
2.182923388721058
 40
2.182923388721058
 40
2.182923388721058
 10
41.07073344489999
 20
145.0392375097
 30
0.0
 10
40.88967714590081
 20
145.0636603990963
 30
0.0
 10
40.53020672215989
 20
145.1582597039848
 30
0.0
 10
40.04028741901175
 20
145.419471571453
 30
0.0
 10
39.62728251040987
 20
145.782357966111
 30
0.0
 10
39.4193200068669
 20
146.0818611283162
 30
0.0
 10
39.3386826358
 20
146.2395946911
 30
0.0
 11
41.07073344489999
 21
145.0392375097
 31
0.0
 11
40.5403476822
 21
145.1774101956
 31
0.0
 11
40.0507759315
 21
145.4382183217
 31
0.0
 11
39.63967971040001
 21
145.8015979753
 31
0.0
 11
39.3386826358
 21
146.2395946911
 31
0.0
  0
SPLINE
  5
526
330
1B
100
AcDbEntity
  8
0
  6
Continuous
100
AcDbSpline
210
0.0
220
0.0
230
1.0
 70
     8
 71
     3
 72
    12
 73
     8
 74
     6
 42
0.0000000001
 43
0.0000000001
 44
0.0000000001
 12
-0.9999999995389673
 22
-3.036553174340000E-5
 32
0.0
 13
-0.38359743788306
 23
0.9235004091225688
 33
0.0
 40
0.0
 40
0.0
 40
0.0
 40
0.0
 40
0.5224340461021139
 40
1.036379402097198
 40
1.534945517737864
 40
2.015472842917946
 40
2.327113207252774
 40
2.327113207252774
 40
2.327113207252774
 40
2.327113207252774
 10
39.9530419913
 20
137.2163614168
 30
0.0
 10
39.77889730934625
 20
137.2163561288041
 30
0.0
 10
39.43212711581184
 20
137.2555906857492
 30
0.0
 10
38.94594204042357
 20
137.4290272026541
 30
0.0
 10
38.52644870908654
 20
137.7062587091774
 30
0.0
 10
38.23650931890436
 20
138.0315413721927
 30
0.0
 10
38.11107789853326
 20
138.2659266569459
 30
0.0
 10
38.0712297501
 20
138.3618599916
 30
0.0
 11
39.9530419913
 21
137.2163614168
 31
0.0
 11
39.433988666
 21
137.2756992464
 31
0.0
 11
38.9504043889
 21
137.4497281977
 31
0.0
 11
38.5356824372
 21
137.726448046
 31
0.0
 11
38.2178952357
 21
138.0868891713
 31
0.0
 11
38.0712297501
 21
138.3618599916
 31
0.0
  0
SPLINE
  5
527
330
1B
100
AcDbEntity
  8
0
  6
Continuous
100
AcDbSpline
210
0.0
220
0.0
230
1.0
 70
     8
 71
     3
 72
     9
 73
     5
 74
     3
 42
0.0000000001
 43
0.0000000001
 44
0.0000000001
 12
-0.3835974378058482
 22
0.9235004091546406
 32
0.0
 13
-0.196242837349671
 23
0.9805553267352897
 33
0.0
 40
0.0
 40
0.0
 40
0.0
 40
0.0
 40
0.1530299224328767
 40
0.3040228123744494
 40
0.3040228123744494
 40
0.3040228123744494
 40
0.3040228123744494
 10
38.0712297501
 20
138.3618599916
 30
0.0
 10
38.05166245471571
 20
138.4089677235932
 30
0.0
 10
38.01727458072159
 20
138.5044910619482
 30
0.0
 10
37.99249884804725
 20
138.6029470960229
 30
0.0
 10
37.982621757
 20
138.6522993902
 30
0.0
 11
38.0712297501
 21
138.3618599916
 31
0.0
 11
38.0194795181
 21
138.5058741251
 31
0.0
 11
37.982621757
 21
138.6522993902
 31
0.0
  0
SPLINE
  5
528
330
1B
100
AcDbEntity
  8
0
  6
Continuous
100
AcDbSpline
210
0.0
220
0.0
230
1.0
 70
     8
 71
     3
 72
     8
 73
     4
 74
     2
 42
0.0000000001
 43
0.0000000001
 44
0.0000000001
 12
-0.1962428373735253
 22
0.9805553267305156
 32
0.0
 13
0.0
 23
1.0
 33
0.0
 40
0.0
 40
0.0
 40
0.0
 40
0.0
 40
0.2975865808749053
 40
0.2975865808749053
 40
0.2975865808749053
 40
0.2975865808749053
 10
37.982621757
 20
138.6522993902
 30
0.0
 10
37.96315534533494
 20
138.7495660925468
 30
0.0
 10
37.9530419913
 20
138.8492166974417
 30
0.0
 10
37.9530419913
 20
138.9484122244
 30
0.0
 11
37.982621757
 21
138.6522993902
 31
0.0
 11
37.9530419913
 21
138.9484122244
 31
0.0
  0
SPLINE
  5
529
330
1B
100
AcDbEntity
  8
0
  6
Continuous
100
AcDbSpline
210
0.0
220
0.0
230
1.0
 70
     8
 71
     3
 72
    13
 73
     9
 74
     7
 42
0.0000000001
 43
0.0000000001
 44
0.0000000001
 12
-1.0
 22
0.0
 32
0.0
 13
0.0
 23
1.0
 33
0.0
 40
0.0
 40
0.0
 40
0.0
 40
0.0
 40
0.52099168934729
 40
1.033449780560169
 40
1.530780918806012
 40
2.010051375721048
 40
2.473111994558494
 40
2.926550073574092
 40
2.926550073574092
 40
2.926550073574092
 40
2.926550073574092
 10
39.9530419913
 20
142.3873821009
 30
0.0
 10
39.7793780948509
 20
142.3873821009
 30
0.0
 10
39.4335884331112
 20
142.4263997382849
 30
0.0
 10
38.94861572797216
 20
142.5988852005203
 30
0.0
 10
38.52964405957415
 20
142.8745596757394
 30
0.0
 10
38.2056654719007
 20
143.2365006083957
 30
0.0
 10
38.00020809030623
 20
143.6608812034005
 30
0.0
 10
37.9530419913
 20
143.9682868820615
 30
0.0
 10
37.9530419913
 20
144.1194329084
 30
0.0
 11
39.9530419913
 21
142.3873821009
 31
0.0
 11
39.4354039011
 21
142.446400301
 31
0.0
 11
38.9530419913
 21
142.6194329084
 31
0.0
 11
38.538828429
 21
142.8946880371
 31
0.0
 11
38.2209911838
 21
143.2534075047
 31
0.0
 11
38.0211903387
 21
143.6711451724
 31
0.0
 11
37.9530419913
 21
144.1194329084
 31
0.0
  0
SPLINE
  5
52A
330
1B
100
AcDbEntity
  8
0
  6
Continuous
100
AcDbSpline
210
0.0
220
0.0
230
1.0
 70
     8
 71
     3
 72
     9
 73
     5
 74
     3
 42
0.0000000001
 43
0.0000000001
 44
0.0000000001
 12
-0.5137050649334856
 22
0.857966844500231
 32
0.0
 13
-0.2965285830276054
 23
0.9550239784673685
 33
0.0
 40
0.0
 40
0.0
 40
0.0
 40
0.0
 40
0.3384236044901609
 40
0.4509989279416587
 40
0.4509989279416587
 40
0.4509989279416587
 40
0.4509989279416587
 10
38.2209911839
 20
137.9841474004
 30
0.0
 10
38.16304121066012
 20
138.0809328110829
 30
0.0
 10
38.09706296265007
 20
138.2172347211082
 30
0.0
 10
38.04819407214898
 20
138.35944190264
 30
0.0
 10
38.0370668051
 20
138.3952792804
 30
0.0
 11
38.2209911839
 21
137.9841474004
 31
0.0
 11
38.0736567498
 21
138.288816238
 31
0.0
 11
38.0370668051
 21
138.3952792804
 31
0.0
  0
SPLINE
  5
52B
330
1B
100
AcDbEntity
  8
0
  6
Continuous
100
AcDbSpline
210
0.0
220
0.0
230
1.0
 70
     8
 71
     3
 72
     9
 73
     5
 74
     3
 42
0.0000000001
 43
0.0000000001
 44
0.0000000001
 12
-0.2965285831741489
 22
0.9550239784218676
 32
0.0
 13
0.0
 23
1.0
 33
0.0
 40
0.0
 40
0.0
 40
0.0
 40
0.0
 40
0.2247424333804567
 40
0.5610036741033776
 40
0.5610036741033776
 40
0.5610036741033776
 40
0.5610036741033776
 10
38.0370668051
 20
138.3952792804
 30
0.0
 10
38.01485261998352
 20
138.4668240846824
 30
0.0
 10
37.97007032042152
 20
138.6488207626531
 30
0.0
 10
37.9530419913
 20
138.836325144159
 30
0.0
 10
37.9530419913
 20
138.9484122244
 30
0.0
 11
38.0370668051
 21
138.3952792804
 31
0.0
 11
37.9834264853
 21
138.6135265655
 31
0.0
 11
37.9530419913
 21
138.9484122244
 31
0.0
  0
SPLINE
  5
52C
330
1B
100
AcDbEntity
  8
0
  6
Continuous
100
AcDbSpline
210
0.0
220
0.0
230
1.0
 70
     8
 71
     3
 72
    10
 73
     6
 74
     4
 42
0.0000000001
 43
0.0000000001
 44
0.0000000001
 12
0.2800527924536458
 22
-0.9599846006259243
 32
0.0
 13
0.47511973013101
 23
-0.8799211567181666
 33
0.0
 40
0.0
 40
0.0
 40
0.0
 40
0.0
 40
1.043247949557294
 40
2.000973981906906
 40
2.884013721531887
 40
2.884013721531887
 40
2.884013721531887
 40
2.884013721531887
 10
39.9530419913
 20
137.2179767191
 30
0.0
 10
40.05043015846502
 20
136.8841427303635
 30
0.0
 10
40.26787790554511
 20
136.2524346062982
 30
0.0
 10
40.65238187967062
 20
135.3706201223553
 30
0.0
 10
40.9308835732048
 20
134.8235077918397
 30
0.0
 10
41.07073344079999
 20
134.5645060088
 30
0.0
 11
39.9530419913
 21
137.2179767191
 31
0.0
 11
40.29058009119999
 21
136.2308423233
 31
0.0
 11
40.67129561259999
 21
135.3520392482
 31
0.0
 11
41.07073344079999
 21
134.5645060088
 31
0.0
  0
SPLINE
  5
52D
330
1B
100
AcDbEntity
  8
0
  6
Continuous
100
AcDbSpline
210
0.0
220
0.0
230
1.0
 70
     8
 71
     3
 72
    10
 73
     6
 74
     4
 42
0.0000000001
 43
0.0000000001
 44
0.0000000001
 12
0.2737439387826858
 22
-0.9618026075966634
 32
0.0
 13
0.474049252479923
 23
-0.8804983283477751
 33
0.0
 40
0.0
 40
0.0
 40
0.0
 40
0.0
 40
1.056576443574093
 40
2.024088071807103
 40
2.915137486064078
 40
2.915137486064078
 40
2.915137486064078
 40
2.915137486064078
 10
38.2209911838
 20
137.9841474007
 30
0.0
 10
38.317401649563
 20
137.6454080745151
 30
0.0
 10
38.53380763075238
 20
137.0051639832242
 30
0.0
 10
38.91796011316798
 20
136.1118531249275
 30
0.0
 10
39.1978822011496
 20
135.5587637048762
 30
0.0
 10
39.3386826374
 20
135.2972411983
 30
0.0
 11
38.2209911838
 21
137.9841474007
 31
0.0
 11
38.5570429347
 21
136.9824373619
 31
0.0
 11
38.937521956
 21
136.0928787831
 31
0.0
 11
39.3386826374
 21
135.2972411983
 31
0.0
  0
SPLINE
  5
52E
330
1B
100
AcDbEntity
  8
0
  6
Continuous
100
AcDbSpline
210
0.0
220
0.0
230
1.0
 70
     8
 71
     3
 72
    11
 73
     7
 74
     5
 42
0.0000000001
 43
0.0000000001
 44
0.0000000001
 12
-0.9973504073903929
 22
-0.07274726715291252
 32
0.0
 13
-0.5520582678581583
 23
0.8338055342161325
 33
0.0
 40
0.0
 40
0.0
 40
0.0
 40
0.0
 40
0.5216294831245842
 40
1.026842747876561
 40
1.512120724134058
 40
1.979386161678391
 40
1.979386161678391
 40
1.979386161678391
 40
1.979386161678391
 10
39.9530419906
 20
137.2163614168
 30
0.0
 10
39.77962619809962
 20
137.2037123770121
 30
0.0
 10
39.43390089203427
 20
137.2179164956224
 30
0.0
 10
38.9450527156894
 20
137.3605627607759
 30
0.0
 10
38.52458336793688
 20
137.6155415021414
 30
0.0
 10
38.3069770999269
 20
137.8542778978092
 30
0.0
 10
38.2209911839
 20
137.9841474004
 30
0.0
 11
39.9530419906
 21
137.2163614168
 31
0.0
 11
39.4319248652
 21
137.2394754662
 31
0.0
 11
38.9475885795
 21
137.3832071789
 31
0.0
 11
38.5342186444
 21
137.6374118425
 31
0.0
 11
38.2209911839
 21
137.9841474004
 31
0.0
  0
SPLINE
  5
52F
330
1B
100
AcDbEntity
  8
0
  6
Continuous
100
AcDbSpline
210
0.0
220
0.0
230
1.0
 70
     8
 71
     3
 72
    11
 73
     7
 74
     5
 42
0.0000000001
 43
0.0000000001
 44
0.0000000001
 12
-1.0
 22
0.0
 32
0.0
 13
-0.500256771466111
 23
0.8658771059465098
 33
0.0
 40
0.0
 40
0.0
 40
0.0
 40
0.0
 40
0.5220986829123974
 40
1.044151135067865
 40
1.566123503942392
 40
2.088003385235078
 40
2.088003385235078
 40
2.088003385235078
 40
2.088003385235078
 10
41.070733445
 20
134.2979256784
 30
0.0
 10
40.89670055069587
 20
134.2979256784
 30
0.0
 10
40.54695181462514
 20
134.3438281934286
 30
0.0
 10
40.05931172423608
 20
134.5458398049095
 30
0.0
 10
39.64040335173867
 20
134.8668429193248
 30
0.0
 10
39.42570728556953
 20
135.1466133003115
 30
0.0
 10
39.3386826374
 20
135.2972412474
 30
0.0
 11
41.070733445
 21
134.2979256784
 31
0.0
 11
40.5530953547
 21
134.366027383
 31
0.0
 11
40.070733445
 21
134.5656914781
 31
0.0
 11
39.6565198826
 21
134.8833111856
 31
0.0
 11
39.3386826374
 21
135.2972412474
 31
0.0
  0
SPLINE
  5
530
330
1B
100
AcDbEntity
  8
0
  6
Continuous
100
AcDbSpline
210
0.0
220
0.0
230
1.0
 70
     8
 71
     3
 72
    10
 73
     6
 74
     4
 42
0.0000000001
 43
0.0000000001
 44
0.0000000001
 12
0.0003508217822335001
 22
0.9999999384620367
 32
0.0
 13
0.9161034632387812
 23
0.400941946722853
 33
0.0
 40
0.0
 40
0.0
 40
0.0
 40
0.0
 40
0.0927901522111772
 40
0.2168142236026396
 40
0.3843901987875708
 40
0.3843901987875708
 40
0.3843901987875708
 40
0.3843901987875708
 10
37.9530419899
 20
163.8523292915
 30
0.0
 10
37.95305284083553
 20
163.8832593403337
 30
0.0
 10
37.9827974378898
 20
163.9548744698574
 30
0.0
 10
38.08309717737252
 20
164.0377597836198
 30
0.0
 10
38.16981887289249
 20
164.0825375685618
 30
0.0
 10
38.2209911833
 20
164.1049336478
 30
0.0
 11
37.9530419899
 21
163.8523292915
 31
0.0
 11
37.9834264853
 21
163.9400036594
 31
0.0
 11
38.0736567498
 21
164.0250946087
 31
0.0
 11
38.2209911833
 21
164.1049336478
 31
0.0
  0
SPLINE
  5
531
330
1B
100
AcDbEntity
  8
0
  6
Continuous
100
AcDbSpline
210
0.0
220
0.0
230
1.0
 70
     8
 71
     3
 72
     9
 73
     5
 74
     3
 42
0.0000000001
 43
0.0000000001
 44
0.0000000001
 12
0.0
 22
1.0
 32
0.0
 13
0.2965150556851138
 23
0.9550281785120551
 33
0.0
 40
0.0
 40
0.0
 40
0.0
 40
0.0
 40
0.3362612407229492
 40
0.5609771366955607
 40
0.5609771366955607
 40
0.5609771366955607
 40
0.5609771366955607
 10
37.9530419913
 20
178.4140388983
 30
0.0
 10
37.9530419913
 20
178.526125978541
 30
0.0
 10
37.97006952430059
 20
178.7136215185771
 30
0.0
 10
38.01484837079745
 20
178.8956097822622
 30
0.0
 10
38.0370589196
 20
178.9671464532
 30
0.0
 11
37.9530419913
 21
178.4140388983
 31
0.0
 11
37.9834264853
 21
178.7489245572
 31
0.0
 11
38.0370589196
 21
178.9671464532
 31
0.0
  0
SPLINE
  5
532
330
1B
100
AcDbEntity
  8
0
  6
Continuous
100
AcDbSpline
210
0.0
220
0.0
230
1.0
 70
     8
 71
     3
 72
     9
 73
     5
 74
     3
 42
0.0000000001
 43
0.0000000001
 44
0.0000000001
 12
0.2965150556621503
 22
0.9550281785191849
 32
0.0
 13
0.513704925040858
 23
0.857966928260505
 33
0.0
 40
0.0
 40
0.0
 40
0.0
 40
0.0
 40
0.1126018970474199
 40
0.4510255015375552
 40
0.4510255015375552
 40
0.4510255015375552
 40
0.4510255015375552
 10
38.0370589196
 20
178.9671464532
 30
0.0
 10
38.04818830552356
 20
179.0029924480783
 30
0.0
 10
38.09705908422154
 20
179.1452083927709
 30
0.0
 10
38.16304122644111
 20
179.2815183021683
 30
0.0
 10
38.2209911839
 20
179.3783037223
 30
0.0
 11
38.0370589196
 21
178.9671464532
 31
0.0
 11
38.0736567498
 21
179.0736348847
 31
0.0
 11
38.2209911839
 21
179.3783037223
 31
0.0
  0
SPLINE
  5
533
330
1B
100
AcDbEntity
  8
0
  6
Continuous
100
AcDbSpline
210
0.0
220
0.0
230
1.0
 70
     8
 71
     3
 72
    13
 73
     9
 74
     7
 42
0.0000000001
 43
0.0000000001
 44
0.0000000001
 12
0.0
 22
-1.0
 32
0.0
 13
-1.0
 23
4.555990000000000E-11
 33
0.0
 40
0.0
 40
0.0
 40
0.0
 40
0.0
 40
0.6801613520351431
 40
1.3747547534604
 40
2.093661155287123
 40
2.839656811516076
 40
3.608341310871289
 40
4.389825095721956
 40
4.389825095721956
 40
4.389825095721956
 40
4.389825095721956
 10
49.9530419913
 20
185.3960213253
 30
0.0
 10
49.9530419913
 20
185.1693008746216
 30
0.0
 10
49.8822920363479
 20
184.7081900709043
 30
0.0
 10
49.57410336474982
 20
184.0716175957935
 30
0.0
 10
49.08813355652706
 20
183.528706958355
 30
0.0
 10
48.45967597001295
 20
183.1151972663946
 30
0.0
 10
47.7322189213449
 20
182.8564710454526
 30
0.0
 10
47.21353658625021
 20
182.7979451138881
 30
0.0
 10
46.95304199129999
 20
182.7979451139
 30
0.0
 11
49.9530419913
 21
185.3960213253
 31
0.0
 11
49.8508182049
 21
184.7235856315
 31
0.0
 11
49.5511144437
 21
184.0969775811
 31
0.0
 11
49.07435666939999
 21
183.5588991116999
 31
0.0
 11
48.4530362388
 21
183.146018449
 31
0.0
 11
47.7294954504
 21
182.886471561
 31
0.0
 11
46.95304199129999
 21
182.7979451139
 31
0.0
  0
SPLINE
  5
534
330
1B
100
AcDbEntity
  8
0
  6
Continuous
100
AcDbSpline
210
0.0
220
0.0
230
1.0
 70
     8
 71
     3
 72
    13
 73
     9
 74
     7
 42
0.0000000001
 43
0.0000000001
 44
0.0000000001
 12
0.0
 22
-1.0
 32
0.0
 13
-1.0
 23
0.0
 33
0.0
 40
0.0
 40
0.0
 40
0.0
 40
0.0
 40
0.6801571186222464
 40
1.374748046768566
 40
2.093653732141146
 40
2.839650439607178
 40
3.608337576460266
 40
4.389825110475542
 40
4.389825110475542
 40
4.389825110475542
 40
4.389825110475542
 10
49.9530419913
 20
174.9212898251
 30
0.0
 10
49.9530419913
 20
174.6945707855593
 30
0.0
 10
49.88229284278172
 20
174.2334622675818
 30
0.0
 10
49.57410677055891
 20
173.5968913750064
 30
0.0
 10
49.08813888903107
 20
173.0539799759964
 30
0.0
 10
48.45968138627629
 20
172.6404682633639
 30
0.0
 10
47.73222232861855
 20
172.38174006976
 30
0.0
 10
47.21353783597175
 20
172.3232136138
 30
0.0
 10
46.95304199129999
 20
172.3232136138
 30
0.0
 11
49.9530419913
 21
174.9212898251
 31
0.0
 11
49.8508194702
 21
174.248858221
 31
0.0
 11
49.5511182027
 21
173.6222517195
 31
0.0
 11
49.0743623349
 21
173.0841725181
 31
0.0
 11
48.4530419913
 21
172.6712898251
 31
0.0
 11
47.72949912659999
 21
172.4117409139
 31
0.0
 11
46.95304199129999
 21
172.3232136138
 31
0.0
  0
SPLINE
  5
535
330
1B
100
AcDbEntity
  8
0
  6
Continuous
100
AcDbSpline
210
0.0
220
0.0
230
1.0
 70
     8
 71
     3
 72
    13
 73
     9
 74
     7
 42
0.0000000001
 43
0.0000000001
 44
0.0000000001
 12
0.0
 22
1.0
 32
0.0
 13
-1.0
 23
4.555990000000002E-11
 33
0.0
 40
0.0
 40
0.0
 40
0.0
 40
0.0
 40
0.6801613518374112
 40
1.374754753262669
 40
2.093661155164165
 40
2.839656811393165
 40
3.608341310748387
 40
4.389825095599051
 40
4.389825095599051
 40
4.389825095599051
 40
4.389825095599051
 10
49.9530419913
 20
142.4411612976
 30
0.0
 10
49.9530419913
 20
142.6678817482125
 30
0.0
 10
49.88229203631445
 20
143.1289925518598
 30
0.0
 10
49.57410336472229
 20
143.7655650269125
 30
0.0
 10
49.08813355656484
 20
144.308475664447
 30
0.0
 10
48.45967597000823
 20
144.7219853563983
 30
0.0
 10
47.7322189213463
 20
144.9807115773594
 30
0.0
 10
47.21353658625021
 20
145.0392375088881
 30
0.0
 10
46.95304199129999
 20
145.0392375089
 30
0.0
 11
49.9530419913
 21
142.4411612976
 31
0.0
 11
49.8508182049
 21
143.1135969912
 31
0.0
 11
49.5511144437
 21
143.7402050416
 31
0.0
 11
49.07435666939999
 21
144.2782835111
 31
0.0
 11
48.4530362388
 21
144.6911641738
 31
0.0
 11
47.7294954504
 21
144.9507110618
 31
0.0
 11
46.95304199129999
 21
145.0392375089
 31
0.0
  0
SPLINE
  5
536
330
1B
100
AcDbEntity
  8
0
  6
Continuous
100
AcDbSpline
210
0.0
220
0.0
230
1.0
 70
     8
 71
     3
 72
    13
 73
     9
 74
     7
 42
0.0000000001
 43
0.0000000001
 44
0.0000000001
 12
0.0
 22
1.0
 32
0.0
 13
-1.0
 23
0.0
 33
0.0
 40
0.0
 40
0.0
 40
0.0
 40
0.0
 40
0.6801571187211264
 40
1.374748046867446
 40
2.093653732240026
 40
2.839650439650702
 40
3.608337576503791
 40
4.389825110530397
 40
4.389825110530397
 40
4.389825110530397
 40
4.389825110530397
 10
49.9530419913
 20
131.9664297974
 30
0.0
 10
49.9530419913
 20
132.1931488369737
 30
0.0
 10
49.88229284280225
 20
132.6542573549902
 30
0.0
 10
49.57410677055328
 20
133.2908282475876
 30
0.0
 10
49.08813888906064
 20
133.8337396466123
 30
0.0
 10
48.45968138624311
 20
134.2472513591287
 30
0.0
 10
47.73222232861477
 20
134.5059795527034
 30
0.0
 10
47.21353783597552
 20
134.5645060088
 30
0.0
 10
46.95304199129999
 20
134.5645060088
 30
0.0
 11
49.9530419913
 21
131.9664297974
 31
0.0
 11
49.8508194702
 21
132.6388614016
 31
0.0
 11
49.5511182027
 21
133.2654679031
 31
0.0
 11
49.0743623349
 21
133.8035471045
 31
0.0
 11
48.4530419913
 21
134.2164297974
 31
0.0
 11
47.72949912659999
 21
134.4759787086
 31
0.0
 11
46.95304199129999
 21
134.5645060088
 31
0.0
  0
SPLINE
  5
537
330
1B
100
AcDbEntity
  8
0
  6
Continuous
100
AcDbSpline
210
0.0
220
0.0
230
1.0
 70
     8
 71
     3
 72
    13
 73
     9
 74
     7
 42
0.0000000001
 43
0.0000000001
 44
0.0000000001
 12
-1.064433000000000E-10
 22
-1.0
 32
0.0
 13
-1.0
 23
0.0
 33
0.0
 40
0.0
 40
0.0
 40
0.0
 40
0.0
 40
0.7826409376637795
 40
1.565346305661424
 40
2.348167063766677
 40
3.131122420108063
 40
3.914194850693817
 40
4.697335005938514
 40
4.697335005938514
 40
4.697335005938514
 40
4.697335005938514
 10
49.9530419913
 20
186.0624721509
 30
0.0
 10
49.95304199127223
 20
185.8015918383454
 30
0.0
 10
49.88410349573793
 20
185.2772443478132
 30
0.0
 10
49.58092235466492
 20
184.5463024972975
 30
0.0
 10
49.09869569135736
 20
183.9181628365981
 30
0.0
 10
48.47011694889901
 20
183.4363167995275
 30
0.0
 10
47.73872012554145
 20
183.1333988935759
 30
0.0
 10
47.21408870971489
 20
183.0645254443
 30
0.0
 10
46.95304199129999
 20
183.0645254443
 30
0.0
 11
49.9530419913
 21
186.0624721509
 31
0.0
 11
49.8508166839
 21
185.2865360557
 31
0.0
 11
49.55110993899999
 21
184.5634844945
 31
0.0
 11
49.0743499824
 21
183.9425913611
 31
0.0
 11
48.4530296583
 21
183.4661670283
 31
0.0
 11
47.7294914599
 21
183.1666759483
 31
0.0
 11
46.95304199129999
 21
183.0645254443
 31
0.0
  0
SPLINE
  5
538
330
1B
100
AcDbEntity
  8
0
  6
Continuous
100
AcDbSpline
210
0.0
220
0.0
230
1.0
 70
     8
 71
     3
 72
    11
 73
     7
 74
     5
 42
0.0000000001
 43
0.0000000001
 44
0.0000000001
 12
-1.0
 22
-8.524890400000000E-9
 32
0.0
 13
-0.5002567873998814
 23
-0.8658770967408422
 33
0.0
 40
0.0
 40
0.0
 40
0.0
 40
0.0
 40
0.5222059798393834
 40
1.044393049916344
 40
1.566451706415641
 40
2.088003383393979
 40
2.088003383393979
 40
2.088003383393979
 40
2.088003383393979
 10
41.070733445
 20
183.0645254443
 30
0.0
 10
40.89666478505354
 20
183.0645254428161
 30
0.0
 10
40.54683434507519
 20
183.0186026164641
 30
0.0
 10
40.05910710587722
 20
182.8165047405194
 30
0.0
 10
39.64027151549496
 20
182.4954611286319
 30
0.0
 10
39.4256525595294
 20
182.2157430925875
 30
0.0
 10
39.3386826374
 20
182.0652098753
 30
0.0
 11
41.070733445
 21
183.0645254443
 31
0.0
 11
40.5529908166
 21
182.9963957436
 31
0.0
 11
40.07052210389999
 21
182.7966376964
 31
0.0
 11
39.6562857498
 21
182.4789059168
 31
0.0
 11
39.3386826374
 21
182.0652098753
 31
0.0
  0
SPLINE
  5
539
330
1B
100
AcDbEntity
  8
0
  6
Continuous
100
AcDbSpline
210
0.0
220
0.0
230
1.0
 70
     8
 71
     3
 72
    10
 73
     6
 74
     4
 42
0.0000000001
 43
0.0000000001
 44
0.0000000001
 12
-0.4751197487581271
 22
-0.879921146660321
 32
0.0
 13
-0.2800534733479156
 23
-0.9599844019908701
 33
0.0
 40
0.0
 40
0.0
 40
0.0
 40
0.0
 40
0.8828622780366567
 40
1.840548741213051
 40
2.88396340689496
 40
2.88396340689496
 40
2.88396340689496
 40
2.88396340689496
 10
41.0707334403
 20
182.7979451139
 30
0.0
 10
40.9309116723904
 20
182.5389953845556
 30
0.0
 10
40.65243858677315
 20
181.9919495882734
 30
0.0
 10
40.26793727938426
 20
181.1101532522125
 30
0.0
 10
40.05044595838879
 20
180.4784147378544
 30
0.0
 10
39.9530419913
 20
180.1445274699
 30
0.0
 11
41.0707334403
 21
182.7979451139
 31
0.0
 11
40.6713715711
 21
182.0105723309
 31
0.0
 11
40.2906592628
 21
181.1318109867
 31
0.0
 11
39.9530419913
 21
180.1445274699
 31
0.0
  0
SPLINE
  5
53A
330
1B
100
AcDbEntity
  8
0
  6
Continuous
100
AcDbSpline
210
0.0
220
0.0
230
1.0
 70
     8
 71
     3
 72
    11
 73
     7
 74
     5
 42
0.0000000001
 43
0.0000000001
 44
0.0000000001
 12
-0.9977856989499626
 22
0.06651089362604282
 32
0.0
 13
-0.551340328015806
 23
-0.8342804340888163
 33
0.0
 40
0.0
 40
0.0
 40
0.0
 40
0.0
 40
0.5212751458453457
 40
1.02660005256158
 40
1.512004064638026
 40
1.979385684431901
 40
1.979385684431901
 40
1.979385684431901
 40
1.979385684431901
 10
39.9530419905
 20
180.1460897059
 30
0.0
 10
39.77966836191915
 20
180.1576465311584
 30
0.0
 10
39.43414423144635
 20
180.1450409628475
 30
0.0
 10
38.94524696304425
 20
180.0018803943731
 30
0.0
 10
38.52472745829793
 20
179.7469938863738
 30
0.0
 10
38.30688662908857
 20
179.5082795025156
 30
0.0
 10
38.2209911839
 20
179.3783037223
 30
0.0
 11
39.9530419905
 21
180.1460897059
 31
0.0
 11
39.4322769686
 21
180.1230339118
 31
0.0
 11
38.9478121237
 21
179.9793430095
 31
0.0
 11
38.53430914510001
 21
179.7251140937
 31
0.0
 11
38.2209911839
 21
179.3783037223
 31
0.0
  0
SPLINE
  5
53B
330
1B
100
AcDbEntity
  8
0
  6
Continuous
100
AcDbSpline
210
0.0
220
0.0
230
1.0
 70
     8
 71
     3
 72
    10
 73
     6
 74
     4
 42
0.0000000001
 43
0.0000000001
 44
0.0000000001
 12
-0.4740492682933787
 22
-0.8804983198340087
 32
0.0
 13
-0.2737444247945551
 23
-0.961802469270015
 33
0.0
 40
0.0
 40
0.0
 40
0.0
 40
0.0
 40
0.8908566204217977
 40
1.858342717332723
 40
2.91513738082844
 40
2.91513738082844
 40
2.91513738082844
 40
2.91513738082844
 10
39.3386826374
 20
182.0652099236
 30
0.0
 10
39.19791266104491
 20
181.8037440044352
 30
0.0
 10
38.91802054285718
 20
181.2507212285159
 30
0.0
 10
38.53385466053916
 20
180.3574163355439
 30
0.0
 10
38.31742173289486
 20
179.7171129609538
 30
0.0
 10
38.2209911838
 20
179.378303722
 30
0.0
 11
39.3386826374
 21
182.0652099236
 31
0.0
 11
38.9376038654
 21
181.2697469535
 31
0.0
 11
38.5571214736
 21
180.3802175851
 31
0.0
 11
38.2209911838
 21
179.378303722
 31
0.0
  0
SPLINE
  5
53C
330
1B
100
AcDbEntity
  8
0
  6
Continuous
100
AcDbSpline
210
0.0
220
0.0
230
1.0
 70
     8
 71
     3
 72
    13
 73
     9
 74
     7
 42
0.0000000001
 43
0.0000000001
 44
0.0000000001
 12
-0.9999999995389681
 22
-3.036550381860000E-5
 32
0.0
 13
0.0
 23
-1.0
 33
0.0
 40
0.0
 40
0.0
 40
0.0
 40
0.0
 40
0.522436149510599
 40
1.036378722633098
 40
1.534883505957021
 40
2.015723508447103
 40
2.478698060292463
 40
2.926557732401525
 40
2.926557732401525
 40
2.926557732401525
 40
2.926557732401525
 10
39.9530419913
 20
174.9750690218
 30
0.0
 10
39.77889660821008
 20
174.9750637337877
 30
0.0
 10
39.43211491290812
 20
174.9358264962336
 30
0.0
 10
38.9460130785182
 20
174.7623645350716
 30
0.0
 10
38.52620485882822
 20
174.4852633105553
 30
0.0
 10
38.20282399607649
 20
174.1215438131634
 30
0.0
 10
37.99917327929005
 20
173.6978008233337
 30
0.0
 10
37.9530419913
 20
173.3923047716697
 30
0.0
 10
37.9530419913
 20
173.2430182143
 30
0.0
 11
39.9530419913
 21
174.9750690218
 31
0.0
 11
39.433988666
 21
174.9157126758
 31
0.0
 11
38.9504043889
 21
174.7416919431
 31
0.0
 11
38.5356824372
 21
174.4650826125
 31
0.0
 11
38.2178952357
 21
174.1042247422
 31
0.0
 11
38.0194795181
 21
173.685922652
 31
0.0
 11
37.9530419913
 21
173.2430182143
 31
0.0
  0
SPLINE
  5
53D
330
1B
100
AcDbEntity
  8
0
  6
Continuous
100
AcDbSpline
210
0.0
220
0.0
230
1.0
 70
     8
 71
     3
 72
    13
 73
     9
 74
     7
 42
0.0000000001
 43
0.0000000001
 44
0.0000000001
 12
-1.122796000000000E-10
 22
1.0
 32
0.0
 13
-1.0
 23
0.0
 33
0.0
 40
0.0
 40
0.0
 40
0.0
 40
0.0
 40
0.377206249256642
 40
0.8292020574840308
 40
1.38751501112912
 40
2.047622233985223
 40
2.78461044269533
 40
3.562533477653112
 40
3.562533477653112
 40
3.562533477653112
 40
3.562533477653112
 10
49.9530419913
 20
145.8683843529
 30
0.0
 10
49.95304199128588
 20
145.9941197693189
 30
0.0
 10
49.8654259206258
 20
146.2721831970725
 30
0.0
 10
49.53679605874671
 20
146.6110978229715
 30
0.0
 10
49.05142786146315
 20
146.8926593521306
 30
0.0
 10
48.43242292593665
 20
147.1065555891787
 30
0.0
 10
47.71792194584484
 20
147.2409695979945
 30
0.0
 10
47.21234966961925
 20
147.2712501778
 30
0.0
 10
46.95304199129999
 20
147.2712501778
 30
0.0
 11
49.9530419913
 21
145.8683843529
 31
0.0
 11
49.8508181592
 21
146.2314750339
 31
0.0
 11
49.5511141232
 21
146.5698205695
 31
0.0
 11
49.0743560039
 21
146.8603632512
 31
0.0
 11
48.45303549909999
 21
147.0833035481
 31
0.0
 11
47.72949502569999
 21
147.2234491978
 31
0.0
 11
46.95304199129999
 21
147.2712501778
 31
0.0
  0
SPLINE
  5
53E
330
1B
100
AcDbEntity
  8
0
  6
Continuous
100
AcDbSpline
210
0.0
220
0.0
230
1.0
 70
     8
 71
     3
 72
    12
 73
     8
 74
     6
 42
0.0000000001
 43
0.0000000001
 44
0.0000000001
 12
-1.0
 22
0.0
 32
0.0
 13
-0.3876208357144722
 23
-0.9218189018023085
 33
0.0
 40
0.0
 40
0.0
 40
0.0
 40
0.0
 40
0.52099168934729
 40
1.033449780593939
 40
1.530780918784428
 40
2.010051375699485
 40
2.320825259474137
 40
2.320825259474137
 40
2.320825259474137
 40
2.320825259474137
 10
39.9530419913
 20
180.1460897059
 30
0.0
 10
39.7793780948509
 20
180.1460897059
 30
0.0
 10
39.43359054942096
 20
180.1070752629896
 30
0.0
 10
38.94860854268177
 20
179.9345757604634
 30
0.0
 10
38.52966949322163
 20
179.6589505210643
 30
0.0
 10
38.23985810259769
 20
179.3351399058427
 30
0.0
 10
38.11380987118233
 20
179.1019280072167
 30
0.0
 10
38.073655727
 20
179.0064355938
 30
0.0
 11
39.9530419913
 21
180.1460897059
 31
0.0
 11
39.4354039011
 21
180.0870715058
 31
0.0
 11
38.9530419913
 21
179.9140388983
 31
0.0
 11
38.538828429
 21
179.6387837697
 31
0.0
 11
38.2209911838
 21
179.2800643021
 31
0.0
 11
38.073655727
 21
179.0064355938
 31
0.0
  0
SPLINE
  5
53F
330
1B
100
AcDbEntity
  8
0
  6
Continuous
100
AcDbSpline
210
0.0
220
0.0
230
1.0
 70
     8
 71
     3
 72
     8
 73
     4
 74
     2
 42
0.0000000001
 43
0.0000000001
 44
0.0000000001
 12
-0.3876208357176883
 22
-0.9218189018009563
 32
0.0
 13
-0.2951767097862006
 23
-0.9554426775059784
 33
0.0
 40
0.0
 40
0.0
 40
0.0
 40
0.0
 40
0.1533623459289168
 40
0.1533623459289168
 40
0.1533623459289168
 40
0.1533623459289168
 10
38.073655727
 20
179.0064355938
 30
0.0
 10
38.05384024676781
 20
178.9593114906994
 30
0.0
 10
38.03628000292547
 20
178.9111696112076
 30
0.0
 10
38.0211903387
 20
178.8623266344
 30
0.0
 11
38.073655727
 21
179.0064355938
 31
0.0
 11
38.0211903387
 21
178.8623266344
 31
0.0
  0
SPLINE
  5
540
330
1B
100
AcDbEntity
  8
0
  6
Continuous
100
AcDbSpline
210
0.0
220
0.0
230
1.0
 70
     8
 71
     3
 72
     8
 73
     4
 74
     2
 42
0.0000000001
 43
0.0000000001
 44
0.0000000001
 12
-0.2951767098535164
 22
-0.9554426774851818
 32
0.0
 13
0.0
 23
-1.0
 33
0.0
 40
0.0
 40
0.0
 40
0.0
 40
0.0
 40
0.4534380791144774
 40
0.4534380791144774
 40
0.4534380791144774
 40
0.4534380791144774
 10
38.0211903387
 20
178.8623266344
 30
0.0
 10
37.97657555192824
 20
178.7179152702724
 30
0.0
 10
37.9530419913
 20
178.5651849246715
 30
0.0
 10
37.9530419913
 20
178.4140388983
 30
0.0
 11
38.0211903387
 21
178.8623266344
 31
0.0
 11
37.9530419913
 21
178.4140388983
 31
0.0
  0
SPLINE
  5
541
330
1B
100
AcDbEntity
  8
0
  6
Continuous
100
AcDbSpline
210
0.0
220
0.0
230
1.0
 70
     8
 71
     3
 72
     9
 73
     5
 74
     3
 42
0.0000000001
 43
0.0000000001
 44
0.0000000001
 12
0.2800230091376259
 22
-0.9599932887023269
 32
0.0
 13
0.4751380824359965
 23
-0.8799112470124725
 33
0.0
 40
0.0
 40
0.0
 40
0.0
 40
0.0
 40
1.388604129802909
 40
2.881256088572988
 40
2.881256088572988
 40
2.881256088572988
 40
2.881256088572988
 10
39.9530419913
 20
174.9745112817
 30
0.0
 10
40.08265569360945
 20
174.5301610666083
 30
0.0
 10
40.41216640669253
 20
173.6253296512653
 30
0.0
 10
40.83432810225522
 20
172.7610140292657
 30
0.0
 10
41.0707333654
 20
172.3232136138
 30
0.0
 11
39.9530419913
 21
174.9745112817
 31
0.0
 11
40.4217871731
 21
173.6674154995
 31
0.0
 11
41.0707333654
 21
172.3232136138
 31
0.0
  0
SPLINE
  5
542
330
1B
100
AcDbEntity
  8
0
  6
Continuous
100
AcDbSpline
210
0.0
220
0.0
230
1.0
 70
     8
 71
     3
 72
    11
 73
     7
 74
     5
 42
0.0000000001
 43
0.0000000001
 44
0.0000000001
 12
-0.9925337078445801
 22
-0.1219706472569935
 32
0.0
 13
-0.4658994069523649
 23
-0.8848376928010214
 33
0.0
 40
0.0
 40
0.0
 40
0.0
 40
0.0
 40
0.5480553000067365
 40
1.102912255528497
 40
1.651708773611672
 40
2.182923509708524
 40
2.182923509708524
 40
2.182923509708524
 40
2.182923509708524
 10
41.07073344489999
 20
172.323213613
 30
0.0
 10
40.88941232522681
 20
172.3009313931085
 30
0.0
 10
40.53023839349883
 20
172.2032162233052
 30
0.0
 10
40.04040926533374
 20
171.9430658551631
 30
0.0
 10
39.62630346100897
 20
171.580397944057
 30
0.0
 10
39.42118017930396
 20
171.2795360389566
 30
0.0
 10
39.3386826358
 20
171.1228564318
 30
0.0
 11
41.07073344489999
 21
172.323213613
 31
0.0
 11
40.5403785966
 21
172.1850530298
 31
0.0
 11
40.05068025009999
 21
171.9241665209
 31
0.0
 11
39.6395215188
 21
171.5606749585
 31
0.0
 11
39.3386826358
 21
171.1228564318
 31
0.0
  0
SPLINE
  5
543
330
1B
100
AcDbEntity
  8
0
  6
Continuous
100
AcDbSpline
210
0.0
220
0.0
230
1.0
 70
     8
 71
     3
 72
    10
 73
     6
 74
     4
 42
0.0000000001
 43
0.0000000001
 44
0.0000000001
 12
0.2638442584618045
 22
-0.9645652944600176
 32
0.0
 13
0.4515981137816068
 23
-0.8922214655728112
 33
0.0
 40
0.0
 40
0.0
 40
0.0
 40
0.0
 40
0.9722150866431426
 40
1.985040210217247
 40
3.048926594398744
 40
3.048926594398744
 40
3.048926594398744
 40
3.048926594398744
 10
38.2209911838
 20
173.9545956354
 30
0.0
 10
38.30649564000025
 20
173.6420073249579
 30
0.0
 10
38.50688103641534
 20
173.0106099948664
 30
0.0
 10
38.88255574670482
 20
172.0655551702005
 30
0.0
 10
39.17853294260856
 20
171.4392478086658
 30
0.0
 10
39.3386826374
 20
171.1228403857
 30
0.0
 11
38.2209911838
 21
173.9545956354
 31
0.0
 11
38.5133845558
 21
173.0273910783
 31
0.0
 11
38.8858009508
 21
172.0855201956
 31
0.0
 11
39.3386826374
 21
171.1228403857
 31
0.0
  0
SPLINE
  5
544
330
1B
100
AcDbEntity
  8
0
  6
Continuous
100
AcDbSpline
210
0.0
220
0.0
230
1.0
 70
     8
 71
     3
 72
    11
 73
     7
 74
     5
 42
0.0000000001
 43
0.0000000001
 44
0.0000000001
 12
-0.9973508103120211
 22
-0.0727417429675358
 32
0.0
 13
-0.5168621462666273
 23
-0.8560686431336307
 33
0.0
 40
0.0
 40
0.0
 40
0.0
 40
0.0
 40
0.5304629776293655
 40
1.060127593149171
 40
1.579543565112876
 40
2.081657740421721
 40
2.081657740421721
 40
2.081657740421721
 40
2.081657740421721
 10
39.9530419893
 20
174.9750690218
 30
0.0
 10
39.77668942910694
 20
174.9622067546092
 30
0.0
 10
39.42600940746424
 20
174.8952544868544
 30
0.0
 10
38.94028243038594
 20
174.6808347773041
 30
0.0
 10
38.52392967928662
 20
174.3664499576749
 30
0.0
 10
38.30749912097368
 20
174.0978770361516
 30
0.0
 10
38.2209911842
 20
173.9545956359
 30
0.0
 11
39.9530419893
 21
174.9750690218
 31
0.0
 11
39.4319244019
 21
174.8759356231
 31
0.0
 11
38.9475878146
 21
174.6615465489
 31
0.0
 11
38.5342180174
 21
174.3470336514
 31
0.0
 11
38.2209911842
 21
173.9545956359
 31
0.0
  0
SPLINE
  5
545
330
1B
100
AcDbEntity
  8
0
  6
Continuous
100
AcDbSpline
210
0.0
220
0.0
230
1.0
 70
     8
 71
     3
 72
    11
 73
     7
 74
     5
 42
0.0000000001
 43
0.0000000001
 44
0.0000000001
 12
-0.9999999999999794
 22
-2.034874942000000E-7
 32
0.0
 13
-0.7770854645678424
 23
-0.6293950911449665
 33
0.0
 40
0.0
 40
0.0
 40
0.0
 40
0.0
 40
0.5187232541448582
 40
1.010163642719258
 40
1.450274559045853
 40
1.822225004670597
 40
1.822225004670597
 40
1.822225004670597
 40
1.822225004670597
 10
41.070733445
 20
170.0912009454
 30
0.0
 10
40.89782569361839
 20
170.0912009102154
 30
0.0
 10
40.56074195667214
 20
170.0710177301504
 30
0.0
 10
40.0841629281094
 20
169.9813197351482
 30
0.0
 10
39.67203853252006
 20
169.8388576141409
 30
0.0
 10
39.43502839901151
 20
169.7016135983751
 30
0.0
 10
39.3386826374
 20
169.6235790035
 30
0.0
 11
41.070733445
 21
170.0912009454
 31
0.0
 11
40.5529908166
 21
170.0593201498
 31
0.0
 11
40.07052210389999
 21
169.9658450366
 31
0.0
 11
39.6562857498
 21
169.8171646357
 31
0.0
 11
39.3386826374
 21
169.6235790035
 31
0.0
  0
SPLINE
  5
546
330
1B
100
AcDbEntity
  8
0
  6
Continuous
100
AcDbSpline
210
0.0
220
0.0
230
1.0
 70
     8
 71
     3
 72
    11
 73
     7
 74
     5
 42
0.0000000001
 43
0.0000000001
 44
0.0000000001
 12
-1.0
 22
0.0
 32
0.0
 13
-0.7355935824284056
 23
-0.6774231185087684
 33
0.0
 40
0.0
 40
0.0
 40
0.0
 40
0.0
 40
0.5189047102591109
 40
1.012826189215059
 40
1.460186428897014
 40
1.846869558270105
 40
1.846869558270105
 40
1.846869558270105
 40
1.846869558270105
 10
41.070733445
 20
171.6545500602
 30
0.0
 10
40.89776520824697
 20
171.6545500602
 30
0.0
 10
40.55967660955575
 20
171.6314936167808
 30
0.0
 10
40.08191353370792
 20
171.5289993751474
 30
0.0
 10
39.66818647528372
 20
171.3658570809477
 30
0.0
 10
39.43349651353339
 20
171.2101724636582
 30
0.0
 10
39.3386826374
 20
171.1228564332
 30
0.0
 11
41.070733445
 21
171.6545500602
 31
0.0
 11
40.5530953547
 21
171.6183160182
 31
0.0
 11
40.070733445
 21
171.5120831822
 31
0.0
 11
39.6565198826
 21
171.3430911446
 31
0.0
 11
39.3386826374
 21
171.1228564332
 31
0.0
  0
SPLINE
  5
547
330
1B
100
AcDbEntity
  8
0
  6
Continuous
100
AcDbSpline
210
0.0
220
0.0
230
1.0
 70
     8
 71
     3
 72
    13
 73
     9
 74
     7
 42
0.0000000001
 43
0.0000000001
 44
0.0000000001
 12
-2.714980000000001E-11
 22
1.0
 32
0.0
 13
-1.0
 23
-8.144930000000001E-11
 33
0.0
 40
0.0
 40
0.0
 40
0.0
 40
0.0
 40
0.4253068372139172
 40
0.9129738291056317
 40
1.492999526425203
 40
2.164039517459776
 40
2.904919902029388
 40
3.683274197028481
 40
3.683274197028481
 40
3.683274197028481
 40
3.683274197028481
 10
49.9530419913
 20
144.1128201815
 30
0.0
 10
49.95304199129615
 20
144.254589127238
 30
0.0
 10
49.87046998818594
 20
144.5615277149632
 30
0.0
 10
49.54485387294581
 20
144.9511670200793
 30
0.0
 10
49.05728376662944
 20
145.2745746618023
 30
0.0
 10
48.43613253394148
 20
145.5196680670402
 30
0.0
 10
47.7196672492528
 20
145.6732877707603
 30
0.0
 10
47.21249342296635
 20
145.7079010621212
 30
0.0
 10
46.95304199129999
 20
145.7079010621
 30
0.0
 11
49.9530419913
 21
144.1128201815
 31
0.0
 11
49.8508184842
 21
144.5256594485
 31
0.0
 11
49.5511152642
 21
144.910363328
 31
0.0
 11
49.0743579252
 21
145.2407150334
 31
0.0
 11
48.45303757599999
 21
145.4942021006
 31
0.0
 11
47.729496377
 21
145.6535503908
 31
0.0
 11
46.95304199129999
 21
145.7079010621
 31
0.0
  0
SPLINE
  5
548
330
1B
100
AcDbEntity
  8
0
  6
Continuous
100
AcDbSpline
210
0.0
220
0.0
230
1.0
 70
     8
 71
     3
 72
    13
 73
     9
 74
     7
 42
0.0000000001
 43
0.0000000001
 44
0.0000000001
 12
-8.144930000000000E-11
 22
-1.0
 32
0.0
 13
-1.0
 23
0.0
 33
0.0
 40
0.0
 40
0.0
 40
0.0
 40
0.0
 40
0.4253075413236902
 40
0.9129753552171105
 40
1.493001677394617
 40
2.16404166755673
 40
2.904921247840541
 40
3.683274181396237
 40
3.683274181396237
 40
3.683274181396237
 40
3.683274181396237
 10
49.9530419913
 20
173.2496309425
 30
0.0
 10
49.95304199128845
 20
173.1078617620588
 30
0.0
 10
49.87046969715197
 20
172.8009226627816
 30
0.0
 10
49.54485276000312
 20
172.4112830805599
 30
0.0
 10
49.05728200206072
 20
172.0878755596687
 30
0.0
 10
48.43613069054757
 20
171.8427825423172
 30
0.0
 10
47.71966606947812
 20
171.6891632432301
 30
0.0
 10
47.21249296915189
 20
171.6545500607
 30
0.0
 10
46.95304199129999
 20
171.6545500607
 30
0.0
 11
49.9530419913
 21
173.2496309425
 31
0.0
 11
49.8508181592
 21
172.8367910306
 31
0.0
 11
49.5511141232
 21
172.4520867448
 31
0.0
 11
49.0743560039
 21
172.1217350684
 31
0.0
 11
48.45303549909999
 21
171.8682483849
 31
0.0
 11
47.72949502569999
 21
171.7089005395
 31
0.0
 11
46.95304199129999
 21
171.6545500607
 31
0.0
  0
SPLINE
  5
549
330
1B
100
AcDbEntity
  8
0
  6
Continuous
100
AcDbSpline
210
0.0
220
0.0
230
1.0
 70
     8
 71
     3
 72
    13
 73
     9
 74
     7
 42
0.0000000001
 43
0.0000000001
 44
0.0000000001
 12
-5.613980000000000E-11
 22
-1.0
 32
0.0
 13
-1.0
 23
-8.420969999999999E-11
 33
0.0
 40
0.0
 40
0.0
 40
0.0
 40
0.0
 40
0.3772060857634152
 40
0.8292015226428846
 40
1.38751408996603
 40
2.047621210034438
 40
2.784609766517438
 40
3.562533485026308
 40
3.562533485026308
 40
3.562533485026308
 40
3.562533485026308
 10
49.9530419913
 20
171.4940667713
 30
0.0
 10
49.95304199129294
 20
171.3683314093789
 30
0.0
 10
49.86542602030306
 20
171.0902681580536
 30
0.0
 10
49.53679649073175
 20
170.7513536566789
 30
0.0
 10
49.05142862803684
 20
170.4697921200478
 30
0.0
 10
48.43242378703143
 20
170.2558957467463
 30
0.0
 10
47.71792251906383
 20
170.1214815714163
 30
0.0
 10
47.21234989746962
 20
170.0912009450218
 30
0.0
 10
46.95304199129999
 20
170.091200945
 30
0.0
 11
49.9530419913
 21
171.4940667713
 31
0.0
 11
49.8508182432
 21
171.1309762365
 31
0.0
 11
49.55111454619999
 21
170.7926308967
 31
0.0
 11
49.0743568478
 21
170.5020882667
 31
0.0
 11
48.4530364972
 21
170.2791478444
 31
0.0
 11
47.7294957053
 21
170.1390020102
 31
0.0
 11
46.95304199129999
 21
170.091200945
 31
0.0
  0
SPLINE
  5
54A
330
1B
100
AcDbEntity
  8
0
  6
Continuous
100
AcDbSpline
210
0.0
220
0.0
230
1.0
 70
     8
 71
     3
 72
    13
 73
     9
 74
     7
 42
0.0000000001
 43
0.0000000001
 44
0.0000000001
 12
-4.257730000000000E-11
 22
1.0
 32
0.0
 13
-1.0
 23
0.0
 33
0.0
 40
0.0
 40
0.0
 40
0.0
 40
0.0
 40
0.7826352899036285
 40
1.565338013433614
 40
2.348158623943384
 40
3.131115734734259
 40
3.914191191031494
 40
4.697335006140508
 40
4.697335006140508
 40
4.697335006140508
 40
4.697335006140508
 10
49.9530419913
 20
131.2999789717
 30
0.0
 10
49.95304199128889
 20
131.5608574016679
 30
0.0
 10
49.88410437200582
 20
132.0852020728581
 30
0.0
 10
49.58092606349921
 20
132.8161419601732
 30
0.0
 10
49.09870138466938
 20
133.4442826982387
 30
0.0
 10
48.47012259521632
 20
133.9261313110828
 30
0.0
 10
47.73872360969061
 20
134.2290516056741
 30
0.0
 10
47.21408992966966
 20
134.2979256784
 30
0.0
 10
46.95304199129999
 20
134.2979256784
 30
0.0
 11
49.9530419913
 21
131.2999789717
 31
0.0
 11
49.8508181592
 21
132.0759095647
 31
0.0
 11
49.5511141232
 21
132.7989593861
 31
0.0
 11
49.0743560039
 21
133.4198537442
 31
0.0
 11
48.45303549909999
 21
133.8962807246
 31
0.0
 11
47.72949502569999
 21
134.1957742197
 31
0.0
 11
46.95304199129999
 21
134.2979256784
 31
0.0
  0
SPLINE
  5
54B
330
1B
100
AcDbEntity
  8
0
  6
Continuous
100
AcDbSpline
210
0.0
220
0.0
230
1.0
 70
     8
 71
     3
 72
     9
 73
     5
 74
     3
 42
0.0000000001
 43
0.0000000001
 44
0.0000000001
 12
-0.2606573271341485
 22
-0.9654313843102893
 32
0.0
 13
-0.1443239021992634
 23
-0.9895305004162214
 33
0.0
 40
0.0
 40
0.0
 40
0.0
 40
0.0
 40
2.766820134766918
 40
5.422699836789244
 40
5.422699836789244
 40
5.422699836789244
 40
5.422699836789244
 10
41.0707333597
 20
169.1559570615
 30
0.0
 10
40.83033604603691
 20
168.2655653972181
 30
0.0
 10
40.40281438665062
 20
166.5082616477787
 30
0.0
 10
40.08081096542256
 20
164.7281700992625
 30
0.0
 10
39.9530419913
 20
163.8521454424
 30
0.0
 11
41.0707333597
 21
169.1559570615
 31
0.0
 11
40.4215378991
 21
166.4663773709
 31
0.0
 11
39.9530419913
 21
163.8521454424
 31
0.0
  0
ENDSEC
  0
SECTION
  2
OBJECTS
  0
DICTIONARY
  5
570
330
0
100
AcDbDictionary
281
     1
  3
ACAD_COLOR
350
6D1
  3
ACAD_GROUP
350
571
  3
ACAD_LAYOUT
350
6D2
  3
ACAD_MATERIAL
350
6D0
  3
ACAD_MLINESTYLE
350
572
  3
ACAD_PLOTSETTINGS
350
6D3
  3
ACAD_PLOTSTYLENAME
350
6CE
  3
ACDBHEADERROUNDTRIPXREC
350
6DC
  3
AcDbVariableDictionary
350
6D9
  0
DICTIONARY
  5
6D1
102
{ACAD_REACTORS
330
570
102
}
330
570
100
AcDbDictionary
281
     1
  0
DICTIONARY
  5
571
102
{ACAD_REACTORS
330
570
102
}
330
570
100
AcDbDictionary
281
     1
  0
DICTIONARY
  5
6D2
102
{ACAD_REACTORS
330
570
102
}
330
570
100
AcDbDictionary
281
     1
  3
Layout1
350
6D5
  3
Model
350
6D4
  0
DICTIONARY
  5
6D0
102
{ACAD_REACTORS
330
570
102
}
330
570
100
AcDbDictionary
281
     1
  0
DICTIONARY
  5
572
102
{ACAD_REACTORS
330
570
102
}
330
570
100
AcDbDictionary
281
     1
  3
STANDARD
350
573
  0
DICTIONARY
  5
6D3
102
{ACAD_REACTORS
330
570
102
}
330
570
100
AcDbDictionary
281
     1
  0
ACDBDICTIONARYWDFLT
  5
6CE
102
{ACAD_REACTORS
330
570
102
}
330
570
100
AcDbDictionary
281
     1
  3
Normal
350
6CF
100
AcDbDictionaryWithDefault
340
6CF
  0
DICTIONARY
  5
6DC
102
{ACAD_REACTORS
330
570
102
}
330
570
100
AcDbDictionary
281
     1
  3
COLORDICT
350
6DD
  3
MATERIALDICT
350
6DE
  0
DICTIONARY
  5
6D9
102
{ACAD_REACTORS
330
570
102
}
330
570
100
AcDbDictionary
281
     1
  3
DIMASSOC
350
6DA
  3
HIDETEXT
350
6DB
  0
LAYOUT
  5
6D5
102
{ACAD_REACTORS
330
6D2
102
}
330
6D2
100
AcDbPlotSettings
  1

  2
Microsoft Office Document Image Writer
  4

  6

 40
0.0
 41
0.0
 42
0.0
 43
0.0
 44
0.0
 45
0.0
 46
0.0
 47
0.0
 48
0.0
 49
0.0
140
0.0
141
0.0
142
1.0
143
1.0
 70
   688
 72
     0
 73
     0
 74
     5
  7

 75
    16
147
1.0
148
0.0
149
0.0
100
AcDbLayout
  1
Layout1
 70
     0
 71
     1
 10
0.0
 20
0.0
 11
12.0
 21
9.0
 12
0.0
 22
0.0
 32
0.0
 14
1.000000000000000E+20
 24
1.000000000000000E+20
 34
1.000000000000000E+20
 15
-1.000000000000000E+20
 25
-1.000000000000000E+20
 35
-1.000000000000000E+20
146
0.0
 13
0.0
 23
0.0
 33
0.0
 16
1.0
 26
0.0
 36
0.0
 17
0.0
 27
1.0
 37
0.0
 76
     0
330
1C
  0
LAYOUT
  5
6D4
102
{ACAD_REACTORS
330
6D2
102
}
330
6D2
100
AcDbPlotSettings
  1

  2
Microsoft Office Document Image Writer
  4

  6

 40
0.0
 41
0.0
 42
0.0
 43
0.0
 44
0.0
 45
0.0
 46
0.0
 47
0.0
 48
0.0
 49
0.0
140
0.0
141
0.0
142
1.0
143
1.0
 70
  1712
 72
     0
 73
     0
 74
     0
  7

 75
     0
147
1.0
148
0.0
149
0.0
100
AcDbLayout
  1
Model
 70
     1
 71
     0
 10
0.0
 20
0.0
 11
12.0
 21
9.0
 12
0.0
 22
0.0
 32
0.0
 14
0.0
 24
0.0
 34
0.0
 15
0.0
 25
0.0
 35
0.0
146
0.0
 13
0.0
 23
0.0
 33
0.0
 16
1.0
 26
0.0
 36
0.0
 17
0.0
 27
1.0
 37
0.0
 76
     0
330
1B
  0
MLINESTYLE
  5
573
102
{ACAD_REACTORS
330
572
102
}
330
572
100
AcDbMlineStyle
  2
STANDARD
 70
     0
  3

 62
   256
 51
90.00000000000019
 52
90.00000000000019
 71
     2
 49
0.5
 62
   256
  6
BYLAYER
 49
-0.5
 62
   256
  6
BYLAYER
  0
ACDBPLACEHOLDER
  5
6CF
102
{ACAD_REACTORS
330
6CE
102
}
330
6CE
  0
XRECORD
  5
6DD
102
{ACAD_REACTORS
330
6DC
102
}
330
6DC
100
AcDbXrecord
280
     1
340
6D1
  0
XRECORD
  5
6DE
102
{ACAD_REACTORS
330
6DC
102
}
330
6DC
100
AcDbXrecord
280
     1
340
6D0
  0
DICTIONARYVAR
  5
6DA
102
{ACAD_REACTORS
330
6D9
102
}
330
6D9
100
DictionaryVariables
280
     0
  1
1
  0
DICTIONARYVAR
  5
6DB
102
{ACAD_REACTORS
330
6D9
102
}
330
6D9
100
DictionaryVariables
280
     0
  1
0
  0
ENDSEC
  0
EOF
