  0
SECTION
  2
HEADER
  9
$ACADVER
  1
AC1015
  9
$ACADMAINTVER
 70
     6
  9
$DWGCODEPAGE
  3
ANSI_1252
  9
$INSBASE
 10
0.0
 20
0.0
 30
0.0
  9
$EXTMIN
 10
45.36640732229996
 20
19.69749647960002
 30
0.0
  9
$EXTMAX
 10
260.6928181902
 20
246.0231146105
 30
0.0
  9
$LIMMIN
 10
0.0
 20
0.0
  9
$LIMMAX
 10
420.0
 20
297.0
  9
$ORTHOMODE
 70
     0
  9
$REGENMODE
 70
     1
  9
$FILLMODE
 70
     1
  9
$QTEXTMODE
 70
     0
  9
$MIRRTEXT
 70
     1
  9
$LTSCALE
 40
23.1
  9
$ATTMODE
 70
     1
  9
$TEXTSIZE
 40
0.2
  9
$TRACEWID
 40
0.05
  9
$TEXTSTYLE
  7
STANDARD
  9
$CLAYER
  8
0
  9
$CELTYPE
  6
BYLAYER
  9
$CECOLOR
 62
   256
  9
$CELTSCALE
 40
1.0
  9
$DISPSILH
 70
     0
  9
$DIMSCALE
 40
1.0
  9
$DIMASZ
 40
3.0
  9
$DIMEXO
 40
2.625
  9
$DIMDLI
 40
15.96
  9
$DIMRND
 40
0.0
  9
$DIMDLE
 40
0.0
  9
$DIMEXE
 40
7.559999999999999
  9
$DIMTP
 40
0.003
  9
$DIMTM
 40
0.003
  9
$DIMTXT
 40
1.5
  9
$DIMCEN
 40
3.779999999999999
  9
$DIMTSZ
 40
0.0
  9
$DIMTOL
 70
     1
  9
$DIMLIM
 70
     0
  9
$DIMTIH
 70
     1
  9
$DIMTOH
 70
     1
  9
$DIMSE1
 70
     0
  9
$DIMSE2
 70
     0
  9
$DIMTAD
 70
     0
  9
$DIMZIN
 70
     0
  9
$DIMBLK
  1

  9
$DIMASO
 70
     1
  9
$DIMSHO
 70
     1
  9
$DIMPOST
  1

  9
$DIMAPOST
  1

  9
$DIMALT
 70
     0
  9
$DIMALTD
 70
     2
  9
$DIMALTF
 40
25.4
  9
$DIMLFAC
 40
1.0
  9
$DIMTOFL
 70
     0
  9
$DIMTVP
 40
0.0
  9
$DIMTIX
 70
     0
  9
$DIMSOXD
 70
     0
  9
$DIMSAH
 70
     0
  9
$DIMBLK1
  1

  9
$DIMBLK2
  1

  9
$DIMSTYLE
  2
STANDARD
  9
$DIMCLRD
 70
     0
  9
$DIMCLRE
 70
     0
  9
$DIMCLRT
 70
     0
  9
$DIMTFAC
 40
1.0
  9
$DIMGAP
 40
0.09
  9
$DIMJUST
 70
     0
  9
$DIMSD1
 70
     0
  9
$DIMSD2
 70
     0
  9
$DIMTOLJ
 70
     1
  9
$DIMTZIN
 70
     0
  9
$DIMALTZ
 70
     0
  9
$DIMALTTZ
 70
     0
  9
$DIMUPT
 70
     0
  9
$DIMDEC
 70
     4
  9
$DIMTDEC
 70
     4
  9
$DIMALTU
 70
     2
  9
$DIMALTTD
 70
     2
  9
$DIMTXSTY
  7
STANDARD
  9
$DIMAUNIT
 70
     0
  9
$DIMADEC
 70
     0
  9
$DIMALTRND
 40
0.0
  9
$DIMAZIN
 70
     0
  9
$DIMDSEP
 70
    46
  9
$DIMATFIT
 70
     3
  9
$DIMFRAC
 70
     0
  9
$DIMLDRBLK
  1

  9
$DIMLUNIT
 70
     2
  9
$DIMLWD
 70
    -2
  9
$DIMLWE
 70
    -2
  9
$DIMTMOVE
 70
     0
  9
$LUNITS
 70
     2
  9
$LUPREC
 70
     4
  9
$SKETCHINC
 40
0.1
  9
$FILLETRAD
 40
0.0
  9
$AUNITS
 70
     0
  9
$AUPREC
 70
     0
  9
$MENU
  1
acad
  9
$ELEVATION
 40
0.0
  9
$PELEVATION
 40
0.0
  9
$THICKNESS
 40
0.0
  9
$LIMCHECK
 70
     0
  9
$CHAMFERA
 40
0.0
  9
$CHAMFERB
 40
0.0
  9
$CHAMFERC
 40
0.0
  9
$CHAMFERD
 40
0.0
  9
$SKPOLY
 70
     0
  9
$TDCREATE
 40
2444972.041666667
  9
$TDUCREATE
 40
2444972.0
  9
$TDUPDATE
 40
2453410.580934988
  9
$TDUUPDATE
 40
2453410.539268322
  9
$TDINDWG
 40
0.0209841782
  9
$TDUSRTIMER
 40
0.0209841782
  9
$USRTIMER
 70
     1
  9
$ANGBASE
 50
0.0
  9
$ANGDIR
 70
     0
  9
$PDMODE
 70
     0
  9
$PDSIZE
 40
0.0
  9
$PLINEWID
 40
0.0
  9
$SPLFRAME
 70
     0
  9
$SPLINETYPE
 70
     6
  9
$SPLINESEGS
 70
     8
  9
$HANDSEED
  5
2757
  9
$SURFTAB1
 70
     6
  9
$SURFTAB2
 70
     6
  9
$SURFTYPE
 70
     6
  9
$SURFU
 70
     6
  9
$SURFV
 70
     6
  9
$UCSBASE
  2

  9
$UCSNAME
  2

  9
$UCSORG
 10
0.0
 20
0.0
 30
0.0
  9
$UCSXDIR
 10
1.0
 20
0.0
 30
0.0
  9
$UCSYDIR
 10
0.0
 20
1.0
 30
0.0
  9
$UCSORTHOREF
  2

  9
$UCSORTHOVIEW
 70
     0
  9
$UCSORGTOP
 10
0.0
 20
0.0
 30
0.0
  9
$UCSORGBOTTOM
 10
0.0
 20
0.0
 30
0.0
  9
$UCSORGLEFT
 10
0.0
 20
0.0
 30
0.0
  9
$UCSORGRIGHT
 10
0.0
 20
0.0
 30
0.0
  9
$UCSORGFRONT
 10
0.0
 20
0.0
 30
0.0
  9
$UCSORGBACK
 10
0.0
 20
0.0
 30
0.0
  9
$PUCSBASE
  2

  9
$PUCSNAME
  2

  9
$PUCSORG
 10
0.0
 20
0.0
 30
0.0
  9
$PUCSXDIR
 10
1.0
 20
0.0
 30
0.0
  9
$PUCSYDIR
 10
0.0
 20
1.0
 30
0.0
  9
$PUCSORTHOREF
  2

  9
$PUCSORTHOVIEW
 70
     0
  9
$PUCSORGTOP
 10
0.0
 20
0.0
 30
0.0
  9
$PUCSORGBOTTOM
 10
0.0
 20
0.0
 30
0.0
  9
$PUCSORGLEFT
 10
0.0
 20
0.0
 30
0.0
  9
$PUCSORGRIGHT
 10
0.0
 20
0.0
 30
0.0
  9
$PUCSORGFRONT
 10
0.0
 20
0.0
 30
0.0
  9
$PUCSORGBACK
 10
0.0
 20
0.0
 30
0.0
  9
$USERI1
 70
     0
  9
$USERI2
 70
     0
  9
$USERI3
 70
     0
  9
$USERI4
 70
     0
  9
$USERI5
 70
     0
  9
$USERR1
 40
0.0
  9
$USERR2
 40
0.0
  9
$USERR3
 40
0.0
  9
$USERR4
 40
0.0
  9
$USERR5
 40
0.0
  9
$WORLDVIEW
 70
     1
  9
$SHADEDGE
 70
     3
  9
$SHADEDIF
 70
    70
  9
$TILEMODE
 70
     1
  9
$MAXACTVP
 70
    16
  9
$PINSBASE
 10
0.0
 20
0.0
 30
0.0
  9
$PLIMCHECK
 70
     0
  9
$PEXTMIN
 10
1.000000000000000E+20
 20
1.000000000000000E+20
 30
1.000000000000000E+20
  9
$PEXTMAX
 10
-1.000000000000000E+20
 20
-1.000000000000000E+20
 30
-1.000000000000000E+20
  9
$PLIMMIN
 10
0.0
 20
0.0
  9
$PLIMMAX
 10
12.0
 20
9.0
  9
$UNITMODE
 70
     0
  9
$VISRETAIN
 70
     0
  9
$PLINEGEN
 70
     1
  9
$PSLTSCALE
 70
     0
  9
$TREEDEPTH
 70
  3020
  9
$CMLSTYLE
  2
STANDARD
  9
$CMLJUST
 70
     0
  9
$CMLSCALE
 40
1.0
  9
$PROXYGRAPHICS
 70
     1
  9
$MEASUREMENT
 70
     0
  9
$CELWEIGHT
370
    -1
  9
$ENDCAPS
280
     0
  9
$JOINSTYLE
280
     0
  9
$LWDISPLAY
290
     0
  9
$INSUNITS
 70
     0
  9
$HYPERLINKBASE
  1

  9
$STYLESHEET
  1

  9
$XEDIT
290
     1
  9
$CEPSNTYPE
380
     0
  9
$PSTYLEMODE
290
     1
  9
$FINGERPRINTGUID
  2
{41790DBD-8B2F-46C8-9F20-55BFA7623A26}
  9
$VERSIONGUID
  2
{3CF0CE71-F7C6-4EE3-B6AF-14DD0CF8E5AD}
  9
$EXTNAMES
290
     1
  9
$PSVPSCALE
 40
0.0
  9
$OLESTARTUP
290
     0
  0
ENDSEC
  0
SECTION
  2
CLASSES
  0
CLASS
  1
IMAGE
  2
AcDbRasterImage
  3
ISM
 90
      127
280
     0
281
     1
  0
CLASS
  1
DICTIONARYVAR
  2
AcDbDictionaryVar
  3
ObjectDBX Classes
 90
        0
280
     0
281
     0
  0
CLASS
  1
RASTERVARIABLES
  2
AcDbRasterVariables
  3
ISM
 90
        0
280
     0
281
     0
  0
CLASS
  1
IMAGEDEF
  2
AcDbRasterImageDef
  3
ISM
 90
        0
280
     0
281
     0
  0
CLASS
  1
IMAGEDEF_REACTOR
  2
AcDbRasterImageDefReactor
  3
ISM
 90
        1
280
     0
281
     0
  0
CLASS
  1
IDBUFFER
  2
AcDbIdBuffer
  3
ObjectDBX Classes
 90
        0
280
     0
281
     0
  0
CLASS
  1
SPATIAL_FILTER
  2
AcDbSpatialFilter
  3
ObjectDBX Classes
 90
        0
280
     0
281
     0
  0
CLASS
  1
SORTENTSTABLE
  2
AcDbSortentsTable
  3
ObjectDBX Classes
 90
        0
280
     0
281
     0
  0
CLASS
  1
LAYER_INDEX
  2
AcDbLayerIndex
  3
ObjectDBX Classes
 90
        0
280
     0
281
     0
  0
CLASS
  1
SPATIAL_INDEX
  2
AcDbSpatialIndex
  3
AutoCAD 2000
 90
        0
280
     0
281
     0
  0
CLASS
  1
OBJECT_PTR
  2
CAseDLPNTableRecord
  3
ASE-LPNTableRecord
 90
        1
280
     0
281
     0
  0
CLASS
  1
PLOTSETTINGS
  2
AcDbPlotSettings
  3
ObjectDBX Classes
 90
        0
280
     0
281
     0
  0
CLASS
  1
ACDBDICTIONARYWDFLT
  2
AcDbDictionaryWithDefault
  3
ObjectDBX Classes
 90
        0
280
     0
281
     0
  0
CLASS
  1
WIPEOUT
  2
AcDbWipeout
  3
WipeOut|AutoCAD Express Tool|expresstools@autodesk.com
 90
      127
280
     0
281
     1
  0
CLASS
  1
WIPEOUTVARIABLES
  2
AcDbWipeoutVariables
  3
WipeOut|AutoCAD Express Tool|expresstools@autodesk.com
 90
        0
280
     0
281
     0
  0
CLASS
  1
RTEXT
  2
RText
  3
RText|AutoCAD Express Tool|expresstools@autodesk.com
 90
        0
280
     0
281
     1
  0
CLASS
  1
ARCALIGNEDTEXT
  2
AcDbArcAlignedText
  3
ATEXT|AutoCAD Express Tool|expresstools@autodesk.com
 90
        0
280
     0
281
     1
  0
CLASS
  1
ACDBPLACEHOLDER
  2
AcDbPlaceHolder
  3
ObjectDBX Classes
 90
        0
280
     0
281
     0
  0
CLASS
  1
LAYOUT
  2
AcDbLayout
  3
ObjectDBX Classes
 90
        0
280
     0
281
     0
  0
ENDSEC
  0
SECTION
  2
TABLES
  0
TABLE
  2
VPORT
  5
8
330
0
100
AcDbSymbolTable
 70
     1
  0
VPORT
  5
2750
330
8
100
AcDbSymbolTableRecord
100
AcDbViewportTableRecord
  2
*Active
 70
     0
 10
0.0
 20
0.0
 11
1.0
 21
1.0
 12
155.3120110017615
 22
157.7995688986805
 13
0.0
 23
0.0
 14
1.0
 24
1.0
 15
0.0
 25
0.0
 16
0.0
 26
0.0
 36
1.0
 17
0.0
 27
0.0
 37
0.0
 40
241.4940640100864
 41
1.888667992047713
 42
50.0
 43
0.0
 44
0.0
 50
0.0
 51
0.0
 71
     0
 72
   100
 73
     1
 74
     1
 75
     0
 76
     0
 77
     0
 78
     0
281
     0
 65
     1
110
0.0
120
0.0
130
0.0
111
1.0
121
0.0
131
0.0
112
0.0
122
1.0
132
0.0
 79
     0
146
0.0
  0
ENDTAB
  0
TABLE
  2
LTYPE
  5
5
330
0
100
AcDbSymbolTable
 70
     2
  0
LTYPE
  5
14
330
5
100
AcDbSymbolTableRecord
100
AcDbLinetypeTableRecord
  2
BYBLOCK
 70
     0
  3

 72
    65
 73
     0
 40
0.0
  0
LTYPE
  5
15
330
5
100
AcDbSymbolTableRecord
100
AcDbLinetypeTableRecord
  2
BYLAYER
 70
     0
  3

 72
    65
 73
     0
 40
0.0
  0
LTYPE
  5
16
330
5
100
AcDbSymbolTableRecord
100
AcDbLinetypeTableRecord
  2
CONTINUOUS
 70
     0
  3
Solid line
 72
    65
 73
     0
 40
0.0
  0
LTYPE
  5
1F5
330
5
100
AcDbSymbolTableRecord
100
AcDbLinetypeTableRecord
  2
CENTER
 70
     0
  3
____ _ ____ _ ____ _ ____ _ ____ _ ____ _ ____
 72
    65
 73
     4
 40
0.6
 49
0.375
 74
     0
 49
-0.075
 74
     0
 49
0.075
 74
     0
 49
-0.075
 74
     0
  0
ENDTAB
  0
TABLE
  2
LAYER
  5
2
330
0
100
AcDbSymbolTable
 70
     3
  0
LAYER
  5
10
330
2
100
AcDbSymbolTableRecord
100
AcDbLayerTableRecord
  2
0
 70
     0
 62
     7
  6
CONTINUOUS
370
    -3
390
2112
  0
LAYER
  5
1FA
330
2
100
AcDbSymbolTableRecord
100
AcDbLayerTableRecord
  2
DEFAULT_1
 70
     0
 62
     7
  6
CENTER
370
    -3
390
2112
  0
LAYER
  5
21B3
330
2
100
AcDbSymbolTableRecord
100
AcDbLayerTableRecord
  2
Defpoints
 70
     0
 62
     7
  6
CONTINUOUS
290
     0
370
    -3
390
2112
  0
ENDTAB
  0
TABLE
  2
STYLE
  5
3
330
0
100
AcDbSymbolTable
 70
     1
  0
STYLE
  5
11
330
3
100
AcDbSymbolTableRecord
100
AcDbTextStyleTableRecord
  2
STANDARD
 70
     0
 40
0.0
 41
1.0
 50
0.0
 71
     0
 42
0.2
  3
txt
  4

  0
ENDTAB
  0
TABLE
  2
VIEW
  5
6
330
0
100
AcDbSymbolTable
 70
     0
  0
ENDTAB
  0
TABLE
  2
UCS
  5
7
330
0
100
AcDbSymbolTable
 70
     0
  0
ENDTAB
  0
TABLE
  2
APPID
  5
9
330
0
100
AcDbSymbolTable
 70
     1
  0
APPID
  5
21A
330
9
100
AcDbSymbolTableRecord
100
AcDbRegAppTableRecord
  2
ACAD
 70
     0
  0
ENDTAB
  0
TABLE
  2
DIMSTYLE
  5
A
330
0
100
AcDbSymbolTable
 70
     1
100
AcDbDimStyleTable
  0
DIMSTYLE
105
21B
330
A
100
AcDbSymbolTableRecord
100
AcDbDimStyleTableRecord
  2
STANDARD
 70
     0
 41
3.0
 47
0.003
 48
0.003
 71
     1
 73
     0
 74
     0
 77
     1
 78
     8
140
1.5
271
     3
272
     3
284
     8
340
11
  0
ENDTAB
  0
TABLE
  2
BLOCK_RECORD
  5
1
330
0
100
AcDbSymbolTable
 70
     0
  0
BLOCK_RECORD
  5
1B
330
1
100
AcDbSymbolTableRecord
100
AcDbBlockTableRecord
  2
*MODEL_SPACE
340
2117
  0
BLOCK_RECORD
  5
1C
330
1
100
AcDbSymbolTableRecord
100
AcDbBlockTableRecord
  2
*PAPER_SPACE
340
2118
  0
ENDTAB
  0
ENDSEC
  0
SECTION
  2
BLOCKS
  0
BLOCK
  5
1E
330
1B
100
AcDbEntity
  8
0
100
AcDbBlockBegin
  2
*MODEL_SPACE
 70
     0
 71
     0
 10
0.0
 20
0.0
 30
0.0
  3
*MODEL_SPACE
  1

  0
ENDBLK
  5
1F
330
1B
100
AcDbEntity
  8
0
100
AcDbBlockEnd
  0
BLOCK
  5
20
330
1C
100
AcDbEntity
 67
     1
  8
0
100
AcDbBlockBegin
  2
*PAPER_SPACE
 70
     0
 71
     0
 10
0.0
 20
0.0
 30
0.0
  3
*PAPER_SPACE
  1

  0
ENDBLK
  5
21
330
1C
100
AcDbEntity
 67
     1
  8
0
100
AcDbBlockEnd
  0
ENDSEC
  0
SECTION
  2
ENTITIES
  0
TEXT
  5
313
330
1B
100
AcDbEntity
  8
0
  6
Continuous
 62
     1
100
AcDbText
 10
328.0620514055
 20
31.790927071
 30
0.0
 40
1.5
  1
 
 41
1.285714285699999
 72
     5
 11
329.990622834
 21
31.790927071
 31
0.0
100
AcDbText
  0
TEXT
  5
314
330
1B
100
AcDbEntity
  8
0
  6
Continuous
 62
     1
100
AcDbText
 10
329.990622834
 20
31.790927071
 30
0.0
 40
1.5
  1
 
 41
1.285714285699999
 72
     5
 11
331.9191942626
 21
31.790927071
 31
0.0
100
AcDbText
  0
TEXT
  5
316
330
1B
100
AcDbEntity
  8
0
  6
Continuous
 62
     1
100
AcDbText
 10
352.7763371197
 20
31.790927071
 30
0.0
 40
1.5
  1
 
 41
1.285714285699999
 72
     5
 11
354.7049085483
 21
31.790927071
 31
0.0
100
AcDbText
  0
TEXT
  5
320
330
1B
100
AcDbEntity
  8
0
  6
Continuous
 62
     1
100
AcDbText
 10
401.7191942625999
 20
20.9052127852
 30
0.0
 40
1.5
  1
 
 41
1.0285714286
 72
     5
 11
403.2620514054999
 21
20.9052127852
 31
0.0
100
AcDbText
  0
TEXT
  5
323
330
1B
100
AcDbEntity
  8
0
  6
Continuous
 62
     1
100
AcDbText
 10
376.5263371197
 20
13.1052127852
 30
0.0
 40
1.5
  1
 
 41
1.285714285699999
 72
     5
 11
378.4549085483
 21
13.1052127852
 31
0.0
100
AcDbText
  0
LINE
  5
3A9
330
1B
100
AcDbEntity
  8
0
  6
Continuous
100
AcDbLine
 10
81.384536928
 20
85.4964304236
 30
0.0
 11
85.27358699929999
 21
83.25108631800001
 31
0.0
  0
LINE
  5
3AA
330
1B
100
AcDbEntity
  8
0
  6
Continuous
100
AcDbLine
 10
69.36640732230001
 20
202.9562331788
 30
0.0
 11
69.4362488613
 21
204.9562331788
 31
0.0
  0
LINE
  5
3AB
330
1B
100
AcDbEntity
  8
0
  6
Continuous
100
AcDbLine
 10
135.2592276454
 20
83.19749647960001
 30
0.0
 11
85.4735869993
 21
83.19749647960001
 31
0.0
  0
LINE
  5
3AC
330
1B
100
AcDbEntity
  8
0
  6
Continuous
100
AcDbLine
 10
85.27358699929999
 20
83.25108631800001
 30
0.0
 11
135.4592276454
 21
83.25108631800001
 31
0.0
  0
LINE
  5
3AD
330
1B
100
AcDbEntity
  8
0
  6
Continuous
100
AcDbLine
 10
139.3664073223
 20
85.5068975563
 30
0.0
 11
139.3422345148
 21
85.5068975563
 31
0.0
  0
LINE
  5
3AE
330
1B
100
AcDbEntity
  8
0
  6
Continuous
100
AcDbLine
 10
125.8795423014
 20
85.5068975563
 30
0.0
 11
123.8290995357
 21
85.5068975563
 31
0.0
  0
LINE
  5
3AF
330
1B
100
AcDbEntity
  8
0
  6
Continuous
100
AcDbLine
 10
96.90371510890002
 20
85.5068975563
 30
0.0
 11
94.85327234330001
 21
85.5068975563
 31
0.0
  0
LINE
  5
3B0
330
1B
100
AcDbEntity
  8
0
  6
Continuous
100
AcDbLine
 10
81.3905801299
 20
85.5068975563
 30
0.0
 11
81.36640732230001
 21
85.5068975563
 31
0.0
  0
LINE
  5
3B1
330
1B
100
AcDbEntity
  8
0
  6
Continuous
100
AcDbLine
 10
81.36640732230001
 20
102.4427959412
 30
0.0
 11
81.36640732230001
 21
85.5068975563
 31
0.0
  0
LINE
  5
3B2
330
1B
100
AcDbEntity
  8
0
  6
Continuous
100
AcDbLine
 10
81.3905801299
 20
102.4427959412
 30
0.0
 11
81.3905801299
 21
85.5068975563
 31
0.0
  0
LINE
  5
3B3
330
1B
100
AcDbEntity
  8
0
  6
Continuous
100
AcDbLine
 10
81.523721181
 20
102.3745194934
 30
0.0
 11
81.523721181
 21
85.4430682735
 31
0.0
  0
LINE
  5
3B4
330
1B
100
AcDbEntity
  8
0
  6
Continuous
100
AcDbLine
 10
150.9722192669
 20
92.49749647959999
 30
0.0
 11
170.198716575
 21
92.49749647959999
 31
0.0
  0
LINE
  5
3B5
330
1B
100
AcDbEntity
  8
0
  6
Continuous
100
AcDbLine
 10
150.9722192669
 20
92.5329810791
 30
0.0
 11
170.198716575
 21
92.5329810791
 31
0.0
  0
LINE
  5
3B6
330
1B
100
AcDbEntity
  8
0
  6
Continuous
100
AcDbLine
 10
150.8504688428
 20
92.7987990643
 30
0.0
 11
170.1987165751
 21
92.7987990643
 31
0.0
  0
LINE
  5
3B7
330
1B
100
AcDbEntity
  8
0
  6
Continuous
100
AcDbLine
 10
84.86640732230001
 20
148.9562331788
 30
0.0
 11
84.86640732230001
 21
148.1015136495
 31
0.0
  0
LINE
  5
3B8
330
1B
100
AcDbEntity
  8
0
  6
Continuous
100
AcDbLine
 10
85.86640732230001
 20
145.865445672
 30
0.0
 11
85.86640732230001
 21
140.7521970179
 31
0.0
  0
LINE
  5
3B9
330
1B
100
AcDbEntity
  8
0
  6
Continuous
100
AcDbLine
 10
190.5928181902
 20
100.9974964796
 30
0.0
 11
194.7928181902
 21
100.9974964796
 31
0.0
  0
LINE
  5
3BA
330
1B
100
AcDbEntity
  8
0
  6
Continuous
100
AcDbLine
 10
90.36640732230001
 20
135.2673694606
 30
0.0
 11
90.36640732230001
 21
110.5256997098
 31
0.0
  0
LINE
  5
3BB
330
1B
100
AcDbEntity
  8
0
  6
Continuous
100
AcDbLine
 10
94.5221826284
 20
85.4430682735
 30
0.0
 11
94.5221826284
 21
102.3745232065
 31
0.0
  0
LINE
  5
3BC
330
1B
100
AcDbEntity
  8
0
  6
Continuous
100
AcDbLine
 10
94.85327234330001
 20
85.5068975563
 30
0.0
 11
94.85327234330001
 21
102.4427959412
 31
0.0
  0
LINE
  5
3BD
330
1B
100
AcDbEntity
  8
0
  6
Continuous
100
AcDbLine
 10
175.6628181902
 20
104.2766902658
 30
0.0
 11
188.1928181902
 21
104.3131386611
 31
0.0
  0
LINE
  5
3BE
330
1B
100
AcDbEntity
  8
0
  6
Continuous
100
AcDbLine
 10
148.6628181902
 20
101.6774964796
 30
0.0
 11
148.1864073223
 21
101.6774964796
 31
0.0
  0
LINE
  5
3BF
330
1B
100
AcDbEntity
  8
0
  6
Continuous
100
AcDbLine
 10
139.3664073223
 20
102.4427959412
 30
0.0
 11
139.3422345148
 21
102.4427959412
 31
0.0
  0
LINE
  5
3C0
330
1B
100
AcDbEntity
  8
0
  6
Continuous
100
AcDbLine
 10
81.3905801299
 20
102.4427959412
 30
0.0
 11
81.36640732230001
 21
102.4427959412
 31
0.0
  0
LINE
  5
3C1
330
1B
100
AcDbEntity
  8
0
  6
Continuous
100
AcDbLine
 10
94.85327234330001
 20
102.4427959412
 30
0.0
 11
96.90371510890002
 21
102.4427959412
 31
0.0
  0
LINE
  5
3C2
330
1B
100
AcDbEntity
  8
0
  6
Continuous
100
AcDbLine
 10
123.8290995357
 20
102.4427959412
 30
0.0
 11
125.8795423014
 21
102.4427959412
 31
0.0
  0
LINE
  5
3C3
102
{ACAD_REACTORS
330
2151
102
}
330
1B
100
AcDbEntity
  8
0
  6
Continuous
100
AcDbLine
 10
197.3031872756
 20
102.7974964796
 30
0.0
 11
195.1928181902
 21
102.7974964796
 31
0.0
  0
LINE
  5
3C4
330
1B
100
AcDbEntity
  8
0
  6
Continuous
100
AcDbLine
 10
138.9598788096
 20
103.5974964796
 30
0.0
 11
145.2572175324
 21
103.5974964796
 31
0.0
  0
LINE
  5
3C5
330
1B
100
AcDbEntity
  8
0
  6
Continuous
100
AcDbLine
 10
82.3805570806
 20
104.1748467488
 30
0.0
 11
82.36640732230001
 21
104.1748467488
 31
0.0
  0
LINE
  5
3C6
330
1B
100
AcDbEntity
  8
0
  6
Continuous
100
AcDbLine
 10
95.60267763209998
 20
104.1748467488
 30
0.0
 11
97.14428677079999
 21
104.1748467488
 31
0.0
  0
LINE
  5
3C7
330
1B
100
AcDbEntity
  8
0
  6
Continuous
100
AcDbLine
 10
123.5885278739
 20
104.1748467488
 30
0.0
 11
125.1301370126
 21
104.1748467488
 31
0.0
  0
LINE
  5
3C8
330
1B
100
AcDbEntity
  8
0
  6
Continuous
100
AcDbLine
 10
140.2969881465
 20
104.5975085703
 30
0.0
 11
143.3331371894
 21
104.5974964431
 31
0.0
  0
LINE
  5
3C9
330
1B
100
AcDbEntity
  8
0
  6
Continuous
100
AcDbLine
 10
214.3271327652
 20
105.0974964796
 30
0.0
 11
203.8626911713
 21
105.0974964796
 31
0.0
  0
LINE
  5
3CA
330
1B
100
AcDbEntity
  8
0
  6
Continuous
100
AcDbLine
 10
139.8106134326
 20
105.5589194545
 30
0.0
 11
142.676919099
 21
105.5589194545
 31
0.0
  0
LINE
  5
3CB
330
1B
100
AcDbEntity
  8
0
  6
Continuous
100
AcDbLine
 10
216.5628181902
 20
107.1674964796
 30
0.0
 11
203.3080363429
 21
107.1674964796
 31
0.0
  0
LINE
  5
3CC
330
1B
100
AcDbEntity
  8
0
  6
Continuous
100
AcDbLine
 10
170.1987165834
 20
107.1810798292
 30
0.0
 11
150.8504688428
 21
107.1810798292
 31
0.0
  0
LINE
  5
3CD
330
1B
100
AcDbEntity
  8
0
  6
Continuous
100
AcDbLine
 10
170.198716575
 20
107.83425742
 30
0.0
 11
150.9722192669
 21
107.83425742
 31
0.0
  0
LINE
  5
3CE
330
1B
100
AcDbEntity
  8
0
  6
Continuous
100
AcDbLine
 10
88.86640732230001
 20
107.9276234985
 30
0.0
 11
127.4299479858
 21
107.9276234985
 31
0.0
  0
LINE
  5
3CF
330
1B
100
AcDbEntity
  8
0
  6
Continuous
100
AcDbLine
 10
139.8105916873
 20
108.283344663
 30
0.0
 11
142.676919099
 21
108.2833432848
 31
0.0
  0
LINE
  5
3D0
330
1B
100
AcDbEntity
  8
0
  6
Continuous
100
AcDbLine
 10
96.90371510890002
 20
102.4427959412
 30
0.0
 11
96.90371510890002
 21
85.5068975563
 31
0.0
  0
LINE
  5
3D1
330
1B
100
AcDbEntity
  8
0
  6
Continuous
100
AcDbLine
 10
97.36794587490002
 20
102.3745216326
 30
0.0
 11
97.36794587490002
 21
85.4430682735
 31
0.0
  0
LINE
  5
3D2
330
1B
100
AcDbEntity
  8
0
  6
Continuous
100
AcDbLine
 10
98.37674522019999
 20
221.5406818024
 30
0.0
 11
98.37674522019999
 21
221.6418226945
 31
0.0
  0
LINE
  5
3D3
330
1B
100
AcDbEntity
  8
0
  6
Continuous
100
AcDbLine
 10
100.1894702265
 20
221.7771986915
 30
0.0
 11
100.1894702265
 21
221.8121060472
 31
0.0
  0
LINE
  5
3D4
330
1B
100
AcDbEntity
  8
0
  6
Continuous
100
AcDbLine
 10
150.9722192669
 20
110.4962201386
 30
0.0
 11
170.198716575
 21
110.4962201386
 31
0.0
  0
LINE
  5
3D5
330
1B
100
AcDbEntity
  8
0
  6
Continuous
100
AcDbLine
 10
90.36640732230001
 20
110.5256997098
 30
0.0
 11
126.0686055375
 21
110.5256876693
 31
0.0
  0
LINE
  5
3D6
330
1B
100
AcDbEntity
  8
0
  6
Continuous
100
AcDbLine
 10
150.8504688428
 20
111.4152157147
 30
0.0
 11
170.1987165833
 21
111.4152157147
 31
0.0
  0
LINE
  5
3D7
330
1B
100
AcDbEntity
  8
0
  6
Continuous
100
AcDbLine
 10
86.86640732230001
 20
139.0201462104
 30
0.0
 11
88.86640732230001
 21
137.865445672
 31
0.0
  0
LINE
  5
3D8
330
1B
100
AcDbEntity
  8
0
  6
Continuous
100
AcDbLine
 10
105.2917908307
 20
222.25175472
 30
0.0
 11
105.2917908307
 21
222.3519955976
 31
0.0
  0
LINE
  5
3D9
330
1B
100
AcDbEntity
  8
0
  6
Continuous
100
AcDbLine
 10
108.3947633414
 20
222.3986341698
 30
0.0
 11
108.3947633414
 21
222.4986911313
 31
0.0
  0
LINE
  5
3DA
330
1B
100
AcDbEntity
  8
0
  6
Continuous
100
AcDbLine
 10
172.7967931014999
 20
114.7041980988
 30
0.0
 11
171.0647419788
 21
115.0643701876
 31
0.0
  0
LINE
  5
3DB
330
1B
100
AcDbEntity
  8
0
  6
Continuous
100
AcDbLine
 10
171.930767383
 20
110.955717927
 30
0.0
 11
170.1987165751
 21
111.4152157143
 31
0.0
  0
LINE
  5
3DC
330
1B
100
AcDbEntity
  8
0
  6
Continuous
100
AcDbLine
 10
147.7951546542
 20
102.0687491477
 30
0.0
 11
148.6628181902
 21
101.2010856117
 31
0.0
  0
LINE
  5
3DD
330
1B
100
AcDbEntity
  8
0
  6
Continuous
100
AcDbLine
 10
110.0893837815
 20
222.4243369083
 30
0.0
 11
110.0893837815
 21
222.5243617552
 31
0.0
  0
LINE
  5
3DE
330
1B
100
AcDbEntity
  8
DEFAULT_1
  6
CENTER
100
AcDbLine
 10
110.3664073223
 20
78.19749647960001
 30
0.0
 11
110.3664073223
 21
225.7977141588
 31
0.0
  0
LINE
  5
3DF
330
1B
100
AcDbEntity
  8
0
  6
Continuous
100
AcDbLine
 10
110.8117417397
 20
222.4165082512
 30
0.0
 11
110.8117417397
 21
222.5165428775
 31
0.0
  0
LINE
  5
3E0
330
1B
100
AcDbEntity
  8
0
  6
Continuous
100
AcDbLine
 10
112.2699979812
 20
222.3778015053
 30
0.0
 11
112.2699979812
 21
222.4778845115
 31
0.0
  0
LINE
  5
3E1
102
{ACAD_REACTORS
330
2151
102
}
330
1B
100
AcDbEntity
  8
DEFAULT_1
  6
CENTER
100
AcDbLine
 10
77.44357155740001
 20
125.7974964796
 30
0.0
 11
224.9366397557
 21
125.7974964796
 31
0.0
  0
LINE
  5
3E2
330
1B
100
AcDbEntity
  8
0
  6
Continuous
100
AcDbLine
 10
147.5516698915
 20
102.3640184474
 30
0.0
 11
147.7951546542
 21
102.0687491477
 31
0.0
  0
LINE
  5
3E3
330
1B
100
AcDbEntity
  8
0
  6
Continuous
100
AcDbLine
 10
116.780127303
 20
222.267403258
 30
0.0
 11
116.780127303
 21
222.1670560168
 31
0.0
  0
LINE
  5
3E4
330
1B
100
AcDbEntity
  8
0
  6
Continuous
100
AcDbLine
 10
117.003554341
 20
222.1557075265
 30
0.0
 11
117.003554341
 21
222.0552194964
 31
0.0
  0
LINE
  5
3E5
330
1B
100
AcDbEntity
  8
0
  6
Continuous
100
AcDbLine
 10
117.2956007342
 20
222.1697745428
 30
0.0
 11
117.2956007342
 21
222.1874612373
 31
0.0
  0
LINE
  5
3E6
330
1B
100
AcDbEntity
  8
0
  6
Continuous
100
AcDbLine
 10
117.3829973778
 20
221.9883319733
 30
0.0
 11
117.3829973778
 21
222.0889043958
 31
0.0
  0
LINE
  5
3E7
330
1B
100
AcDbEntity
  8
0
  6
Continuous
100
AcDbLine
 10
117.9792672534
 20
221.8656866404
 30
0.0
 11
117.9792672534
 21
221.9664141737
 31
0.0
  0
LINE
  5
3E8
330
1B
100
AcDbEntity
  8
0
  6
Continuous
100
AcDbLine
 10
118.1122086268
 20
222.0179825007
 30
0.0
 11
118.1122086268
 21
222.1185174955
 31
0.0
  0
LINE
  5
3E9
330
1B
100
AcDbEntity
  8
0
  6
Continuous
100
AcDbLine
 10
118.1421188372
 20
221.8244694705
 30
0.0
 11
118.1421188372
 21
221.925249239
 31
0.0
  0
LINE
  5
3EA
330
1B
100
AcDbEntity
  8
0
  6
Continuous
100
AcDbLine
 10
118.170456557
 20
222.0384484713
 30
0.0
 11
118.170456557
 21
222.1389576483
 31
0.0
  0
LINE
  5
3EB
330
1B
100
AcDbEntity
  8
0
  6
Continuous
100
AcDbLine
 10
118.2149619799
 20
222.0580213622
 30
0.0
 11
118.2149619799
 21
222.1585058603
 31
0.0
  0
LINE
  5
3EC
330
1B
100
AcDbEntity
  8
0
  6
Continuous
100
AcDbLine
 10
118.31030791
 20
221.8335163445
 30
0.0
 11
118.31030791
 21
221.9342847556
 31
0.0
  0
LINE
  5
3ED
330
1B
100
AcDbEntity
  8
0
  6
Continuous
100
AcDbLine
 10
122.3560694245
 20
221.5406818024
 30
0.0
 11
122.3560694245
 21
221.6418226945
 31
0.0
  0
LINE
  5
3EE
330
1B
100
AcDbEntity
  8
0
  6
Continuous
100
AcDbLine
 10
113.8919054003
 20
118.8105130164
 30
0.0
 11
113.4909627431
 21
116.9618115036
 31
0.0
  0
LINE
  5
3EF
330
1B
100
AcDbEntity
  8
0
  6
Continuous
100
AcDbLine
 10
171.930767383
 20
140.6392750322
 30
0.0
 11
170.1987165751
 21
140.1797772448
 31
0.0
  0
LINE
  5
3F0
330
1B
100
AcDbEntity
  8
0
  6
Continuous
100
AcDbLine
 10
172.7967995685
 20
136.8907962052
 30
0.0
 11
171.0647419788
 21
136.5306227716
 31
0.0
  0
LINE
  5
3F1
330
1B
100
AcDbEntity
  8
0
  6
Continuous
100
AcDbLine
 10
122.0328469304
 20
135.2676338976
 30
0.0
 11
90.36640732230001
 21
135.2673694606
 31
0.0
  0
LINE
  5
3F2
330
1B
100
AcDbEntity
  8
0
  6
Continuous
100
AcDbLine
 10
148.7164080173
 20
96.4046761762
 30
0.0
 11
150.9722192669
 21
92.49749647959999
 31
0.0
  0
LINE
  5
3F3
330
1B
100
AcDbEntity
  8
0
  6
Continuous
100
AcDbLine
 10
123.3648687698
 20
85.4430682735
 30
0.0
 11
123.3648687698
 21
102.3745216347
 31
0.0
  0
LINE
  5
3F4
330
1B
100
AcDbEntity
  8
0
  6
Continuous
100
AcDbLine
 10
123.8290995357
 20
85.5068975563
 30
0.0
 11
123.8290995357
 21
102.4427959412
 31
0.0
  0
LINE
  5
3F5
330
1B
100
AcDbEntity
  8
0
  6
Continuous
100
AcDbLine
 10
125.8795423014
 20
102.4427959412
 30
0.0
 11
125.8795423014
 21
85.5068975563
 31
0.0
  0
LINE
  5
3F6
330
1B
100
AcDbEntity
  8
0
  6
Continuous
100
AcDbLine
 10
126.2106320163
 20
102.3745228231
 30
0.0
 11
126.2106320163
 21
85.4430682735
 31
0.0
  0
LINE
  5
3F7
330
1B
100
AcDbEntity
  8
0
  6
Continuous
100
AcDbLine
 10
123.1280248838
 20
137.865445672
 30
0.0
 11
88.86640732239999
 21
137.865445672
 31
0.0
  0
LINE
  5
3F8
330
1B
100
AcDbEntity
  8
0
  6
Continuous
100
AcDbLine
 10
126.8206606018
 20
139.0201462104
 30
0.0
 11
86.86640732230001
 21
139.0201462104
 31
0.0
  0
LINE
  5
3F9
330
1B
100
AcDbEntity
  8
0
  6
Continuous
100
AcDbLine
 10
170.1987165833
 20
140.1797772444
 30
0.0
 11
150.8504688428
 21
140.1797772444
 31
0.0
  0
LINE
  5
3FA
330
1B
100
AcDbEntity
  8
0
  6
Continuous
100
AcDbLine
 10
131.149229854
 20
140.7521970179
 30
0.0
 11
85.86640732230001
 21
140.7521970179
 31
0.0
  0
LINE
  5
3FB
330
1B
100
AcDbEntity
  8
0
  6
Continuous
100
AcDbLine
 10
170.198716575
 20
141.0987728205
 30
0.0
 11
150.9722192669
 21
141.0987728205
 31
0.0
  0
LINE
  5
3FC
330
1B
100
AcDbEntity
  8
0
  6
Continuous
100
AcDbLine
 10
135.8664073223
 20
148.9562331788
 30
0.0
 11
135.8664073223
 21
146.7974964796
 31
0.0
  0
LINE
  5
3FD
330
1B
100
AcDbEntity
  8
0
  6
Continuous
100
AcDbLine
 10
150.9722192669
 20
143.7607355391
 30
0.0
 11
170.198716575
 21
143.7607355391
 31
0.0
  0
LINE
  5
3FE
330
1B
100
AcDbEntity
  8
0
  6
Continuous
100
AcDbLine
 10
138.7343565148
 20
143.7974964796
 30
0.0
 11
142.676919099
 21
143.7974964796
 31
0.0
  0
LINE
  5
3FF
330
1B
100
AcDbEntity
  8
0
  6
Continuous
100
AcDbLine
 10
150.8504688428
 20
144.4139131299
 30
0.0
 11
170.1987165834
 21
144.4139131299
 31
0.0
  0
LINE
  5
400
330
1B
100
AcDbEntity
  8
0
  6
Continuous
100
AcDbLine
 10
216.5628181902
 20
144.4274964796
 30
0.0
 11
203.3080363429
 21
144.4274964796
 31
0.0
  0
LINE
  5
401
330
1B
100
AcDbEntity
  8
0
  6
Continuous
100
AcDbLine
 10
134.3696316341
 20
145.865445672
 30
0.0
 11
85.86640732230001
 21
145.865445672
 31
0.0
  0
LINE
  5
402
330
1B
100
AcDbEntity
  8
0
  6
Continuous
100
AcDbLine
 10
214.3271327652
 20
146.4974964796
 30
0.0
 11
203.8626911713
 21
146.4974964796
 31
0.0
  0
LINE
  5
403
330
1B
100
AcDbEntity
  8
0
  6
Continuous
100
AcDbLine
 10
135.9415043187
 20
146.7974964796
 30
0.0
 11
135.8435701704
 21
146.7974964796
 31
0.0
  0
LINE
  5
404
330
1B
100
AcDbEntity
  8
0
  6
Continuous
100
AcDbLine
 10
84.86640732230001
 20
148.1015136495
 30
0.0
 11
135.4563255929
 21
148.1014745353
 31
0.0
  0
LINE
  5
405
102
{ACAD_REACTORS
330
2151
102
}
330
1B
100
AcDbEntity
  8
0
  6
Continuous
100
AcDbLine
 10
197.3031872756
 20
148.7974964796
 30
0.0
 11
195.1928181902
 21
148.7974964796
 31
0.0
  0
LINE
  5
406
330
1B
100
AcDbEntity
  8
0
  6
Continuous
100
AcDbLine
 10
138.3664073223
 20
148.9562331788
 30
0.0
 11
82.36640732230001
 21
148.9562331788
 31
0.0
  0
LINE
  5
407
330
1B
100
AcDbEntity
  8
0
  6
Continuous
100
AcDbLine
 10
148.6628181902
 20
149.9174964796
 30
0.0
 11
148.1864073223
 21
149.9174964796
 31
0.0
  0
LINE
  5
408
330
1B
100
AcDbEntity
  8
0
  6
Continuous
100
AcDbLine
 10
175.6628181902
 20
147.3183026934
 30
0.0
 11
188.1928181902
 21
147.281854298
 31
0.0
  0
LINE
  5
409
330
1B
100
AcDbEntity
  8
0
  6
Continuous
100
AcDbLine
 10
139.2090934637
 20
85.4430682735
 30
0.0
 11
139.2090934637
 21
102.3745194841
 31
0.0
  0
LINE
  5
40A
330
1B
100
AcDbEntity
  8
0
  6
Continuous
100
AcDbLine
 10
139.3422345148
 20
85.5068975563
 30
0.0
 11
139.3422345148
 21
102.4427959412
 31
0.0
  0
LINE
  5
40B
330
1B
100
AcDbEntity
  8
0
  6
Continuous
100
AcDbLine
 10
139.3664073223
 20
102.4427959412
 30
0.0
 11
139.3664073223
 21
85.5068975563
 31
0.0
  0
LINE
  5
40C
330
1B
100
AcDbEntity
  8
0
  6
Continuous
100
AcDbLine
 10
139.8105916873
 20
105.5589194545
 30
0.0
 11
139.8105916873
 21
108.283344663
 31
0.0
  0
LINE
  5
40D
330
1B
100
AcDbEntity
  8
0
  6
Continuous
100
AcDbLine
 10
140.2969828806
 20
104.5975085703
 30
0.0
 11
140.2969874888
 21
103.5974964796
 31
0.0
  0
LINE
  5
40E
330
1B
100
AcDbEntity
  8
0
  6
Continuous
100
AcDbLine
 10
142.676919099
 20
105.5589194545
 30
0.0
 11
142.676919099
 21
143.7974964796
 31
0.0
  0
LINE
  5
40F
330
1B
100
AcDbEntity
  8
0
  6
Continuous
100
AcDbLine
 10
143.3331371888
 20
104.5974964431
 30
0.0
 11
143.3331371683
 21
103.5974964796
 31
0.0
  0
LINE
  5
410
330
1B
100
AcDbEntity
  8
0
  6
Continuous
100
AcDbLine
 10
190.5928181902
 20
150.5974964796
 30
0.0
 11
194.7928181902
 21
150.5974964796
 31
0.0
  0
LINE
  5
411
330
1B
100
AcDbEntity
  8
0
  6
Continuous
100
AcDbLine
 10
188.1928181902
 20
103.3974964796
 30
0.0
 11
190.5928181902
 21
100.9974964796
 31
0.0
  0
LINE
  5
412
330
1B
100
AcDbEntity
  8
0
  6
Continuous
100
AcDbLine
 10
145.2749953103
 20
106.81873687
 30
0.0
 11
145.2749953103
 21
145.2974964796
 31
0.0
  0
LINE
  5
413
330
1B
100
AcDbEntity
  8
0
  6
Continuous
100
AcDbLine
 10
147.477317409
 20
102.7188991915
 30
0.0
 11
147.477317409
 21
149.112030249
 31
0.0
  0
LINE
  5
414
330
1B
100
AcDbEntity
  8
0
  6
Continuous
100
AcDbLine
 10
147.7951546542
 20
102.0687491477
 30
0.0
 11
147.7951546542
 21
149.5262438114
 31
0.0
  0
LINE
  5
415
330
1B
100
AcDbEntity
  8
0
  6
Continuous
100
AcDbLine
 10
148.1864070172
 20
101.6774956403
 30
0.0
 11
148.1864070172
 21
149.9174973188
 31
0.0
  0
LINE
  5
416
330
1B
100
AcDbEntity
  8
0
  6
Continuous
100
AcDbLine
 10
148.6628181902
 20
154.990316777
 30
0.0
 11
148.6628181902
 21
96.60467618209999
 31
0.0
  0
LINE
  5
417
330
1B
100
AcDbEntity
  8
0
  6
Continuous
100
AcDbLine
 10
148.7164080173
 20
96.4046761762
 30
0.0
 11
148.7164080173
 21
155.1903167829
 31
0.0
  0
LINE
  5
418
330
1B
100
AcDbEntity
  8
0
  6
Continuous
100
AcDbLine
 10
148.7164080173
 20
155.1903167829
 30
0.0
 11
150.9722192669
 21
159.0974964796
 31
0.0
  0
LINE
  5
419
330
1B
100
AcDbEntity
  8
0
  6
Continuous
100
AcDbLine
 10
145.2749953103
 20
145.2974964796
 30
0.0
 11
147.477317409
 21
149.112030249
 31
0.0
  0
LINE
  5
41A
330
1B
100
AcDbEntity
  8
0
  6
Continuous
100
AcDbLine
 10
147.477317409
 20
149.112030249
 30
0.0
 11
147.7951546542
 21
149.5262438114
 31
0.0
  0
LINE
  5
41B
330
1B
100
AcDbEntity
  8
0
  6
Continuous
100
AcDbLine
 10
170.1987165751
 20
158.7961938948
 30
0.0
 11
150.8504688428
 21
158.7961938948
 31
0.0
  0
LINE
  5
41C
330
1B
100
AcDbEntity
  8
0
  6
Continuous
100
AcDbLine
 10
170.198716575
 20
159.06201188
 30
0.0
 11
150.9722192669
 21
159.06201188
 31
0.0
  0
LINE
  5
41D
330
1B
100
AcDbEntity
  8
0
  6
Continuous
100
AcDbLine
 10
150.9722192669
 20
159.0974964796
 30
0.0
 11
170.198716575
 21
159.0974964796
 31
0.0
  0
LWPOLYLINE
  5
41E
330
1B
100
AcDbEntity
  8
0
  6
Continuous
100
AcDbPolyline
 90
        5
 70
     0
 43
0.0
 10
171.9307673826
 20
140.6392750325
 10
171.6131616864
 20
140.8294986226
 10
171.1989232663
 20
140.9755959963
 10
170.7164539855
 20
141.0674465434
 10
170.198716575
 20
141.0987728205
  0
LWPOLYLINE
  5
425
330
1B
100
AcDbEntity
  8
0
  6
Continuous
100
AcDbPolyline
 90
        5
 70
     0
 43
0.0
 10
171.9307673826
 20
143.2212989307
 10
171.6129301374
 20
143.44474089
 10
171.198716575
 20
143.6161939355
 10
170.7163546653
 20
143.7239738257
 10
170.198716575
 20
143.7607355391
  0
LINE
  5
42C
330
1B
100
AcDbEntity
  8
0
  6
Continuous
100
AcDbLine
 10
151.3664073223
 20
202.9562331788
 30
0.0
 11
151.2965657834
 21
204.9562331788
 31
0.0
  0
LINE
  5
42D
330
1B
100
AcDbEntity
  8
0
  6
Continuous
100
AcDbLine
 10
150.9722192669
 20
110.4962201386
 30
0.0
 11
150.9722192669
 21
107.83425742
 31
0.0
  0
LINE
  5
42E
330
1B
100
AcDbEntity
  8
0
  6
Continuous
100
AcDbLine
 10
150.9722192669
 20
92.5329810791
 30
0.0
 11
150.9722192669
 21
92.49749647959999
 31
0.0
  0
LINE
  5
42F
330
1B
100
AcDbEntity
  8
0
  6
Continuous
100
AcDbLine
 10
150.9722192669
 20
141.0987728205
 30
0.0
 11
150.9722192669
 21
143.7607355391
 31
0.0
  0
LINE
  5
430
330
1B
100
AcDbEntity
  8
0
  6
Continuous
100
AcDbLine
 10
150.9722192669
 20
159.06201188
 30
0.0
 11
150.9722192669
 21
159.0974964796
 31
0.0
  0
LINE
  5
431
330
1B
100
AcDbEntity
  8
0
  6
Continuous
100
AcDbLine
 10
147.7951546542
 20
149.5262438114
 30
0.0
 11
148.6628181902
 21
150.3939073474
 31
0.0
  0
LINE
  5
432
330
1B
100
AcDbEntity
  8
0
  6
Continuous
100
AcDbLine
 10
88.86640732230001
 20
107.9276234985
 30
0.0
 11
82.36640732230001
 21
104.1748467488
 31
0.0
  0
LINE
  5
433
102
{ACAD_REACTORS
330
2151
102
}
330
1B
100
AcDbEntity
  8
0
  6
Continuous
100
AcDbLine
 10
203.1928181902
 20
146.2974964796
 30
0.0
 11
197.3031872756
 21
148.7974964796
 31
0.0
  0
LINE
  5
434
330
1B
100
AcDbEntity
  8
0
  6
Continuous
100
AcDbLine
 10
170.198716575
 20
92.49749647959999
 30
0.0
 11
170.198716575
 21
92.7987990643
 31
0.0
  0
LINE
  5
435
330
1B
100
AcDbEntity
  8
0
  6
Continuous
100
AcDbLine
 10
170.198716575
 20
107.1810798292
 30
0.0
 11
170.198716575
 21
111.4152157147
 31
0.0
  0
LINE
  5
436
330
1B
100
AcDbEntity
  8
0
  6
Continuous
100
AcDbLine
 10
170.198716575
 20
140.1797772444
 30
0.0
 11
170.198716575
 21
144.4139131299
 31
0.0
  0
LINE
  5
437
330
1B
100
AcDbEntity
  8
0
  6
Continuous
100
AcDbLine
 10
170.198716575
 20
158.7961938948
 30
0.0
 11
170.198716575
 21
159.0974964796
 31
0.0
  0
LWPOLYLINE
  5
438
330
1B
100
AcDbEntity
  8
0
  6
Continuous
100
AcDbPolyline
 90
        5
 70
     0
 43
0.0
 10
171.9307673826
 20
158.0630774836
 10
171.6131616864
 20
158.4766183074
 10
171.1989232663
 20
158.7942289968
 10
170.7164539855
 20
158.9939095629
 10
170.198716575
 20
159.06201188
  0
LINE
  5
43F
330
1B
100
AcDbEntity
  8
0
  6
Continuous
100
AcDbLine
 10
171.9307673826
 20
158.0974964796
 30
0.0
 11
172.7967927864
 21
156.5974964796
 31
0.0
  0
LINE
  5
440
330
1B
100
AcDbEntity
  8
0
  6
Continuous
100
AcDbLine
 10
171.9307673826
 20
158.0974964796
 30
0.0
 11
171.9307673826
 21
158.063109941
 31
0.0
  0
LINE
  5
441
330
1B
100
AcDbEntity
  8
0
  6
Continuous
100
AcDbLine
 10
171.9307673826
 20
143.2212954532
 30
0.0
 11
171.9307673826
 21
140.6392786494
 31
0.0
  0
LINE
  5
442
330
1B
100
AcDbEntity
  8
0
  6
Continuous
100
AcDbLine
 10
171.9307673826
 20
110.9557143144
 30
0.0
 11
171.9307673826
 21
108.3736975101
 31
0.0
  0
LINE
  5
443
330
1B
100
AcDbEntity
  8
0
  6
Continuous
100
AcDbLine
 10
171.9307673826
 20
93.53188303819999
 30
0.0
 11
171.9307673826
 21
93.49749647960002
 31
0.0
  0
LINE
  5
444
330
1B
100
AcDbEntity
  8
0
  6
Continuous
100
AcDbLine
 10
172.7967927864
 20
156.5974964788
 30
0.0
 11
172.7967927864
 21
156.2275547558
 31
0.0
  0
LINE
  5
445
330
1B
100
AcDbEntity
  8
0
  6
Continuous
100
AcDbLine
 10
172.7967927864
 20
145.1342564406
 30
0.0
 11
172.7967927864
 21
136.8907947948
 31
0.0
  0
LINE
  5
446
330
1B
100
AcDbEntity
  8
0
  6
Continuous
100
AcDbLine
 10
172.7967927864
 20
114.7041981643
 30
0.0
 11
172.7967927864
 21
106.4607365185
 31
0.0
  0
LINE
  5
447
330
1B
100
AcDbEntity
  8
0
  6
Continuous
100
AcDbLine
 10
172.7967927864
 20
95.3674382033
 30
0.0
 11
172.7967927864
 21
94.9974964803
 31
0.0
  0
LINE
  5
448
330
1B
100
AcDbEntity
  8
0
  6
Continuous
100
AcDbLine
 10
175.1181599925
 20
96.48470790940002
 30
0.0
 11
175.1181599925
 21
155.1102850497
 31
0.0
  0
LINE
  5
449
330
1B
100
AcDbEntity
  8
0
  6
Continuous
100
AcDbLine
 10
175.6628181902
 20
154.5128427639
 30
0.0
 11
175.6628181902
 21
97.0821501952
 31
0.0
  0
LINE
  5
44A
330
1B
100
AcDbEntity
  8
0
  6
Continuous
100
AcDbLine
 10
194.7928181902
 20
150.5974964796
 30
0.0
 11
195.1928181902
 21
150.1974964796
 31
0.0
  0
LINE
  5
44B
330
1B
100
AcDbEntity
  8
0
  6
Continuous
100
AcDbLine
 10
188.1928181902
 20
148.1974964796
 30
0.0
 11
190.5928181902
 21
150.5974964796
 31
0.0
  0
LINE
  5
44C
330
1B
100
AcDbEntity
  8
0
  6
Continuous
100
AcDbLine
 10
139.8105916873
 20
105.5589173349
 30
0.0
 11
138.6989836536
 21
104.8505010643
 31
0.0
  0
LINE
  5
44D
330
1B
100
AcDbEntity
  8
0
  6
Continuous
100
AcDbLine
 10
188.1928181902
 20
103.3974964796
 30
0.0
 11
188.1928181902
 21
148.1974964796
 31
0.0
  0
LINE
  5
44E
330
1B
100
AcDbEntity
  8
0
  6
Continuous
100
AcDbLine
 10
190.5928181902
 20
100.9974964796
 30
0.0
 11
190.5928181902
 21
150.5974964796
 31
0.0
  0
LINE
  5
44F
330
1B
100
AcDbEntity
  8
0
  6
Continuous
100
AcDbLine
 10
142.850124295
 20
105.4561590521
 30
0.0
 11
145.2749953253
 21
106.8187368699
 31
0.0
  0
LINE
  5
450
330
1B
100
AcDbEntity
  8
0
  6
Continuous
100
AcDbLine
 10
151.8501326065
 20
202.9562331788
 30
0.0
 11
68.8826820381
 21
202.9562331788
 31
0.0
  0
LINE
  5
451
330
1B
100
AcDbEntity
  8
0
  6
Continuous
100
AcDbLine
 10
68.86640732230001
 20
204.9562331788
 30
0.0
 11
151.8664073223
 21
204.9562331788
 31
0.0
  0
LINE
  5
452
330
1B
100
AcDbEntity
  8
0
  6
Continuous
100
AcDbLine
 10
217.0756609332
 20
143.9146537365
 30
0.0
 11
214.6099754784
 21
146.3803391913
 31
0.0
  0
LINE
  5
453
330
1B
100
AcDbEntity
  8
0
  6
Continuous
100
AcDbLine
 10
203.8626911713
 20
105.0974964796
 30
0.0
 11
203.2722577271
 21
107.3010240916
 31
0.0
  0
LINE
  5
454
330
1B
100
AcDbEntity
  8
0
  6
Continuous
100
AcDbLine
 10
194.7928181902
 20
100.9974964796
 30
0.0
 11
194.7928181902
 21
150.5974964796
 31
0.0
  0
LINE
  5
455
102
{ACAD_REACTORS
330
2151
102
}
330
1B
100
AcDbEntity
  8
0
  6
Continuous
100
AcDbLine
 10
195.1928181902
 20
101.3974964796
 30
0.0
 11
195.1928181902
 21
150.1974964796
 31
0.0
  0
LINE
  5
456
102
{ACAD_REACTORS
330
2151
102
}
330
1B
100
AcDbEntity
  8
0
  6
Continuous
100
AcDbLine
 10
197.3031872756
 20
102.7974964796
 30
0.0
 11
197.3031872756
 21
148.7974964796
 31
0.0
  0
LINE
  5
457
330
1B
100
AcDbEntity
  8
0
  6
Continuous
100
AcDbLine
 10
171.9307673826
 20
93.49749647960002
 30
0.0
 11
172.7967927864
 21
94.99749647959999
 31
0.0
  0
LWPOLYLINE
  5
458
330
1B
100
AcDbEntity
  8
0
  6
Continuous
100
AcDbPolyline
 90
        5
 70
     0
 43
0.0
 10
171.9307673826
 20
108.3736940284
 10
171.6131616864
 20
108.1503767948
 10
171.1989232663
 20
107.9788634791
 10
170.7164539855
 20
107.8710334601
 10
170.198716575
 20
107.83425742
  0
LWPOLYLINE
  5
45F
330
1B
100
AcDbEntity
  8
0
  6
Continuous
100
AcDbPolyline
 90
        5
 70
     0
 43
0.0
 10
171.9307673826
 20
110.9557179267
 10
171.6129301374
 20
110.765387711
 10
171.198716575
 20
110.6193421999
 10
170.7163546653
 20
110.5275341535
 10
170.198716575
 20
110.4962201386
  0
LINE
  5
466
102
{ACAD_REACTORS
330
2151
102
}
330
1B
100
AcDbEntity
  8
0
  6
Continuous
100
AcDbLine
 10
203.1928181902
 20
105.2974964796
 30
0.0
 11
203.1928181902
 21
146.2974964796
 31
0.0
  0
LINE
  5
467
330
1B
100
AcDbEntity
  8
0
  6
Continuous
100
AcDbLine
 10
203.2722577296
 20
107.3010240822
 30
0.0
 11
203.2722577296
 21
144.2939688769
 31
0.0
  0
LINE
  5
468
330
1B
100
AcDbEntity
  8
0
  6
Continuous
100
AcDbLine
 10
203.3080373064
 20
107.1674973188
 30
0.0
 11
203.3080373064
 21
144.4274956403
 31
0.0
  0
LINE
  5
469
330
1B
100
AcDbEntity
  8
0
  6
Continuous
100
AcDbLine
 10
203.8626911713
 20
105.0974964796
 30
0.0
 11
203.8626911713
 21
146.4974964796
 31
0.0
  0
LINE
  5
46A
330
1B
100
AcDbEntity
  8
0
  6
Continuous
100
AcDbLine
 10
203.8626911713
 20
146.4974964796
 30
0.0
 11
203.2722577271
 21
144.2939688675
 31
0.0
  0
LWPOLYLINE
  5
46B
330
1B
100
AcDbEntity
  8
0
  6
Continuous
100
AcDbPolyline
 90
        5
 70
     0
 43
0.0
 10
171.9307673826
 20
93.5319154755
 10
171.6131616864
 20
93.1183746517
 10
171.1989232663
 20
92.8007639623
 10
170.7164539855
 20
92.6010833962
 10
170.198716575
 20
92.5329810791
  0
LINE
  5
472
330
1B
100
AcDbEntity
  8
0
  6
Continuous
100
AcDbLine
 10
139.3664073223
 20
85.5068975563
 30
0.0
 11
135.4592276454
 21
83.25108631800001
 31
0.0
  0
LINE
  5
473
330
1B
100
AcDbEntity
  8
0
  6
Continuous
100
AcDbLine
 10
74.36640732230001
 20
213.8865187285
 30
0.0
 11
146.3664073223
 21
213.8865187285
 31
0.0
  0
LINE
  5
474
102
{ACAD_REACTORS
330
2151
102
}
330
1B
100
AcDbEntity
  8
0
  6
Continuous
100
AcDbLine
 10
203.1928181902
 20
105.2974964796
 30
0.0
 11
197.3031872756
 21
102.7974964796
 31
0.0
  0
LINE
  5
475
330
1B
100
AcDbEntity
  8
0
  6
Continuous
100
AcDbLine
 10
98.37674522019999
 20
221.5406818024
 30
0.0
 11
122.3560694245
 21
221.5406818024
 31
0.0
  0
LINE
  5
476
330
1B
100
AcDbEntity
  8
0
  6
Continuous
100
AcDbLine
 10
98.37674522019999
 20
221.6418226945
 30
0.0
 11
122.3560694245
 21
221.6418226945
 31
0.0
  0
LINE
  5
477
330
1B
100
AcDbEntity
  8
0
  6
Continuous
100
AcDbLine
 10
98.77640062360001
 20
221.7012954969
 30
0.0
 11
121.9564140211
 21
221.7012954969
 31
0.0
  0
LINE
  5
478
330
1B
100
AcDbEntity
  8
0
  6
Continuous
100
AcDbLine
 10
214.3271327652
 20
146.4974964796
 30
0.0
 11
214.3271327652
 21
105.0974964796
 31
0.0
  0
LINE
  5
479
330
1B
100
AcDbEntity
  8
0
  6
Continuous
100
AcDbLine
 10
214.6099754783
 20
146.3803391915
 30
0.0
 11
214.6099754783
 21
105.2146537676
 31
0.0
  0
LINE
  5
47A
330
1B
100
AcDbEntity
  8
0
  6
Continuous
100
AcDbLine
 10
216.5628171221
 20
107.1674973188
 30
0.0
 11
216.5628171221
 21
144.4274956403
 31
0.0
  0
LINE
  5
47B
330
1B
100
AcDbEntity
  8
0
  6
Continuous
100
AcDbLine
 10
217.0756609307
 20
143.914653739
 30
0.0
 11
217.0756609307
 21
107.6803392201
 31
0.0
  0
LINE
  5
47C
330
1B
100
AcDbEntity
  8
0
  6
Continuous
100
AcDbLine
 10
217.1928181902
 20
143.6315157198
 30
0.0
 11
217.1928181902
 21
107.9634772393
 31
0.0
  0
LINE
  5
47D
330
1B
100
AcDbEntity
  8
0
  6
Continuous
100
AcDbLine
 10
194.7928181902
 20
100.9974964796
 30
0.0
 11
195.1928181902
 21
101.3974964796
 31
0.0
  0
LINE
  5
47E
330
1B
100
AcDbEntity
  8
0
  6
Continuous
100
AcDbLine
 10
217.0756609332
 20
107.6803392226
 30
0.0
 11
214.6099754784
 21
105.2146537678
 31
0.0
  0
ARC
  5
1181
330
1B
100
AcDbEntity
  8
0
  6
Continuous
100
AcDbCircle
 10
175.3948689978
 20
158.0974964796
 30
0.0
 40
3.0
100
AcDbArc
 50
210.0000000000005
 51
264.7077250825006
  0
ARC
  5
1182
330
1B
100
AcDbEntity
  8
0
  6
Continuous
100
AcDbCircle
 10
175.3948689978
 20
93.49749647960002
 30
0.0
 40
3.0
100
AcDbArc
 50
95.29227491750019
 51
150.0000000000003
  0
ARC
  5
1183
330
1B
100
AcDbEntity
  8
0
  6
Continuous
100
AcDbCircle
 10
170.198716575
 20
94.4974964796
 30
0.0
 40
2.0
100
AcDbArc
 50
270.0000000000006
 51
330.0000000000007
  0
ARC
  5
1184
330
1B
100
AcDbEntity
  8
0
  6
Continuous
100
AcDbCircle
 10
170.198716575
 20
157.0974964796
 30
0.0
 40
2.0
100
AcDbArc
 50
30.00000000000008
 51
90.00000000000019
  0
ARC
  5
1185
330
1B
100
AcDbEntity
  8
0
  6
Continuous
100
AcDbCircle
 10
175.0628181902
 20
154.5128427639
 30
0.0
 40
0.6
100
AcDbArc
 50
0.0
 51
84.70772490220018
  0
ARC
  5
1186
330
1B
100
AcDbEntity
  8
0
  6
Continuous
100
AcDbCircle
 10
175.0628181902
 20
97.0821501952
 30
0.0
 40
0.6
100
AcDbArc
 50
275.2922750978006
 51
360.0000000000008
  0
ARC
  5
1187
330
1B
100
AcDbEntity
  8
0
  6
Continuous
100
AcDbCircle
 10
149.0628181902
 20
96.60467615650001
 30
0.0
 40
0.4
100
AcDbArc
 50
180.0000000000004
 51
209.9999967425005
  0
ARC
  5
1188
330
1B
100
AcDbEntity
  8
0
  6
Continuous
100
AcDbCircle
 10
149.0628181902
 20
154.9903168026
 30
0.0
 40
0.4
100
AcDbArc
 50
150.0000032575003
 51
180.0000000000004
  0
ARC
  5
1189
330
1B
100
AcDbEntity
  8
0
  6
Continuous
100
AcDbCircle
 10
110.3664073223
 20
142.4442343305
 30
0.0
 40
80.0
100
AcDbArc
 50
98.61943793180024
 51
116.7436839504002
  0
ARC
  5
118A
330
1B
100
AcDbEntity
  8
0
  6
Continuous
100
AcDbCircle
 10
110.3664073223
 20
142.4442343305
 30
0.0
 40
80.0
100
AcDbArc
 50
95.0790698688002
 51
97.74752375480023
  0
ARC
  5
118B
330
1B
100
AcDbEntity
  8
0
  6
Continuous
100
AcDbCircle
 10
78.86640732230001
 20
204.9562331788
 30
0.0
 40
10.0
100
AcDbArc
 50
116.7436839504002
 51
180.0000000000004
  0
ARC
  5
118C
330
1B
100
AcDbEntity
  8
0
  6
Continuous
100
AcDbCircle
 10
110.3664073223
 20
142.4442343305
 30
0.0
 40
80.0
100
AcDbArc
 50
63.25631604960014
 51
81.38056206820021
  0
ARC
  5
118D
330
1B
100
AcDbEntity
  8
0
  6
Continuous
100
AcDbCircle
 10
110.3664073223
 20
142.4442343305
 30
0.0
 40
80.0
100
AcDbArc
 50
82.2659412456002
 51
84.37719337380018
  0
ARC
  5
118E
330
1B
100
AcDbEntity
  8
0
  6
Continuous
100
AcDbCircle
 10
141.8664073223
 20
204.9562331788
 30
0.0
 40
10.0
100
AcDbArc
 50
0.0
 51
63.25631604960014
  0
ARC
  5
118F
330
1B
100
AcDbEntity
  8
0
  6
Continuous
100
AcDbCircle
 10
110.3664073223
 20
142.4442343305
 30
0.0
 40
80.09999999999999
100
AcDbArc
 50
81.39140467870018
 51
81.68042768160018
  0
ARC
  5
1190
330
1B
100
AcDbEntity
  8
0
  6
Continuous
100
AcDbCircle
 10
110.3664073223
 20
142.4442343305
 30
0.0
 40
80.09999999999999
100
AcDbArc
 50
84.42369129280019
 51
85.3256817331002
  0
ARC
  5
1191
330
1B
100
AcDbEntity
  8
0
  6
Continuous
100
AcDbCircle
 10
110.3664073223
 20
142.4442343305
 30
0.0
 40
80.09999999999999
100
AcDbArc
 50
98.31957231840023
 51
98.60859532130023
  0
ARC
  5
1192
330
1B
100
AcDbEntity
  8
0
  6
Continuous
100
AcDbCircle
 10
110.3664073223
 20
142.4442343305
 30
0.0
 40
80.09999999999999
100
AcDbArc
 50
85.40603730390019
 51
92.70043621650021
  0
ARC
  5
1193
330
1B
100
AcDbEntity
  8
0
  6
Continuous
100
AcDbCircle
 10
214.3271327652
 20
146.0974964796
 30
0.0
 40
0.4
100
AcDbArc
 50
44.99999985120011
 51
90.00000000000019
  0
ARC
  5
1194
330
1B
100
AcDbEntity
  8
0
  6
Continuous
100
AcDbCircle
 10
214.3271327652
 20
105.4974964796
 30
0.0
 40
0.4
100
AcDbArc
 50
270.0000000000006
 51
315.0000001488007
  0
ARC
  5
1195
330
1B
100
AcDbEntity
  8
0
  6
Continuous
100
AcDbCircle
 10
216.7928181902
 20
107.9631819045
 30
0.0
 40
0.4
100
AcDbArc
 50
315.0000061902007
 51
360.0000000000008
  0
ARC
  5
1196
330
1B
100
AcDbEntity
  8
0
  6
Continuous
100
AcDbCircle
 10
216.7928181902
 20
143.6318110546
 30
0.0
 40
0.4
100
AcDbArc
 50
0.0
 51
44.9999938098001
  0
ARC
  5
1197
330
1B
100
AcDbEntity
  8
0
  6
Continuous
100
AcDbCircle
 10
202.885887395
 20
107.1974964796
 30
0.0
 40
0.4
100
AcDbArc
 50
14.99999911340003
 51
39.1501734162001
  0
ARC
  5
1198
330
1B
100
AcDbEntity
  8
0
  6
Continuous
100
AcDbCircle
 10
202.885887395
 20
144.3974964796
 30
0.0
 40
0.4
100
AcDbArc
 50
320.8498265838007
 51
345.0000008866008
  0
ARC
  5
1199
330
1B
100
AcDbEntity
  8
0
  6
Continuous
100
AcDbCircle
 10
82.86640732230001
 20
145.865445672
 30
0.0
 40
3.0
100
AcDbArc
 50
0.0
 51
48.18968510420011
  0
ARC
  5
119A
330
1B
100
AcDbEntity
  8
0
  6
Continuous
100
AcDbCircle
 10
142.676919099
 20
146.7974964796
 30
0.0
 40
3.0
100
AcDbArc
 50
270.0000000000006
 51
330.0000000000007
  0
ARC
  5
119B
330
1B
100
AcDbEntity
  8
0
  6
Continuous
100
AcDbCircle
 10
87.86640732230001
 20
140.7521970179
 30
0.0
 40
2.0
100
AcDbArc
 50
180.0000000000004
 51
240.0000000000005
  0
ARC
  5
119C
330
1B
100
AcDbEntity
  8
0
  6
Continuous
100
AcDbCircle
 10
87.36640732230001
 20
135.2673694606
 30
0.0
 40
3.0
100
AcDbArc
 50
0.0
 51
60.00000000000015
  0
ARC
  5
119D
330
1B
100
AcDbEntity
  8
0
  6
Continuous
100
AcDbCircle
 10
87.36640732230001
 20
110.5256997098
 30
0.0
 40
3.0
100
AcDbArc
 50
300.0000000000007
 51
360.0000000000008
  0
ARC
  5
119E
330
1B
100
AcDbEntity
  8
0
  6
Continuous
100
AcDbCircle
 10
135.2592276454
 20
83.5974964796
 30
0.0
 40
0.4
100
AcDbArc
 50
270.0000000000006
 51
299.9999999968007
  0
ARC
  5
119F
330
1B
100
AcDbEntity
  8
0
  6
Continuous
100
AcDbCircle
 10
85.4735869993
 20
83.5974964796
 30
0.0
 40
0.4
100
AcDbArc
 50
240.0000000023005
 51
270.0000000000006
  0
ARC
  5
11A0
330
1B
100
AcDbEntity
  8
0
  6
Continuous
100
AcDbCircle
 10
137.3664073223
 20
102.4427959412
 30
0.0
 40
2.0
100
AcDbArc
 50
0.0
 51
35.26438968280008
  0
ARC
  5
11A1
330
1B
100
AcDbEntity
  8
0
  6
Continuous
100
AcDbCircle
 10
83.36640732230001
 20
102.4427959412
 30
0.0
 40
2.0
100
AcDbArc
 50
120.0000000000002
 51
180.0000000000004
  0
CIRCLE
  5
11A2
330
1B
100
AcDbEntity
  8
0
  6
Continuous
100
AcDbCircle
 10
110.3664073223
 20
121.7974964796
 30
0.0
 40
9.66657
  0
CIRCLE
  5
11A3
330
1B
100
AcDbEntity
  8
0
  6
Continuous
100
AcDbCircle
 10
110.3664073223
 20
121.7974964796
 30
0.0
 40
9.9999
  0
CIRCLE
  5
11A4
330
1B
100
AcDbEntity
  8
0
  6
Continuous
100
AcDbCircle
 10
112.9417354355
 20
127.294662574
 30
0.0
 40
0.298559681
  0
ARC
  5
11A5
330
1B
100
AcDbEntity
  8
0
  6
Continuous
100
AcDbCircle
 10
28.9682591742
 20
204.9562331788
 30
0.0
 40
122.8981481481
100
AcDbArc
 50
332.8924718045008
 51
359.067548052901
  0
ARC
  5
11A6
330
1B
100
AcDbEntity
  8
0
  6
Continuous
100
AcDbCircle
 10
191.7645554705
 20
204.9562331788
 30
0.0
 40
122.8981481481
100
AcDbArc
 50
180.9324519471004
 51
207.1075281955005
  0
SPLINE
  5
11AC
330
1B
100
AcDbEntity
  8
0
  6
Continuous
100
AcDbSpline
210
0.0
220
0.0
230
1.0
 70
     8
 71
     3
 72
    15
 73
    11
 74
     9
 42
0.0000000001
 43
0.0000000001
 44
0.0000000001
 40
0.0
 40
0.0
 40
0.0
 40
0.0
 40
2.129814643354451
 40
3.96589422549982
 40
5.518081682612685
 40
6.839519702356023
 40
8.009373086018561
 40
9.128179826631884
 40
10.27085666529563
 40
11.43107256031041
 40
11.43107256031041
 40
11.43107256031041
 40
11.43107256031041
 10
172.7967927864
 20
106.4607365185
 30
0.0
 10
172.9527187930191
 20
105.7679991545807
 30
0.0
 10
173.2430661484501
 20
104.4780638449858
 30
0.0
 10
173.7230745700249
 20
102.7026273530087
 30
0.0
 10
174.0537905052276
 20
101.1653325612018
 30
0.0
 10
174.1217190723307
 20
99.80965402356753
 30
0.0
 10
173.9248919379491
 20
98.61587634760633
 30
0.0
 10
173.5934789163795
 20
97.51977802432005
 30
0.0
 10
173.1923561398234
 20
96.45189132633804
 30
0.0
 10
172.9293150198421
 20
95.73075333015521
 30
0.0
 10
172.7967927864
 20
95.3674382033
 30
0.0
 11
172.7967927864
 21
106.4607365185
 31
0.0
 11
173.2803289018
 21
104.386537097
 31
0.0
 11
173.7310861953
 21
102.6066477481
 31
0.0
 11
174.0252052438
 21
101.0825808574
 31
0.0
 11
174.0742753743
 21
99.7620542343
 31
0.0
 11
173.8969562989
 21
98.60571739549999
 31
0.0
 11
173.5843574728
 21
97.5314685897
 31
0.0
 11
173.1961171928
 21
96.4567687048
 31
0.0
 11
172.7967927864
 21
95.3674382033
 31
0.0
  0
SPLINE
  5
11AD
330
1B
100
AcDbEntity
  8
0
  6
Continuous
100
AcDbSpline
210
0.0
220
0.0
230
1.0
 70
     8
 71
     3
 72
    15
 73
    11
 74
     9
 42
0.0000000001
 43
0.0000000001
 44
0.0000000001
 40
0.0
 40
0.0
 40
0.0
 40
0.0
 40
1.879271185022547
 40
3.54848483649077
 40
4.969677231564841
 40
6.197513810785079
 40
7.38373596023463
 40
8.649039012342804
 40
10.06697165916516
 40
11.63729927951803
 40
11.63729927951803
 40
11.63729927951803
 40
11.63729927951803
 10
171.0647419788
 20
105.3565025928
 30
0.0
 10
171.3277279469866
 20
104.7876038860301
 30
0.0
 10
171.8243043473258
 20
103.7133957299315
 30
0.0
 10
172.6094452408811
 20
102.25629598756
 30
0.0
 10
173.1648352904979
 20
100.9170238195503
 30
0.0
 10
173.2694794047403
 20
99.61337783080997
 30
0.0
 10
172.9182149412043
 20
98.42162447162453
 30
0.0
 10
172.364554533304
 20
97.25708485136741
 30
0.0
 10
171.693652319926
 20
96.00708172164417
 30
0.0
 10
171.2813869802264
 20
95.10003067149415
 30
0.0
 10
171.0647419788
 20
94.6233763008
 30
0.0
 11
171.0647419788
 21
105.3565025928
 31
0.0
 11
171.8716602127
 21
103.6592862982
 31
0.0
 11
172.6221482301
 21
102.1682993935
 31
0.0
 11
173.1124432793
 21
100.8343583946
 31
0.0
 11
173.1939550271
 21
99.60923044200001
 31
0.0
 11
172.8984342014
 21
98.46040912020001
 31
0.0
 11
172.3776569274
 21
97.30724701340002
 31
0.0
 11
171.7309875363
 21
96.04536283109999
 31
0.0
 11
171.0647419788
 21
94.6233763008
 31
0.0
  0
SPLINE
  5
11AE
330
1B
100
AcDbEntity
  8
0
  6
Continuous
100
AcDbSpline
210
0.0
220
0.0
230
1.0
 70
     8
 71
     3
 72
    11
 73
     7
 74
     5
 42
0.0000000001
 43
0.0000000001
 44
0.0000000001
 40
0.0
 40
0.0
 40
0.0
 40
0.0
 40
0.5154784083754742
 40
1.048082400745058
 40
1.588831417300408
 40
2.12682135150622
 40
2.12682135150622
 40
2.12682135150622
 40
2.12682135150622
 10
172.796789414
 20
106.4607377408
 30
0.0
 10
172.7007671194317
 20
106.3170621255835
 30
0.0
 10
172.5055324105068
 20
106.0249376034346
 30
0.0
 10
172.083227995829
 20
105.6939646682785
 30
0.0
 10
171.5983770493029
 20
105.4492819992033
 30
0.0
 10
171.2423167714193
 20
105.3873762830091
 30
0.0
 10
171.0647419788
 20
105.3565025928
 30
0.0
 11
172.796789414
 21
106.4607377408
 31
0.0
 11
172.4885626122
 21
106.0475619572
 31
0.0
 11
172.0761158291
 21
105.7105832282
 31
0.0
 11
171.5896392585
 21
105.4744687535
 31
0.0
 11
171.0647419788
 21
105.3565025928
 31
0.0
  0
SPLINE
  5
11AF
330
1B
100
AcDbEntity
  8
0
  6
Continuous
100
AcDbSpline
210
0.0
220
0.0
230
1.0
 70
     8
 71
     3
 72
    10
 73
     6
 74
     4
 42
0.0000000001
 43
0.0000000001
 44
0.0000000001
 40
0.0
 40
0.0
 40
0.0
 40
0.0
 40
0.7194539137263536
 40
1.39492260616389
 40
2.030286669999766
 40
2.030286669999766
 40
2.030286669999766
 40
2.030286669999766
 10
172.7967927864
 20
95.3674382033
 30
0.0
 10
172.7029233421319
 20
95.14673225467172
 30
0.0
 10
172.5209233455518
 20
94.71881364698508
 30
0.0
 10
172.2296010891421
 20
94.10770841466275
 30
0.0
 10
172.0283259626151
 20
93.71986954987696
 30
0.0
 10
171.9307673826
 20
93.53188303819999
 30
0.0
 11
172.7967927864
 21
95.3674382033
 31
0.0
 11
172.5103549583
 21
94.70746297300001
 31
0.0
 11
172.2203452379
 21
94.0974200921
 31
0.0
 11
171.9307673826
 21
93.53188303819999
 31
0.0
  0
SPLINE
  5
11B0
330
1B
100
AcDbEntity
  8
0
  6
Continuous
100
AcDbSpline
210
0.0
220
0.0
230
1.0
 70
     8
 71
     3
 72
    11
 73
     7
 74
     5
 42
0.0000000001
 43
0.0000000001
 44
0.0000000001
 40
0.0
 40
0.0
 40
0.0
 40
0.0
 40
0.4665471011154742
 40
0.9489080616326278
 40
1.454927737443113
 40
1.984823929083116
 40
1.984823929083116
 40
1.984823929083116
 40
1.984823929083116
 10
171.9307673826
 20
93.5319154755
 30
0.0
 10
171.8375144599264
 20
93.40561653198628
 30
0.0
 10
171.6478477577129
 20
93.14873767583373
 30
0.0
 10
171.2181646364456
 20
92.90067961735818
 30
0.0
 10
170.7229404019412
 20
92.76543964088387
 30
0.0
 10
170.3761224187284
 20
92.78750969446733
 30
0.0
 10
170.198716575
 20
92.7987990643
 30
0.0
 11
171.9307673826
 21
93.5319154755
 31
0.0
 11
171.6291135803
 21
93.1760065249
 31
0.0
 11
171.2178904568
 21
92.92388028880001
 31
0.0
 11
170.7285980501
 21
92.7948498542
 31
0.0
 11
170.198716575
 21
92.7987990643
 31
0.0
  0
SPLINE
  5
11B1
330
1B
100
AcDbEntity
  8
0
  6
Continuous
100
AcDbSpline
210
0.0
220
0.0
230
1.0
 70
     8
 71
     3
 72
    15
 73
    11
 74
     9
 42
0.0000000001
 43
0.0000000001
 44
0.0000000001
 40
0.0
 40
0.0
 40
0.0
 40
0.0
 40
2.011836367817073
 40
3.901702669586437
 40
5.71934083459378
 40
7.503171099078285
 40
9.286957786423468
 40
11.10449205196004
 40
12.99381437157605
 40
15.0052907504445
 40
15.0052907504445
 40
15.0052907504445
 40
15.0052907504445
 10
150.8504688428
 20
107.1810798292
 30
0.0
 10
150.5634575615127
 20
106.5744340140827
 30
0.0
 10
150.0068354125579
 20
105.3979210360891
 30
0.0
 10
149.4079742193164
 20
103.5825697527363
 30
0.0
 10
149.0349538616122
 20
101.7860373705673
 30
0.0
 10
148.9101195165494
 20
99.98942550876762
 30
0.0
 10
149.0350949682909
 20
98.1928590572337
 30
0.0
 10
149.4081878913684
 20
96.39657878333649
 30
0.0
 10
150.007008348818
 20
94.58157270122896
 30
0.0
 10
150.5635064065202
 20
93.40533495998051
 30
0.0
 10
150.8504688428
 20
92.7987990643
 30
0.0
 11
150.8504688428
 21
107.1810798292
 31
0.0
 11
150.028806347
 21
105.3446821833
 31
0.0
 11
149.4358422714
 21
103.5502496146
 31
0.0
 11
149.0737070504
 21
101.7690515401
 31
0.0
 11
148.9514933355
 21
99.98941275079999
 31
0.0
 11
149.0738440322
 21
98.2098270538
 31
0.0
 11
149.4360769525
 21
96.42875487169999
 31
0.0
 11
150.0289374559
 21
94.6348609922
 31
0.0
 11
150.8504688428
 21
92.7987990643
 31
0.0
  0
SPLINE
  5
11B2
330
1B
100
AcDbEntity
  8
0
  6
Continuous
100
AcDbSpline
210
0.0
220
0.0
230
1.0
 70
     8
 71
     3
 72
    10
 73
     6
 74
     4
 42
0.0000000001
 43
0.0000000001
 44
0.0000000001
 40
0.0
 40
0.0
 40
0.0
 40
0.0
 40
0.7153010969834069
 40
1.387672467175938
 40
2.02032752753316
 40
2.02032752753316
 40
2.02032752753316
 40
2.02032752753316
 10
171.0647419788
 20
94.6233763008
 30
0.0
 10
170.9707114848306
 20
94.40424546769589
 30
0.0
 10
170.7882938594328
 20
93.97913522378556
 30
0.0
 10
170.4970163968843
 20
93.37170142370778
 30
0.0
 10
170.296111783054
 20
92.98585229181487
 30
0.0
 10
170.1987165751
 20
92.7987990643
 30
0.0
 11
171.0647419788
 21
94.6233763008
 31
0.0
 11
170.77796134
 21
93.96808054730001
 31
0.0
 11
170.4879046939
 21
93.3614913935
 31
0.0
 11
170.1987165751
 21
92.7987990643
 31
0.0
  0
SPLINE
  5
11B3
330
1B
100
AcDbEntity
  8
0
  6
Continuous
100
AcDbSpline
210
0.0
220
0.0
230
1.0
 70
     8
 71
     3
 72
    10
 73
     6
 74
     4
 42
0.0000000001
 43
0.0000000001
 44
0.0000000001
 40
0.0
 40
0.0
 40
0.0
 40
0.0
 40
0.0414480921774517
 40
0.1388340555757479
 40
0.2926354360862321
 40
0.2926354360862321
 40
0.2926354360862321
 40
0.2926354360862321
 10
150.9722192669
 20
92.5329810791
 30
0.0
 10
150.9679303448772
 20
92.54612593291785
 30
0.0
 10
150.9535642207156
 20
92.59015578494746
 30
0.0
 10
150.9097393077247
 20
92.67762167890437
 30
0.0
 10
150.8729778134929
 20
92.75277988392104
 30
0.0
 10
150.8504688428
 20
92.7987990643
 30
0.0
 11
150.9722192669
 21
92.5329810791
 31
0.0
 11
150.9587797976
 21
92.5721898155
 31
0.0
 11
150.9183167425
 21
92.6607717947
 31
0.0
 11
150.8504688428
 21
92.7987990643
 31
0.0
  0
SPLINE
  5
11B4
330
1B
100
AcDbEntity
  8
0
  6
Continuous
100
AcDbSpline
210
0.0
220
0.0
230
1.0
 70
     8
 71
     3
 72
    11
 73
     7
 74
     5
 42
0.0000000001
 43
0.0000000001
 44
0.0000000001
 40
0.0
 40
0.0
 40
0.0
 40
0.0
 40
0.4656842116021112
 40
0.9486126608028483
 40
1.453461974562417
 40
1.9784351593539
 40
1.9784351593539
 40
1.9784351593539
 40
1.9784351593539
 10
172.7967926819
 20
95.36743826250002
 30
0.0
 10
172.7008218847003
 20
95.24375228889193
 30
0.0
 10
172.5053265017288
 20
94.99180026302291
 30
0.0
 10
172.0766346558713
 20
94.74548007889142
 30
0.0
 10
171.5857262782525
 20
94.60411918795757
 30
0.0
 10
171.2406511286903
 20
94.61687418096065
 30
0.0
 10
171.0647419788
 20
94.6233763008
 30
0.0
 11
172.7967926819
 21
95.36743826250002
 31
0.0
 11
172.4885661093
 21
95.01835637400001
 31
0.0
 11
172.0761188629
 21
94.7671449969
 31
0.0
 11
171.589641135
 21
94.63219222790001
 31
0.0
 11
171.0647419788
 21
94.6233763008
 31
0.0
  0
SPLINE
  5
11B5
330
1B
100
AcDbEntity
  8
0
  6
Continuous
100
AcDbSpline
210
0.0
220
0.0
230
1.0
 70
     8
 71
     3
 72
    10
 73
     6
 74
     4
 42
0.0000000001
 43
0.0000000001
 44
0.0000000001
 40
0.0
 40
0.0
 40
0.0
 40
0.0
 40
0.1950996455913674
 40
0.4182573049840965
 40
0.6694139091767234
 40
0.6694139091767234
 40
0.6694139091767234
 40
0.6694139091767234
 10
150.8504688428
 20
107.1810798292
 30
0.0
 10
150.8752917722558
 20
107.2413696999051
 30
0.0
 10
150.9285075100112
 20
107.3706199543713
 30
0.0
 10
150.964977003179
 20
107.5925811774876
 30
0.0
 10
150.9697120092779
 20
107.7505895746331
 30
0.0
 10
150.9722192669
 20
107.83425742
 30
0.0
 11
150.8504688428
 21
107.1810798292
 31
0.0
 11
150.9183167425
 21
107.3640020373
 31
0.0
 11
150.9587797976
 21
107.5834606487
 31
0.0
 11
150.9722192669
 21
107.83425742
 31
0.0
  0
SPLINE
  5
11B6
330
1B
100
AcDbEntity
  8
0
  6
Continuous
100
AcDbSpline
210
0.0
220
0.0
230
1.0
 70
     8
 71
     3
 72
    10
 73
     6
 74
     4
 42
0.0000000001
 43
0.0000000001
 44
0.0000000001
 40
0.0
 40
0.0
 40
0.0
 40
0.0
 40
0.2511566041926269
 40
0.474314263585328
 40
0.6694139091767221
 40
0.6694139091767221
 40
0.6694139091767221
 40
0.6694139091767221
 10
150.9722192669
 20
143.7607355391
 30
0.0
 10
150.9697120092779
 20
143.8444033844669
 30
0.0
 10
150.964977003179
 20
144.0024117816123
 30
0.0
 10
150.9285075100112
 20
144.2243730047288
 30
0.0
 10
150.8752917722558
 20
144.3536232591949
 30
0.0
 10
150.8504688428
 20
144.4139131299
 30
0.0
 11
150.9722192669
 21
143.7607355391
 31
0.0
 11
150.9587797976
 21
144.0115323104
 31
0.0
 11
150.9183167425
 21
144.2309909218
 31
0.0
 11
150.8504688428
 21
144.4139131299
 31
0.0
  0
SPLINE
  5
11B7
330
1B
100
AcDbEntity
  8
0
  6
Continuous
100
AcDbSpline
210
0.0
220
0.0
230
1.0
 70
     8
 71
     3
 72
    10
 73
     6
 74
     4
 42
0.0000000001
 43
0.0000000001
 44
0.0000000001
 40
0.0
 40
0.0
 40
0.0
 40
0.0
 40
0.635348044429315
 40
1.310816191568084
 40
2.030286686865425
 40
2.030286686865425
 40
2.030286686865425
 40
2.030286686865425
 10
171.9307673826
 20
158.063109941
 30
0.0
 10
172.0283235325375
 20
157.8751281852759
 30
0.0
 10
172.2295961767935
 20
157.4872942550655
 30
0.0
 10
172.5209189363147
 20
156.8761892570428
 30
0.0
 10
172.7029211264558
 20
156.448265770309
 30
0.0
 10
172.7967927864
 20
156.2275547558
 30
0.0
 11
171.9307673826
 21
158.063109941
 31
0.0
 11
172.2203381263
 21
157.497587243
 31
0.0
 11
172.5103480796
 21
156.8875450766
 31
0.0
 11
172.7967927864
 21
156.2275547558
 31
0.0
  0
SPLINE
  5
11B8
330
1B
100
AcDbEntity
  8
0
  6
Continuous
100
AcDbSpline
210
0.0
220
0.0
230
1.0
 70
     8
 71
     3
 72
    10
 73
     6
 74
     4
 42
0.0000000001
 43
0.0000000001
 44
0.0000000001
 40
0.0
 40
0.0
 40
0.0
 40
0.0
 40
0.2903167474180602
 40
0.6010035097450418
 40
0.9290460447824838
 40
0.9290460447824838
 40
0.9290460447824838
 40
0.9290460447824838
 10
150.9722192669
 20
110.4962201386
 30
0.0
 10
150.9693685361706
 20
110.5929948352523
 30
0.0
 10
150.9634670537762
 20
110.7933344052558
 30
0.0
 10
150.9219673649357
 20
111.1009137219024
 30
0.0
 10
150.8747295376886
 20
111.308567569782
 30
0.0
 10
150.8504688428
 20
111.4152157147
 30
0.0
 11
150.9722192669
 21
110.4962201386
 31
0.0
 11
150.9587797976
 21
110.7862256463
 31
0.0
 11
150.9183167425
 21
111.0942662369
 31
0.0
 11
150.8504688428
 21
111.4152157147
 31
0.0
  0
SPLINE
  5
11B9
330
1B
100
AcDbEntity
  8
0
  6
Continuous
100
AcDbSpline
210
0.0
220
0.0
230
1.0
 70
     8
 71
     3
 72
    10
 73
     6
 74
     4
 42
0.0000000001
 43
0.0000000001
 44
0.0000000001
 40
0.0
 40
0.0
 40
0.0
 40
0.0
 40
0.6326384299113135
 40
1.305009053524671
 40
2.020327526412472
 40
2.020327526412472
 40
2.020327526412472
 40
2.020327526412472
 10
170.1987165751
 20
158.7961938948
 30
0.0
 10
170.2961092569361
 20
158.6091456028542
 30
0.0
 10
170.4970112659412
 20
158.223301646979
 30
0.0
 10
170.7882892257023
 20
157.6158680864714
 30
0.0
 10
170.9707091450385
 20
157.1907527919323
 30
0.0
 10
171.0647419788
 20
156.9716166583
 30
0.0
 11
170.1987165751
 21
158.7961938948
 31
0.0
 11
170.4878972922
 21
158.2335164598
 31
0.0
 11
170.7779540869
 21
157.6269282046
 31
0.0
 11
171.0647419788
 21
156.9716166583
 31
0.0
  0
SPLINE
  5
11BA
330
1B
100
AcDbEntity
  8
0
  6
Continuous
100
AcDbSpline
210
0.0
220
0.0
230
1.0
 70
     8
 71
     3
 72
    10
 73
     6
 74
     4
 42
0.0000000001
 43
0.0000000001
 44
0.0000000001
 40
0.0
 40
0.0
 40
0.0
 40
0.0
 40
0.3280425350374559
 40
0.6387292973644374
 40
0.9290460447824834
 40
0.9290460447824834
 40
0.9290460447824834
 40
0.9290460447824834
 10
150.8504688428
 20
140.1797772444
 30
0.0
 10
150.8747295376886
 20
140.286425389318
 30
0.0
 10
150.9219673649357
 20
140.4940792371976
 30
0.0
 10
150.9634670537762
 20
140.8016585538442
 30
0.0
 10
150.9693685361706
 20
141.0019981238477
 30
0.0
 10
150.9722192669
 20
141.0987728205
 30
0.0
 11
150.8504688428
 21
140.1797772444
 31
0.0
 11
150.9183167425
 21
140.5007267222
 31
0.0
 11
150.9587797976
 21
140.8087673128
 31
0.0
 11
150.9722192669
 21
141.0987728205
 31
0.0
  0
SPLINE
  5
11BB
330
1B
100
AcDbEntity
  8
0
  6
Continuous
100
AcDbSpline
210
0.0
220
0.0
230
1.0
 70
     8
 71
     3
 72
    11
 73
     7
 74
     5
 42
0.0000000001
 43
0.0000000001
 44
0.0000000001
 40
0.0
 40
0.0
 40
0.0
 40
0.0
 40
0.4665471029179391
 40
0.9489080640044717
 40
1.454927739397385
 40
1.98482393015008
 40
1.98482393015008
 40
1.98482393015008
 40
1.98482393015008
 10
171.9307673826
 20
158.0630774836
 30
0.0
 10
171.837514459664
 20
158.1893764276706
 30
0.0
 10
171.6478477571756
 20
158.4462552846053
 30
0.0
 10
171.218164635647
 20
158.6943133439439
 30
0.0
 10
170.7229404011395
 20
158.8295533201351
 30
0.0
 10
170.3761224184084
 20
158.807483265279
 30
0.0
 10
170.198716575
 20
158.7961938948
 30
0.0
 11
171.9307673826
 21
158.0630774836
 31
0.0
 11
171.6291135794
 21
158.4189864358
 31
0.0
 11
171.2178904556
 21
158.6711126725
 31
0.0
 11
170.7285980492
 21
158.8001431066
 31
0.0
 11
170.198716575
 21
158.7961938948
 31
0.0
  0
SPLINE
  5
11BC
330
1B
100
AcDbEntity
  8
0
  6
Continuous
100
AcDbSpline
210
0.0
220
0.0
230
1.0
 70
     8
 71
     3
 72
    15
 73
    11
 74
     9
 42
0.0000000001
 43
0.0000000001
 44
0.0000000001
 40
0.0
 40
0.0
 40
0.0
 40
0.0
 40
1.162562193684154
 40
2.306891929844285
 40
3.427617889420049
 40
4.601287227512115
 40
5.928602502152346
 40
7.488331090149557
 40
9.326405401390559
 40
11.43105112958473
 40
11.43105112958473
 40
11.43105112958473
 40
11.43105112958473
 10
172.7967927864
 20
156.2275547558
 30
0.0
 10
172.9295943717861
 20
155.8635092673016
 30
0.0
 10
173.1931148159069
 20
155.1411276140226
 30
0.0
 10
173.5948608449574
 20
154.0713649860978
 30
0.0
 10
173.9265749911307
 20
152.972770268999
 30
0.0
 10
174.1227042640249
 20
151.7748482013377
 30
0.0
 10
174.0515200064008
 20
150.4135203433718
 30
0.0
 10
173.7177864252095
 20
148.8717067109894
 30
0.0
 10
173.2390339996414
 20
147.1013155706898
 30
0.0
 10
172.9507046078516
 20
145.8188458559467
 30
0.0
 10
172.7967927864
 20
145.1342564406
 30
0.0
 11
172.7967927864
 21
156.2275547558
 31
0.0
 11
173.1969415239
 21
155.1360274579
 31
0.0
 11
173.5856345976
 21
154.0597337064
 31
0.0
 11
173.8983056924
 21
152.983507214
 31
0.0
 11
174.0749015658
 21
151.8231996631
 31
0.0
 11
174.0231910921
 21
150.4968920573
 31
0.0
 11
173.7257199733
 21
148.9657930397
 31
0.0
 11
173.2741193356
 21
147.1840596035
 31
0.0
 11
172.7967927864
 21
145.1342564406
 31
0.0
  0
SPLINE
  5
11BD
330
1B
100
AcDbEntity
  8
0
  6
Continuous
100
AcDbSpline
210
0.0
220
0.0
230
1.0
 70
     8
 71
     3
 72
    15
 73
    11
 74
     9
 42
0.0000000001
 43
0.0000000001
 44
0.0000000001
 40
0.0
 40
0.0
 40
0.0
 40
0.0
 40
1.573391482476103
 40
2.993032216992188
 40
4.259951335442962
 40
5.449158919361267
 40
6.68192639527048
 40
8.110054952488603
 40
9.780756667150909
 40
11.63723727582695
 40
11.63723727582695
 40
11.63723727582695
 40
11.63723727582695
 10
171.0647419788
 20
156.9716166583
 30
0.0
 10
171.2818391485693
 20
156.4940464345856
 30
0.0
 10
171.6948189000009
 20
155.5855738253379
 30
0.0
 10
172.3667666846989
 20
154.333706354129
 30
0.0
 10
172.9209653888774
 20
153.1671063874508
 30
0.0
 10
173.2713234101641
 20
151.9714342688512
 30
0.0
 10
173.1610060418937
 20
150.6630487032768
 30
0.0
 10
172.6006717209124
 20
149.3212949812873
 30
0.0
 10
171.817428778657
 20
147.8685756374096
 30
0.0
 10
171.3242954586495
 20
146.8006023956969
 30
0.0
 10
171.0647419788
 20
146.2384903663
 30
0.0
 11
171.0647419788
 21
156.9716166583
 31
0.0
 11
171.7323735302
 21
155.54689603
 31
0.0
 11
172.3797948691
 21
154.2834778787
 31
0.0
 11
172.9006999905
 21
153.1286004362
 31
0.0
 11
173.1949977698
 21
151.976383662
 31
0.0
 11
173.109087229
 21
150.7466133466
 31
0.0
 11
172.6131604547
 21
149.4073569072
 31
0.0
 11
171.8612369125
 21
147.91542688
 31
0.0
 11
171.0647419788
 21
146.2384903663
 31
0.0
  0
SPLINE
  5
11BE
330
1B
100
AcDbEntity
  8
0
  6
Continuous
100
AcDbSpline
210
0.0
220
0.0
230
1.0
 70
     8
 71
     3
 72
    11
 73
     7
 74
     5
 42
0.0000000001
 43
0.0000000001
 44
0.0000000001
 40
0.0
 40
0.0
 40
0.0
 40
0.0
 40
0.4656863231413502
 40
0.9486174186229406
 40
1.453469892242535
 40
1.978446512792477
 40
1.978446512792477
 40
1.978446512792477
 40
1.978446512792477
 10
172.7968088055
 20
156.2275638939
 30
0.0
 10
172.7008365687331
 20
156.3512496513409
 30
0.0
 10
172.5053381592304
 20
156.6032013581306
 30
0.0
 10
172.0766418975454
 20
156.8495192819537
 30
0.0
 10
171.5857294929257
 20
156.9908772123097
 30
0.0
 10
171.2406522304316
 20
156.9781199406447
 30
0.0
 10
171.0647419788
 20
156.9716166583
 30
0.0
 11
172.7968088055
 21
156.2275638939
 31
0.0
 11
172.4885779977
 21
156.5766448597
 31
0.0
 11
172.0761264295
 21
156.8278542283
 31
0.0
 11
171.5896446284
 21
156.962804135
 31
0.0
 11
171.0647419788
 21
156.9716166583
 31
0.0
  0
SPLINE
  5
11BF
330
1B
100
AcDbEntity
  8
0
  6
Continuous
100
AcDbSpline
210
0.0
220
0.0
230
1.0
 70
     8
 71
     3
 72
     9
 73
     5
 74
     3
 42
0.0000000001
 43
0.0000000001
 44
0.0000000001
 40
0.0
 40
0.0
 40
0.0
 40
0.0
 40
1.030877745713899
 40
2.10040717523788
 40
2.10040717523788
 40
2.10040717523788
 40
2.10040717523788
 10
172.7967927864
 20
145.1342564406
 30
0.0
 10
172.6658802330795
 20
144.8164268564777
 30
0.0
 10
172.399146697055
 20
144.1688510001078
 30
0.0
 10
172.0887975022678
 20
143.5409985482096
 30
0.0
 10
171.9307673826
 20
143.2212954532
 30
0.0
 11
172.7967927864
 21
145.1342564406
 31
0.0
 11
172.3935488269
 21
144.1855187341
 31
0.0
 11
171.9307673826
 21
143.2212954532
 31
0.0
  0
SPLINE
  5
11C0
330
1B
100
AcDbEntity
  8
0
  6
Continuous
100
AcDbSpline
210
0.0
220
0.0
230
1.0
 70
     8
 71
     3
 72
    11
 73
     7
 74
     5
 42
0.0000000001
 43
0.0000000001
 44
0.0000000001
 40
0.0
 40
0.0
 40
0.0
 40
0.0
 40
0.5299128472380389
 40
1.077382144453011
 40
1.631069796332503
 40
2.178257098378945
 40
2.178257098378945
 40
2.178257098378945
 40
2.178257098378945
 10
171.930767383
 20
143.2212989303
 30
0.0
 10
171.8373921533753
 20
143.372428280627
 30
0.0
 10
171.6475480957038
 20
143.6796940213874
 30
0.0
 10
171.2265629814756
 20
144.0348141419391
 30
0.0
 10
170.7396502570846
 20
144.3027845733212
 30
0.0
 10
170.3783166120273
 20
144.3770163834
 30
0.0
 10
170.1987165751
 20
144.4139131297
 30
0.0
 11
171.930767383
 21
143.2212989303
 31
0.0
 11
171.6292966705
 21
143.657100531
 31
0.0
 11
171.2180176679
 21
144.0184483045
 31
0.0
 11
170.7285879113
 21
144.2773469897
 31
0.0
 11
170.1987165751
 21
144.4139131297
 31
0.0
  0
SPLINE
  5
11C1
330
1B
100
AcDbEntity
  8
0
  6
Continuous
100
AcDbSpline
210
0.0
220
0.0
230
1.0
 70
     8
 71
     3
 72
     9
 73
     5
 74
     3
 42
0.0000000001
 43
0.0000000001
 44
0.0000000001
 40
0.0
 40
0.0
 40
0.0
 40
0.0
 40
0.9899760122852611
 40
2.020227209877817
 40
2.020227209877817
 40
2.020227209877817
 40
2.020227209877817
 10
171.0647419788
 20
146.2384903663
 30
0.0
 10
170.9338224142443
 20
145.9354596547176
 30
0.0
 10
170.6666570856519
 20
145.3170700358074
 30
0.0
 10
170.3567561425939
 20
144.7189401976696
 30
0.0
 10
170.1987165834
 20
144.4139131299
 30
0.0
 11
171.0647419788
 21
146.2384903663
 31
0.0
 11
170.6617211232
 21
145.3342632406
 31
0.0
 11
170.1987165834
 21
144.4139131299
 31
0.0
  0
SPLINE
  5
11C2
330
1B
100
AcDbEntity
  8
0
  6
Continuous
100
AcDbSpline
210
0.0
220
0.0
230
1.0
 70
     8
 71
     3
 72
    11
 73
     7
 74
     5
 42
0.0000000001
 43
0.0000000001
 44
0.0000000001
 40
0.0
 40
0.0
 40
0.0
 40
0.0
 40
0.5154787314649173
 40
1.048082626535519
 40
1.588832312619094
 40
2.126824106893415
 40
2.126824106893415
 40
2.126824106893415
 40
2.126824106893415
 10
172.7967931051
 20
145.1342565562
 30
0.0
 10
172.7007709015675
 20
145.2779323891227
 30
0.0
 10
172.5055364580472
 20
145.5700572337529
 30
0.0
 10
172.083230826482
 20
145.901029399069
 30
0.0
 10
171.5983784435249
 20
146.1457107394878
 30
0.0
 10
171.2423173671787
 20
146.2076165798295
 30
0.0
 10
171.0647419788
 20
146.2384903663
 30
0.0
 11
172.7967931051
 21
145.1342565562
 31
0.0
 11
172.4885663249
 21
145.547432759
 31
0.0
 11
172.0761189242
 21
145.8844105783
 31
0.0
 11
171.5896411364
 21
146.1205240785
 31
0.0
 11
171.0647419788
 21
146.2384903663
 31
0.0
  0
SPLINE
  5
11C3
330
1B
100
AcDbEntity
  8
0
  6
Continuous
100
AcDbSpline
210
0.0
220
0.0
230
1.0
 70
     8
 71
     3
 72
     9
 73
     5
 74
     3
 42
0.0000000001
 43
0.0000000001
 44
0.0000000001
 40
0.0
 40
0.0
 40
0.0
 40
0.0
 40
1.943989688647298
 40
3.847572714726193
 40
3.847572714726193
 40
3.847572714726193
 40
3.847572714726193
 10
171.9307673826
 20
140.6392786494
 30
0.0
 10
172.0893305772185
 20
140.0109048322905
 30
0.0
 10
172.4031611621934
 20
138.7672182183758
 30
0.0
 10
172.6665041084129
 20
137.5118747898196
 30
0.0
 10
172.7967927864
 20
136.8907947948
 30
0.0
 11
171.9307673826
 21
140.6392786494
 31
0.0
 11
172.3935685577
 21
138.7511814639
 31
0.0
 11
172.7967927864
 21
136.8907947948
 31
0.0
  0
SPLINE
  5
11C4
330
1B
100
AcDbEntity
  8
0
  6
Continuous
100
AcDbSpline
210
0.0
220
0.0
230
1.0
 70
     8
 71
     3
 72
     9
 73
     5
 74
     3
 42
0.0000000001
 43
0.0000000001
 44
0.0000000001
 40
0.0
 40
0.0
 40
0.0
 40
0.0
 40
1.897114894886208
 40
3.750856062257737
 40
3.750856062257737
 40
3.750856062257737
 40
3.750856062257737
 10
170.1987165833
 20
140.1797772444
 30
0.0
 10
170.3572054366735
 20
139.5675121214617
 30
0.0
 10
170.6705596136287
 20
138.3569800897581
 30
0.0
 10
170.9343647103128
 20
137.1346971784284
 30
0.0
 10
171.0647419788
 20
136.5306227716
 30
0.0
 11
170.1987165833
 21
140.1797772444
 31
0.0
 11
170.6615077319
 21
138.3399758211
 31
0.0
 11
171.0647419788
 21
136.5306227716
 31
0.0
  0
SPLINE
  5
11C5
330
1B
100
AcDbEntity
  8
0
  6
Continuous
100
AcDbSpline
210
0.0
220
0.0
230
1.0
 70
     8
 71
     3
 72
    13
 73
     9
 74
     7
 42
0.0000000001
 43
0.0000000001
 44
0.0000000001
 40
0.0
 40
0.0
 40
0.0
 40
0.0
 40
2.260818376670095
 40
4.342867136087802
 40
6.263238464718802
 40
8.032136602119621
 40
9.664087059504748
 40
11.17721442197464
 40
11.17721442197464
 40
11.17721442197464
 40
11.17721442197464
 10
172.7967927864
 20
136.8907947948
 30
0.0
 10
172.8982142136143
 20
136.1440245682928
 30
0.0
 10
173.0930373748595
 20
134.7095334528748
 30
0.0
 10
173.4117506219267
 20
132.6462312987439
 30
0.0
 10
173.6933498131509
 20
130.7430739610852
 30
0.0
 10
173.9138190598536
 20
128.9830497640031
 30
0.0
 10
174.0597866220324
 20
127.3504181358855
 30
0.0
 10
174.0782948345986
 20
126.3019328790127
 30
0.0
 10
174.0871993147
 20
125.7974964796
 30
0.0
 11
172.7967927864
 21
136.8907947948
 31
0.0
 11
173.1081491296
 21
134.6515188047
 31
0.0
 11
173.4177104138
 21
132.5926116072
 31
0.0
 11
173.6933827201
 21
130.6921298737
 31
0.0
 11
173.9087030177
 21
128.9363856469
 31
0.0
 11
174.0431455639
 21
127.3099824075
 31
0.0
 11
174.0871993147
 21
125.7974964796
 31
0.0
  0
SPLINE
  5
11C6
330
1B
100
AcDbEntity
  8
0
  6
Continuous
100
AcDbSpline
210
0.0
220
0.0
230
1.0
 70
     8
 71
     3
 72
    13
 73
     9
 74
     7
 42
0.0000000001
 43
0.0000000001
 44
0.0000000001
 40
0.0
 40
0.0
 40
0.0
 40
0.0
 40
2.317544808992825
 40
4.40318135416813
 40
6.289943201840144
 40
7.996745763169225
 40
9.546571355957452
 40
10.96991815617227
 40
10.96991815617227
 40
10.96991815617227
 40
10.96991815617227
 10
171.0647419788
 20
136.5306227716
 30
0.0
 10
171.2329663949892
 20
135.7765629434152
 30
0.0
 10
171.5525816230554
 20
134.3438993062302
 30
0.0
 10
172.0851268678143
 20
132.3158472806217
 30
0.0
 10
172.5553063066326
 20
130.4818581641643
 30
0.0
 10
172.9239747430301
 20
128.8075189111384
 30
0.0
 10
173.169194068241
 20
127.2635360887285
 30
0.0
 10
173.2004543104515
 20
126.2721180370039
 30
0.0
 10
173.215419526
 20
125.7974964796
 30
0.0
 11
171.0647419788
 21
136.5306227716
 31
0.0
 11
171.5841489889
 21
134.272032437
 31
0.0
 11
172.0999100838
 21
132.2511736365
 31
0.0
 11
172.559197656
 21
130.4211667524
 31
0.0
 11
172.9179794028
 21
128.7524994274
 31
0.0
 11
173.1419845339
 21
127.218947645
 31
0.0
 11
173.215419526
 21
125.7974964796
 31
0.0
  0
SPLINE
  5
11C7
330
1B
100
AcDbEntity
  8
0
  6
Continuous
100
AcDbSpline
210
0.0
220
0.0
230
1.0
 70
     8
 71
     3
 72
    13
 73
     9
 74
     7
 42
0.0000000001
 43
0.0000000001
 44
0.0000000001
 40
0.0
 40
0.0
 40
0.0
 40
0.0
 40
1.526611228035065
 40
3.17994692125951
 40
4.96572751390438
 40
6.886665360144029
 40
8.947708149442256
 40
11.17720711226842
 40
11.17720711226842
 40
11.17720711226842
 40
11.17720711226842
 10
174.0871993147
 20
125.7974964796
 30
0.0
 10
174.0781303080273
 20
125.2885640857119
 30
0.0
 10
174.0592394736628
 20
124.2284526641833
 30
0.0
 10
173.910374076338
 20
122.5787281695093
 30
0.0
 10
173.6869343413885
 20
120.8060402617199
 30
0.0
 10
173.4048695309649
 20
118.9041543901289
 30
0.0
 10
173.0890528774933
 20
116.8578619402502
 30
0.0
 10
172.8967298264362
 20
115.4406339266944
 30
0.0
 10
172.7967927864
 20
114.7041981643
 30
0.0
 11
174.0871993147
 21
125.7974964796
 31
0.0
 11
174.0423751898
 21
124.271543453
 31
0.0
 11
173.9050390684
 21
122.6239216201
 31
0.0
 11
173.6863589853
 21
120.8515809795
 31
0.0
 11
173.4099231158
 21
118.9506376823
 31
0.0
 11
173.1035771853
 21
116.9124891229
 31
0.0
 11
172.7967927864
 21
114.7041981643
 31
0.0
  0
SPLINE
  5
11C8
330
1B
100
AcDbEntity
  8
0
  6
Continuous
100
AcDbSpline
210
0.0
220
0.0
230
1.0
 70
     8
 71
     3
 72
    13
 73
     9
 74
     7
 42
0.0000000001
 43
0.0000000001
 44
0.0000000001
 40
0.0
 40
0.0
 40
0.0
 40
0.0
 40
1.436113237432018
 40
3.006568536175232
 40
4.730409567049654
 40
6.618709478292906
 40
8.684140781166347
 40
10.96989841578976
 40
10.96989841578976
 40
10.96989841578976
 40
10.96989841578976
 10
173.215419526
 20
125.7974964796
 30
0.0
 10
173.2001738638061
 20
125.3186157630567
 30
0.0
 10
173.1682563749407
 20
124.3160571503984
 30
0.0
 10
172.9181387216396
 20
122.7557359022042
 30
0.0
 10
172.544548091398
 20
121.0691317659236
 30
0.0
 10
172.0736904875869
 20
119.2358852655735
 30
0.0
 10
171.5460773355547
 20
117.2239256984478
 30
0.0
 10
171.2305133850575
 20
115.8081189043742
 30
0.0
 10
171.0647419788
 20
115.0643701876
 30
0.0
 11
173.215419526
 21
125.7974964796
 31
0.0
 11
173.1406944009
 21
124.363328642
 31
0.0
 11
172.9118661213
 21
122.8096338638
 31
0.0
 11
172.5474793793
 21
121.1247450835
 31
0.0
 11
172.0869128341
 21
119.2934736639
 31
0.0
 11
171.5765092612
 21
117.2921004704
 31
0.0
 11
171.0647419788
 21
115.0643701876
 31
0.0
  0
SPLINE
  5
11C9
330
1B
100
AcDbEntity
  8
0
  6
Continuous
100
AcDbSpline
210
0.0
220
0.0
230
1.0
 70
     8
 71
     3
 72
     9
 73
     5
 74
     3
 42
0.0000000001
 43
0.0000000001
 44
0.0000000001
 40
0.0
 40
0.0
 40
0.0
 40
0.0
 40
1.903583001772857
 40
3.847572710159423
 40
3.847572710159423
 40
3.847572710159423
 40
3.847572710159423
 10
172.7967927864
 20
114.7041981643
 30
0.0
 10
172.6665041101899
 20
114.0831181771853
 30
0.0
 10
172.4031611645123
 20
112.8277747500674
 30
0.0
 10
172.0893305791914
 20
111.5840881378024
 30
0.0
 10
171.9307673826
 20
110.9557143144
 30
0.0
 11
172.7967927864
 21
114.7041981643
 31
0.0
 11
172.3935685631
 21
112.8438115189
 31
0.0
 11
171.9307673826
 21
110.9557143144
 31
0.0
  0
SPLINE
  5
11CA
330
1B
100
AcDbEntity
  8
0
  6
Continuous
100
AcDbSpline
210
0.0
220
0.0
230
1.0
 70
     8
 71
     3
 72
     9
 73
     5
 74
     3
 42
0.0000000001
 43
0.0000000001
 44
0.0000000001
 40
0.0
 40
0.0
 40
0.0
 40
0.0
 40
1.853741812365871
 40
3.750856062336665
 40
3.750856062336665
 40
3.750856062336665
 40
3.750856062336665
 10
171.0647419788
 20
115.0643701876
 30
0.0
 10
170.9343646631587
 20
114.4602955709497
 30
0.0
 10
170.6705595628465
 20
113.2380126603244
 30
0.0
 10
170.3572053838335
 20
112.0274806291971
 30
0.0
 10
170.1987165833
 20
111.4152157147
 30
0.0
 11
171.0647419788
 21
115.0643701876
 31
0.0
 11
170.6615075824
 21
113.2550165106
 31
0.0
 11
170.1987165833
 21
111.4152157147
 31
0.0
  0
SPLINE
  5
11CB
330
1B
100
AcDbEntity
  8
0
  6
Continuous
100
AcDbSpline
210
0.0
220
0.0
230
1.0
 70
     8
 71
     3
 72
     9
 73
     5
 74
     3
 42
0.0000000001
 43
0.0000000001
 44
0.0000000001
 40
0.0
 40
0.0
 40
0.0
 40
0.0
 40
1.069529442390609
 40
2.100407179032319
 40
2.100407179032319
 40
2.100407179032319
 40
2.100407179032319
 10
171.9307673826
 20
108.3736975101
 30
0.0
 10
172.0887975035411
 20
108.0539944109402
 30
0.0
 10
172.399146697656
 20
107.4261419573106
 30
0.0
 10
172.6658802342087
 20
106.7785660998073
 30
0.0
 10
172.7967927864
 20
106.4607365185
 30
0.0
 11
171.9307673826
 21
108.3736975101
 31
0.0
 11
172.3935488308
 21
107.4094742168
 31
0.0
 11
172.7967927864
 21
106.4607365185
 31
0.0
  0
SPLINE
  5
11CC
330
1B
100
AcDbEntity
  8
0
  6
Continuous
100
AcDbSpline
210
0.0
220
0.0
230
1.0
 70
     8
 71
     3
 72
     9
 73
     5
 74
     3
 42
0.0000000001
 43
0.0000000001
 44
0.0000000001
 40
0.0
 40
0.0
 40
0.0
 40
0.0
 40
1.030251769996776
 40
2.020227209916096
 40
2.020227209916096
 40
2.020227209916096
 40
2.020227209916096
 10
170.1987165834
 20
107.1810798292
 30
0.0
 10
170.3567562289037
 20
106.87605259108
 30
0.0
 10
170.6666571690332
 20
106.2779227512083
 30
0.0
 10
170.9338224924672
 20
105.6595331302028
 30
0.0
 10
171.0647419788
 20
105.3565025928
 30
0.0
 11
170.1987165834
 21
107.1810798292
 31
0.0
 11
170.6617213692
 21
106.2607292015
 31
0.0
 11
171.0647419788
 21
105.3565025928
 31
0.0
  0
SPLINE
  5
11CD
330
1B
100
AcDbEntity
  8
0
  6
Continuous
100
AcDbSpline
210
0.0
220
0.0
230
1.0
 70
     8
 71
     3
 72
    11
 73
     7
 74
     5
 42
0.0000000001
 43
0.0000000001
 44
0.0000000001
 40
0.0
 40
0.0
 40
0.0
 40
0.0
 40
0.5301486252968413
 40
1.077495259528839
 40
1.631032478725533
 40
2.178256977470722
 40
2.178256977470722
 40
2.178256977470722
 40
2.178256977470722
 10
171.930767383
 20
108.3736940288
 30
0.0
 10
171.8373454956449
 20
108.2224995890932
 30
0.0
 10
171.6474711171064
 20
107.9152059656116
 30
0.0
 10
171.2264701210621
 20
107.5601273045793
 30
0.0
 10
170.7396254949174
 20
107.2922050270061
 30
0.0
 10
170.3783288858807
 20
107.2179796711234
 30
0.0
 10
170.1987165751
 20
107.1810798294
 30
0.0
 11
171.930767383
 21
108.3736940288
 31
0.0
 11
171.6291383762
 21
107.9377152367
 31
0.0
 11
171.2179237631
 21
107.5764800225
 31
0.0
 11
170.7286228296
 21
107.3176595258
 31
0.0
 11
170.1987165751
 21
107.1810798294
 31
0.0
  0
SPLINE
  5
11CE
330
1B
100
AcDbEntity
  8
0
  6
Continuous
100
AcDbSpline
210
0.0
220
0.0
230
1.0
 70
     8
 71
     3
 72
    10
 73
     6
 74
     4
 42
0.0000000001
 43
0.0000000001
 44
0.0000000001
 40
0.0
 40
0.0
 40
0.0
 40
0.0
 40
0.153801380600217
 40
0.2511873439985131
 40
0.2926354360813659
 40
0.2926354360813659
 40
0.2926354360813659
 40
0.2926354360813659
 10
150.8504688428
 20
158.7961938948
 30
0.0
 10
150.8729778134925
 20
158.8422130752131
 30
0.0
 10
150.9097393077153
 20
158.9173712802684
 30
0.0
 10
150.9535642206828
 20
159.0048371742305
 30
0.0
 10
150.9679303448749
 20
159.0488670262163
 30
0.0
 10
150.9722192669
 20
159.06201188
 30
0.0
 11
150.8504688428
 21
158.7961938948
 31
0.0
 11
150.9183167425
 21
158.9342211645
 31
0.0
 11
150.9587797976
 21
159.0228031437
 31
0.0
 11
150.9722192669
 21
159.06201188
 31
0.0
  0
SPLINE
  5
11CF
330
1B
100
AcDbEntity
  8
0
  6
Continuous
100
AcDbSpline
210
0.0
220
0.0
230
1.0
 70
     8
 71
     3
 72
    11
 73
     7
 74
     5
 42
0.0000000001
 43
0.0000000001
 44
0.0000000001
 40
0.0
 40
0.0
 40
0.0
 40
0.0
 40
3.572862235290101
 40
7.16036190489416
 40
10.79501215697398
 40
14.54217899220255
 40
14.54217899220255
 40
14.54217899220255
 40
14.54217899220255
 10
148.9514933248
 20
125.7974964796
 30
0.0
 10
148.9752740384602
 20
124.6062712276292
 30
0.0
 10
149.0229328914891
 20
122.2189404679624
 30
0.0
 10
149.4080166570839
 20
118.6375486392346
 30
0.0
 10
149.9967661080182
 20
115.0264091458545
 30
0.0
 10
150.5630242209743
 20
112.6311168567094
 30
0.0
 10
150.8504688428
 20
111.4152157147
 30
0.0
 11
148.9514933248
 21
125.7974964796
 31
0.0
 11
149.0745653924
 21
122.2267545653
 31
0.0
 11
149.4384114084
 21
118.6577533106
 31
0.0
 11
150.0319554893
 21
115.0718938768
 31
0.0
 11
150.8504688428
 21
111.4152157147
 31
0.0
  0
SPLINE
  5
11D0
330
1B
100
AcDbEntity
  8
0
  6
Continuous
100
AcDbSpline
210
0.0
220
0.0
230
1.0
 70
     8
 71
     3
 72
    11
 73
     7
 74
     5
 42
0.0000000001
 43
0.0000000001
 44
0.0000000001
 40
0.0
 40
0.0
 40
0.0
 40
0.0
 40
3.747611991024803
 40
7.382410554727874
 40
10.96969341449354
 40
14.54217906358881
 40
14.54217906358881
 40
14.54217906358881
 40
14.54217906358881
 10
150.8504688428
 20
140.1797772444
 30
0.0
 10
150.5629919625533
 20
138.9637311247249
 30
0.0
 10
149.9966920467519
 20
136.5682452178527
 30
0.0
 10
149.4079534928308
 20
132.9569761327746
 30
0.0
 10
149.0229190333101
 20
129.3757289428928
 30
0.0
 10
148.9752690679825
 20
126.9885961252195
 30
0.0
 10
148.9514933248
 20
125.7974964796
 30
0.0
 11
150.8504688428
 21
140.1797772444
 31
0.0
 11
150.0318700394
 21
136.5226620378
 31
0.0
 11
149.438332258
 21
132.9366512318
 31
0.0
 11
149.0745395723
 21
129.367862474
 31
0.0
 11
148.9514933248
 21
125.7974964796
 31
0.0
  0
SPLINE
  5
11D1
330
1B
100
AcDbEntity
  8
0
  6
Continuous
100
AcDbSpline
210
0.0
220
0.0
230
1.0
 70
     8
 71
     3
 72
    15
 73
    11
 74
     9
 42
0.0000000001
 43
0.0000000001
 44
0.0000000001
 40
0.0
 40
0.0
 40
0.0
 40
0.0
 40
2.011836367817073
 40
3.901702669586464
 40
5.719340834593792
 40
7.503171099078269
 40
9.286957786523233
 40
11.1044920519618
 40
12.99381437167278
 40
15.00529075044994
 40
15.00529075044994
 40
15.00529075044994
 40
15.00529075044994
 10
150.8504688428
 20
158.7961938948
 30
0.0
 10
150.5634575615127
 20
158.1895480796828
 30
0.0
 10
150.0068354125577
 20
157.013035101689
 30
0.0
 10
149.4079742193169
 20
155.1976838183364
 30
0.0
 10
149.0349538616102
 20
153.4011514361671
 30
0.0
 10
148.9101195165541
 20
151.6045395743353
 30
0.0
 10
149.0350949682689
 20
149.8079731227962
 30
0.0
 10
149.4081878914055
 20
148.0116928488804
 30
0.0
 10
150.007008348773
 20
146.1966867667785
 30
0.0
 10
150.5635064065137
 20
145.0204490255449
 30
0.0
 10
150.8504688428
 20
144.4139131299
 30
0.0
 11
150.8504688428
 21
158.7961938948
 31
0.0
 11
150.028806347
 21
156.9597962489
 31
0.0
 11
149.4358422714
 21
155.1653636802
 31
0.0
 11
149.0737070504
 21
153.3841656057
 31
0.0
 11
148.9514933355
 21
151.6045268164
 31
0.0
 11
149.0738440322
 21
149.8249411193
 31
0.0
 11
149.4360769525
 21
148.0438689373
 31
0.0
 11
150.0289374559
 21
146.2499750577
 31
0.0
 11
150.8504688428
 21
144.4139131299
 31
0.0
  0
SPLINE
  5
11D2
330
1B
100
AcDbEntity
  8
0
  6
Continuous
100
AcDbSpline
210
0.0
220
0.0
230
1.0
 70
     8
 71
     3
 72
     9
 73
     5
 74
     3
 42
0.0000000001
 43
0.0000000001
 44
0.0000000001
 40
0.0
 40
0.0
 40
0.0
 40
0.0
 40
0.1313676144062418
 40
0.1782863738425597
 40
0.1782863738425597
 40
0.1782863738425597
 40
0.1782863738425597
 10
100.1894702265
 20
221.8121060472
 30
0.0
 10
100.145844925232
 20
221.8052715068424
 30
0.0
 10
100.0866385766505
 20
221.7959959679453
 30
0.0
 10
100.032466583212
 20
221.7712009606832
 30
0.0
 10
100.0182104027
 20
221.764675779
 30
0.0
 11
100.1894702265
 21
221.8121060472
 31
0.0
 11
100.061327603
 21
221.7831765094
 31
0.0
 11
100.0182104027
 21
221.764675779
 31
0.0
  0
SPLINE
  5
11D3
330
1B
100
AcDbEntity
  8
0
  6
Continuous
100
AcDbSpline
210
0.0
220
0.0
230
1.0
 70
     8
 71
     3
 72
     9
 73
     5
 74
     3
 42
0.0000000001
 43
0.0000000001
 44
0.0000000001
 40
0.0
 40
0.0
 40
0.0
 40
0.0
 40
0.1314782947201113
 40
0.2030662128965999
 40
0.2030662128965999
 40
0.2030662128965999
 40
0.2030662128965999
 10
106.3842692737
 20
222.4423703742
 30
0.0
 10
106.4280314008387
 20
222.4447407170395
 30
0.0
 10
106.4956213360843
 20
222.4484016752584
 30
0.0
 10
106.5631859472973
 20
222.4525012239066
 30
0.0
 10
106.5870048278
 20
222.4539464577
 30
0.0
 11
106.3842692737
 21
222.4423703742
 31
0.0
 11
106.515545039
 21
222.4496652647
 31
0.0
 11
106.5870048278
 21
222.4539464577
 31
0.0
  0
SPLINE
  5
11D4
330
1B
100
AcDbEntity
  8
0
  6
Continuous
100
AcDbSpline
210
0.0
220
0.0
230
1.0
 70
    24
 71
     3
 72
     8
 73
     4
 74
     2
 42
0.0000000001
 43
0.0000000001
 44
0.0000000001
 40
0.0
 40
0.0
 40
0.0
 40
0.0
 40
0.0042538423194274
 40
0.0042538423194274
 40
0.0042538423194274
 40
0.0042538423194274
 10
106.5912153961
 20
222.4533412395
 30
0.0
 10
106.5898118733333
 20
222.4535429789
 30
0.0
 10
106.5884083505667
 20
222.4537447183
 30
0.0
 10
106.5870048278
 20
222.4539464577
 30
0.0
 11
106.5912153961
 21
222.4533412395
 31
0.0
 11
106.5870048278
 21
222.4539464577
 31
0.0
  0
SPLINE
  5
11D5
330
1B
100
AcDbEntity
  8
0
  6
Continuous
100
AcDbSpline
210
0.0
220
0.0
230
1.0
 70
     8
 71
     3
 72
     9
 73
     5
 74
     3
 42
0.0000000001
 43
0.0000000001
 44
0.0000000001
 40
0.0
 40
0.0
 40
0.0
 40
0.0
 40
0.0217166593711421
 40
0.0260720136768865
 40
0.0260720136768865
 40
0.0260720136768865
 40
0.0260720136768865
 10
118.1489769239
 20
222.1553197014
 30
0.0
 10
118.1580048441092
 20
222.1530139984261
 30
0.0
 10
118.1688433462539
 20
222.1502458784108
 30
0.0
 10
118.1674226910778
 20
222.1412392158218
 30
0.0
 10
118.1671853693
 20
222.1397346444
 30
0.0
 11
118.1489769239
 21
222.1553197014
 31
0.0
 11
118.1675552304
 21
222.1440742658
 31
0.0
 11
118.1671853693
 21
222.1397346444
 31
0.0
  0
SPLINE
  5
11D6
330
1B
100
AcDbEntity
  8
0
  6
Continuous
100
AcDbSpline
210
0.0
220
0.0
230
1.0
 70
     8
 71
     3
 72
    10
 73
     6
 74
     4
 42
0.0000000001
 43
0.0000000001
 44
0.0000000001
 40
0.0
 40
0.0
 40
0.0
 40
0.0
 40
0.0210694695204979
 40
0.055854019187558
 40
0.1039074786657135
 40
0.1039074786657135
 40
0.1039074786657135
 40
0.1039074786657135
 10
118.1308976287
 20
221.997460404
 30
0.0
 10
118.1368096200019
 20
221.993621983577
 30
0.0
 10
118.1524819877989
 20
221.9834465395419
 30
0.0
 10
118.1859896601422
 20
221.9733846315522
 30
0.0
 10
118.2126489214703
 20
221.9664380433128
 30
0.0
 10
118.2281136791
 20
221.9624084004
 30
0.0
 11
118.1308976287
 21
221.997460404
 31
0.0
 11
118.1489664679
 21
221.9866234489
 31
0.0
 11
118.181701231
 21
221.9748590883
 31
0.0
 11
118.2281136791
 21
221.9624084004
 31
0.0
  0
SPLINE
  5
11D7
330
1B
100
AcDbEntity
  8
0
  6
Continuous
100
AcDbSpline
210
0.0
220
0.0
230
1.0
 70
     8
 71
     3
 72
     9
 73
     5
 74
     3
 42
0.0000000001
 43
0.0000000001
 44
0.0000000001
 40
0.0
 40
0.0
 40
0.0
 40
0.0
 40
0.0467980266684664
 40
0.0769659883553061
 40
0.0769659883553061
 40
0.0769659883553061
 40
0.0769659883553061
 10
118.2281136791
 20
221.9624084004
 30
0.0
 10
118.2433483333264
 20
221.9589684840571
 30
0.0
 10
118.2684038816744
 20
221.953311054032
 30
0.0
 10
118.2926150649162
 20
221.9447696699764
 30
0.0
 10
118.3021049976
 20
221.9414217477
 30
0.0
 11
118.2281136791
 21
221.9624084004
 31
0.0
 11
118.2735054743
 21
221.9510224341
 31
0.0
 11
118.3021049976
 21
221.9414217477
 31
0.0
  0
SPLINE
  5
11D8
330
1B
100
AcDbEntity
  8
0
  6
Continuous
100
AcDbSpline
210
0.0
220
0.0
230
1.0
 70
    24
 71
     3
 72
     8
 73
     4
 74
     2
 42
0.0000000001
 43
0.0000000001
 44
0.0000000001
 40
0.0
 40
0.0
 40
0.0
 40
0.0
 40
0.0108818091147148
 40
0.0108818091147148
 40
0.0108818091147148
 40
0.0108818091147148
 10
118.3021049976
 20
221.9414217477
 30
0.0
 10
118.3048433391667
 20
221.9390429726
 30
0.0
 10
118.3075816807334
 20
221.9366641975
 30
0.0
 10
118.3103200223
 20
221.9342854224
 30
0.0
 11
118.3021049976
 21
221.9414217477
 31
0.0
 11
118.3103200223
 21
221.9342854224
 31
0.0
  0
SPLINE
  5
11D9
330
1B
100
AcDbEntity
  8
0
  6
Continuous
100
AcDbSpline
210
0.0
220
0.0
230
1.0
 70
    24
 71
     3
 72
     8
 73
     4
 74
     2
 42
0.0000000001
 43
0.0000000001
 44
0.0000000001
 40
0.0
 40
0.0
 40
0.0
 40
0.0
 40
0.003071871596267
 40
0.003071871596267
 40
0.003071871596267
 40
0.003071871596267
 10
118.2127093985
 20
222.1584696392
 30
0.0
 10
118.2117216913333
 20
222.1587396815999
 30
0.0
 10
118.2107339841666
 20
222.1590097239999
 30
0.0
 10
118.209746277
 20
222.1592797664
 30
0.0
 11
118.2127093985
 21
222.1584696392
 31
0.0
 11
118.209746277
 21
222.1592797664
 31
0.0
  0
SPLINE
  5
11DA
330
1B
100
AcDbEntity
  8
0
  6
Continuous
100
AcDbSpline
210
0.0
220
0.0
230
1.0
 70
    24
 71
     3
 72
     8
 73
     4
 74
     2
 42
0.0000000001
 43
0.0000000001
 44
0.0000000001
 40
0.0
 40
0.0
 40
0.0
 40
0.0
 40
0.0041900668332154
 40
0.0041900668332154
 40
0.0041900668332154
 40
0.0041900668332154
 10
118.209746277
 20
222.1592797664
 30
0.0
 10
118.2083815639
 20
222.1595769164666
 30
0.0
 10
118.2070168508
 20
222.1598740665333
 30
0.0
 10
118.2056521377
 20
222.1601712166
 30
0.0
 11
118.209746277
 21
222.1592797664
 31
0.0
 11
118.2056521377
 21
222.1601712166
 31
0.0
  0
SPLINE
  5
11DB
330
1B
100
AcDbEntity
  8
0
  6
Continuous
100
AcDbSpline
210
0.0
220
0.0
230
1.0
 70
    24
 71
     3
 72
     8
 73
     4
 74
     2
 42
0.0000000001
 43
0.0000000001
 44
0.0000000001
 40
0.0
 40
0.0
 40
0.0
 40
0.0
 40
0.0095644766921519
 40
0.0095644766921519
 40
0.0095644766921519
 40
0.0095644766921519
 10
118.1406097491
 20
222.1599532314
 30
0.0
 10
118.1433988073667
 20
222.1584087214001
 30
0.0
 10
118.1461878656334
 20
222.1568642114001
 30
0.0
 10
118.1489769239
 20
222.1553197014
 30
0.0
 11
118.1406097491
 21
222.1599532314
 31
0.0
 11
118.1489769239
 21
222.1553197014
 31
0.0
  0
SPLINE
  5
11DC
330
1B
100
AcDbEntity
  8
0
  6
Continuous
100
AcDbSpline
210
0.0
220
0.0
230
1.0
 70
    24
 71
     3
 72
     8
 73
     4
 74
     2
 42
0.0000000001
 43
0.0000000001
 44
0.0000000001
 40
0.0
 40
0.0
 40
0.0
 40
0.0
 40
0.0543752168392815
 40
0.0543752168392815
 40
0.0543752168392815
 40
0.0543752168392815
 10
118.0357654663
 20
222.0881609163
 30
0.0
 10
118.0492592143
 20
222.0760598002334
 30
0.0
 10
118.0627529623
 20
222.0639586841667
 30
0.0
 10
118.0762467103
 20
222.0518575681
 30
0.0
 11
118.0357654663
 21
222.0881609163
 31
0.0
 11
118.0762467103
 21
222.0518575681
 31
0.0
  0
SPLINE
  5
11DD
330
1B
100
AcDbEntity
  8
0
  6
Continuous
100
AcDbSpline
210
0.0
220
0.0
230
1.0
 70
    24
 71
     3
 72
     8
 73
     4
 74
     2
 42
0.0000000001
 43
0.0000000001
 44
0.0000000001
 40
0.0
 40
0.0
 40
0.0
 40
0.0
 40
0.0164317642670659
 40
0.0164317642670659
 40
0.0164317642670659
 40
0.0164317642670659
 10
118.0762467103
 20
222.0518575681
 30
0.0
 10
118.0803704339667
 20
222.0482526793667
 30
0.0
 10
118.0844941576333
 20
222.0446477906334
 30
0.0
 10
118.0886178813
 20
222.0410429019
 30
0.0
 11
118.0762467103
 21
222.0518575681
 31
0.0
 11
118.0886178813
 21
222.0410429019
 31
0.0
  0
SPLINE
  5
11DE
330
1B
100
AcDbEntity
  8
0
  6
Continuous
100
AcDbSpline
210
0.0
220
0.0
230
1.0
 70
    24
 71
     3
 72
     8
 73
     4
 74
     2
 42
0.0000000001
 43
0.0000000001
 44
0.0000000001
 40
0.0
 40
0.0
 40
0.0
 40
0.0
 40
0.0330184072650765
 40
0.0330184072650765
 40
0.0330184072650765
 40
0.0330184072650765
 10
118.0886178813
 20
222.0410429019
 30
0.0
 10
118.0963420143667
 20
222.0332024432
 30
0.0
 10
118.1040661474333
 20
222.0253619845
 30
0.0
 10
118.1117902805
 20
222.0175215258
 30
0.0
 11
118.0886178813
 21
222.0410429019
 31
0.0
 11
118.1117902805
 21
222.0175215258
 31
0.0
  0
SPLINE
  5
11DF
330
1B
100
AcDbEntity
  8
0
  6
Continuous
100
AcDbSpline
210
0.0
220
0.0
230
1.0
 70
    24
 71
     3
 72
     8
 73
     4
 74
     2
 42
0.0000000001
 43
0.0000000001
 44
0.0000000001
 40
0.0
 40
0.0
 40
0.0
 40
0.0
 40
0.0277045007735138
 40
0.0277045007735138
 40
0.0277045007735138
 40
0.0277045007735138
 10
118.1117902805
 20
222.0175215258
 30
0.0
 10
118.1181593965667
 20
222.0108344852
 30
0.0
 10
118.1245285126333
 20
222.0041474446001
 30
0.0
 10
118.1308976287
 20
221.997460404
 30
0.0
 11
118.1117902805
 21
222.0175215258
 31
0.0
 11
118.1308976287
 21
221.997460404
 31
0.0
  0
SPLINE
  5
11E0
330
1B
100
AcDbEntity
  8
0
  6
Continuous
100
AcDbSpline
210
0.0
220
0.0
230
1.0
 70
     8
 71
     3
 72
    13
 73
     9
 74
     7
 42
0.0000000001
 43
0.0000000001
 44
0.0000000001
 40
0.0
 40
0.0
 40
0.0
 40
0.0
 40
0.0053112175084045
 40
0.0394478610414744
 40
0.0940531232946708
 40
0.1555180832791744
 40
0.2139624734615305
 40
0.2630245741811214
 40
0.2630245741811214
 40
0.2630245741811214
 40
0.2630245741811214
 10
117.0067795641
 20
222.1547347921
 30
0.0
 10
117.0075034397909
 20
222.1564161207631
 30
0.0
 10
117.0128798619806
 20
222.1689038073176
 30
0.0
 10
117.0537559000267
 20
222.1594366848647
 30
0.0
 10
117.0985270296422
 20
222.1668966116104
 30
0.0
 10
117.1584812898511
 20
222.1650123904348
 30
0.0
 10
117.2143591577754
 20
222.1658665312572
 30
0.0
 10
117.2502265299343
 20
222.1670371984463
 30
0.0
 10
117.2665951102
 20
222.1675714489
 30
0.0
 11
117.0067795641
 21
222.1547347921
 31
0.0
 11
117.0091645145
 21
222.1594804262
 31
0.0
 11
117.0430671138
 21
222.163470939
 31
0.0
 11
117.0976508867
 21
222.1650027359
 31
0.0
 11
117.1591139998
 21
222.1654792167
 31
0.0
 11
117.2175551001
 21
222.1660993292
 31
0.0
 11
117.2665951102
 21
222.1675714489
 31
0.0
  0
SPLINE
  5
11E1
330
1B
100
AcDbEntity
  8
0
  6
Continuous
100
AcDbSpline
210
0.0
220
0.0
230
1.0
 70
     8
 71
     3
 72
     9
 73
     5
 74
     3
 42
0.0000000001
 43
0.0000000001
 44
0.0000000001
 40
0.0
 40
0.0
 40
0.0
 40
0.0
 40
0.0355409187777951
 40
0.0545139336326688
 40
0.0545139336326688
 40
0.0545139336326688
 40
0.0545139336326688
 10
117.2665951102
 20
222.1675714489
 30
0.0
 10
117.2784897594711
 20
222.1679196834651
 30
0.0
 10
117.2967341983671
 20
222.1684538181083
 30
0.0
 10
117.3144019889867
 20
222.1728628157442
 30
0.0
 10
117.3205510821
 20
222.1743973221
 30
0.0
 11
117.2665951102
 21
222.1675714489
 31
0.0
 11
117.3020339524
 21
222.1702631716
 31
0.0
 11
117.3205510821
 21
222.1743973221
 31
0.0
  0
SPLINE
  5
11E2
330
1B
100
AcDbEntity
  8
0
  6
Continuous
100
AcDbSpline
210
0.0
220
0.0
230
1.0
 70
    24
 71
     3
 72
     8
 73
     4
 74
     2
 42
0.0000000001
 43
0.0000000001
 44
0.0000000001
 40
0.0
 40
0.0
 40
0.0
 40
0.0
 40
0.0021263642061262
 40
0.0021263642061262
 40
0.0021263642061262
 40
0.0021263642061262
 10
117.3205510821
 20
222.1743973221
 30
0.0
 10
117.3205597635667
 20
222.175106057
 30
0.0
 10
117.3205684450333
 20
222.1758147919
 30
0.0
 10
117.3205771265
 20
222.1765235268
 30
0.0
 11
117.3205510821
 21
222.1743973221
 31
0.0
 11
117.3205771265
 21
222.1765235268
 31
0.0
  0
SPLINE
  5
11E3
330
1B
100
AcDbEntity
  8
0
  6
Continuous
100
AcDbSpline
210
0.0
220
0.0
230
1.0
 70
     8
 71
     3
 72
    11
 73
     7
 74
     5
 42
0.0000000001
 43
0.0000000001
 44
0.0000000001
 40
0.0
 40
0.0
 40
0.0
 40
0.0
 40
0.0053526532373419
 40
0.0342319377403534
 40
0.0750628604460619
 40
0.1099800423198389
 40
0.1099800423198389
 40
0.1099800423198389
 40
0.1099800423198389
 10
116.7818941447
 20
222.2660038546
 30
0.0
 10
116.7833091619652
 20
222.2671379175938
 30
0.0
 10
116.792358652148
 20
222.2743906149152
 30
0.0
 10
116.8200970993977
 20
222.2670038592855
 30
0.0
 10
116.8537087271929
 20
222.2691811093678
 30
0.0
 10
116.87911222562
 20
222.2680477535287
 30
0.0
 10
116.8908223348
 20
222.2675253168
 30
0.0
 11
116.7818941447
 21
222.2660038546
 31
0.0
 11
116.7862272268
 21
222.269146353
 31
0.0
 11
116.8151028483
 21
222.2696063056
 31
0.0
 11
116.8559192342
 21
222.2685168603
 31
0.0
 11
116.8908223348
 21
222.2675253168
 31
0.0
  0
SPLINE
  5
11E4
330
1B
100
AcDbEntity
  8
0
  6
Continuous
100
AcDbSpline
210
0.0
220
0.0
230
1.0
 70
    24
 71
     3
 72
     8
 73
     4
 74
     2
 42
0.0000000001
 43
0.0000000001
 44
0.0000000001
 40
0.0
 40
0.0
 40
0.0
 40
0.0
 40
0.0009680285062036
 40
0.0009680285062036
 40
0.0009680285062036
 40
0.0009680285062036
 10
116.8916816866
 20
222.2670796783
 30
0.0
 10
116.891395236
 20
222.2672282244666
 30
0.0
 10
116.8911087854
 20
222.2673767706333
 30
0.0
 10
116.8908223348
 20
222.2675253168
 30
0.0
 11
116.8916816866
 21
222.2670796783
 31
0.0
 11
116.8908223348
 21
222.2675253168
 31
0.0
  0
SPLINE
  5
11E5
330
1B
100
AcDbEntity
  8
0
  6
Continuous
100
AcDbSpline
210
0.0
220
0.0
230
1.0
 70
    24
 71
     3
 72
     8
 73
     4
 74
     2
 42
0.0000000001
 43
0.0000000001
 44
0.0000000001
 40
0.0
 40
0.0
 40
0.0
 40
0.0
 40
0.0097899708258978
 40
0.0097899708258978
 40
0.0097899708258978
 40
0.0097899708258978
 10
103.2856376116
 20
222.230653551
 30
0.0
 10
103.2823871992667
 20
222.2303635499001
 30
0.0
 10
103.2791367869334
 20
222.2300735488001
 30
0.0
 10
103.2758863746
 20
222.2297835477
 30
0.0
 11
103.2856376116
 21
222.230653551
 31
0.0
 11
103.2758863746
 21
222.2297835477
 31
0.0
  0
SPLINE
  5
11E6
330
1B
100
AcDbEntity
  8
0
  6
Continuous
100
AcDbSpline
210
0.0
220
0.0
230
1.0
 70
    24
 71
     3
 72
     8
 73
     4
 74
     2
 42
0.0000000001
 43
0.0000000001
 44
0.0000000001
 40
0.0
 40
0.0
 40
0.0
 40
0.0
 40
0.181311727929263
 40
0.181311727929263
 40
0.181311727929263
 40
0.181311727929263
 10
103.2758863746
 20
222.2297835477
 30
0.0
 10
103.2157393673667
 20
222.2238676522333
 30
0.0
 10
103.1555923601333
 20
222.2179517567666
 30
0.0
 10
103.0954453529
 20
222.2120358613
 30
0.0
 11
103.2758863746
 21
222.2297835477
 31
0.0
 11
103.0954453529
 21
222.2120358613
 31
0.0
  0
SPLINE
  5
11E7
330
1B
100
AcDbEntity
  8
0
  6
Continuous
100
AcDbSpline
210
0.0
220
0.0
230
1.0
 70
     8
 71
     3
 72
    14
 73
    10
 74
     8
 42
0.0000000001
 43
0.0000000001
 44
0.0000000001
 40
0.0
 40
0.0
 40
0.0
 40
0.0
 40
0.2265906008919209
 40
0.547339330003817
 40
0.9583920445496161
 40
1.417335421416532
 40
1.904816093990088
 40
2.411989890623073
 40
2.933976848514496
 40
2.933976848514496
 40
2.933976848514496
 40
2.933976848514496
 10
103.0954453529
 20
222.2120358613
 30
0.0
 10
103.0203788311862
 20
222.2036779365661
 30
0.0
 10
102.8390524233881
 20
222.1834890103437
 30
0.0
 10
102.521788164084
 20
222.1460525090294
 30
0.0
 10
102.1275165352792
 20
222.1003191390635
 30
0.0
 10
101.6785255124055
 20
222.0440404193647
 30
0.0
 10
101.1985415584316
 20
221.9777559255261
 30
0.0
 10
100.698641257845
 20
221.9021264921017
 30
0.0
 10
100.3608147319722
 20
221.8423994214584
 30
0.0
 10
100.1894702265
 20
221.8121060472
 30
0.0
 11
103.0954453529
 21
222.2120358613
 31
0.0
 11
102.8702691386
 21
222.1867579475
 31
0.0
 11
102.5516716251
 21
222.1496719445
 31
0.0
 11
102.1434435662
 21
222.1015659567
 31
0.0
 11
101.6880867493
 21
222.0443017229
 31
0.0
 11
101.2051862264
 21
221.9776347062
 31
0.0
 11
100.7038626642
 21
221.9008236004
 31
0.0
 11
100.1894702265
 21
221.8121060472
 31
0.0
  0
SPLINE
  5
11E8
330
1B
100
AcDbEntity
  8
0
  6
Continuous
100
AcDbSpline
210
0.0
220
0.0
230
1.0
 70
     8
 71
     3
 72
    10
 73
     6
 74
     4
 42
0.0000000001
 43
0.0000000001
 44
0.0000000001
 40
0.0
 40
0.0
 40
0.0
 40
0.0
 40
0.0330901215246872
 40
0.1475634326956406
 40
0.2517033743753006
 40
0.2517033743753006
 40
0.2517033743753006
 40
0.2517033743753006
 10
104.12056982
 20
222.3003521145
 30
0.0
 10
104.1315666691649
 20
222.3012071302858
 30
0.0
 10
104.1806064652381
 20
222.3050200224282
 30
0.0
 10
104.2642749539919
 20
222.3112712587192
 30
0.0
 10
104.3369734653144
 20
222.3162847824675
 30
0.0
 10
104.3716045713
 20
222.3186730552
 30
0.0
 11
104.12056982
 21
222.3003521145
 31
0.0
 11
104.1535609523
 21
222.3029097173
 31
0.0
 11
104.267717943
 21
222.3114138601
 31
0.0
 11
104.3716045713
 21
222.3186730552
 31
0.0
  0
SPLINE
  5
11E9
330
1B
100
AcDbEntity
  8
0
  6
Continuous
100
AcDbSpline
210
0.0
220
0.0
230
1.0
 70
     8
 71
     3
 72
    11
 73
     7
 74
     5
 42
0.0000000001
 43
0.0000000001
 44
0.0000000001
 40
0.0
 40
0.0
 40
0.0
 40
0.0
 40
0.0971864708092969
 40
0.200781058313079
 40
0.330045664199532
 40
0.4856897528605145
 40
0.4856897528605145
 40
0.4856897528605145
 40
0.4856897528605145
 10
104.3716045713
 20
222.3186730552
 30
0.0
 10
104.4039295290316
 20
222.3208103595328
 30
0.0
 10
104.470710832738
 20
222.3252258941467
 30
0.0
 10
104.5805206066534
 20
222.3319499313409
 30
0.0
 10
104.7097673311795
 20
222.3400623804292
 30
0.0
 10
104.8045440971851
 20
222.3461109638719
 30
0.0
 10
104.8563201351
 20
222.3494152725
 30
0.0
 11
104.3716045713
 21
222.3186730552
 31
0.0
 11
104.4685843022
 21
222.325008819
 31
0.0
 11
104.5719784262
 21
222.331450378
 31
0.0
 11
104.700990154
 21
222.3395319883
 31
0.0
 11
104.8563201351
 21
222.3494152725
 31
0.0
  0
SPLINE
  5
11EA
330
1B
100
AcDbEntity
  8
0
  6
Continuous
100
AcDbSpline
210
0.0
220
0.0
230
1.0
 70
    24
 71
     3
 72
     8
 73
     4
 74
     2
 42
0.0000000001
 43
0.0000000001
 44
0.0000000001
 40
0.0
 40
0.0
 40
0.0
 40
0.0
 40
0.1723644749778637
 40
0.1723644749778637
 40
0.1723644749778637
 40
0.1723644749778637
 10
104.8563201351
 20
222.3494152725
 30
0.0
 10
104.9136562783
 20
222.3531062883333
 30
0.0
 10
104.9709924215
 20
222.3567973041667
 30
0.0
 10
105.0283285647
 20
222.36048832
 30
0.0
 11
104.8563201351
 21
222.3494152725
 31
0.0
 11
105.0283285647
 21
222.36048832
 31
0.0
  0
SPLINE
  5
11EB
330
1B
100
AcDbEntity
  8
0
  6
Continuous
100
AcDbSpline
210
0.0
220
0.0
230
1.0
 70
    24
 71
     3
 72
     8
 73
     4
 74
     2
 42
0.0000000001
 43
0.0000000001
 44
0.0000000001
 40
0.0
 40
0.0
 40
0.0
 40
0.0
 40
0.1788141970058746
 40
0.1788141970058746
 40
0.1788141970058746
 40
0.1788141970058746
 10
105.0283285647
 20
222.36048832
 30
0.0
 10
105.0878091608667
 20
222.3643331602333
 30
0.0
 10
105.1472897570334
 20
222.3681780004667
 30
0.0
 10
105.2067703532
 20
222.3720228407
 30
0.0
 11
105.0283285647
 21
222.36048832
 31
0.0
 11
105.2067703532
 21
222.3720228407
 31
0.0
  0
SPLINE
  5
11EC
330
1B
100
AcDbEntity
  8
0
  6
Continuous
100
AcDbSpline
210
0.0
220
0.0
230
1.0
 70
     8
 71
     3
 72
    11
 73
     7
 74
     5
 42
0.0000000001
 43
0.0000000001
 44
0.0000000001
 40
0.0
 40
0.0
 40
0.0
 40
0.0
 40
0.1791725207174359
 40
0.3544102084590028
 40
0.5260553362381739
 40
0.6941204867834567
 40
0.6941204867834567
 40
0.6941204867834567
 40
0.6941204867834567
 10
105.2067703532
 20
222.3720228407
 30
0.0
 10
105.2663709615903
 20
222.3758627658357
 30
0.0
 10
105.3842632810112
 20
222.3834582869698
 30
0.0
 10
105.5592657213176
 20
222.394521836943
 30
0.0
 10
105.7305876349279
 20
222.4051210752197
 30
0.0
 10
105.8436258531268
 20
222.41182437693
 30
0.0
 10
105.8995493455
 20
222.415140707
 30
0.0
 11
105.2067703532
 21
222.3720228407
 31
0.0
 11
105.3855744947
 21
222.3835063577
 31
0.0
 11
105.5604633576
 21
222.3945577304
 31
0.0
 11
105.7317831393
 21
222.4051209822
 31
0.0
 11
105.8995493455
 21
222.415140707
 31
0.0
  0
SPLINE
  5
11ED
330
1B
100
AcDbEntity
  8
0
  6
Continuous
100
AcDbSpline
210
0.0
220
0.0
230
1.0
 70
    24
 71
     3
 72
     8
 73
     4
 74
     2
 42
0.0000000001
 43
0.0000000001
 44
0.0000000001
 40
0.0
 40
0.0
 40
0.0
 40
0.0
 40
0.1661557231875444
 40
0.1661557231875444
 40
0.1661557231875444
 40
0.1661557231875444
 10
105.8995493455
 20
222.415140707
 30
0.0
 10
105.9548432378333
 20
222.4183203922333
 30
0.0
 10
106.0101371301667
 20
222.4215000774667
 30
0.0
 10
106.0654310225
 20
222.4246797627
 30
0.0
 11
105.8995493455
 21
222.415140707
 31
0.0
 11
106.0654310225
 21
222.4246797627
 31
0.0
  0
SPLINE
  5
11EE
330
1B
100
AcDbEntity
  8
0
  6
Continuous
100
AcDbSpline
210
0.0
220
0.0
230
1.0
 70
    24
 71
     3
 72
     8
 73
     4
 74
     2
 42
0.0000000001
 43
0.0000000001
 44
0.0000000001
 40
0.0
 40
0.0
 40
0.0
 40
0.0
 40
0.1643148277560018
 40
0.1643148277560018
 40
0.1643148277560018
 40
0.1643148277560018
 10
106.0654310225
 20
222.4246797627
 30
0.0
 10
106.1201175735667
 20
222.4277310431667
 30
0.0
 10
106.1748041246334
 20
222.4307823236334
 30
0.0
 10
106.2294906757
 20
222.4338336041
 30
0.0
 11
106.0654310225
 21
222.4246797627
 31
0.0
 11
106.2294906757
 21
222.4338336041
 31
0.0
  0
SPLINE
  5
11EF
330
1B
100
AcDbEntity
  8
0
  6
Continuous
100
AcDbSpline
210
0.0
220
0.0
230
1.0
 70
    24
 71
     3
 72
     8
 73
     4
 74
     2
 42
0.0000000001
 43
0.0000000001
 44
0.0000000001
 40
0.0
 40
0.0
 40
0.0
 40
0.0
 40
0.11647887341798
 40
0.11647887341798
 40
0.11647887341798
 40
0.11647887341798
 10
106.2294906757
 20
222.4338336041
 30
0.0
 10
106.2682580279
 20
222.4359721286
 30
0.0
 10
106.3070253801
 20
222.4381106531
 30
0.0
 10
106.3457927323
 20
222.4402491776
 30
0.0
 11
106.2294906757
 21
222.4338336041
 31
0.0
 11
106.3457927323
 21
222.4402491776
 31
0.0
  0
SPLINE
  5
11F0
330
1B
100
AcDbEntity
  8
0
  6
Continuous
100
AcDbSpline
210
0.0
220
0.0
230
1.0
 70
    24
 71
     3
 72
     8
 73
     4
 74
     2
 42
0.0000000001
 43
0.0000000001
 44
0.0000000001
 40
0.0
 40
0.0
 40
0.0
 40
0.0
 40
0.0385349674078217
 40
0.0385349674078217
 40
0.0385349674078217
 40
0.0385349674078217
 10
106.3457927323
 20
222.4402491776
 30
0.0
 10
106.3586182461
 20
222.4409562431333
 30
0.0
 10
106.3714437599
 20
222.4416633086667
 30
0.0
 10
106.3842692737
 20
222.4423703742
 30
0.0
 11
106.3457927323
 21
222.4402491776
 31
0.0
 11
106.3842692737
 21
222.4423703742
 31
0.0
  0
SPLINE
  5
11F1
330
1B
100
AcDbEntity
  8
0
  6
Continuous
100
AcDbSpline
210
0.0
220
0.0
230
1.0
 70
    24
 71
     3
 72
     8
 73
     4
 74
     2
 42
0.0000000001
 43
0.0000000001
 44
0.0000000001
 40
0.0
 40
0.0
 40
0.0
 40
0.0
 40
0.019536929525489
 40
0.019536929525489
 40
0.019536929525489
 40
0.019536929525489
 10
117.9792672534
 20
221.8656866404
 30
0.0
 10
117.9734307008667
 20
221.8685753830333
 30
0.0
 10
117.9675941483333
 20
221.8714641256667
 30
0.0
 10
117.9617575958
 20
221.8743528683
 30
0.0
 11
117.9792672534
 21
221.8656866404
 31
0.0
 11
117.9617575958
 21
221.8743528683
 31
0.0
  0
SPLINE
  5
11F2
330
1B
100
AcDbEntity
  8
0
  6
Continuous
100
AcDbSpline
210
0.0
220
0.0
230
1.0
 70
     8
 71
     3
 72
    10
 73
     6
 74
     4
 42
0.0000000001
 43
0.0000000001
 44
0.0000000001
 40
0.0
 40
0.0
 40
0.0
 40
0.0
 40
0.1043445584510073
 40
0.3073802924744605
 40
0.5908260086273744
 40
0.5908260086273744
 40
0.5908260086273744
 40
0.5908260086273744
 10
117.9617575958
 20
221.8743528683
 30
0.0
 10
117.9287432983062
 20
221.885394950555
 30
0.0
 10
117.8314891187867
 20
221.9179229378641
 30
0.0
 10
117.63685698736
 20
221.9518427724487
 30
0.0
 10
117.4764548137509
 20
221.9748986147702
 30
0.0
 10
117.3829973778
 20
221.9883319733
 30
0.0
 11
117.9617575958
 21
221.8743528683
 31
0.0
 11
117.8622532765
 21
221.9057642885
 31
0.0
 11
117.6633209303
 21
221.9463774751
 31
0.0
 11
117.3829973778
 21
221.9883319733
 31
0.0
  0
SPLINE
  5
11F3
330
1B
100
AcDbEntity
  8
0
  6
Continuous
100
AcDbSpline
210
0.0
220
0.0
230
1.0
 70
    24
 71
     3
 72
     8
 73
     4
 74
     2
 42
0.0000000001
 43
0.0000000001
 44
0.0000000001
 40
0.0
 40
0.0
 40
0.0
 40
0.0
 40
0.0308276015981653
 40
0.0308276015981653
 40
0.0308276015981653
 40
0.0308276015981653
 10
118.1421188372
 20
221.8244694705
 30
0.0
 10
118.1318967046333
 20
221.8255189715667
 30
0.0
 10
118.1216745720667
 20
221.8265684726333
 30
0.0
 10
118.1114524395
 20
221.8276179737
 30
0.0
 11
118.1421188372
 21
221.8244694705
 31
0.0
 11
118.1114524395
 21
221.8276179737
 31
0.0
  0
SPLINE
  5
11F4
330
1B
100
AcDbEntity
  8
0
  6
Continuous
100
AcDbSpline
210
0.0
220
0.0
230
1.0
 70
     8
 71
     3
 72
    15
 73
    11
 74
     9
 42
0.0000000001
 43
0.0000000001
 44
0.0000000001
 40
0.0
 40
0.0
 40
0.0
 40
0.0
 40
0.027225462688033
 40
0.049656256572285
 40
0.0686627449180193
 40
0.0851168793331088
 40
0.0990901978130062
 40
0.1114987116395806
 40
0.1244591862618257
 40
0.138191747803751
 40
0.138191747803751
 40
0.138191747803751
 40
0.138191747803751
 10
118.1114524395
 20
221.8276179737
 30
0.0
 10
118.1024708355025
 20
221.8289316978714
 30
0.0
 10
118.0860893753364
 20
221.8313277866091
 30
0.0
 10
118.063669200554
 20
221.83598006752
 30
0.0
 10
118.0449140534788
 20
221.8405361197825
 30
0.0
 10
118.0290813021744
 20
221.8451241043693
 30
0.0
 10
118.0156038988028
 20
221.8498784200505
 30
0.0
 10
118.0035840523993
 20
221.8551332060283
 30
0.0
 10
117.9916121847406
 20
221.8602837793981
 30
0.0
 10
117.9834608223015
 20
221.8638512903886
 30
0.0
 10
117.9792672534
 20
221.8656866404
 30
0.0
 11
118.1114524395
 21
221.8276179737
 31
0.0
 11
118.0845579492
 21
221.8318502556
 31
0.0
 11
118.0625820981
 21
221.8363449728
 31
0.0
 11
118.0441247569
 21
221.8408807368
 31
0.0
 11
118.0283370415
 21
221.8455160989
 31
0.0
 11
118.0151789804
 21
221.8502191891
 31
0.0
 11
118.0037487172
 21
221.8550482986
 31
0.0
 11
117.9918536093
 21
221.8601942009
 31
0.0
 11
117.9792672534
 21
221.8656866404
 31
0.0
  0
SPLINE
  5
11F5
330
1B
100
AcDbEntity
  8
0
  6
Continuous
100
AcDbSpline
210
0.0
220
0.0
230
1.0
 70
     8
 71
     3
 72
    10
 73
     6
 74
     4
 42
0.0000000001
 43
0.0000000001
 44
0.0000000001
 40
0.0
 40
0.0
 40
0.0
 40
0.0
 40
0.0530084341340637
 40
0.1293319749992898
 40
0.2162117650445674
 40
0.2162117650445674
 40
0.2162117650445674
 40
0.2162117650445674
 10
117.2956007342
 20
222.1874612373
 30
0.0
 10
117.2782659319502
 20
222.1909000398384
 30
0.0
 10
117.2359718282324
 20
222.1992901598485
 30
0.0
 10
117.1645415789367
 20
222.2090949739963
 30
0.0
 10
117.1106266051943
 20
222.2163158030565
 30
0.0
 10
117.0819254655
 20
222.2201597449
 30
0.0
 11
117.2956007342
 21
222.1874612373
 31
0.0
 11
117.2435235011
 21
222.1973534505
 31
0.0
 11
117.1680296749
 21
222.2085768678
 31
0.0
 11
117.0819254655
 21
222.2201597449
 31
0.0
  0
SPLINE
  5
11F6
330
1B
100
AcDbEntity
  8
0
  6
Continuous
100
AcDbSpline
210
0.0
220
0.0
230
1.0
 70
     8
 71
     3
 72
     9
 73
     5
 74
     3
 42
0.0000000001
 43
0.0000000001
 44
0.0000000001
 40
0.0
 40
0.0
 40
0.0
 40
0.0
 40
0.0862045139032853
 40
0.1631025192686622
 40
0.1631025192686622
 40
0.1631025192686622
 40
0.1631025192686622
 10
117.0819254655
 20
222.2201597449
 30
0.0
 10
117.0534312612391
 20
222.2238717604705
 30
0.0
 10
116.9995190437799
 20
222.2308950480422
 30
0.0
 10
116.9456646793901
 20
222.238348745697
 30
0.0
 10
116.9202739422
 20
222.2418629433
 30
0.0
 11
117.0819254655
 21
222.2201597449
 31
0.0
 11
116.9964590136
 21
222.2314160239
 31
0.0
 11
116.9202739422
 21
222.2418629433
 31
0.0
  0
SPLINE
  5
11F7
330
1B
100
AcDbEntity
  8
0
  6
Continuous
100
AcDbSpline
210
0.0
220
0.0
230
1.0
 70
     8
 71
     3
 72
    11
 73
     7
 74
     5
 42
0.0000000001
 43
0.0000000001
 44
0.0000000001
 40
0.0
 40
0.0
 40
0.0
 40
0.0
 40
0.0650471963739202
 40
0.1148185964452678
 40
0.1405794079802862
 40
0.1406253979074469
 40
0.1406253979074469
 40
0.1406253979074469
 40
0.1406253979074469
 10
116.9202739422
 20
222.2418629433
 30
0.0
 10
116.8969104638146
 20
222.2444400666584
 30
0.0
 10
116.8556702267892
 20
222.2489890972603
 30
0.0
 10
116.8270926210083
 20
222.2614102080445
 30
0.0
 10
116.7763618688005
 20
222.2593808118763
 30
0.0
 10
116.7818843032495
 20
222.2659920727677
 30
0.0
 10
116.7818941447
 20
222.2660038546
 30
0.0
 11
116.9202739422
 21
222.2418629433
 31
0.0
 11
116.8559282586
 21
222.2513903122
 31
0.0
 11
116.806864493
 21
222.2597532764
 31
0.0
 11
116.7818646929
 21
222.2659685323
 31
0.0
 11
116.7818941447
 21
222.2660038546
 31
0.0
  0
SPLINE
  5
11F8
330
1B
100
AcDbEntity
  8
0
  6
Continuous
100
AcDbSpline
210
0.0
220
0.0
230
1.0
 70
     8
 71
     3
 72
    10
 73
     6
 74
     4
 42
0.0000000001
 43
0.0000000001
 44
0.0000000001
 40
0.0
 40
0.0
 40
0.0
 40
0.0
 40
0.5358285712222936
 40
1.023935583494663
 40
1.45878130317058
 40
1.45878130317058
 40
1.45878130317058
 40
1.45878130317058
 10
112.2699979812
 20
222.4778845115
 30
0.0
 10
112.0914788158513
 20
222.4835635710303
 30
0.0
 10
111.7503396240396
 20
222.4944159059861
 30
0.0
 10
111.2642566192795
 20
222.5077198355634
 30
0.0
 10
110.9566632177289
 20
222.5137172283648
 30
0.0
 10
110.8117417397
 20
222.5165428775
 30
0.0
 11
112.2699979812
 21
222.4778845115
 31
0.0
 11
111.7344273051
 21
222.4945070456
 31
0.0
 11
111.2464940208
 21
222.5075287775
 31
0.0
 11
110.8117417397
 21
222.5165428775
 31
0.0
  0
SPLINE
  5
11F9
330
1B
100
AcDbEntity
  8
0
  6
Continuous
100
AcDbSpline
210
0.0
220
0.0
230
1.0
 70
     8
 71
     3
 72
    10
 73
     6
 74
     4
 42
0.0000000001
 43
0.0000000001
 44
0.0000000001
 40
0.0
 40
0.0
 40
0.0
 40
0.0
 40
0.1514161272137911
 40
0.2995323709155836
 40
0.4453856636861694
 40
0.4453856636861694
 40
0.4453856636861694
 40
0.4453856636861694
 10
110.8117417397
 20
222.5165428775
 30
0.0
 10
110.7612797001987
 20
222.5175508071655
 30
0.0
 10
110.6614553643687
 20
222.5195447002071
 30
0.0
 10
110.5130082502257
 20
222.5217031286264
 30
0.0
 10
110.4150228707426
 20
222.5226465373004
 30
0.0
 10
110.3664073223
 20
222.5231146105
 30
0.0
 11
110.8117417397
 21
222.5165428775
 31
0.0
 11
110.6603531036
 21
222.5194280881
 31
0.0
 11
110.5122526666
 21
222.5215919293
 31
0.0
 11
110.3664073223
 21
222.5231146105
 31
0.0
  0
SPLINE
  5
11FA
330
1B
100
AcDbEntity
  8
0
  6
Continuous
100
AcDbSpline
210
0.0
220
0.0
230
1.0
 70
    24
 71
     3
 72
     8
 73
     4
 74
     2
 42
0.0000000001
 43
0.0000000001
 44
0.0000000001
 40
0.0
 40
0.0
 40
0.0
 40
0.0
 40
0.0137741489685136
 40
0.0137741489685136
 40
0.0137741489685136
 40
0.0137741489685136
 10
118.1571458804
 20
222.0625852737
 30
0.0
 10
118.1525583072333
 20
222.0623982705
 30
0.0
 10
118.1479707340667
 20
222.0622112673
 30
0.0
 10
118.1433831609
 20
222.0620242641
 30
0.0
 11
118.1571458804
 21
222.0625852737
 31
0.0
 11
118.1433831609
 21
222.0620242641
 31
0.0
  0
SPLINE
  5
11FB
330
1B
100
AcDbEntity
  8
0
  6
Continuous
100
AcDbSpline
210
0.0
220
0.0
230
1.0
 70
    24
 71
     3
 72
     8
 73
     4
 74
     2
 42
0.0000000001
 43
0.0000000001
 44
0.0000000001
 40
0.0
 40
0.0
 40
0.0
 40
0.0
 40
0.0211769248497985
 40
0.0211769248497985
 40
0.0211769248497985
 40
0.0211769248497985
 10
118.2056521377
 20
222.1601712166
 30
0.0
 10
118.1986076768
 20
222.1606236522
 30
0.0
 10
118.1915632159
 20
222.1610760878
 30
0.0
 10
118.184518755
 20
222.1615285234
 30
0.0
 11
118.2056521377
 21
222.1601712166
 31
0.0
 11
118.184518755
 21
222.1615285234
 31
0.0
  0
SPLINE
  5
11FC
330
1B
100
AcDbEntity
  8
0
  6
Continuous
100
AcDbSpline
210
0.0
220
0.0
230
1.0
 70
    24
 71
     3
 72
     8
 73
     4
 74
     2
 42
0.0000000001
 43
0.0000000001
 44
0.0000000001
 40
0.0
 40
0.0
 40
0.0
 40
0.0
 40
0.0071488717171802
 40
0.0071488717171802
 40
0.0071488717171802
 40
0.0071488717171802
 10
118.184518755
 20
222.1615285234
 30
0.0
 10
118.1821377413334
 20
222.1616247477334
 30
0.0
 10
118.1797567276667
 20
222.1617209720667
 30
0.0
 10
118.177375714
 20
222.1618171964
 30
0.0
 11
118.184518755
 21
222.1615285234
 31
0.0
 11
118.177375714
 21
222.1618171964
 31
0.0
  0
SPLINE
  5
11FD
330
1B
100
AcDbEntity
  8
0
  6
Continuous
100
AcDbSpline
210
0.0
220
0.0
230
1.0
 70
    24
 71
     3
 72
     8
 73
     4
 74
     2
 42
0.0000000001
 43
0.0000000001
 44
0.0000000001
 40
0.0
 40
0.0
 40
0.0
 40
0.0
 40
0.006912744406065
 40
0.006912744406065
 40
0.006912744406065
 40
0.006912744406065
 10
118.177375714
 20
222.1618171964
 30
0.0
 10
118.1750779896333
 20
222.1619904655667
 30
0.0
 10
118.1727802652667
 20
222.1621637347333
 30
0.0
 10
118.1704825409
 20
222.1623370039
 30
0.0
 11
118.177375714
 21
222.1618171964
 31
0.0
 11
118.1704825409
 21
222.1623370039
 31
0.0
  0
SPLINE
  5
11FE
330
1B
100
AcDbEntity
  8
0
  6
Continuous
100
AcDbSpline
210
0.0
220
0.0
230
1.0
 70
    24
 71
     3
 72
     8
 73
     4
 74
     2
 42
0.0000000001
 43
0.0000000001
 44
0.0000000001
 40
0.0
 40
0.0
 40
0.0
 40
0.0
 40
0.0133564615221751
 40
0.0133564615221751
 40
0.0133564615221751
 40
0.0133564615221751
 10
118.1704825409
 20
222.1623370039
 30
0.0
 10
118.1660369874
 20
222.1625793423
 30
0.0
 10
118.1615914339
 20
222.1628216807
 30
0.0
 10
118.1571458804
 20
222.1630640191
 30
0.0
 11
118.1704825409
 21
222.1623370039
 31
0.0
 11
118.1571458804
 21
222.1630640191
 31
0.0
  0
SPLINE
  5
11FF
330
1B
100
AcDbEntity
  8
0
  6
Continuous
100
AcDbSpline
210
0.0
220
0.0
230
1.0
 70
     8
 71
     3
 72
    10
 73
     6
 74
     4
 42
0.0000000001
 43
0.0000000001
 44
0.0000000001
 40
0.0
 40
0.0
 40
0.0
 40
0.0
 40
0.0940209981946328
 40
0.186416336101495
 40
0.2770269772041974
 40
0.2770269772041974
 40
0.2770269772041974
 40
0.2770269772041974
 10
110.3664073223
 20
222.5231146105
 30
0.0
 10
110.3350678863498
 20
222.5233532417775
 30
0.0
 10
110.2729308857062
 20
222.5238263783031
 30
0.0
 10
110.1805892706512
 20
222.5242387163486
 30
0.0
 10
110.1195873116828
 20
222.5243210097613
 30
0.0
 10
110.0893837815
 20
222.5243617552
 30
0.0
 11
110.3664073223
 21
222.5231146105
 31
0.0
 11
110.2723886838
 21
222.5237807307
 31
0.0
 11
110.1799942653
 21
222.5241929163
 31
0.0
 11
110.0893837815
 21
222.5243617552
 31
0.0
  0
SPLINE
  5
1200
330
1B
100
AcDbEntity
  8
0
  6
Continuous
100
AcDbSpline
210
0.0
220
0.0
230
1.0
 70
    24
 71
     3
 72
     8
 73
     4
 74
     2
 42
0.0000000001
 43
0.0000000001
 44
0.0000000001
 40
0.0
 40
0.0
 40
0.0
 40
0.0
 40
0.2790696640959437
 40
0.2790696640959437
 40
0.2790696640959437
 40
0.2790696640959437
 10
105.2917908307
 20
222.25175472
 30
0.0
 10
105.1990057249334
 20
222.2451031141001
 30
0.0
 10
105.1062206191667
 20
222.2384515082001
 30
0.0
 10
105.0134355134
 20
222.2317999023
 30
0.0
 11
105.2917908307
 21
222.25175472
 31
0.0
 11
105.0134355134
 21
222.2317999023
 31
0.0
  0
SPLINE
  5
1201
330
1B
100
AcDbEntity
  8
0
  6
Continuous
100
AcDbSpline
210
0.0
220
0.0
230
1.0
 70
     8
 71
     3
 72
     9
 73
     5
 74
     3
 42
0.0000000001
 43
0.0000000001
 44
0.0000000001
 40
0.0
 40
0.0
 40
0.0
 40
0.0
 40
0.3089969812895701
 40
0.6054117559979197
 40
0.6054117559979197
 40
0.6054117559979197
 40
0.6054117559979197
 10
105.0134355134
 20
222.2317999023
 30
0.0
 10
104.9106913482252
 20
222.2245585825309
 30
0.0
 10
104.7093867102399
 20
222.2103708060066
 30
0.0
 10
104.5080510139312
 20
222.1966308542956
 30
0.0
 10
104.4094753347
 20
222.1899036564
 30
0.0
 11
105.0134355134
 21
222.2317999023
 31
0.0
 11
104.7051949272
 21
222.2101926011
 31
0.0
 11
104.4094753347
 21
222.1899036564
 31
0.0
  0
SPLINE
  5
1202
330
1B
100
AcDbEntity
  8
0
  6
Continuous
100
AcDbSpline
210
0.0
220
0.0
230
1.0
 70
     8
 71
     3
 72
    10
 73
     6
 74
     4
 42
0.0000000001
 43
0.0000000001
 44
0.0000000001
 40
0.0
 40
0.0
 40
0.0
 40
0.0
 40
0.2555016507770351
 40
0.4500150220433573
 40
0.5749404098027854
 40
0.5749404098027854
 40
0.5749404098027854
 40
0.5749404098027854
 10
104.4094753347
 20
222.1899036564
 30
0.0
 10
104.3244952800319
 20
222.1842929914736
 30
0.0
 10
104.1748199215422
 20
222.1744109281174
 30
0.0
 10
103.9835007276525
 20
222.1628232776964
 30
0.0
 10
103.8770633023686
 20
222.1596650993488
 30
0.0
 10
103.8354379947
 20
222.1584300061
 30
0.0
 11
104.4094753347
 21
222.1899036564
 31
0.0
 11
104.1545115667
 21
222.1733334857
 31
0.0
 11
103.9602925273
 21
222.1626369285
 31
0.0
 11
103.8354379947
 21
222.1584300061
 31
0.0
  0
SPLINE
  5
1203
330
1B
100
AcDbEntity
  8
0
  6
Continuous
100
AcDbSpline
210
0.0
220
0.0
230
1.0
 70
    24
 71
     3
 72
     8
 73
     4
 74
     2
 42
0.0000000001
 43
0.0000000001
 44
0.0000000001
 40
0.0
 40
0.0
 40
0.0
 40
0.0
 40
0.0892407163845401
 40
0.0892407163845401
 40
0.0892407163845401
 40
0.0892407163845401
 10
103.8354379947
 20
222.1584300061
 30
0.0
 10
103.8056957644333
 20
222.1579026321334
 30
0.0
 10
103.7759535341667
 20
222.1573752581667
 30
0.0
 10
103.7462113039
 20
222.1568478842
 30
0.0
 11
103.8354379947
 21
222.1584300061
 31
0.0
 11
103.7462113039
 21
222.1568478842
 31
0.0
  0
SPLINE
  5
1204
330
1B
100
AcDbEntity
  8
0
  6
Continuous
100
AcDbSpline
210
0.0
220
0.0
230
1.0
 70
     8
 71
     3
 72
     9
 73
     5
 74
     3
 42
0.0000000001
 43
0.0000000001
 44
0.0000000001
 40
0.0
 40
0.0
 40
0.0
 40
0.0
 40
0.0941311215541749
 40
0.2007781520008455
 40
0.2007781520008455
 40
0.2007781520008455
 40
0.2007781520008455
 10
103.7462113039
 20
222.1568478842
 30
0.0
 10
103.7148428332713
 20
222.1560603577703
 30
0.0
 10
103.647935061857
 20
222.1543805934312
 30
0.0
 10
103.5810914933327
 20
222.1509939349277
 30
0.0
 10
103.5455862951
 20
222.1491950486
 30
0.0
 11
103.7462113039
 21
222.1568478842
 31
0.0
 11
103.652120004
 21
222.1541101245
 31
0.0
 11
103.5455862951
 21
222.1491950486
 31
0.0
  0
SPLINE
  5
1205
330
1B
100
AcDbEntity
  8
0
  6
Continuous
100
AcDbSpline
210
0.0
220
0.0
230
1.0
 70
     8
 71
     3
 72
     9
 73
     5
 74
     3
 42
0.0000000001
 43
0.0000000001
 44
0.0000000001
 40
0.0
 40
0.0
 40
0.0
 40
0.0
 40
0.1228101832558253
 40
0.2525511569899921
 40
0.2525511569899921
 40
0.2525511569899921
 40
0.2525511569899921
 10
103.5455862951
 20
222.1491950486
 30
0.0
 10
103.5047207786243
 20
222.146752909954
 30
0.0
 10
103.4206835009871
 20
222.1417308106117
 30
0.0
 10
103.3367965769671
 20
222.1346238096194
 30
0.0
 10
103.2937020557
 20
222.13097279
 30
0.0
 11
103.5455862951
 21
222.1491950486
 31
0.0
 11
103.4230252993
 21
222.1413756228
 31
0.0
 11
103.2937020557
 21
222.13097279
 31
0.0
  0
SPLINE
  5
1206
330
1B
100
AcDbEntity
  8
0
  6
Continuous
100
AcDbSpline
210
0.0
220
0.0
230
1.0
 70
    24
 71
     3
 72
     8
 73
     4
 74
     2
 42
0.0000000001
 43
0.0000000001
 44
0.0000000001
 40
0.0
 40
0.0
 40
0.0
 40
0.0
 40
0.0081054937797111
 40
0.0081054937797111
 40
0.0081054937797111
 40
0.0081054937797111
 10
103.2937020557
 20
222.13097279
 30
0.0
 10
103.2910107159667
 20
222.1307349190333
 30
0.0
 10
103.2883193762333
 20
222.1304970480666
 30
0.0
 10
103.2856280365
 20
222.1302591771
 30
0.0
 11
103.2937020557
 21
222.13097279
 31
0.0
 11
103.2856280365
 21
222.1302591771
 31
0.0
  0
SPLINE
  5
1207
330
1B
100
AcDbEntity
  8
0
  6
Continuous
100
AcDbSpline
210
0.0
220
0.0
230
1.0
 70
     8
 71
     3
 72
    17
 73
    13
 74
    11
 42
0.0000000001
 43
0.0000000001
 44
0.0000000001
 40
0.0
 40
0.0
 40
0.0
 40
0.0
 40
0.2781367929078083
 40
0.5599745923376385
 40
0.8417727407943731
 40
1.118472774102657
 40
1.390548085457651
 40
1.670375044170501
 40
1.972074549030429
 40
2.308952969789379
 40
2.686843382748792
 40
3.106724671017977
 40
3.106724671017977
 40
3.106724671017977
 40
3.106724671017977
 10
108.3947633414
 20
222.3986341698
 30
0.0
 10
108.302078956666
 20
222.3963570474679
 30
0.0
 10
108.1154768893349
 20
222.3917725024449
 30
0.0
 10
107.8350037950288
 20
222.3836054738793
 30
0.0
 10
107.5550471905808
 20
222.3742464072831
 30
0.0
 10
107.2783940673064
 20
222.363569698904
 30
0.0
 10
107.0024538839822
 20
222.3515483920525
 30
0.0
 10
106.7182574299415
 20
222.337666022302
 30
0.0
 10
106.4125705678319
 20
222.3210836692079
 30
0.0
 10
106.0743303502022
 20
222.3012122277473
 30
0.0
 10
105.6968266796581
 20
222.2779890733269
 30
0.0
 10
105.4314586798512
 20
222.2608010691379
 30
0.0
 10
105.2917908307
 20
222.25175472
 30
0.0
 11
108.3947633414
 21
222.3986341698
 31
0.0
 11
108.1167156757
 21
222.3915934903
 31
0.0
 11
107.834996918
 21
222.3834028403
 31
0.0
 11
107.5533575134
 21
222.373945449
 31
0.0
 11
107.2768631232
 21
222.3632795866
 31
0.0
 11
107.0050461745
 21
222.3514254123
 31
0.0
 11
106.7255520948
 21
222.3377804046
 31
0.0
 11
106.4242918552
 21
222.3215059071
 31
0.0
 11
106.087986289
 21
222.301868277
 31
0.0
 11
105.7108094932
 21
222.2786555883
 31
0.0
 11
105.2917908307
 21
222.25175472
 31
0.0
  0
SPLINE
  5
1208
330
1B
100
AcDbEntity
  8
0
  6
Continuous
100
AcDbSpline
210
0.0
220
0.0
230
1.0
 70
     8
 71
     3
 72
    12
 73
     8
 74
     6
 42
0.0000000001
 43
0.0000000001
 44
0.0000000001
 40
0.0
 40
0.0
 40
0.0
 40
0.0
 40
0.2727590542327516
 40
0.5801441584865925
 40
0.9156391574273721
 40
1.287035245529189
 40
1.694848655301144
 40
1.694848655301144
 40
1.694848655301144
 40
1.694848655301144
 10
110.0893837815
 20
222.4243369083
 30
0.0
 10
109.9984638674525
 20
222.4241413552056
 30
0.0
 10
109.8050819935743
 20
222.4237254240619
 30
0.0
 10
109.4998860903397
 20
222.4201399063839
 30
0.0
 10
109.1618390269845
 20
222.4146308950867
 30
0.0
 10
108.7903379887443
 20
222.4075223273085
 30
0.0
 10
108.5306669071305
 20
222.401687783843
 30
0.0
 10
108.3947633414
 20
222.3986341698
 30
0.0
 11
110.0893837815
 21
222.4243369083
 31
0.0
 11
109.816626549
 21
222.4233400207
 31
0.0
 11
109.5092592968
 21
222.4200272285
 31
0.0
 11
109.1738069881
 21
222.4146753221
 31
0.0
 11
108.8024791043
 21
222.4075579511
 31
0.0
 11
108.3947633414
 21
222.3986341698
 31
0.0
  0
SPLINE
  5
1209
330
1B
100
AcDbEntity
  8
0
  6
Continuous
100
AcDbSpline
210
0.0
220
0.0
230
1.0
 70
     8
 71
     3
 72
    10
 73
     6
 74
     4
 42
0.0000000001
 43
0.0000000001
 44
0.0000000001
 40
0.0
 40
0.0
 40
0.0
 40
0.0
 40
0.0940210042006717
 40
0.1864163441086709
 40
0.2770269858049747
 40
0.2770269858049747
 40
0.2770269858049747
 40
0.2770269858049747
 10
110.3664073223
 20
222.4230882039
 30
0.0
 10
110.3350678865923
 20
222.4233271336259
 30
0.0
 10
110.2729308877299
 20
222.4238008618783
 30
0.0
 10
110.1805892715868
 20
222.4242137156429
 30
0.0
 10
110.1195873118385
 20
222.4242961119274
 30
0.0
 10
110.0893837815
 20
222.4243369083
 30
0.0
 11
110.3664073223
 21
222.4230882039
 31
0.0
 11
110.2723886837
 21
222.4237551572
 31
0.0
 11
110.1799942655
 21
222.4241678583
 31
0.0
 11
110.0893837815
 21
222.4243369083
 31
0.0
  0
SPLINE
  5
120A
330
1B
100
AcDbEntity
  8
0
  6
Continuous
100
AcDbSpline
210
0.0
220
0.0
230
1.0
 70
     8
 71
     3
 72
    12
 73
     8
 74
     6
 42
0.0000000001
 43
0.0000000001
 44
0.0000000001
 40
0.0
 40
0.0
 40
0.0
 40
0.0
 40
0.2727593165901262
 40
0.5801442766831266
 40
0.9156391889470485
 40
1.287035167754654
 40
1.694848085391982
 40
1.694848085391982
 40
1.694848085391982
 40
1.694848085391982
 10
110.0893837815
 20
222.5243617552
 30
0.0
 10
109.9984637805719
 20
222.5241664459803
 30
0.0
 10
109.8050818685116
 20
222.52375103386
 30
0.0
 10
109.4998859119761
 20
222.5201699930809
 30
0.0
 10
109.1618388496501
 20
222.5146678634739
 30
0.0
 10
108.790337873156
 20
222.5075681780755
 30
0.0
 10
108.5306668286187
 20
222.5017409272705
 30
0.0
 10
108.3947633414
 20
222.4986911313
 30
0.0
 11
110.0893837815
 21
222.5243617552
 31
0.0
 11
109.8166262821
 21
222.5233661108
 31
0.0
 11
109.5092591295
 21
222.5200574564
 31
0.0
 11
109.1738068009
 21
222.514712235
 31
0.0
 11
108.8024788561
 21
222.5076037552
 31
0.0
 11
108.3947633414
 21
222.4986911313
 31
0.0
  0
SPLINE
  5
120B
330
1B
100
AcDbEntity
  8
0
  6
Continuous
100
AcDbSpline
210
0.0
220
0.0
230
1.0
 70
     8
 71
     3
 72
    17
 73
    13
 74
    11
 42
0.0000000001
 43
0.0000000001
 44
0.0000000001
 40
0.0
 40
0.0
 40
0.0
 40
0.0
 40
0.2781429574937338
 40
0.5599876514585179
 40
0.8417930428966371
 40
1.118500120514219
 40
1.39057902106612
 40
1.670404492633255
 40
1.972097361781429
 40
2.308966793632612
 40
2.686846606154395
 40
3.106715285125294
 40
3.106715285125294
 40
3.106715285125294
 40
3.106715285125294
 10
108.3947633414
 20
222.4986911313
 30
0.0
 10
108.3020768328439
 20
222.496416801161
 30
0.0
 10
108.1154702736992
 20
222.4918378723806
 30
0.0
 10
107.8349901217348
 20
222.4836808088471
 30
0.0
 10
107.5550260752798
 20
222.4743331125054
 30
0.0
 10
107.2783664911527
 20
222.4636693833561
 30
0.0
 10
107.0024226178946
 20
222.4516628005086
 30
0.0
 10
106.7182268395371
 20
222.4377976547185
 30
0.0
 10
106.4125445621989
 20
222.4212361644734
 30
0.0
 10
106.0743116212906
 20
222.4013899603309
 30
0.0
 10
105.6968168847507
 20
222.3781964212478
 30
0.0
 10
105.4314552165088
 20
222.3610303792044
 30
0.0
 10
105.2917908307
 20
222.3519955976
 30
0.0
 11
108.3947633414
 21
222.4986911313
 31
0.0
 11
108.1167092908
 21
222.4916590798
 31
0.0
 11
107.8349833454
 21
222.4834784194
 31
0.0
 11
107.5533363083
 21
222.4740325136
 31
0.0
 11
107.2768343703
 21
222.4633795757
 31
0.0
 11
107.0050131974
 21
222.4515398929
 31
0.0
 11
106.7255197803
 21
222.4379118213
 31
0.0
 11
106.4242650777
 21
222.4216578539
 31
0.0
 11
106.0879670597
 21
222.4020451742
 31
0.0
 11
105.7107990644
 21
222.3788620762
 31
0.0
 11
105.2917908307
 21
222.3519955976
 31
0.0
  0
SPLINE
  5
120C
330
1B
100
AcDbEntity
  8
0
  6
Continuous
100
AcDbSpline
210
0.0
220
0.0
230
1.0
 70
     8
 71
     3
 72
     9
 73
     5
 74
     3
 42
0.0000000001
 43
0.0000000001
 44
0.0000000001
 40
0.0
 40
0.0
 40
0.0
 40
0.0
 40
0.0099267793063559
 40
0.0612421028243966
 40
0.0612421028243966
 40
0.0612421028243966
 40
0.0612421028243966
 10
118.1671853693
 20
222.1397346444
 30
0.0
 10
118.165539692639
 20
222.1367741987807
 30
0.0
 10
118.155386883135
 20
222.1185100761054
 30
0.0
 10
118.1318937445641
 20
222.1185141129721
 30
0.0
 10
118.1122086268
 20
222.1185174955
 30
0.0
 11
118.1671853693
 21
222.1397346444
 31
0.0
 11
118.1618978433
 21
222.1313332745
 31
0.0
 11
118.1122086268
 21
222.1185174955
 31
0.0
  0
SPLINE
  5
120D
330
1B
100
AcDbEntity
  8
0
  6
Continuous
100
AcDbSpline
210
0.0
220
0.0
230
1.0
 70
    24
 71
     3
 72
     8
 73
     4
 74
     2
 42
0.0000000001
 43
0.0000000001
 44
0.0000000001
 40
0.0
 40
0.0
 40
0.0
 40
0.0
 40
0.0099346340355428
 40
0.0099346340355428
 40
0.0099346340355428
 40
0.0099346340355428
 10
118.1671864533
 20
222.0392244448
 30
0.0
 10
118.1654235858667
 20
222.0364211206
 30
0.0
 10
118.1636607184333
 20
222.0336177964
 30
0.0
 10
118.161897851
 20
222.0308144722
 30
0.0
 11
118.1671864533
 21
222.0392244448
 31
0.0
 11
118.161897851
 21
222.0308144722
 31
0.0
  0
SPLINE
  5
120E
330
1B
100
AcDbEntity
  8
0
  6
Continuous
100
AcDbSpline
210
0.0
220
0.0
230
1.0
 70
    24
 71
     3
 72
     8
 73
     4
 74
     2
 42
0.0000000001
 43
0.0000000001
 44
0.0000000001
 40
0.0
 40
0.0
 40
0.0
 40
0.0
 40
0.038760069050858
 40
0.038760069050858
 40
0.038760069050858
 40
0.038760069050858
 10
118.161897851
 20
222.0308144722
 30
0.0
 10
118.1495550225333
 20
222.0269958886667
 30
0.0
 10
118.1372121940667
 20
222.0231773051333
 30
0.0
 10
118.1248693656
 20
222.0193587216
 30
0.0
 11
118.161897851
 21
222.0308144722
 31
0.0
 11
118.1248693656
 21
222.0193587216
 31
0.0
  0
SPLINE
  5
120F
330
1B
100
AcDbEntity
  8
0
  6
Continuous
100
AcDbSpline
210
0.0
220
0.0
230
1.0
 70
     8
 71
     3
 72
     9
 73
     5
 74
     3
 42
0.0000000001
 43
0.0000000001
 44
0.0000000001
 40
0.0
 40
0.0
 40
0.0
 40
0.0
 40
0.2767313863965468
 40
0.2860736959521267
 40
0.2860736959521267
 40
0.2860736959521267
 40
0.2860736959521267
 10
105.2917908307
 20
222.3519955976
 30
0.0
 10
105.1997860713441
 20
222.3453586323529
 30
0.0
 10
105.1046752785394
 20
222.3384976065659
 30
0.0
 10
105.0095534382273
 20
222.3317920484323
 30
0.0
 10
105.006447044
 20
222.331573065
 30
0.0
 11
105.2917908307
 21
222.3519955976
 31
0.0
 11
105.0157662149
 21
222.3322301811
 31
0.0
 11
105.006447044
 21
222.331573065
 31
0.0
  0
SPLINE
  5
1210
330
1B
100
AcDbEntity
  8
0
  6
Continuous
100
AcDbSpline
210
0.0
220
0.0
230
1.0
 70
     8
 71
     3
 72
     9
 73
     5
 74
     3
 42
0.0000000001
 43
0.0000000001
 44
0.0000000001
 40
0.0
 40
0.0
 40
0.0
 40
0.0
 40
0.30214629703408
 40
0.5985966698783525
 40
0.5985966698783525
 40
0.5985966698783525
 40
0.5985966698783525
 10
105.006447044
 20
222.331573065
 30
0.0
 10
104.9059800369093
 20
222.3245030060823
 30
0.0
 10
104.706939980925
 20
222.310496169773
 30
0.0
 10
104.5078695115769
 20
222.2969284518872
 30
0.0
 10
104.4092814007
 20
222.2902091445
 30
0.0
 11
105.006447044
 21
222.331573065
 31
0.0
 11
104.705038274
 21
222.310474767
 31
0.0
 11
104.4092814007
 21
222.2902091445
 31
0.0
  0
SPLINE
  5
1211
330
1B
100
AcDbEntity
  8
0
  6
Continuous
100
AcDbSpline
210
0.0
220
0.0
230
1.0
 70
     8
 71
     3
 72
    11
 73
     7
 74
     5
 42
0.0000000001
 43
0.0000000001
 44
0.0000000001
 40
0.0
 40
0.0
 40
0.0
 40
0.0
 40
0.2554946101612801
 40
0.4499579476479657
 40
0.5748377052357385
 40
0.6640754801595157
 40
0.6640754801595157
 40
0.6640754801595157
 40
0.6640754801595157
 10
104.4092814007
 20
222.2902091445
 30
0.0
 10
104.3243037891895
 20
222.2845767366529
 30
0.0
 10
104.1746475923439
 20
222.2746573623319
 30
0.0
 10
103.9833559878484
 20
222.2633692192425
 30
0.0
 10
103.8472282077538
 20
222.2587295439036
 30
0.0
 10
103.7758631234979
 20
222.2576542271981
 30
0.0
 10
103.7461202937
 20
222.2572060674
 30
0.0
 11
104.4092814007
 21
222.2902091445
 31
0.0
 11
104.1543232405
 21
222.2736612634
 31
0.0
 11
103.9601532774
 21
222.2629834801
 31
0.0
 11
103.8353440796
 21
222.2587861
 31
0.0
 11
103.7461202937
 21
222.2572060674
 31
0.0
  0
SPLINE
  5
1212
330
1B
100
AcDbEntity
  8
0
  6
Continuous
100
AcDbSpline
210
0.0
220
0.0
230
1.0
 70
     8
 71
     3
 72
    11
 73
     7
 74
     5
 42
0.0000000001
 43
0.0000000001
 44
0.0000000001
 40
0.0
 40
0.0
 40
0.0
 40
0.0
 40
0.0941527552735996
 40
0.2008261327406524
 40
0.3236744881636082
 40
0.4613317893163005
 40
0.4613317893163005
 40
0.4613317893163005
 40
0.4613317893163005
 10
103.7461202937
 20
222.2572060674
 30
0.0
 10
103.7147455944154
 20
222.2564011160532
 30
0.0
 10
103.647823925422
 20
222.2546841693152
 30
0.0
 10
103.5400468221781
 20
222.2495575291453
 30
0.0
 10
103.4178897917445
 20
222.2418415440184
 30
0.0
 10
103.3313612979371
 20
222.2345215876778
 30
0.0
 10
103.2856376116
 20
222.230653551
 30
0.0
 11
103.7461202937
 21
222.2572060674
 31
0.0
 11
103.6520073178
 21
222.2544694467
 31
0.0
 11
103.5454471062
 21
222.2495571393
 31
0.0
 11
103.422847568
 21
222.2417423032
 31
0.0
 11
103.2856376116
 21
222.230653551
 31
0.0
  0
SPLINE
  5
1213
330
1B
100
AcDbEntity
  8
0
  6
Continuous
100
AcDbSpline
210
0.0
220
0.0
230
1.0
 70
     8
 71
     3
 72
    14
 73
    10
 74
     8
 42
0.0000000001
 43
0.0000000001
 44
0.0000000001
 40
0.0
 40
0.0
 40
0.0
 40
0.0
 40
0.0002216179034913
 40
0.0098089757003667
 40
0.0301821355034817
 40
0.0578716130118639
 40
0.0886370252530236
 40
0.1251268344480975
 40
0.1704120424274007
 40
0.1704120424274007
 40
0.1704120424274007
 40
0.1704120424274007
 10
118.3103200223
 20
221.9342854224
 30
0.0
 10
118.3103133555514
 20
221.9342115643981
 30
0.0
 10
118.310018280224
 20
221.9309425534814
 30
0.0
 10
118.2973930345998
 20
221.9271841994339
 30
0.0
 10
118.2804956472616
 20
221.9250397383939
 30
0.0
 10
118.253311441913
 20
221.9233160585376
 30
0.0
 10
118.2219985469482
 20
221.9223333729817
 30
0.0
 10
118.1843553086486
 20
221.922289139575
 30
0.0
 10
118.157172229334
 20
221.9241942375789
 30
0.0
 10
118.1421188372
 20
221.925249239
 30
0.0
 11
118.3103200223
 21
221.9342854224
 31
0.0
 11
118.3102980782
 21
221.9340648936
 31
0.0
 11
118.3022888607
 21
221.9287951816
 31
0.0
 11
118.28219316
 21
221.9254442931
 31
0.0
 11
118.2545696311
 21
221.9235343675
 31
0.0
 11
118.2238205278
 21
221.9225327505
 31
0.0
 11
118.187331009
 21
221.9226783281
 31
0.0
 11
118.1421188372
 21
221.925249239
 31
0.0
  0
SPLINE
  5
1214
330
1B
100
AcDbEntity
  8
0
  6
Continuous
100
AcDbSpline
210
0.0
220
0.0
230
1.0
 70
     8
 71
     3
 72
    12
 73
     8
 74
     6
 42
0.0000000001
 43
0.0000000001
 44
0.0000000001
 40
0.0
 40
0.0
 40
0.0
 40
0.0
 40
0.0091244651960217
 40
0.0292879469609441
 40
0.0570514423982336
 40
0.0880265742507393
 40
0.1247354458174966
 40
0.1247354458174966
 40
0.1247354458174966
 40
0.1247354458174966
 10
118.3102891624
 20
221.8335216557
 30
0.0
 10
118.3079073377445
 20
221.8315449159701
 30
0.0
 10
118.3002620946886
 20
221.8251999251
 30
0.0
 10
118.2800883994925
 20
221.8249628873076
 30
0.0
 10
118.2544000957569
 20
221.8223616646475
 30
0.0
 10
118.2224075497226
 20
221.8215425071379
 30
0.0
 10
118.1998740311712
 20
221.8217651664397
 30
0.0
 10
118.1876528268
 20
221.8218859272
 30
0.0
 11
118.3102891624
 21
221.8335216557
 31
0.0
 11
118.302880548
 21
221.8281954659
 31
0.0
 11
118.2830136142
 21
221.8247500431
 31
0.0
 11
118.2553195662
 21
221.8227875487
 31
0.0
 11
118.2243614824
 21
221.8217600076
 31
0.0
 11
118.1876528268
 21
221.8218859272
 31
0.0
  0
SPLINE
  5
1215
330
1B
100
AcDbEntity
  8
0
  6
Continuous
100
AcDbSpline
210
0.0
220
0.0
230
1.0
 70
    24
 71
     3
 72
     8
 73
     4
 74
     2
 42
0.0000000001
 43
0.0000000001
 44
0.0000000001
 40
0.0
 40
0.0
 40
0.0
 40
0.0
 40
0.04560722426191
 40
0.04560722426191
 40
0.04560722426191
 40
0.04560722426191
 10
118.1876528268
 20
221.8218859272
 30
0.0
 10
118.1724748302667
 20
221.8227471083
 30
0.0
 10
118.1572968337334
 20
221.8236082894
 30
0.0
 10
118.1421188372
 20
221.8244694705
 30
0.0
 11
118.1876528268
 21
221.8218859272
 31
0.0
 11
118.1421188372
 21
221.8244694705
 31
0.0
  0
SPLINE
  5
1216
330
1B
100
AcDbEntity
  8
0
  6
Continuous
100
AcDbSpline
210
0.0
220
0.0
230
1.0
 70
     8
 71
     3
 72
     9
 73
     5
 74
     3
 42
0.0000000001
 43
0.0000000001
 44
0.0000000001
 40
0.0
 40
0.0
 40
0.0
 40
0.0
 40
0.0037362065539866
 40
0.028714545554757
 40
0.028714545554757
 40
0.028714545554757
 40
0.028714545554757
 10
117.3205771265
 20
222.1765235268
 30
0.0
 10
117.3202604124269
 20
222.1777661368147
 30
0.0
 10
117.3178263123452
 20
222.1873161928294
 30
0.0
 10
117.3059402424979
 20
222.1873937615072
 30
0.0
 10
117.2956007342
 20
222.1874612373
 30
0.0
 11
117.3205771265
 21
222.1765235268
 31
0.0
 11
117.3194669621
 21
222.1800909873
 31
0.0
 11
117.2956007342
 21
222.1874612373
 31
0.0
  0
SPLINE
  5
1217
330
1B
100
AcDbEntity
  8
0
  6
Continuous
100
AcDbSpline
210
0.0
220
0.0
230
1.0
 70
     8
 71
     3
 72
    11
 73
     7
 74
     5
 42
0.0000000001
 43
0.0000000001
 44
0.0000000001
 40
0.0
 40
0.0
 40
0.0
 40
0.0
 40
0.0009680285062036
 40
0.0108572367307623
 40
0.0793518387229269
 40
0.1795925936343047
 40
0.1795925936343047
 40
0.1795925936343047
 40
0.1795925936343047
 10
116.8916816866
 20
222.2670796783
 30
0.0
 10
116.8913964396824
 20
222.2672313324093
 30
0.0
 10
116.8881971606407
 20
222.2689322581101
 30
0.0
 10
116.8614947594007
 20
222.272791505104
 30
0.0
 10
116.8026911614394
 20
222.2770093829859
 30
0.0
 10
116.7465234090452
 20
222.281935924157
 30
0.0
 10
116.7131557853
 20
222.2848626386
 30
0.0
 11
116.8916816866
 21
222.2670796783
 31
0.0
 11
116.8908223348
 21
222.2675253168
 31
0.0
 11
116.8812249624
 21
222.2699100353
 31
0.0
 11
116.8130399507
 21
222.2764150089
 31
0.0
 11
116.7131557853
 21
222.2848626386
 31
0.0
  0
SPLINE
  5
1218
330
1B
100
AcDbEntity
  8
0
  6
Continuous
100
AcDbSpline
210
0.0
220
0.0
230
1.0
 70
     8
 71
     3
 72
    25
 73
    21
 74
    19
 42
0.0000000001
 43
0.0000000001
 44
0.0000000001
 40
0.0
 40
0.0
 40
0.0
 40
0.0
 40
0.118048197946986
 40
0.2314816676268661
 40
0.3444592563019087
 40
0.4639569004968616
 40
0.6010840527720901
 40
0.758704450940458
 40
0.9332704624399019
 40
1.123673362833605
 40
1.331716271260502
 40
1.559004437068144
 40
1.807424755280388
 40
2.082108913612225
 40
2.391728826326666
 40
2.744086280424548
 40
3.135750484130457
 40
3.559144019206267
 40
4.005191738993315
 40
4.447689692054339
 40
4.447689692054339
 40
4.447689692054339
 40
4.447689692054339
 10
116.7131557853
 20
222.2848626386
 30
0.0
 10
116.6739249065598
 20
222.2879174708145
 30
0.0
 10
116.5969967586407
 20
222.2939077160501
 30
0.0
 10
116.482438902603
 20
222.301678744509
 30
0.0
 10
116.3673694134866
 20
222.309012479558
 30
0.0
 10
116.2443892316962
 20
222.3163851026648
 30
0.0
 10
116.1065558238545
 20
222.3246614934943
 30
0.0
 10
115.9503980975354
 20
222.3340199869261
 30
0.0
 10
115.7764912872353
 20
222.3440647593417
 30
0.0
 10
115.5857716189936
 20
222.3544875683157
 30
0.0
 10
115.3774699305577
 20
222.3652265854586
 30
0.0
 10
115.1498180659372
 20
222.3762279926892
 30
0.0
 10
114.8999405066093
 20
222.3874920555858
 30
0.0
 10
114.6226081941915
 20
222.3991029485878
 30
0.0
 10
114.310621512864
 20
222.4111962042214
 30
0.0
 10
113.9596333965302
 20
222.4237983971125
 30
0.0
 10
113.5707128128978
 20
222.4368239700674
 30
0.0
 10
113.1505585948933
 20
222.450247835461
 30
0.0
 10
112.7134509225085
 20
222.4636523557362
 30
0.0
 10
112.4174214127002
 20
222.4731531115139
 30
0.0
 10
112.2699979812
 20
222.4778845115
 30
0.0
 11
116.7131557853
 21
222.2848626386
 31
0.0
 11
116.5954484787
 21
222.2938274036
 31
0.0
 11
116.482282428
 21
222.3016118119
 31
0.0
 11
116.3695340895
 21
222.3088053999
 31
0.0
 11
116.2502553543
 21
222.3160352199
 31
0.0
 11
116.1133744568
 21
222.3242495848
 31
0.0
 11
115.9560333291
 21
222.3336282549
 31
0.0
 11
115.781756621
 21
222.3436742185
 31
0.0
 11
115.5916379085
 21
222.3540732394
 31
0.0
 11
115.3838711883
 21
222.3647896625
 31
0.0
 11
115.1568484482
 21
222.3757708188
 31
0.0
 11
114.9086807807
 21
222.3869718593
 31
0.0
 11
114.6342379066
 21
222.3984825367
 31
0.0
 11
114.3248515659
 21
222.4105067846
 31
0.0
 11
113.9727226077
 21
222.4231942688
 31
0.0
 11
113.5812801987
 21
222.4363733773
 31
0.0
 11
113.1581033892
 21
222.4499186143
 31
0.0
 11
112.7122715669
 21
222.463795017
 31
0.0
 11
112.2699979812
 21
222.4778845115
 31
0.0
  0
SPLINE
  5
1219
330
1B
100
AcDbEntity
  8
0
  6
Continuous
100
AcDbSpline
210
0.0
220
0.0
230
1.0
 70
    24
 71
     3
 72
     8
 73
     4
 74
     2
 42
0.0000000001
 43
0.0000000001
 44
0.0000000001
 40
0.0
 40
0.0
 40
0.0
 40
0.0
 40
0.0674991013670028
 40
0.0674991013670028
 40
0.0674991013670028
 40
0.0674991013670028
 10
116.7800778922
 20
222.1782668486
 30
0.0
 10
116.7576761991333
 20
222.1803646256001
 30
0.0
 10
116.7352745060667
 20
222.1824624026
 30
0.0
 10
116.712872813
 20
222.1845601796
 30
0.0
 11
116.7800778922
 21
222.1782668486
 31
0.0
 11
116.712872813
 21
222.1845601796
 31
0.0
  0
SPLINE
  5
121A
330
1B
100
AcDbEntity
  8
0
  6
Continuous
100
AcDbSpline
210
0.0
220
0.0
230
1.0
 70
     8
 71
     3
 72
    25
 73
    21
 74
    19
 42
0.0000000001
 43
0.0000000001
 44
0.0000000001
 40
0.0
 40
0.0
 40
0.0
 40
0.0
 40
0.1180260334233714
 40
0.2314180893800029
 40
0.344372100902938
 40
0.4638572967904714
 40
0.6009754945455307
 40
0.7585754920658128
 40
0.9331126039469649
 40
1.123485428054121
 40
1.33149868200808
 40
1.558759229664563
 40
1.807153511933821
 40
2.081806734244915
 40
2.391389542040668
 40
2.7437129087412
 40
3.135362709319367
 40
3.558762391791714
 40
4.004847461620736
 40
4.447417182993918
 40
4.447417182993918
 40
4.447417182993918
 40
4.447417182993918
 10
116.712872813
 20
222.1845601796
 30
0.0
 10
116.67364953434
 20
222.1876174470286
 30
0.0
 10
116.5967429744612
 20
222.193611946433
 30
0.0
 10
116.4822146669235
 20
222.2013893145389
 30
0.0
 10
116.367171470158
 20
222.2087297408214
 30
0.0
 10
116.2442067854206
 20
222.2161103121325
 30
0.0
 10
116.1063879226217
 20
222.2243964458479
 30
0.0
 10
115.9502502673133
 20
222.2337652457008
 30
0.0
 10
115.7763705752452
 20
222.2438206724422
 30
0.0
 10
115.5856811019311
 20
222.2542545987269
 30
0.0
 10
115.3774091719602
 20
222.2650053270752
 30
0.0
 10
115.1497857027549
 20
222.2760190243795
 30
0.0
 10
114.8999369443087
 20
222.2872958669549
 30
0.0
 10
114.6226365731372
 20
222.2989200268873
 30
0.0
 10
114.3106845009401
 20
222.3110272508635
 30
0.0
 10
113.9597254719576
 20
222.3236444222731
 30
0.0
 10
113.5708195480823
 20
222.3366860525485
 30
0.0
 10
113.1506561778384
 20
222.3501271586965
 30
0.0
 10
112.7135106181874
 20
222.363549698223
 30
0.0
 10
112.4174451340452
 20
222.3730634477992
 30
0.0
 10
112.2699979812
 20
222.3778015053
 30
0.0
 11
116.712872813
 21
222.1845601796
 31
0.0
 11
116.5951882871
 21
222.1935321877
 31
0.0
 11
116.4820641216
 21
222.201322023
 31
0.0
 11
116.3693398338
 21
222.2085222771
 31
0.0
 11
116.2500740507
 21
222.2157600266
 31
0.0
 11
116.1132027112
 21
222.2239841727
 31
0.0
 11
115.9558826376
 21
222.2333731908
 31
0.0
 11
115.7816354859
 21
222.2434297085
 31
0.0
 11
115.5915474998
 21
222.2538397853
 31
0.0
 11
115.383811075
 21
222.2645678621
 31
0.0
 11
115.1568165792
 21
222.2755612873
 31
0.0
 11
114.908675552
 21
222.2867751218
 31
0.0
 11
114.6342641931
 21
222.2982989507
 31
0.0
 11
114.3249155201
 21
222.3103369487
 31
0.0
 11
113.9728212077
 21
222.3230393067
 31
0.0
 11
113.5813937569
 21
222.3362346488
 31
0.0
 11
113.1582113508
 21
222.3497971812
 31
0.0
 11
112.712342739
 21
222.3636921636
 31
0.0
 11
112.2699979812
 21
222.3778015053
 31
0.0
  0
SPLINE
  5
121B
330
1B
100
AcDbEntity
  8
0
  6
Continuous
100
AcDbSpline
210
0.0
220
0.0
230
1.0
 70
    24
 71
     3
 72
     8
 73
     4
 74
     2
 42
0.0000000001
 43
0.0000000001
 44
0.0000000001
 40
0.0
 40
0.0
 40
0.0
 40
0.0
 40
0.0211772872493761
 40
0.0211772872493761
 40
0.0211772872493761
 40
0.0211772872493761
 10
118.2056523532
 20
222.059688738
 30
0.0
 10
118.1986078097667
 20
222.0601417729
 30
0.0
 10
118.1915632663333
 20
222.0605948078
 30
0.0
 10
118.1845187229
 20
222.0610478427
 30
0.0
 11
118.2056523532
 21
222.059688738
 31
0.0
 11
118.1845187229
 21
222.0610478427
 31
0.0
  0
SPLINE
  5
121C
330
1B
100
AcDbEntity
  8
0
  6
Continuous
100
AcDbSpline
210
0.0
220
0.0
230
1.0
 70
    24
 71
     3
 72
     8
 73
     4
 74
     2
 42
0.0000000001
 43
0.0000000001
 44
0.0000000001
 40
0.0
 40
0.0
 40
0.0
 40
0.0
 40
0.0127728675794005
 40
0.0127728675794005
 40
0.0127728675794005
 40
0.0127728675794005
 10
118.1845187229
 20
222.0610478427
 30
0.0
 10
118.1802676705667
 20
222.0612842822
 30
0.0
 10
118.1760166182333
 20
222.0615207217
 30
0.0
 10
118.1717655659
 20
222.0617571612
 30
0.0
 11
118.1845187229
 21
222.0610478427
 31
0.0
 11
118.1717655659
 21
222.0617571612
 31
0.0
  0
SPLINE
  5
121D
330
1B
100
AcDbEntity
  8
0
  6
Continuous
100
AcDbSpline
210
0.0
220
0.0
230
1.0
 70
    24
 71
     3
 72
     8
 73
     4
 74
     2
 42
0.0000000001
 43
0.0000000001
 44
0.0000000001
 40
0.0
 40
0.0
 40
0.0
 40
0.0
 40
0.0137741204908647
 40
0.0137741204908647
 40
0.0137741204908647
 40
0.0137741204908647
 10
118.1571458804
 20
222.1630640191
 30
0.0
 10
118.1525583071333
 20
222.1628772515667
 30
0.0
 10
118.1479707338667
 20
222.1626904840333
 30
0.0
 10
118.1433831606
 20
222.1625037165
 30
0.0
 11
118.1571458804
 21
222.1630640191
 31
0.0
 11
118.1433831606
 21
222.1625037165
 31
0.0
  0
SPLINE
  5
121E
330
1B
100
AcDbEntity
  8
0
  6
Continuous
100
AcDbSpline
210
0.0
220
0.0
230
1.0
 70
    24
 71
     3
 72
     8
 73
     4
 74
     2
 42
0.0000000001
 43
0.0000000001
 44
0.0000000001
 40
0.0
 40
0.0
 40
0.0
 40
0.0
 40
0.0032996510548636
 40
0.0032996510548636
 40
0.0032996510548636
 40
0.0032996510548636
 10
118.1433831606
 20
222.1625037165
 30
0.0
 10
118.1425308118667
 20
222.1618085577
 30
0.0
 10
118.1416784631333
 20
222.1611133989
 30
0.0
 10
118.1408261144
 20
222.1604182401
 30
0.0
 11
118.1433831606
 21
222.1625037165
 31
0.0
 11
118.1408261144
 21
222.1604182401
 31
0.0
  0
SPLINE
  5
121F
330
1B
100
AcDbEntity
  8
0
  6
Continuous
100
AcDbSpline
210
0.0
220
0.0
230
1.0
 70
     8
 71
     3
 72
     9
 73
     5
 74
     3
 42
0.0000000001
 43
0.0000000001
 44
0.0000000001
 40
0.0
 40
0.0
 40
0.0
 40
0.0
 40
0.0818127169274294
 40
0.0888147139621487
 40
0.0888147139621487
 40
0.0888147139621487
 40
0.0888147139621487
 10
118.1122086268
 20
222.1185174955
 30
0.0
 10
118.0706864313518
 20
222.1191163101131
 30
0.0
 10
118.025610530559
 20
222.1197663746823
 30
0.0
 10
118.0350233741409
 20
222.0904705481332
 30
0.0
 10
118.0357654663
 20
222.0881609163
 30
0.0
 11
118.1122086268
 21
222.1185174955
 31
0.0
 11
118.033877863
 21
222.094903684
 31
0.0
 11
118.0357654663
 21
222.0881609163
 31
0.0
  0
SPLINE
  5
1220
330
1B
100
AcDbEntity
  8
0
  6
Continuous
100
AcDbSpline
210
0.0
220
0.0
230
1.0
 70
     8
 71
     3
 72
    12
 73
     8
 74
     6
 42
0.0000000001
 43
0.0000000001
 44
0.0000000001
 40
0.0
 40
0.0
 40
0.0
 40
0.0
 40
0.0042538423194274
 40
0.0105385712670355
 40
0.0719169615601483
 40
0.1663744053571593
 40
0.2073514475198645
 40
0.2073514475198645
 40
0.2073514475198645
 40
0.2073514475198645
 10
106.5912153961
 20
222.4533412395
 30
0.0
 10
106.589814357404
 20
222.4535665011629
 30
0.0
 10
106.5863433904436
 20
222.4541245698242
 30
0.0
 10
106.5623448051327
 20
222.4549772891495
 30
0.0
 10
106.5084108319229
 20
222.4503424415818
 30
0.0
 10
106.4428639103871
 20
222.4480835878371
 30
0.0
 10
106.3977664649069
 20
222.4459775749206
 30
0.0
 10
106.3841217871
 20
222.4453403799
 30
0.0
 11
106.5912153961
 21
222.4533412395
 31
0.0
 11
106.5870048278
 21
222.4539464577
 31
0.0
 11
106.5807300753
 21
222.4543004337
 31
0.0
 11
106.5194067197
 21
222.4517018085
 31
0.0
 11
106.4250565441
 21
222.4472014693
 31
0.0
 11
106.3841217871
 21
222.4453403799
 31
0.0
  0
SPLINE
  5
1221
330
1B
100
AcDbEntity
  8
0
  6
Continuous
100
AcDbSpline
210
0.0
220
0.0
230
1.0
 70
    24
 71
     3
 72
     8
 73
     4
 74
     2
 42
0.0000000001
 43
0.0000000001
 44
0.0000000001
 40
0.0
 40
0.0
 40
0.0
 40
0.0
 40
0.0308271159941839
 40
0.0308271159941839
 40
0.0308271159941839
 40
0.0308271159941839
 10
118.1421188372
 20
221.925249239
 30
0.0
 10
118.1318967304667
 20
221.9262974059667
 30
0.0
 10
118.1216746237334
 20
221.9273455729334
 30
0.0
 10
118.111452517
 20
221.9283937399
 30
0.0
 11
118.1421188372
 21
221.925249239
 31
0.0
 11
118.111452517
 21
221.9283937399
 31
0.0
  0
SPLINE
  5
1222
330
1B
100
AcDbEntity
  8
0
  6
Continuous
100
AcDbSpline
210
0.0
220
0.0
230
1.0
 70
     8
 71
     3
 72
    15
 73
    11
 74
     9
 42
0.0000000001
 43
0.0000000001
 44
0.0000000001
 40
0.0
 40
0.0
 40
0.0
 40
0.0
 40
0.0272250036869515
 40
0.0496546493834611
 40
0.0686597864768578
 40
0.0851122333326477
 40
0.0990834629048064
 40
0.1114895329957421
 40
0.1244473656486477
 40
0.1381770728060877
 40
0.1381770728060877
 40
0.1381770728060877
 40
0.1381770728060877
 10
118.111452517
 20
221.9283937399
 30
0.0
 10
118.1024708304726
 20
221.9297058085159
 30
0.0
 10
118.0860894738154
 20
221.9320988405918
 30
0.0
 10
118.0636691159721
 20
221.936745260628
 30
0.0
 10
118.0449140095165
 20
221.9412955323572
 30
0.0
 10
118.0290813609369
 20
221.9458776744708
 30
0.0
 10
118.0156040445008
 20
221.950625922025
 30
0.0
 10
118.0035839526022
 20
221.9558741517259
 30
0.0
 10
117.9916121463212
 20
221.9610181725182
 30
0.0
 10
117.9834608038621
 20
221.9645811563224
 30
0.0
 10
117.9792672534
 20
221.9664141737
 30
0.0
 11
118.111452517
 21
221.9283937399
 31
0.0
 11
118.0845576575
 21
221.9326207197
 31
0.0
 11
118.0625818158
 21
221.9371097494
 31
0.0
 11
118.0441244581
 21
221.9416397806
 31
0.0
 11
118.028336779
 21
221.9462692726
 31
0.0
 11
118.0151788021
 21
221.9509663887
 31
0.0
 11
118.0037486
 21
221.9557893603
 31
0.0
 11
117.991853542
 21
221.9609287204
 31
0.0
 11
117.9792672534
 21
221.9664141737
 31
0.0
  0
SPLINE
  5
1223
330
1B
100
AcDbEntity
  8
0
  6
Continuous
100
AcDbSpline
210
0.0
220
0.0
230
1.0
 70
     8
 71
     3
 72
    10
 73
     6
 74
     4
 42
0.0000000001
 43
0.0000000001
 44
0.0000000001
 40
0.0
 40
0.0
 40
0.0
 40
0.0
 40
0.1236708065757586
 40
0.3266964473493049
 40
0.6101339684063265
 40
0.6101339684063265
 40
0.6101339684063265
 40
0.6101339684063265
 10
117.9792672534
 20
221.9664141737
 30
0.0
 10
117.9405274526066
 20
221.9806995594536
 30
0.0
 10
117.8381900001339
 20
222.0184367175098
 30
0.0
 10
117.6367081911342
 20
222.0520418930164
 30
0.0
 10
117.4764005473193
 20
222.0753335331664
 30
0.0
 10
117.3829973778
 20
222.0889043958
 30
0.0
 11
117.9792672534
 21
221.9664141737
 31
0.0
 11
117.8622531028
 21
222.0064411266
 31
0.0
 11
117.6633205812
 21
222.0470029641
 31
0.0
 11
117.3829973778
 21
222.0889043958
 31
0.0
  0
SPLINE
  5
1224
330
1B
100
AcDbEntity
  8
0
  6
Continuous
100
AcDbSpline
210
0.0
220
0.0
230
1.0
 70
     8
 71
     3
 72
    13
 73
     9
 74
     7
 42
0.0000000001
 43
0.0000000001
 44
0.0000000001
 40
0.0
 40
0.0
 40
0.0
 40
0.0
 40
0.1066127264796574
 40
0.2054503596901817
 40
0.2898204828782881
 40
0.3505747708809561
 40
0.3824407075562311
 40
0.3847484499259418
 40
0.3847484499259418
 40
0.3847484499259418
 40
0.3847484499259418
 10
117.3829973778
 20
222.0889043958
 30
0.0
 10
117.3476236553009
 20
222.0936539146344
 30
0.0
 10
117.2794559585258
 20
222.1028065775962
 30
0.0
 10
117.1859540398982
 20
222.117361728904
 30
0.0
 10
117.0992772240252
 20
222.1268286543561
 30
0.0
 10
117.0556698619343
 20
222.144627957365
 30
0.0
 10
117.0039144175735
 20
222.1425106429131
 30
0.0
 10
117.0065983206128
 20
222.153961516665
 30
0.0
 10
117.0067795641
 20
222.1547347921
 30
0.0
 11
117.3829973778
 21
222.0889043958
 31
0.0
 11
117.277383878
 21
222.1034667482
 31
0.0
 11
117.1795446295
 21
222.1174795706
 31
0.0
 11
117.0962285825
 21
222.1307744568
 31
0.0
 11
117.0366435612
 21
222.1426365286
 31
0.0
 11
117.0063330389
 21
222.1524706609
 31
0.0
 11
117.0067795641
 21
222.1547347921
 31
0.0
  0
SPLINE
  5
1225
330
1B
100
AcDbEntity
  8
0
  6
Continuous
100
AcDbSpline
210
0.0
220
0.0
230
1.0
 70
     8
 71
     3
 72
    10
 73
     6
 74
     4
 42
0.0000000001
 43
0.0000000001
 44
0.0000000001
 40
0.0
 40
0.0
 40
0.0
 40
0.0
 40
0.1514162072236776
 40
0.299532475588325
 40
0.4453857919527162
 40
0.4453857919527162
 40
0.4453857919527162
 40
0.4453857919527162
 10
110.8117417397
 20
222.4165082512
 30
0.0
 10
110.7612796985655
 20
222.417517441613
 30
0.0
 10
110.661455377369
 20
222.419513828316
 30
0.0
 10
110.5130082574531
 20
222.4216749567407
 30
0.0
 10
110.4150228730616
 20
222.4226195453001
 30
0.0
 10
110.3664073223
 20
222.4230882039
 30
0.0
 11
110.8117417397
 21
222.4165082512
 31
0.0
 11
110.6603530924
 21
222.4193970708
 31
0.0
 11
110.5122526703
 21
222.4215636183
 31
0.0
 11
110.3664073223
 21
222.4230882039
 31
0.0
  0
SPLINE
  5
1226
330
1B
100
AcDbEntity
  8
0
  6
Continuous
100
AcDbSpline
210
0.0
220
0.0
230
1.0
 70
     8
 71
     3
 72
    10
 73
     6
 74
     4
 42
0.0000000001
 43
0.0000000001
 44
0.0000000001
 40
0.0
 40
0.0
 40
0.0
 40
0.0
 40
0.535829516375476
 40
1.02393703840606
 40
1.458782617985497
 40
1.458782617985497
 40
1.458782617985497
 40
1.458782617985497
 10
112.2699979812
 20
222.3778015053
 30
0.0
 10
112.091478727171
 20
222.3834876773868
 30
0.0
 10
111.7503394829102
 20
222.3943536002755
 30
0.0
 10
111.2642564840477
 20
222.4076741751423
 30
0.0
 10
110.9566631032277
 20
222.4136790696898
 30
0.0
 10
110.8117417397
 20
222.4165082512
 30
0.0
 11
112.2699979812
 21
222.3778015053
 31
0.0
 11
111.734427006
 21
222.3944448566
 31
0.0
 11
111.2464936469
 21
222.4074828833
 31
0.0
 11
110.8117417397
 21
222.4165082512
 31
0.0
  0
SPLINE
  5
1227
330
1B
100
AcDbEntity
  8
0
  6
Continuous
100
AcDbSpline
210
0.0
220
0.0
230
1.0
 70
     8
 71
     3
 72
     9
 73
     5
 74
     3
 42
0.0000000001
 43
0.0000000001
 44
0.0000000001
 40
0.0
 40
0.0
 40
0.0
 40
0.0
 40
0.0071304437939415
 40
0.0840270414588849
 40
0.0840270414588849
 40
0.0840270414588849
 40
0.0840270414588849
 10
117.00354993
 20
222.1300552853
 30
0.0
 10
117.0011949589852
 20
222.130376780691
 30
0.0
 10
116.9734433557449
 20
222.1341653676756
 30
0.0
 10
116.9456959247408
 20
222.1379844262254
 30
0.0
 10
116.9203031107
 20
222.1414794036
 30
0.0
 11
117.00354993
 21
222.1300552853
 31
0.0
 11
116.996485047
 21
222.1310199909
 31
0.0
 11
116.9203031107
 21
222.1414794036
 31
0.0
  0
SPLINE
  5
1228
330
1B
100
AcDbEntity
  8
0
  6
Continuous
100
AcDbSpline
210
0.0
220
0.0
230
1.0
 70
     8
 71
     3
 72
    10
 73
     6
 74
     4
 42
0.0000000001
 43
0.0000000001
 44
0.0000000001
 40
0.0
 40
0.0
 40
0.0
 40
0.0
 40
0.0650548330982769
 40
0.114842320711821
 40
0.1406141260697212
 40
0.1406141260697212
 40
0.1406141260697212
 40
0.1406141260697212
 10
116.9203031107
 20
222.1414794036
 30
0.0
 10
116.8988633018424
 20
222.1446763819474
 30
0.0
 10
116.8610152698429
 20
222.1503200581387
 30
0.0
 10
116.8145511617186
 20
222.1570353362889
 30
0.0
 10
116.7901780308362
 20
222.1634362086288
 30
0.0
 10
116.7818648299
 20
222.1656194217
 30
0.0
 11
116.9203031107
 21
222.1414794036
 31
0.0
 11
116.8559515572
 21
222.1510192606
 31
0.0
 11
116.8068735891
 21
222.1593946394
 31
0.0
 11
116.7818648299
 21
222.1656194217
 31
0.0
  0
SPLINE
  5
1229
330
1B
100
AcDbEntity
  8
0
  6
Continuous
100
AcDbSpline
210
0.0
220
0.0
230
1.0
 70
     8
 71
     3
 72
    11
 73
     7
 74
     5
 42
0.0000000001
 43
0.0000000001
 44
0.0000000001
 40
0.0
 40
0.0
 40
0.0
 40
0.0
 40
0.106588664391178
 40
0.2054137739906536
 40
0.2897862091160854
 40
0.3505566439747923
 40
0.3505566439747923
 40
0.3505566439747923
 40
0.3505566439747923
 10
117.3829973778
 20
221.9883319733
 30
0.0
 10
117.3477956525898
 20
221.9931535153879
 30
0.0
 10
117.2799561757775
 20
222.0024454148818
 30
0.0
 10
117.1843463616713
 20
222.0161431640727
 30
0.0
 10
117.1038892876106
 20
222.0281822088281
 30
0.0
 10
117.0565092491645
 20
222.0380103385842
 30
0.0
 10
117.0366715159
 20
222.0421253166
 30
0.0
 11
117.3829973778
 21
221.9883319733
 31
0.0
 11
117.2774102017
 21
222.0029090656
 31
0.0
 11
117.1795857875
 21
222.0169371187
 31
0.0
 11
117.0962699065
 21
222.0302477078
 31
0.0
 11
117.0366715159
 21
222.0421253166
 31
0.0
  0
SPLINE
  5
122A
330
1B
100
AcDbEntity
  8
0
  6
Continuous
100
AcDbSpline
210
0.0
220
0.0
230
1.0
 70
     8
 71
     3
 72
     9
 73
     5
 74
     3
 42
0.0000000001
 43
0.0000000001
 44
0.0000000001
 40
0.0
 40
0.0
 40
0.0
 40
0.0
 40
0.0318894739565167
 40
0.0342107253901531
 40
0.0342107253901531
 40
0.0342107253901531
 40
0.0342107253901531
 10
117.0366715159
 20
222.0421253166
 30
0.0
 10
117.0209015502371
 20
222.0420753062067
 30
0.0
 10
117.0039836805524
 20
222.0420216555308
 30
0.0
 10
117.006606872788
 20
222.0534749331314
 30
0.0
 10
117.0067848605
 20
222.054252056
 30
0.0
 11
117.0366715159
 21
222.0421253166
 31
0.0
 11
117.0063408612
 21
222.0519736634
 31
0.0
 11
117.0067848605
 21
222.054252056
 31
0.0
  0
SPLINE
  5
122B
330
1B
100
AcDbEntity
  8
0
  6
Continuous
100
AcDbSpline
210
0.0
220
0.0
230
1.0
 70
    24
 71
     3
 72
     8
 73
     4
 74
     2
 42
0.0000000001
 43
0.0000000001
 44
0.0000000001
 40
0.0
 40
0.0
 40
0.0
 40
0.0
 40
0.0210021805031747
 40
0.0210021805031747
 40
0.0210021805031747
 40
0.0210021805031747
 10
145.235867371
 20
103.5974948216
 30
0.0
 10
145.2428679893
 20
103.5974558392
 30
0.0
 10
145.2498686076
 20
103.5974168568
 30
0.0
 10
145.2568692259
 20
103.5973778744
 30
0.0
 11
145.235867371
 21
103.5974948216
 31
0.0
 11
145.2568692259
 21
103.5973778744
 31
0.0
  0
SPLINE
  5
122C
330
1B
100
AcDbEntity
  8
0
  6
Continuous
100
AcDbSpline
210
0.0
220
0.0
230
1.0
 70
     8
 71
     3
 72
    11
 73
     7
 74
     5
 42
0.0000000001
 43
0.0000000001
 44
0.0000000001
 40
0.0
 40
0.0
 40
0.0
 40
0.0
 40
0.7096582913481473
 40
1.440557030942364
 40
2.171870128130105
 40
2.38171890279637
 40
2.38171890279637
 40
2.38171890279637
 40
2.38171890279637
 10
145.2568692259
 20
103.5973778744
 30
0.0
 10
145.4939489167149
 20
103.5777009371958
 30
0.0
 10
145.9752042189649
 20
103.5377581216428
 30
0.0
 10
146.6500375896363
 20
103.2450193217371
 30
0.0
 10
147.1002164861849
 20
102.9055018572016
 30
0.0
 10
147.3098711171399
 20
102.6719288569916
 30
0.0
 10
147.3566173451
 20
102.6198496033
 30
0.0
 11
145.2568692259
 21
103.5973778744
 31
0.0
 11
145.9599415303
 21
103.5009194623
 31
0.0
 11
146.6347545353
 21
103.2201341781
 31
0.0
 11
147.2142041423
 21
102.7739761354
 31
0.0
 11
147.3566173451
 21
102.6198496033
 31
0.0
  0
SPLINE
  5
122D
330
1B
100
AcDbEntity
  8
0
  6
Continuous
100
AcDbSpline
210
0.0
220
0.0
230
1.0
 70
    24
 71
     3
 72
     8
 73
     4
 74
     2
 42
0.0000000001
 43
0.0000000001
 44
0.0000000001
 40
0.0
 40
0.0
 40
0.0
 40
0.0
 40
0.3217038943292135
 40
0.3217038943292135
 40
0.3217038943292135
 40
0.3217038943292135
 10
147.3566173451
 20
102.6198496033
 30
0.0
 10
147.4216223270667
 20
102.5345640916333
 30
0.0
 10
147.4866273090333
 20
102.4492785799667
 30
0.0
 10
147.551632291
 20
102.3639930683
 30
0.0
 11
147.3566173451
 21
102.6198496033
 31
0.0
 11
147.551632291
 21
102.3639930683
 31
0.0
  0
SPLINE
  5
122E
330
1B
100
AcDbEntity
  8
0
  6
Continuous
100
AcDbSpline
210
0.0
220
0.0
230
1.0
 70
     8
 71
     3
 72
    14
 73
    10
 74
     8
 42
0.0000000001
 43
0.0000000001
 44
0.0000000001
 40
0.0
 40
0.0
 40
0.0
 40
0.0
 40
0.5563118260704547
 40
1.313257706163024
 40
2.070206095312584
 40
2.827156240099744
 40
3.584107651691347
 40
4.341059699312678
 40
4.585791745023874
 40
4.585791745023874
 40
4.585791745023874
 40
4.585791745023874
 10
138.734356623
 20
143.7975394063
 30
0.0
 10
138.5486682280867
 20
143.8084306595654
 30
0.0
 10
138.110322853897
 20
143.8341411003835
 30
0.0
 10
137.4500651748581
 20
144.0726585449143
 30
0.0
 10
136.8203570890507
 20
144.5062651984168
 30
0.0
 10
136.3298602777626
 20
145.0961969960199
 30
0.0
 10
136.0170863047051
 20
145.7944373753003
 30
0.0
 10
135.9229935701194
 20
146.3823018970734
 30
0.0
 10
135.9379040328843
 20
146.7159711507618
 30
0.0
 10
135.9415469659
 20
146.7974934187
 30
0.0
 11
138.734356623
 21
143.7975394063
 31
0.0
 11
138.1807913313
 21
143.8527509599
 31
0.0
 11
137.4658225413
 21
144.1013202555
 31
0.0
 11
136.8435596349
 21
144.5323187928
 31
0.0
 11
136.35948109
 21
145.1142478985
 31
0.0
 11
136.0489657044
 21
145.8045779897
 31
0.0
 11
135.934707335
 21
146.5528569667
 31
0.0
 11
135.9415469659
 21
146.7974934187
 31
0.0
  0
SPLINE
  5
122F
330
1B
100
AcDbEntity
  8
0
  6
Continuous
100
AcDbSpline
210
0.0
220
0.0
230
1.0
 70
     8
 71
     3
 72
    14
 73
    10
 74
     8
 42
0.0000000001
 43
0.0000000001
 44
0.0000000001
 40
0.0
 40
0.0
 40
0.0
 40
0.0
 40
0.1194916666168067
 40
0.4184772545817616
 40
2.087444400818818
 40
2.361914968707813
 40
2.601932517687595
 40
3.524938454623992
 40
3.900391411206209
 40
3.900391411206209
 40
3.900391411206209
 40
3.900391411206209
 10
111.8279189917
 20
127.5534556167
 30
0.0
 10
111.7934722501138
 20
127.5754783805865
 30
0.0
 10
111.6728347340725
 20
127.6526053136225
 30
0.0
 10
110.940863046688
 20
127.4315223450413
 30
0.0
 10
110.3777089870842
 20
126.9925653843287
 30
0.0
 10
109.7467846505688
 20
126.612231728802
 30
0.0
 10
109.4684284022609
 20
126.2004904504234
 30
0.0
 10
109.6092924868779
 20
125.632238906778
 30
0.0
 10
109.7621994603174
 20
125.2339417752146
 30
0.0
 10
109.8064129318
 20
125.1187730653
 30
0.0
 11
111.8279189917
 21
127.5534556167
 31
0.0
 11
111.7224504878
 21
127.6096219151
 31
0.0
 11
111.4257737034
 21
127.5725373171
 31
0.0
 11
109.9732936135
 21
126.7504953938
 31
0.0
 11
109.7507860253
 21
126.589795469
 31
0.0
 11
109.6148091658
 21
126.3920109461
 31
0.0
 11
109.6766168292
 21
125.4710767615
 31
0.0
 11
109.8064129318
 21
125.1187730653
 31
0.0
  0
SPLINE
  5
1230
330
1B
100
AcDbEntity
  8
0
  6
Continuous
100
AcDbSpline
210
0.0
220
0.0
230
1.0
 70
     8
 71
     3
 72
    18
 73
    14
 74
    12
 42
0.0000000001
 43
0.0000000001
 44
0.0000000001
 40
0.0
 40
0.0
 40
0.0
 40
0.0
 40
0.2635355678454315
 40
0.615893462269505
 40
0.8425683806167778
 40
1.003030407589565
 40
1.875920061515879
 40
2.74336590059524
 40
3.578684523673733
 40
3.69062296297113
 40
3.753654659328293
 40
3.820509869193241
 40
3.90235748885601
 40
3.90235748885601
 40
3.90235748885601
 40
3.90235748885601
 10
109.8064129318
 20
125.1187730653
 30
0.0
 10
109.8671892041818
 20
125.046555913294
 30
0.0
 10
110.009225852696
 20
124.8777814584912
 30
0.0
 10
110.365203953912
 20
125.0187741826205
 30
0.0
 10
110.4005385803887
 20
125.2869654460884
 30
0.0
 10
110.2473432845103
 20
125.6795439597769
 30
0.0
 10
110.3212208111244
 20
126.3585633172965
 30
0.0
 10
110.8094469749176
 20
127.1003768965818
 30
0.0
 10
111.4004341563161
 20
127.3665445622823
 30
0.0
 10
111.7293209329303
 20
127.4058950613696
 30
0.0
 10
111.8145669389284
 20
127.4080764331236
 30
0.0
 10
111.8598704094808
 20
127.479042921798
 30
0.0
 10
111.8392620513183
 20
127.5270383966434
 30
0.0
 10
111.8279189917
 20
127.5534556167
 30
0.0
 11
109.8064129318
 21
125.1187730653
 31
0.0
 11
110.0103782116
 21
124.9518923889
 31
0.0
 11
110.3379588276
 21
125.081688482
 31
0.0
 11
110.381224192
 21
125.3041960703
 31
0.0
 11
110.3379588276
 21
125.4587152288
 31
0.0
 11
110.3874049583
 21
126.3302032827
 31
0.0
 11
110.8756854992
 21
127.0471721782
 31
0.0
 11
111.635919759
 21
127.3932950932
 31
0.0
 11
111.7471735531
 21
127.4056566259
 31
0.0
 11
111.8089812165
 21
127.4180181586
 31
0.0
 11
111.8460658146
 21
127.4736450556
 31
0.0
 11
111.8279189917
 21
127.5534556167
 31
0.0
  0
SPLINE
  5
1231
330
1B
100
AcDbEntity
  8
0
  6
Continuous
100
AcDbSpline
210
0.0
220
0.0
230
1.0
 70
     8
 71
     3
 72
    11
 73
     7
 74
     5
 42
0.0000000001
 43
0.0000000001
 44
0.0000000001
 40
0.0
 40
0.0
 40
0.0
 40
0.0
 40
0.0850275176810167
 40
0.170054274444642
 40
0.2550812757166707
 40
0.3401090175785425
 40
0.3401090175785425
 40
0.3401090175785425
 40
0.3401090175785425
 10
113.0221274315
 20
125.5953251676
 30
0.0
 10
113.0215998058423
 20
125.6248187325158
 30
0.0
 10
113.0205445592486
 20
125.6838055984074
 30
0.0
 10
112.9497313206905
 20
125.7454557944084
 30
0.0
 10
112.8561059769219
 20
125.7524754152169
 30
0.0
 10
112.81341076462
 20
125.7117613353757
 30
0.0
 10
112.7920630655
 20
125.6914042068
 30
0.0
 11
113.0221274315
 21
125.5953251676
 31
0.0
 11
113.0090060502
 21
125.679334144
 31
0.0
 11
112.9459294052
 21
125.7363506874
 31
0.0
 11
112.8610366643
 21
125.7411270341
 31
0.0
 11
112.7920630655
 21
125.6914042068
 31
0.0
  0
SPLINE
  5
1232
330
1B
100
AcDbEntity
  8
0
  6
Continuous
100
AcDbSpline
210
0.0
220
0.0
230
1.0
 70
     8
 71
     3
 72
     9
 73
     5
 74
     3
 42
0.0000000001
 43
0.0000000001
 44
0.0000000001
 40
0.0
 40
0.0
 40
0.0
 40
0.0
 40
0.8586076661118971
 40
1.717215352435647
 40
1.717215352435647
 40
1.717215352435647
 40
1.717215352435647
 10
112.7920630655
 20
125.6914042068
 30
0.0
 10
112.5965249776275
 20
125.4706584233895
 30
0.0
 10
112.2054487972794
 20
125.029166851372
 30
0.0
 10
111.6259720173667
 20
124.9193394908882
 30
0.0
 10
111.336233624
 20
124.86442581
 30
0.0
 11
112.7920630655
 21
125.6914042068
 31
0.0
 11
112.1583486531
 21
125.1120829075
 31
0.0
 11
111.336233624
 21
124.86442581
 31
0.0
  0
SPLINE
  5
1233
330
1B
100
AcDbEntity
  8
0
  6
Continuous
100
AcDbSpline
210
0.0
220
0.0
230
1.0
 70
     8
 71
     3
 72
    11
 73
     7
 74
     5
 42
0.0000000001
 43
0.0000000001
 44
0.0000000001
 40
0.0
 40
0.0
 40
0.0
 40
0.0
 40
0.1030335243461572
 40
0.2060657546729359
 40
0.3090978406530395
 40
0.4121312721647388
 40
0.4121312721647388
 40
0.4121312721647388
 40
0.4121312721647388
 10
111.336233624
 20
124.86442581
 30
0.0
 10
111.3017657392992
 20
124.8543175687738
 30
0.0
 10
111.2328304027868
 20
124.8341012132728
 30
0.0
 10
111.1879394290937
 20
124.7279848534718
 30
0.0
 10
111.2206438428558
 20
124.6175010463713
 30
0.0
 10
111.2868787721221
 20
124.5896839848022
 30
0.0
 10
111.319996453
 20
124.5757753632
 30
0.0
 11
111.336233624
 21
124.86442581
 31
0.0
 11
111.2425820784
 21
124.8214689113
 31
0.0
 11
111.2008719353
 21
124.7272568927
 31
0.0
 11
111.2317515428
 21
124.6289611116
 31
0.0
 11
111.319996453
 21
124.5757753632
 31
0.0
  0
SPLINE
  5
1234
330
1B
100
AcDbEntity
  8
0
  6
Continuous
100
AcDbSpline
210
0.0
220
0.0
230
1.0
 70
     8
 71
     3
 72
    11
 73
     7
 74
     5
 42
0.0000000001
 43
0.0000000001
 44
0.0000000001
 40
0.0
 40
0.0
 40
0.0
 40
0.0
 40
0.7750160022410633
 40
1.449809262265937
 40
1.829775031973107
 40
2.21454090100904
 40
2.21454090100904
 40
2.21454090100904
 40
2.21454090100904
 10
111.319996453
 20
124.5757753632
 30
0.0
 10
111.5799589737293
 20
124.562916472705
 30
0.0
 10
112.0662664426144
 20
124.5388615648215
 30
0.0
 10
112.6559201403922
 20
124.8119976669481
 30
0.0
 10
112.9323559412458
 20
125.2207264727775
 30
0.0
 10
112.9920786447662
 20
125.4699375165806
 30
0.0
 10
113.0221274315
 20
125.5953251676
 30
0.0
 11
111.319996453
 21
124.5757753632
 31
0.0
 11
112.0944261521
 21
124.6059157826
 31
0.0
 11
112.6947120259
 21
124.9141410468
 31
0.0
 11
112.9099240726
 21
125.2272828056
 31
0.0
 11
113.0221274315
 21
125.5953251676
 31
0.0
  0
SPLINE
  5
1235
330
1B
100
AcDbEntity
  8
0
  6
Continuous
100
AcDbSpline
210
0.0
220
0.0
230
1.0
 70
     8
 71
     3
 72
     9
 73
     5
 74
     3
 42
0.0000000001
 43
0.0000000001
 44
0.0000000001
 40
0.0
 40
0.0
 40
0.0
 40
0.0
 40
2.08544286747147
 40
4.170885674894644
 40
4.170885674894644
 40
4.170885674894644
 40
4.170885674894644
 10
116.7518501339
 20
126.0932935212
 30
0.0
 10
117.2199860197385
 20
125.5604322729367
 30
0.0
 10
118.156257777936
 20
124.4947097917533
 30
0.0
 10
118.4118229868718
 20
123.0993404380214
 30
0.0
 10
118.5396055895
 20
122.4016557712
 30
0.0
 11
116.7518501339
 21
126.0932935212
 31
0.0
 11
117.9860811492
 21
124.4122980559
 31
0.0
 11
118.5396055895
 21
122.4016557712
 31
0.0
  0
SPLINE
  5
1236
330
1B
100
AcDbEntity
  8
0
  6
Continuous
100
AcDbSpline
210
0.0
220
0.0
230
1.0
 70
     8
 71
     3
 72
    18
 73
    14
 74
    12
 42
0.0000000001
 43
0.0000000001
 44
0.0000000001
 40
0.0
 40
0.0
 40
0.0
 40
0.0
 40
0.0362998540446818
 40
0.072654625080709
 40
0.1457122979771803
 40
0.2188444050324155
 40
0.2917078508241375
 40
0.4383790379913187
 40
0.5867897785204165
 40
0.7350488995222995
 40
0.8825360657777124
 40
1.027722012902844
 40
1.172880954958253
 40
1.172880954958253
 40
1.172880954958253
 40
1.172880954958253
 10
118.5396055895
 20
122.4016557712
 30
0.0
 10
118.5402595069039
 20
122.3895675568756
 30
0.0
 10
118.5415683310044
 20
122.3653728403195
 30
0.0
 10
118.5390397089623
 20
122.3167592710224
 30
0.0
 10
118.5253883191035
 20
122.2569571777662
 30
0.0
 10
118.4956669944749
 20
122.1898121887731
 30
0.0
 10
118.4394972680008
 20
122.1092694650002
 30
0.0
 10
118.3381508723252
 20
122.0339315742487
 30
0.0
 10
118.1911198390212
 20
121.9960248095588
 30
0.0
 10
118.0409531792375
 20
122.0228041915547
 30
0.0
 10
117.914367219524
 20
122.103685496478
 30
0.0
 10
117.8281033738981
 20
122.2288821941412
 30
0.0
 10
117.8178204894946
 20
122.3263655559665
 30
0.0
 10
117.8126795255
 20
122.3751027034
 30
0.0
 11
118.5396055895
 21
122.4016557712
 31
0.0
 11
118.540925903
 21
122.3653799366
 31
0.0
 11
118.5389828923
 21
122.3290771256
 31
0.0
 11
118.5231705233
 21
122.2577511657
 31
0.0
 11
118.4935701728
 21
122.1908772221
 31
0.0
 11
118.4516430651
 21
122.1312852816
 31
0.0
 11
118.3345325227
 21
122.0429814991
 31
0.0
 11
118.1905906528
 21
122.0068361537
 31
0.0
 11
118.0444831464
 21
122.0320028685
 31
0.0
 11
117.9204002948
 21
122.1117268307
 31
0.0
 11
117.8398308123
 21
122.2325056274
 31
0.0
 11
117.8126795255
 21
122.3751027034
 31
0.0
  0
SPLINE
  5
1237
330
1B
100
AcDbEntity
  8
0
  6
Continuous
100
AcDbSpline
210
0.0
220
0.0
230
1.0
 70
     8
 71
     3
 72
     9
 73
     5
 74
     3
 42
0.0000000001
 43
0.0000000001
 44
0.0000000001
 40
0.0
 40
0.0
 40
0.0
 40
0.0
 40
1.908920622600863
 40
3.817841264775415
 40
3.817841264775415
 40
3.817841264775415
 40
3.817841264775415
 10
117.8126795255
 20
122.3751027034
 30
0.0
 10
117.7624553628326
 20
123.0214191734613
 30
0.0
 10
117.6620070369828
 20
124.3140521202111
 30
0.0
 10
116.9338325391054
 20
125.3867830755704
 30
0.0
 10
116.5697452883
 20
125.923148556
 30
0.0
 11
117.8126795255
 21
122.3751027034
 31
0.0
 11
117.5050754961
 21
124.2590766163
 31
0.0
 11
116.5697452883
 21
125.923148556
 31
0.0
  0
SPLINE
  5
1238
330
1B
100
AcDbEntity
  8
0
  6
Continuous
100
AcDbSpline
210
0.0
220
0.0
230
1.0
 70
     8
 71
     3
 72
    11
 73
     7
 74
     5
 42
0.0000000001
 43
0.0000000001
 44
0.0000000001
 40
0.0
 40
0.0
 40
0.0
 40
0.0
 40
0.0918321802841017
 40
0.1836629153054816
 40
0.2754935155129016
 40
0.3673255047106956
 40
0.3673255047106956
 40
0.3673255047106956
 40
0.3673255047106956
 10
116.5697452883
 20
125.923148556
 30
0.0
 10
116.5554554832685
 20
125.9519264441701
 30
0.0
 10
116.5268760980996
 20
126.0094817676015
 30
0.0
 10
116.5727792201217
 20
126.1024269125355
 30
0.0
 10
116.668623837257
 20
126.141920219144
 30
0.0
 10
116.7241078951487
 20
126.1095025022368
 30
0.0
 10
116.7518501339
 20
126.0932935212
 30
0.0
 11
116.5697452883
 21
125.923148556
 31
0.0
 11
116.5416714965
 21
126.0105843127
 31
0.0
 11
116.5811028027
 21
126.0935183587
 31
0.0
 11
116.666520265
 21
126.1272335818
 31
0.0
 11
116.7518501339
 21
126.0932935212
 31
0.0
  0
SPLINE
  5
1239
330
1B
100
AcDbEntity
  8
0
  6
Continuous
100
AcDbSpline
210
0.0
220
0.0
230
1.0
 70
    24
 71
     3
 72
     8
 73
     4
 74
     2
 42
0.0000000001
 43
0.0000000001
 44
0.0000000001
 40
0.0
 40
0.0
 40
0.0
 40
0.0
 40
0.6780489053098178
 40
0.6780489053098178
 40
0.6780489053098178
 40
0.6780489053098178
 10
115.8544191083
 20
126.2963181576
 30
0.0
 10
115.9771627997667
 20
126.1065357694
 30
0.0
 10
116.0999064912333
 20
125.9167533812
 30
0.0
 10
116.2226501827
 20
125.726970993
 30
0.0
 11
115.8544191083
 21
126.2963181576
 31
0.0
 11
116.2226501827
 21
125.726970993
 31
0.0
  0
SPLINE
  5
123A
330
1B
100
AcDbEntity
  8
0
  6
Continuous
100
AcDbSpline
210
0.0
220
0.0
230
1.0
 70
     8
 71
     3
 72
     9
 73
     5
 74
     3
 42
0.0000000001
 43
0.0000000001
 44
0.0000000001
 40
0.0
 40
0.0
 40
0.0
 40
0.0
 40
2.19741023455767
 40
3.664870757782333
 40
3.664870757782333
 40
3.664870757782333
 40
3.664870757782333
 10
116.2226501827
 20
125.726970993
 30
0.0
 10
116.5715327396948
 20
125.0786635624269
 30
0.0
 10
117.1534038263596
 20
123.9974075880099
 30
0.0
 10
117.4573190956945
 20
122.8102052650532
 30
0.0
 10
117.5790106067
 20
122.3348344656
 30
0.0
 11
116.2226501827
 21
125.726970993
 31
0.0
 11
117.1693713422
 21
123.7439604572
 31
0.0
 11
117.5790106067
 21
122.3348344656
 31
0.0
  0
SPLINE
  5
123B
330
1B
100
AcDbEntity
  8
0
  6
Continuous
100
AcDbSpline
210
0.0
220
0.0
230
1.0
 70
    24
 71
     3
 72
     8
 73
     4
 74
     2
 42
0.0000000001
 43
0.0000000001
 44
0.0000000001
 40
0.0
 40
0.0
 40
0.0
 40
0.0
 40
1.409622762736648
 40
1.409622762736648
 40
1.409622762736648
 40
1.409622762736648
 10
117.5790106067
 20
122.3348344656
 30
0.0
 10
117.6513891903
 20
121.8705682107
 30
0.0
 10
117.7237677739
 20
121.4063019558
 30
0.0
 10
117.7961463575
 20
120.9420357009
 30
0.0
 11
117.5790106067
 21
122.3348344656
 31
0.0
 11
117.7961463575
 21
120.9420357009
 31
0.0
  0
SPLINE
  5
123C
330
1B
100
AcDbEntity
  8
0
  6
Continuous
100
AcDbSpline
210
0.0
220
0.0
230
1.0
 70
     8
 71
     3
 72
    15
 73
    11
 74
     9
 42
0.0000000001
 43
0.0000000001
 44
0.0000000001
 40
0.0
 40
0.0
 40
0.0
 40
0.0
 40
0.3537047893901446
 40
0.7391105484610803
 40
1.147158097645274
 40
1.386767975373204
 40
1.62996435553674
 40
3.916620002999622
 40
6.110227706174893
 40
6.906352404375533
 40
6.906352404375533
 40
6.906352404375533
 40
6.906352404375533
 10
117.7961463575
 20
120.9420357009
 30
0.0
 10
117.7796472215879
 20
120.8181382792874
 30
0.0
 10
117.7451702064076
 20
120.5592390673235
 30
0.0
 10
117.3289968921881
 20
120.3832201381066
 30
0.0
 10
116.9697913983345
 20
120.5696951955007
 30
0.0
 10
116.8969665920855
 20
120.8704780095202
 30
0.0
 10
116.8753885157879
 20
121.7885739626973
 30
0.0
 10
116.8485698441728
 20
123.3822178847615
 30
0.0
 10
116.2502752560959
 20
125.0633087570821
 30
0.0
 10
115.798317646799
 20
125.950762500321
 30
0.0
 10
115.6779675395
 20
126.18707925
 30
0.0
 11
117.7961463575
 21
120.9420357009
 31
0.0
 11
117.6931369027
 21
120.6036629327
 31
0.0
 11
117.340033544
 21
120.4492102953
 31
0.0
 11
116.9795988186
 21
120.6404944063
 31
0.0
 11
116.906054227
 21
120.8685384515
 31
0.0
 11
116.8913594061
 21
121.1112904681
 31
0.0
 11
116.7223324073
 21
123.3916904163
 31
0.0
 11
116.0310088274
 21
125.4735132866
 31
0.0
 11
115.6779675395
 21
126.18707925
 31
0.0
  0
SPLINE
  5
123D
330
1B
100
AcDbEntity
  8
0
  6
Continuous
100
AcDbSpline
210
0.0
220
0.0
230
1.0
 70
     8
 71
     3
 72
    11
 73
     7
 74
     5
 42
0.0000000001
 43
0.0000000001
 44
0.0000000001
 40
0.0
 40
0.0
 40
0.0
 40
0.0
 40
0.0771273070275081
 40
0.1542532319290434
 40
0.2313790899039157
 40
0.3085065588585836
 40
0.3085065588585836
 40
0.3085065588585836
 40
0.3085065588585836
 10
115.6779675395
 20
126.18707925
 30
0.0
 10
115.6705995763159
 20
126.2130644529972
 30
0.0
 10
115.6558637819819
 20
126.2650343933352
 30
0.0
 10
115.7087912458232
 20
126.3344218739087
 30
0.0
 10
115.7945000849628
 20
126.3508668629526
 30
0.0
 10
115.8344459614597
 20
126.314501185982
 30
0.0
 10
115.8544191083
 20
126.2963181576
 30
0.0
 11
115.6779675395
 21
126.18707925
 31
0.0
 11
115.6683690955
 21
126.2636069663
 31
0.0
 11
115.714254785
 21
126.3255981898
 31
0.0
 11
115.790201195
 21
126.3390347361
 31
0.0
 11
115.8544191083
 21
126.2963181576
 31
0.0
  0
SPLINE
  5
123E
330
1B
100
AcDbEntity
  8
0
  6
Continuous
100
AcDbSpline
210
0.0
220
0.0
230
1.0
 70
     8
 71
     3
 72
    18
 73
    14
 74
    12
 42
0.0000000001
 43
0.0000000001
 44
0.0000000001
 40
0.0
 40
0.0
 40
0.0
 40
0.0
 40
0.116010332870265
 40
0.2320196334168107
 40
0.2885385060235262
 40
0.3448247847179047
 40
0.4017711908366462
 40
0.4591184640248057
 40
0.5724570954920744
 40
0.6854697816896366
 40
0.8002768094515383
 40
0.9146322780309482
 40
0.9530208123922922
 40
0.9530208123922922
 40
0.9530208123922922
 40
0.9530208123922922
 10
115.6157414951
 20
127.1842959444
 30
0.0
 10
115.6308297181286
 20
127.1485308476464
 30
0.0
 10
115.6610060299226
 20
127.0770009723967
 30
0.0
 10
115.6688552002625
 20
126.9788138362215
 30
0.0
 10
115.6540514981887
 20
126.9034736764155
 30
0.0
 10
115.6297902338119
 20
126.8517346799699
 30
0.0
 10
115.5950000134429
 20
126.8062964534091
 30
0.0
 10
115.5385522208095
 20
126.7551546344334
 30
0.0
 10
115.4533077277479
 20
126.7097868264819
 30
0.0
 10
115.3385416017741
 20
126.6935962155947
 30
0.0
 10
115.2248766869592
 20
126.7130730400788
 30
0.0
 10
115.1416980731007
 20
126.7476584901349
 30
0.0
 10
115.0986581544164
 20
126.7748874558421
 30
0.0
 10
115.0878411052
 20
126.781730802
 30
0.0
 11
115.6157414951
 21
127.1842959444
 31
0.0
 11
115.6550399522
 21
127.0751445422
 31
0.0
 11
115.6633047713
 21
126.9594300203
 31
0.0
 11
115.6518213037
 21
126.9040900444
 31
0.0
 11
115.6281770075
 21
126.8530107685
 31
0.0
 11
115.5938326244
 21
126.8075865842
 31
0.0
 11
115.5514253391
 21
126.7689817672
 31
0.0
 11
115.4511709679
 21
126.7161167841
 31
0.0
 11
115.3393816842
 21
126.6995329579
 31
0.0
 11
115.225951481
 21
126.7172598478
 31
0.0
 11
115.1205731135
 21
126.761673504
 31
0.0
 11
115.0878411052
 21
126.781730802
 31
0.0
  0
SPLINE
  5
123F
330
1B
100
AcDbEntity
  8
0
  6
Continuous
100
AcDbSpline
210
0.0
220
0.0
230
1.0
 70
     8
 71
     3
 72
     9
 73
     5
 74
     3
 42
0.0000000001
 43
0.0000000001
 44
0.0000000001
 40
0.0
 40
0.0
 40
0.0
 40
0.0
 40
0.120135293264488
 40
0.5953811376931438
 40
0.5953811376931438
 40
0.5953811376931438
 40
0.5953811376931438
 10
115.0878411052
 20
126.781730802
 30
0.0
 10
115.0547702359726
 20
126.8045128604255
 30
0.0
 10
114.8908735890331
 20
126.9174189640005
 30
0.0
 10
114.7722882264074
 20
127.080044521568
 30
0.0
 10
114.6776308763
 20
127.2098556888
 30
0.0
 11
115.0878411052
 21
126.781730802
 31
0.0
 11
114.9904733322
 21
126.8521012892
 31
0.0
 11
114.6776308763
 21
127.2098556888
 31
0.0
  0
SPLINE
  5
1240
330
1B
100
AcDbEntity
  8
0
  6
Continuous
100
AcDbSpline
210
0.0
220
0.0
230
1.0
 70
     8
 71
     3
 72
    14
 73
    10
 74
     8
 42
0.0000000001
 43
0.0000000001
 44
0.0000000001
 40
0.0
 40
0.0
 40
0.0
 40
0.0
 40
0.3862295942328329
 40
0.5802893907200732
 40
0.77672489602781
 40
0.9700017247833341
 40
1.165554250135503
 40
1.369410179447545
 40
1.57002342288849
 40
1.57002342288849
 40
1.57002342288849
 40
1.57002342288849
 10
114.6776308763
 20
127.2098556888
 30
0.0
 10
114.5808751317786
 20
127.2977397236576
 30
0.0
 10
114.4355047798547
 20
127.4297808044112
 30
0.0
 10
114.1856679322986
 20
127.5118137281556
 30
0.0
 10
113.9898243256414
 20
127.5270990402333
 30
0.0
 10
113.795033228591
 20
127.4754904021445
 30
0.0
 10
113.6445451683278
 20
127.3394860209095
 30
0.0
 10
113.5395453905873
 20
127.1658846634032
 30
0.0
 10
113.506579978825
 20
127.0345203393543
 30
0.0
 10
113.4902294171
 20
126.9693647604
 30
0.0
 11
114.6776308763
 21
127.2098556888
 31
0.0
 11
114.3690757146
 21
127.4421636991
 31
0.0
 11
114.1850987817
 21
127.5039026072
 31
0.0
 11
113.9890274364
 21
127.5158581623
 31
0.0
 11
113.8033723847
 21
127.4621167973
 31
0.0
 11
113.654209136
 21
127.3356608152
 31
0.0
 11
113.5485836259
 21
127.1613034479
 31
0.0
 11
113.4902294171
 21
126.9693647604
 31
0.0
  0
SPLINE
  5
1241
330
1B
100
AcDbEntity
  8
0
  6
Continuous
100
AcDbSpline
210
0.0
220
0.0
230
1.0
 70
     8
 71
     3
 72
     9
 73
     5
 74
     3
 42
0.0000000001
 43
0.0000000001
 44
0.0000000001
 40
0.0
 40
0.0
 40
0.0
 40
0.0
 40
0.3155672459102547
 40
0.6324434175870354
 40
0.6324434175870354
 40
0.6324434175870354
 40
0.6324434175870354
 10
113.4902294171
 20
126.9693647604
 30
0.0
 10
113.4797879645979
 20
126.8641223607045
 30
0.0
 10
113.4588617500093
 20
126.6532010315708
 30
0.0
 10
113.4969293165058
 20
126.4446848958154
 30
0.0
 10
113.5160024927
 20
126.340211052
 30
0.0
 11
113.4902294171
 21
126.9693647604
 31
0.0
 11
113.4735925203
 21
126.6542363733
 31
0.0
 11
113.5160024927
 21
126.340211052
 31
0.0
  0
SPLINE
  5
1242
330
1B
100
AcDbEntity
  8
0
  6
Continuous
100
AcDbSpline
210
0.0
220
0.0
230
1.0
 70
    24
 71
     3
 72
     8
 73
     4
 74
     2
 42
0.0000000001
 43
0.0000000001
 44
0.0000000001
 40
0.0
 40
0.0
 40
0.0
 40
0.0
 40
0.9464170984310096
 40
0.9464170984310096
 40
0.9464170984310096
 40
0.9464170984310096
 10
113.5160024927
 20
126.340211052
 30
0.0
 10
113.5613753723
 20
126.0280186184
 30
0.0
 10
113.6067482519
 20
125.7158261848
 30
0.0
 10
113.6521211315
 20
125.4036337512
 30
0.0
 11
113.5160024927
 21
126.340211052
 31
0.0
 11
113.6521211315
 21
125.4036337512
 31
0.0
  0
SPLINE
  5
1243
330
1B
100
AcDbEntity
  8
0
  6
Continuous
100
AcDbSpline
210
0.0
220
0.0
230
1.0
 70
     8
 71
     3
 72
     9
 73
     5
 74
     3
 42
0.0000000001
 43
0.0000000001
 44
0.0000000001
 40
0.0
 40
0.0
 40
0.0
 40
0.0
 40
0.314153045549117
 40
0.6283157761107974
 40
0.6283157761107974
 40
0.6283157761107974
 40
0.6283157761107974
 10
113.6521211315
 20
125.4036337512
 30
0.0
 10
113.6773837997097
 20
125.3019047679779
 30
0.0
 10
113.7279099149511
 20
125.0984436653345
 30
0.0
 10
113.7541476013057
 20
124.8904511280607
 30
0.0
 10
113.7672666467
 20
124.7864532564
 30
0.0
 11
113.6521211315
 21
125.4036337512
 31
0.0
 11
113.7218372161
 21
125.0973139778
 31
0.0
 11
113.7672666467
 21
124.7864532564
 31
0.0
  0
SPLINE
  5
1244
330
1B
100
AcDbEntity
  8
0
  6
Continuous
100
AcDbSpline
210
0.0
220
0.0
230
1.0
 70
     8
 71
     3
 72
    12
 73
     8
 74
     6
 42
0.0000000001
 43
0.0000000001
 44
0.0000000001
 40
0.0
 40
0.0
 40
0.0
 40
0.0
 40
0.1573066261403472
 40
0.3145696509329374
 40
0.4746614820089333
 40
0.6346066176030514
 40
0.6390980520725855
 40
0.6390980520725855
 40
0.6390980520725855
 40
0.6390980520725855
 10
113.7672666467
 20
124.7864532564
 30
0.0
 10
113.7602600221803
 20
124.7339357769435
 30
0.0
 10
113.7462487151969
 20
124.6289153745241
 30
0.0
 10
113.661097191855
 20
124.4913142711804
 30
0.0
 10
113.5535470777463
 20
124.3740684411195
 30
0.0
 10
113.4709510195241
 20
124.3038008625308
 30
0.0
 10
113.4284698110439
 20
124.2691656280425
 30
0.0
 10
113.4273094757
 20
124.2682195983
 30
0.0
 11
113.7672666467
 21
124.7864532564
 31
0.0
 11
113.735638666
 21
124.6323589818
 31
0.0
 11
113.6580248418
 21
124.4955826927
 31
0.0
 11
113.5511771477
 21
124.3763645538
 31
0.0
 11
113.4307900115
 21
124.2710584104
 31
0.0
 11
113.4273094757
 21
124.2682195983
 31
0.0
  0
SPLINE
  5
1245
330
1B
100
AcDbEntity
  8
0
  6
Continuous
100
AcDbSpline
210
0.0
220
0.0
230
1.0
 70
     8
 71
     3
 72
    14
 73
    10
 74
     8
 42
0.0000000001
 43
0.0000000001
 44
0.0000000001
 40
0.0
 40
0.0
 40
0.0
 40
0.0
 40
0.3895063237027029
 40
0.5864815202024059
 40
0.7835446173467773
 40
0.980990591397629
 40
1.179178487000393
 40
1.376576808792036
 40
1.572701649824664
 40
1.572701649824664
 40
1.572701649824664
 40
1.572701649824664
 10
113.4273094757
 20
124.2682195983
 30
0.0
 10
113.3262729792805
 20
124.1865840700307
 30
0.0
 10
113.1741418471009
 20
124.063665067672
 30
0.0
 10
112.9589429199617
 20
123.9153638146496
 30
0.0
 10
112.7897108927937
 20
123.8138837079456
 30
0.0
 10
112.6120975074703
 20
123.7266947351528
 30
0.0
 10
112.4286835603777
 20
123.6532094792141
 30
0.0
 10
112.2455823882536
 20
123.5785026585184
 30
0.0
 10
112.1338581932193
 20
123.5093193954938
 30
0.0
 10
112.0781768711
 20
123.474839706
 30
0.0
 11
113.4273094757
 21
124.2682195983
 31
0.0
 11
113.1202545788
 21
124.0285688806
 31
0.0
 11
112.9578380342
 21
123.9171234048
 31
0.0
 11
112.7884860772
 21
123.8163574437
 31
0.0
 11
112.6113727131
 21
123.7290890707
 31
0.0
 11
112.4284232795
 21
123.6528791848
 31
0.0
 11
112.2477168566
 21
123.5734355811
 31
0.0
 11
112.0781768711
 21
123.474839706
 31
0.0
  0
SPLINE
  5
1246
330
1B
100
AcDbEntity
  8
0
  6
Continuous
100
AcDbSpline
210
0.0
220
0.0
230
1.0
 70
     8
 71
     3
 72
     9
 73
     5
 74
     3
 42
0.0000000001
 43
0.0000000001
 44
0.0000000001
 40
0.0
 40
0.0
 40
0.0
 40
0.0
 40
0.3043556224622889
 40
0.6090719479544748
 40
0.6090719479544748
 40
0.6090719479544748
 40
0.6090719479544748
 10
112.0781768711
 20
123.474839706
 30
0.0
 10
111.9996403060328
 20
123.4065616724291
 30
0.0
 10
111.8424740993298
 20
123.2699246864811
 30
0.0
 10
111.7913636748048
 20
123.068029495778
 30
0.0
 10
111.7657933283
 20
122.9670221175
 30
0.0
 11
112.0781768711
 21
123.474839706
 31
0.0
 11
111.8690497267
 21
123.2537103719
 31
0.0
 11
111.7657933283
 21
122.9670221175
 31
0.0
  0
SPLINE
  5
1247
330
1B
100
AcDbEntity
  8
0
  6
Continuous
100
AcDbSpline
210
0.0
220
0.0
230
1.0
 70
     8
 71
     3
 72
    22
 73
    18
 74
    16
 42
0.0000000001
 43
0.0000000001
 44
0.0000000001
 40
0.0
 40
0.0
 40
0.0
 40
0.0
 40
0.195814354636828
 40
0.2945084043070687
 40
0.392504176379256
 40
0.4911159479676837
 40
0.5915152394396305
 40
0.6403604752171316
 40
0.6879875253522434
 40
0.7848760538353915
 40
0.887987103934028
 40
0.9926889159330372
 40
1.093484303593931
 40
1.191235680728583
 40
1.288117015831142
 40
1.38620962460286
 40
1.583389588970836
 40
1.583389588970836
 40
1.583389588970836
 40
1.583389588970836
 10
111.7657933283
 20
122.9670221175
 30
0.0
 10
111.758801425855
 20
122.9004624214749
 30
0.0
 10
111.7482854755
 20
122.8003554098931
 30
0.0
 10
111.8028242115188
 20
122.6786136298999
 30
0.0
 10
111.8549854214125
 20
122.5954659379426
 30
0.0
 10
111.9095696848564
 20
122.5127805422807
 30
0.0
 10
111.9440209231205
 20
122.4367893130165
 30
0.0
 10
111.9572150116475
 20
122.3721085309442
 30
0.0
 10
111.9557689860971
 20
122.3070786014826
 30
0.0
 10
111.9264491619327
 20
122.2278197545223
 30
0.0
 10
111.8672894189396
 20
122.1446741771763
 30
0.0
 10
111.7961352364073
 20
122.0700841294884
 30
0.0
 10
111.7194355426395
 20
122.0039431072966
 30
0.0
 10
111.6370819661556
 20
121.949434199852
 30
0.0
 10
111.5485909604898
 20
121.9073146795465
 30
0.0
 10
111.4231275626296
 20
121.8700153854317
 30
0.0
 10
111.3306283279974
 20
121.836375809136
 30
0.0
 10
111.2688582977
 20
121.8139116487
 30
0.0
 11
111.7657933283
 21
122.9670221175
 31
0.0
 11
111.7675570008
 21
122.7712157056
 31
0.0
 11
111.8047875497
 21
122.6798132895
 31
0.0
 11
111.8552255618
 21
122.5957943733
 31
0.0
 11
111.907052874
 21
122.5119003258
 31
0.0
 11
111.9463253541
 21
122.4195007044
 31
0.0
 11
111.9554542635
 21
122.3715161228
 31
0.0
 11
111.9543962888
 21
122.3239008249
 31
0.0
 11
111.9236303035
 21
122.2320267747
 31
0.0
 11
111.8657355957
 21
122.1467033227
 31
0.0
 11
111.7940416245
 21
122.0703983823
 31
0.0
 11
111.71734373
 21
122.0049985111
 31
0.0
 11
111.6356837392
 21
121.9512679087
 31
0.0
 11
111.5481082527
 21
121.9098369148
 31
0.0
 11
111.4550462376
 21
121.8788268964
 31
0.0
 11
111.2688582977
 21
121.8139116487
 31
0.0
  0
SPLINE
  5
1248
330
1B
100
AcDbEntity
  8
0
  6
Continuous
100
AcDbSpline
210
0.0
220
0.0
230
1.0
 70
     8
 71
     3
 72
     9
 73
     5
 74
     3
 42
0.0000000001
 43
0.0000000001
 44
0.0000000001
 40
0.0
 40
0.0
 40
0.0
 40
0.0
 40
0.3002216530419456
 40
0.6003174603913567
 40
0.6003174603913567
 40
0.6003174603913567
 40
0.6003174603913567
 10
111.2688582977
 20
121.8139116487
 30
0.0
 10
111.1908436852037
 20
121.7495001004097
 30
0.0
 10
111.0348471620594
 20
121.6207040036001
 30
0.0
 10
110.9406478388253
 20
121.4416805577914
 30
0.0
 10
110.8935580508
 20
121.3521875994
 30
0.0
 11
111.2688582977
 21
121.8139116487
 31
0.0
 11
111.0502702382
 21
121.6081149014
 31
0.0
 11
110.8935580508
 21
121.3521875994
 31
0.0
  0
SPLINE
  5
1249
330
1B
100
AcDbEntity
  8
0
  6
Continuous
100
AcDbSpline
210
0.0
220
0.0
230
1.0
 70
     8
 71
     3
 72
    21
 73
    17
 74
    15
 42
0.0000000001
 43
0.0000000001
 44
0.0000000001
 40
0.0
 40
0.0
 40
0.0
 40
0.0
 40
0.0970900925195418
 40
0.1949547702519704
 40
0.2873509333365438
 40
0.37943595796087
 40
0.4738284837790729
 40
0.5667810948856177
 40
0.6602769297177349
 40
0.7539622031576172
 40
0.8469950871260344
 40
0.9400430739271753
 40
1.126315543017349
 40
1.219370607004123
 40
1.312525232272713
 40
1.49895883531988
 40
1.49895883531988
 40
1.49895883531988
 40
1.49895883531988
 10
110.8935580508
 20
121.3521875994
 30
0.0
 10
110.8775089675071
 20
121.324029810849
 30
0.0
 10
110.8452827612597
 20
121.267489590778
 30
0.0
 10
110.8126924442255
 20
121.1768936297297
 30
0.0
 10
110.8055970124737
 20
121.0802123193053
 30
0.0
 10
110.846397570158
 20
120.9928543558898
 30
0.0
 10
110.9144632332269
 20
120.9270550652926
 30
0.0
 10
111.0005986807177
 20
120.8859849453387
 30
0.0
 10
111.0946476745056
 20
120.8753165425061
 30
0.0
 10
111.1879297625632
 20
120.8849784527766
 30
0.0
 10
111.2788948750924
 20
120.9056485460186
 30
0.0
 10
111.4010816793588
 20
120.9279375582537
 30
0.0
 10
111.5248774559954
 20
120.9384834798584
 30
0.0
 10
111.6480816815753
 20
120.9541115997265
 30
0.0
 10
111.770098897106
 20
120.9780175642272
 30
0.0
 10
111.8596426691823
 20
121.0040560537221
 30
0.0
 10
111.9193517927
 20
121.0214189071
 30
0.0
 11
110.8935580508
 21
121.3521875994
 31
0.0
 11
110.8479195294
 21
121.2664927254
 31
0.0
 11
110.8165164401
 21
121.1738032377
 31
0.0
 11
110.8135225221
 21
121.0814555934
 31
0.0
 11
110.8504836818
 21
120.9971138811
 31
0.0
 11
110.9178158092
 21
120.9309600184
 31
0.0
 11
111.0017770466
 21
120.8910764563
 31
0.0
 11
111.0944517701
 21
120.8787125267
 31
0.0
 11
111.1877826917
 21
120.8868531368
 31
0.0
 11
111.2790295257
 21
120.9049951539
 31
0.0
 11
111.3706236263
 21
120.9213795545
 31
0.0
 11
111.555658369
 21
120.9428172954
 31
0.0
 11
111.6478939705
 21
120.9551395821
 31
0.0
 11
111.739333462
 21
120.9729329405
 31
0.0
 11
111.9193517927
 21
121.0214189071
 31
0.0
  0
SPLINE
  5
124A
330
1B
100
AcDbEntity
  8
0
  6
Continuous
100
AcDbSpline
210
0.0
220
0.0
230
1.0
 70
    24
 71
     3
 72
     8
 73
     4
 74
     2
 42
0.0000000001
 43
0.0000000001
 44
0.0000000001
 40
0.0
 40
0.0
 40
0.0
 40
0.0
 40
0.3153855952953409
 40
0.3153855952953409
 40
0.3153855952953409
 40
0.3153855952953409
 10
111.9193517927
 20
121.0214189071
 30
0.0
 10
112.0224440951
 20
121.0420098123
 30
0.0
 10
112.1255363975
 20
121.0626007175
 30
0.0
 10
112.2286286999
 20
121.0831916227
 30
0.0
 11
111.9193517927
 21
121.0214189071
 31
0.0
 11
112.2286286999
 21
121.0831916227
 31
0.0
  0
SPLINE
  5
124B
330
1B
100
AcDbEntity
  8
0
  6
Continuous
100
AcDbSpline
210
0.0
220
0.0
230
1.0
 70
     8
 71
     3
 72
    14
 73
    10
 74
     8
 42
0.0000000001
 43
0.0000000001
 44
0.0000000001
 40
0.0
 40
0.0
 40
0.0
 40
0.0
 40
0.3493900853072958
 40
0.5242303285088695
 40
0.6984732355294595
 40
0.8728778702250537
 40
1.049954838746839
 40
1.226832008648148
 40
1.400672064155536
 40
1.400672064155536
 40
1.400672064155536
 40
1.400672064155536
 10
112.2286286999
 20
121.0831916227
 30
0.0
 10
112.34354506513
 20
121.1028913251704
 30
0.0
 10
112.5159673702523
 20
121.1324490657357
 30
0.0
 10
112.7485298725346
 20
121.1466205776941
 30
0.0
 10
112.9226784158647
 20
121.1566673038205
 30
0.0
 10
113.0977247866073
 20
121.1669370766769
 30
0.0
 10
113.2733964537726
 20
121.1732669419466
 30
0.0
 10
113.4508417620833
 20
121.1690946460822
 30
0.0
 10
113.5627557267786
 20
121.1333198144373
 30
0.0
 10
113.6182281371
 20
121.1155872987
 30
0.0
 11
112.2286286999
 21
121.0831916227
 31
0.0
 11
112.5743215236
 21
121.1338858369
 31
0.0
 11
112.748703486
 21
121.146536601
 31
0.0
 11
112.9226500789
 21
121.156694035
 31
0.0
 11
113.0967937563
 21
121.1662311323
 31
0.0
 11
113.2737920908
 21
121.1715077188
 31
0.0
 11
113.450337322
 21
121.1606765336
 31
0.0
 11
113.6182281371
 21
121.1155872987
 31
0.0
  0
SPLINE
  5
124C
330
1B
100
AcDbEntity
  8
0
  6
Continuous
100
AcDbSpline
210
0.0
220
0.0
230
1.0
 70
     8
 71
     3
 72
    14
 73
    10
 74
     8
 42
0.0000000001
 43
0.0000000001
 44
0.0000000001
 40
0.0
 40
0.0
 40
0.0
 40
0.0
 40
0.3140128726294827
 40
0.628070609932557
 40
0.9421425886076553
 40
1.256183275210725
 40
1.569391559095608
 40
1.885040684041605
 40
2.513159521333917
 40
2.513159521333917
 40
2.513159521333917
 40
2.513159521333917
 10
113.6182281371
 20
121.1155872987
 30
0.0
 10
113.7089738807752
 20
121.0601011381619
 30
0.0
 10
113.8904783334482
 20
120.9491208894855
 30
0.0
 10
114.0457556586775
 20
120.6632890773279
 30
0.0
 10
114.1247633478099
 20
120.3590788540401
 30
0.0
 10
114.1448556976071
 20
120.0429125362529
 30
0.0
 10
114.0926227602008
 20
119.7313911784661
 30
0.0
 10
113.98403424325
 20
119.326760469125
 30
0.0
 10
113.9287196681799
 20
119.0168031575587
 30
0.0
 10
113.8919054003
 20
118.8105130164
 30
0.0
 11
113.6182281371
 21
121.1155872987
 31
0.0
 11
113.8709705872
 21
120.92923994
 31
0.0
 11
114.0330411918
 21
120.6602317961
 31
0.0
 11
114.1149488071
 21
120.357028316
 31
0.0
 11
114.1328075745
 21
120.043495834
 31
0.0
 11
114.0879232558
 21
119.7335203075
 31
0.0
 11
114.0139606696
 21
119.4266589285
 31
0.0
 11
113.8919054003
 21
118.8105130164
 31
0.0
  0
SPLINE
  5
124D
330
1B
100
AcDbEntity
  8
0
  6
Continuous
100
AcDbSpline
210
0.0
220
0.0
230
1.0
 70
     8
 71
     3
 72
    21
 73
    17
 74
    15
 42
0.0000000001
 43
0.0000000001
 44
0.0000000001
 40
0.0
 40
0.0
 40
0.0
 40
0.0
 40
0.2350061423024552
 40
0.3531973277205533
 40
0.4719920464436558
 40
0.5897841096362599
 40
0.7071819034416097
 40
0.8256864835041399
 40
0.9443640326524748
 40
1.06211159493624
 40
1.179878746246809
 40
1.297960543208042
 40
1.415973344637931
 40
1.533606984839726
 40
1.65108102462841
 40
1.886478540176144
 40
1.886478540176144
 40
1.886478540176144
 40
1.886478540176144
 10
113.4909627431
 20
116.9618115036
 30
0.0
 10
113.4742911129816
 20
116.8851894173392
 30
0.0
 10
113.4492348521159
 20
116.7700319331707
 30
0.0
 10
113.4333762164878
 20
116.6132731726382
 30
0.0
 10
113.4328760795649
 20
116.4947819973771
 30
0.0
 10
113.4495799942345
 20
116.3772845454725
 30
0.0
 10
113.4907866166283
 20
116.2658451684621
 30
0.0
 10
113.5528813895741
 20
116.1645947097858
 30
0.0
 10
113.6294052719472
 20
116.0738861493065
 30
0.0
 10
113.7165102700914
 20
115.9938176083672
 30
0.0
 10
113.8105960422457
 20
115.9226394302149
 30
0.0
 10
113.9086944312668
 20
115.857081042356
 30
0.0
 10
114.0096084413725
 20
115.7959628546563
 30
0.0
 10
114.114514208313
 20
115.7423523725902
 30
0.0
 10
114.2605139606843
 20
115.6839309820739
 30
0.0
 10
114.3759240598863
 20
115.6596893799082
 30
0.0
 10
114.4529131235
 20
115.64351802
 30
0.0
 11
113.4909627431
 21
116.9618115036
 31
0.0
 11
113.4467868359
 21
116.7309947448
 31
0.0
 11
113.4352939169
 21
116.6133636727
 31
0.0
 11
113.4357734908
 21
116.494569922
 31
0.0
 11
113.4536878327
 21
116.3781480748
 31
0.0
 11
113.4940823775
 21
116.2679186652
 31
0.0
 11
113.555247933
 21
116.1664193533
 31
0.0
 11
113.6314121764
 21
116.0754063394
 31
0.0
 11
113.7176920461
 21
115.9952797364
 31
0.0
 11
113.8111674121
 21
115.9236455415
 31
0.0
 11
113.9091898315
 21
115.857805462
 31
0.0
 11
114.0104137258
 21
115.7971363222
 31
0.0
 11
114.1153398355
 21
115.7439556414
 31
0.0
 11
114.2245770864
 21
115.7007425295
 31
0.0
 11
114.4529131235
 21
115.64351802
 31
0.0
  0
SPLINE
  5
124E
330
1B
100
AcDbEntity
  8
0
  6
Continuous
100
AcDbSpline
210
0.0
220
0.0
230
1.0
 70
     8
 71
     3
 72
    10
 73
     6
 74
     4
 42
0.0000000001
 43
0.0000000001
 44
0.0000000001
 40
0.0
 40
0.0
 40
0.0
 40
0.0
 40
0.0791238451091464
 40
0.1586617342039214
 40
0.2831977724058937
 40
0.2831977724058937
 40
0.2831977724058937
 40
0.2831977724058937
 10
114.4529131235
 20
115.64351802
 30
0.0
 10
114.4787934491392
 20
115.6383673612627
 30
0.0
 10
114.5306895285325
 20
115.6280390911131
 30
0.0
 10
114.6204044517439
 20
115.5971565926846
 30
0.0
 10
114.6793318127633
 20
115.5628173553852
 30
0.0
 10
114.7152922129
 20
115.5418618486
 30
0.0
 11
114.4529131235
 21
115.64351802
 31
0.0
 11
114.5301479197
 21
115.6263317138
 31
0.0
 11
114.6052802163
 21
115.6002278097
 31
0.0
 11
114.7152922129
 21
115.5418618486
 31
0.0
  0
SPLINE
  5
124F
330
1B
100
AcDbEntity
  8
0
  6
Continuous
100
AcDbSpline
210
0.0
220
0.0
230
1.0
 70
     8
 71
     3
 72
    14
 73
    10
 74
     8
 42
0.0000000001
 43
0.0000000001
 44
0.0000000001
 40
0.0
 40
0.0
 40
0.0
 40
0.0
 40
0.0344662149412328
 40
0.0990461043550832
 40
0.1648617866101264
 40
0.2000806627528356
 40
0.2363164467253907
 40
0.2702937225750596
 40
0.3019857925611424
 40
0.3019857925611424
 40
0.3019857925611424
 40
0.3019857925611424
 10
114.7152922129
 20
115.5418618486
 30
0.0
 10
114.7247736635463
 20
115.5353747297574
 30
0.0
 10
114.7520206575012
 20
115.5167325942358
 30
0.0
 10
114.7953614808669
 20
115.4827531040921
 30
0.0
 10
114.8344365785235
 20
115.4436012268276
 30
0.0
 10
114.8636966821045
 20
115.4082608846163
 30
0.0
 10
114.883676781746
 20
115.3796467570336
 30
0.0
 10
114.8991234447503
 20
115.3478959779313
 30
0.0
 10
114.8961547383727
 20
115.3257538006741
 30
0.0
 10
114.8947220387
 20
115.3150679712
 30
0.0
 11
114.7152922129
 21
115.5418618486
 31
0.0
 11
114.7435902167
 21
115.5221859
 31
0.0
 11
114.7941745792
 21
115.4820388654
 31
0.0
 11
114.8406787908
 21
115.4354656721
 31
0.0
 11
114.8630693905
 21
115.4082805607
 31
0.0
 11
114.8833955012
 21
115.3782825397
 31
0.0
 11
114.8960103758
 21
115.3467338438
 31
0.0
 11
114.8947220387
 21
115.3150679712
 31
0.0
  0
SPLINE
  5
1250
330
1B
100
AcDbEntity
  8
0
  6
Continuous
100
AcDbSpline
210
0.0
220
0.0
230
1.0
 70
     8
 71
     3
 72
    14
 73
    10
 74
     8
 42
0.0000000001
 43
0.0000000001
 44
0.0000000001
 40
0.0
 40
0.0
 40
0.0
 40
0.0
 40
0.0354141842759227
 40
0.0760078874915392
 40
0.1205630844737338
 40
0.1624239872698908
 40
0.2379679783871871
 40
0.3117628534566386
 40
0.3246603622812948
 40
0.3246603622812948
 40
0.3246603622812948
 40
0.3246603622812948
 10
114.8947220387
 20
115.3150679712
 30
0.0
 10
114.8890108915208
 20
115.3042391457874
 30
0.0
 10
114.8767533105227
 20
115.2809977197753
 30
0.0
 10
114.8356599822979
 20
115.268439366558
 30
0.0
 10
114.7945563636216
 20
115.2617519868731
 30
0.0
 10
114.7404479534267
 20
115.2576100004965
 30
0.0
 10
114.6766623198702
 20
115.2595120369997
 30
0.0
 10
114.6229921454042
 20
115.2665219513539
 30
0.0
 10
114.5943294387882
 20
115.2701875624731
 30
0.0
 10
114.5900651944
 20
115.2707329074
 30
0.0
 11
114.8947220387
 21
115.3150679712
 31
0.0
 11
114.8746254823
 21
115.2859081895
 31
0.0
 11
114.8373434785
 21
115.2698488952
 31
0.0
 11
114.7934441489
 21
115.2622321742
 31
0.0
 11
114.7517080903
 21
115.2590016022
 31
0.0
 11
114.6761855193
 21
115.2608004528
 31
0.0
 11
114.6028582907
 21
115.2690950976
 31
0.0
 11
114.5900651944
 21
115.2707329074
 31
0.0
  0
SPLINE
  5
1251
330
1B
100
AcDbEntity
  8
0
  6
Continuous
100
AcDbSpline
210
0.0
220
0.0
230
1.0
 70
     8
 71
     3
 72
     9
 73
     5
 74
     3
 42
0.0000000001
 43
0.0000000001
 44
0.0000000001
 40
0.0
 40
0.0
 40
0.0
 40
0.0
 40
0.1448079732145965
 40
0.3025465456527281
 40
0.3025465456527281
 40
0.3025465456527281
 40
0.3025465456527281
 10
114.5900651944
 20
115.2707329074
 30
0.0
 10
114.5422947902221
 20
115.2777321397531
 30
0.0
 10
114.4424883331078
 20
115.292355599523
 30
0.0
 10
114.3437175047058
 20
115.3128496028294
 30
0.0
 10
114.2922213971
 20
115.3235345532
 30
0.0
 11
114.5900651944
 21
115.2707329074
 31
0.0
 11
114.446991231
 21
115.29307547
 31
0.0
 11
114.2922213971
 21
115.3235345532
 31
0.0
  0
SPLINE
  5
1252
330
1B
100
AcDbEntity
  8
0
  6
Continuous
100
AcDbSpline
210
0.0
220
0.0
230
1.0
 70
     8
 71
     3
 72
     9
 73
     5
 74
     3
 42
0.0000000001
 43
0.0000000001
 44
0.0000000001
 40
0.0
 40
0.0
 40
0.0
 40
0.0
 40
0.3154642582795787
 40
0.6309250244120828
 40
0.6309250244120828
 40
0.6309250244120828
 40
0.6309250244120828
 10
114.2922213971
 20
115.3235345532
 30
0.0
 10
114.1892388808702
 20
115.3449577222185
 30
0.0
 10
113.9832749884134
 20
115.3878038231037
 30
0.0
 10
113.7749141308479
 20
115.4168325335255
 30
0.0
 10
113.6707342787
 20
115.4313468084
 30
0.0
 11
114.2922213971
 21
115.3235345532
 31
0.0
 11
113.9826746005
 21
115.3843496744
 31
0.0
 11
113.6707342787
 21
115.4313468084
 31
0.0
  0
SPLINE
  5
1253
330
1B
100
AcDbEntity
  8
0
  6
Continuous
100
AcDbSpline
210
0.0
220
0.0
230
1.0
 70
     8
 71
     3
 72
    10
 73
     6
 74
     4
 42
0.0000000001
 43
0.0000000001
 44
0.0000000001
 40
0.0
 40
0.0
 40
0.0
 40
0.0
 40
0.3140704821387755
 40
0.628156966201427
 40
0.6437725352926031
 40
0.6437725352926031
 40
0.6437725352926031
 40
0.6437725352926031
 10
113.6707342787
 20
115.4313468084
 30
0.0
 10
113.5655230521034
 20
115.4388221800581
 30
0.0
 10
113.3550952383872
 20
115.4537733042453
 30
0.0
 10
113.1459691363916
 20
115.3950441485426
 30
0.0
 10
113.0381267579354
 20
115.3739563101996
 30
0.0
 10
113.0330190551
 20
115.3729575339
 30
0.0
 11
113.6707342787
 21
115.4313468084
 31
0.0
 11
113.3566941044
 21
115.4357099124
 31
0.0
 11
113.0483405027
 21
115.3759740288
 31
0.0
 11
113.0330190551
 21
115.3729575339
 31
0.0
  0
SPLINE
  5
1254
330
1B
100
AcDbEntity
  8
0
  6
Continuous
100
AcDbSpline
210
0.0
220
0.0
230
1.0
 70
     8
 71
     3
 72
    23
 73
    19
 74
    17
 42
0.0000000001
 43
0.0000000001
 44
0.0000000001
 40
0.0
 40
0.0
 40
0.0
 40
0.0
 40
0.1068308745731847
 40
0.2283252073555409
 40
0.287311063281206
 40
0.3464157283031363
 40
0.4065159203007229
 40
0.4669557202646092
 40
0.5862279402643076
 40
0.7048598630809498
 40
0.9423728004073135
 40
1.060740363079587
 40
1.179548346026768
 40
1.298468477520755
 40
1.417349651929319
 40
1.535897906740291
 40
1.654518952546604
 40
1.89242560749737
 40
1.89242560749737
 40
1.89242560749737
 40
1.89242560749737
 10
113.0330190551
 20
115.3729575339
 30
0.0
 10
112.9978091763742
 20
115.3674890142798
 30
0.0
 10
112.922556559627
 20
115.3558013735936
 30
0.0
 10
112.825295640263
 20
115.3625379747349
 30
0.0
 10
112.7495117369852
 20
115.389610204797
 30
0.0
 10
112.6996833871748
 20
115.4230316222935
 30
0.0
 10
112.658208613358
 20
115.4667929831148
 30
0.0
 10
112.6149434875877
 20
115.5345005659447
 30
0.0
 10
112.5854112261268
 20
115.6317055267027
 30
0.0
 10
112.5878450387408
 20
115.7920316678733
 30
0.0
 10
112.6383095123009
 20
115.9434934914246
 30
0.0
 10
112.6634030963101
 20
116.0998584981421
 30
0.0
 10
112.6760959982935
 20
116.2178740275376
 30
0.0
 10
112.6921857697358
 20
116.33570253076
 30
0.0
 10
112.7148984430027
 20
116.4523195273128
 30
0.0
 10
112.7337355798594
 20
116.5695223431883
 30
0.0
 10
112.7423301718615
 20
116.7283880529171
 30
0.0
 10
112.7209064074923
 20
116.8458625544758
 30
0.0
 10
112.7066105867
 20
116.9242518792
 30
0.0
 11
113.0330190551
 21
115.3729575339
 31
0.0
 11
112.9269427488
 21
115.3602826373
 31
0.0
 11
112.8059514986
 21
115.371327558
 31
0.0
 11
112.7506299851
 21
115.3917936603
 31
0.0
 11
112.7013908192
 21
115.424487176
 31
0.0
 11
112.6597990346
 21
115.467871004
 31
0.0
 11
112.6272127066
 21
115.518773859
 31
0.0
 11
112.5915730684
 21
115.6325968736
 31
0.0
 11
112.5912367187
 21
115.7512283196
 31
0.0
 11
112.6425021673
 21
115.9831426339
 31
0.0
 11
112.6623626431
 21
116.0998321424
 31
0.0
 11
112.6766545363
 21
116.217777378
 31
0.0
 11
112.6932947537
 21
116.3355275408
 31
0.0
 11
112.7142749434
 21
116.452542776
 31
0.0
 11
112.7316687441
 21
116.5698080497
 31
0.0
 11
112.7370866348
 21
116.6883053027
 31
0.0
 11
112.7066105867
 21
116.9242518792
 31
0.0
  0
SPLINE
  5
1255
330
1B
100
AcDbEntity
  8
0
  6
Continuous
100
AcDbSpline
210
0.0
220
0.0
230
1.0
 70
     8
 71
     3
 72
    10
 73
     6
 74
     4
 42
0.0000000001
 43
0.0000000001
 44
0.0000000001
 40
0.0
 40
0.0
 40
0.0
 40
0.0
 40
1.128325017545744
 40
1.901572748940227
 40
2.245576544797534
 40
2.245576544797534
 40
2.245576544797534
 40
2.245576544797534
 10
112.7066105867
 20
116.9242518792
 30
0.0
 10
112.596362865425
 20
117.2868646191949
 30
0.0
 10
112.4105617361854
 20
117.8979779899618
 30
0.0
 10
112.5142329290836
 20
118.6728649840502
 30
0.0
 10
112.7038524871435
 20
118.9948401147123
 30
0.0
 10
112.7622366971
 20
119.0939768484
 30
0.0
 11
112.7066105867
 21
116.9242518792
 31
0.0
 11
112.4721935183
 21
118.0279574483
 31
0.0
 11
112.6001707077
 21
118.7905411441
 31
0.0
 11
112.7622366971
 21
119.0939768484
 31
0.0
  0
SPLINE
  5
1256
330
1B
100
AcDbEntity
  8
0
  6
Continuous
100
AcDbSpline
210
0.0
220
0.0
230
1.0
 70
     8
 71
     3
 72
    13
 73
     9
 74
     7
 42
0.0000000001
 43
0.0000000001
 44
0.0000000001
 40
0.0
 40
0.0
 40
0.0
 40
0.0
 40
0.0790724977291276
 40
0.15907919545597
 40
0.2016887449299896
 40
0.2459400324391595
 40
0.2877112857292545
 40
0.3265390751463601
 40
0.3265390751463601
 40
0.3265390751463601
 40
0.3265390751463601
 10
112.7622366971
 20
119.0939768484
 30
0.0
 10
112.7758851432997
 20
119.1165217285647
 30
0.0
 10
112.803343284917
 20
119.1618778448029
 30
0.0
 10
112.8327779189189
 20
119.2226383164838
 30
0.0
 10
112.8482646339091
 20
119.276347863636
 30
0.0
 10
112.8544945183444
 20
119.3185278367407
 30
0.0
 10
112.8530834886265
 20
119.361868028217
 30
0.0
 10
112.8369082763725
 20
119.3840305833027
 30
0.0
 10
112.8291160283
 20
119.3947071744
 30
0.0
 11
112.7622366971
 21
119.0939768484
 31
0.0
 11
112.802133959
 21
119.1622459365
 31
0.0
 11
112.8354619598
 21
119.2349804953
 31
0.0
 11
112.8471847021
 21
119.2759457369
 31
0.0
 11
112.853254884
 21
119.3197787078
 31
0.0
 11
112.8489503328
 21
119.3613275759
 31
0.0
 11
112.8291160283
 21
119.3947071744
 31
0.0
  0
SPLINE
  5
1257
330
1B
100
AcDbEntity
  8
0
  6
Continuous
100
AcDbSpline
210
0.0
220
0.0
230
1.0
 70
     8
 71
     3
 72
    28
 73
    24
 74
    22
 42
0.0000000001
 43
0.0000000001
 44
0.0000000001
 40
0.0
 40
0.0
 40
0.0
 40
0.0
 40
0.0972697246175838
 40
0.1947176108718626
 40
0.3890455923939576
 40
0.5835513681474783
 40
0.7780332951845852
 40
0.8754299362253684
 40
0.9728646768457034
 40
1.167833459518577
 40
1.362386310627637
 40
1.557018308581693
 40
1.750168055195973
 40
1.948154800623066
 40
2.047953058097914
 40
2.144917736707964
 40
2.24106318735979
 40
2.339056658120534
 40
2.436534729263427
 40
2.534091388908516
 40
2.7297251228149
 40
2.924962340098984
 40
3.119588602182168
 40
3.119588602182168
 40
3.119588602182168
 40
3.119588602182168
 10
112.8291160283
 20
119.3947071744
 30
0.0
 10
112.800391363961
 20
119.410878013247
 30
0.0
 10
112.7428894224764
 20
119.4432493098499
 30
0.0
 10
112.6100180957895
 20
119.4440764361476
 30
0.0
 10
112.4498827680421
 20
119.4215790620956
 30
0.0
 10
112.2647584291085
 20
119.3550797665243
 30
0.0
 10
112.1280609569971
 20
119.2672390481109
 30
0.0
 10
112.0156940004886
 20
119.2022286449989
 30
0.0
 10
111.8979230063891
 20
119.1469935231282
 30
0.0
 10
111.7440632039259
 20
119.0936970986891
 30
0.0
 10
111.5537207262004
 20
119.0516940379793
 30
0.0
 10
111.3618824653989
 20
119.0209901757819
 30
0.0
 10
111.1671056022995
 20
119.0059714867491
 30
0.0
 10
111.0036094794423
 20
118.9973964203193
 30
0.0
 10
110.8731955170324
 20
118.9785913634512
 30
0.0
 10
110.7792621303937
 20
118.9488551459603
 30
0.0
 10
110.6976577829179
 20
118.8935229787382
 30
0.0
 10
110.6361912007947
 20
118.8165439058487
 30
0.0
 10
110.595859394943
 20
118.7267149830536
 30
0.0
 10
110.5659847936599
 20
118.5994161073494
 30
0.0
 10
110.564559554778
 20
118.4344334987599
 30
0.0
 10
110.6084950436585
 20
118.2431702444961
 30
0.0
 10
110.6543259869155
 20
118.1215090945545
 30
0.0
 10
110.6772055477
 20
118.0607738472
 30
0.0
 11
112.8291160283
 21
119.3947071744
 31
0.0
 11
112.7406960866
 21
119.4352449745
 31
0.0
 11
112.6435035989
 21
119.4422955681
 31
0.0
 11
112.451100935
 21
119.4150085872
 31
0.0
 11
112.2682830445
 21
119.3485998851
 31
0.0
 11
112.0997930039
 21
119.2514694256
 31
0.0
 11
112.0150475466
 21
119.2034661637
 31
0.0
 11
111.9269420974
 21
119.1618613743
 31
0.0
 11
111.7429675143
 21
119.0973154295
 31
0.0
 11
111.5533977113
 21
119.0535649819
 31
0.0
 11
111.3610927538
 21
119.0235580169
 31
0.0
 11
111.1686648412
 21
119.0068749995
 31
0.0
 11
110.9712597531
 21
118.9917098237
 31
0.0
 11
110.8727493259
 21
118.9757289624
 31
0.0
 11
110.7809646791
 21
118.9444603278
 31
0.0
 11
110.7014874198
 21
118.8903556798
 31
0.0
 11
110.6396756603
 21
118.8143160408
 31
0.0
 11
110.5988502552
 21
118.7257990331
 31
0.0
 11
110.5758723921
 21
118.6309870104
 31
0.0
 11
110.5721917051
 21
118.4353879041
 31
0.0
 11
110.6126978215
 21
118.2443988323
 31
0.0
 11
110.6772055477
 21
118.0607738472
 31
0.0
  0
SPLINE
  5
1258
330
1B
100
AcDbEntity
  8
0
  6
Continuous
100
AcDbSpline
210
0.0
220
0.0
230
1.0
 70
    24
 71
     3
 72
     8
 73
     4
 74
     2
 42
0.0000000001
 43
0.0000000001
 44
0.0000000001
 40
0.0
 40
0.0
 40
0.0
 40
0.0
 40
0.8254916071169387
 40
0.8254916071169387
 40
0.8254916071169387
 40
0.8254916071169387
 10
110.6772055477
 20
118.0607738472
 30
0.0
 10
110.7539305582
 20
117.7965231564
 30
0.0
 10
110.8306555687
 20
117.5322724656
 30
0.0
 10
110.9073805792
 20
117.2680217748
 30
0.0
 11
110.6772055477
 21
118.0607738472
 31
0.0
 11
110.9073805792
 21
117.2680217748
 31
0.0
  0
SPLINE
  5
1259
330
1B
100
AcDbEntity
  8
0
  6
Continuous
100
AcDbSpline
210
0.0
220
0.0
230
1.0
 70
    24
 71
     3
 72
     8
 73
     4
 74
     2
 42
0.0000000001
 43
0.0000000001
 44
0.0000000001
 40
0.0
 40
0.0
 40
0.0
 40
0.0
 40
0.6562519864635923
 40
0.6562519864635923
 40
0.6562519864635923
 40
0.6562519864635923
 10
110.9073805792
 20
117.2680217748
 30
0.0
 10
110.948500168
 20
117.05317059
 30
0.0
 10
110.9896197568
 20
116.8383194052
 30
0.0
 10
111.0307393456
 20
116.6234682204
 30
0.0
 11
110.9073805792
 21
117.2680217748
 31
0.0
 11
111.0307393456
 21
116.6234682204
 31
0.0
  0
SPLINE
  5
125A
330
1B
100
AcDbEntity
  8
0
  6
Continuous
100
AcDbSpline
210
0.0
220
0.0
230
1.0
 70
     8
 71
     3
 72
    17
 73
    13
 74
    11
 42
0.0000000001
 43
0.0000000001
 44
0.0000000001
 40
0.0
 40
0.0
 40
0.0
 40
0.0
 40
0.4081311483212365
 40
0.6125463091347722
 40
0.8168121513687449
 40
1.021854341339891
 40
1.12728840409787
 40
1.230657110837827
 40
1.331336153834893
 40
1.433550285726458
 40
1.538607924917584
 40
1.642912886724668
 40
1.642912886724668
 40
1.642912886724668
 40
1.642912886724668
 10
111.0307393456
 20
116.6234682204
 30
0.0
 10
111.0678530569177
 20
116.491854555236
 30
0.0
 10
111.1235554138182
 20
116.2943213231865
 30
0.0
 10
111.1317707963308
 20
116.0207337402524
 30
0.0
 10
111.1128618959284
 20
115.8168273113417
 30
0.0
 10
111.0796875748049
 20
115.6479051854425
 30
0.0
 10
111.0356513311627
 20
115.5168689144754
 30
0.0
 10
110.9877741240471
 20
115.4247655721705
 30
0.0
 10
110.918586569852
 20
115.3474857312684
 30
0.0
 10
110.8281174949396
 20
115.2962687241063
 30
0.0
 10
110.7284148377692
 20
115.264733641135
 30
0.0
 10
110.6588910159252
 20
115.2572679914176
 30
0.0
 10
110.6242540772
 20
115.2535485864
 30
0.0
 11
111.0307393456
 21
116.6234682204
 31
0.0
 11
111.1200871817
 21
116.2252371337
 31
0.0
 11
111.1275937521
 21
116.0209598482
 31
0.0
 11
111.1094567551
 21
115.8175008016
 31
0.0
 11
111.067586202
 21
115.6167792122
 31
0.0
 11
111.0328604833
 21
115.5172278885
 31
0.0
 11
110.9836291474
 21
115.4263358366
 31
0.0
 11
110.9155427727
 21
115.3521703778
 31
0.0
 11
110.8276314
 21
115.3000232848
 31
0.0
 11
110.7275371652
 21
115.2681132282
 31
0.0
 11
110.6242540772
 21
115.2535485864
 31
0.0
  0
SPLINE
  5
125B
330
1B
100
AcDbEntity
  8
0
  6
Continuous
100
AcDbSpline
210
0.0
220
0.0
230
1.0
 70
     8
 71
     3
 72
     9
 73
     5
 74
     3
 42
0.0000000001
 43
0.0000000001
 44
0.0000000001
 40
0.0
 40
0.0
 40
0.0
 40
0.0
 40
0.3264804292668151
 40
0.6533253052380176
 40
0.6533253052380176
 40
0.6533253052380176
 40
0.6533253052380176
 10
110.6242540772
 20
115.2535485864
 30
0.0
 10
110.5153786527005
 20
115.2558766158887
 30
0.0
 10
110.2975062671983
 20
115.2605352736212
 30
0.0
 10
110.0811516016888
 20
115.2866278783645
 30
0.0
 10
109.972913924
 20
115.2996814584
 30
0.0
 11
110.6242540772
 21
115.2535485864
 31
0.0
 11
110.2980068105
 21
115.265885185
 31
0.0
 11
109.972913924
 21
115.2996814584
 31
0.0
  0
SPLINE
  5
125C
330
1B
100
AcDbEntity
  8
0
  6
Continuous
100
AcDbSpline
210
0.0
220
0.0
230
1.0
 70
    24
 71
     3
 72
     8
 73
     4
 74
     2
 42
0.0000000001
 43
0.0000000001
 44
0.0000000001
 40
0.0
 40
0.0
 40
0.0
 40
0.0
 40
0.6564034636465862
 40
0.6564034636465862
 40
0.6564034636465862
 40
0.6564034636465862
 10
109.972913924
 20
115.2996814584
 30
0.0
 10
109.7541245563667
 20
115.3019525468
 30
0.0
 10
109.5353351887333
 20
115.3042236352
 30
0.0
 10
109.3165458211
 20
115.3064947236
 30
0.0
 11
109.972913924
 21
115.2996814584
 31
0.0
 11
109.3165458211
 21
115.3064947236
 31
0.0
  0
SPLINE
  5
125D
330
1B
100
AcDbEntity
  8
0
  6
Continuous
100
AcDbSpline
210
0.0
220
0.0
230
1.0
 70
     8
 71
     3
 72
     9
 73
     5
 74
     3
 42
0.0000000001
 43
0.0000000001
 44
0.0000000001
 40
0.0
 40
0.0
 40
0.0
 40
0.0
 40
0.657146059824604
 40
1.314284133320203
 40
1.314284133320203
 40
1.314284133320203
 40
1.314284133320203
 10
109.3165458211
 20
115.3064947236
 30
0.0
 10
109.0974467031815
 20
115.2952127958122
 30
0.0
 10
108.659251130067
 20
115.2726490773465
 30
0.0
 10
108.222587899352
 20
115.3156571686293
 30
0.0
 10
108.0042576107
 20
115.3371610836
 30
0.0
 11
109.3165458211
 21
115.3064947236
 31
0.0
 11
108.6596315576
 21
115.2890420919
 31
0.0
 11
108.0042576107
 21
115.3371610836
 31
0.0
  0
SPLINE
  5
125E
330
1B
100
AcDbEntity
  8
0
  6
Continuous
100
AcDbSpline
210
0.0
220
0.0
230
1.0
 70
     8
 71
     3
 72
    11
 73
     7
 74
     5
 42
0.0000000001
 43
0.0000000001
 44
0.0000000001
 40
0.0
 40
0.0
 40
0.0
 40
0.0
 40
0.4920691631816661
 40
0.984122087934491
 40
1.476177733193997
 40
1.968263667974752
 40
1.968263667974752
 40
1.968263667974752
 40
1.968263667974752
 10
108.0042576107
 20
115.3371610836
 30
0.0
 10
107.8416609832423
 20
115.3589974220527
 30
0.0
 10
107.516473094064
 20
115.4026693783523
 30
0.0
 10
107.0223191261125
 20
115.4121706121881
 30
0.0
 10
106.5345198035069
 20
115.3399314490567
 30
0.0
 10
106.2064858968683
 20
115.3281647586691
 30
0.0
 10
106.0424638955
 20
115.3222812324
 30
0.0
 11
108.0042576107
 21
115.3371610836
 31
0.0
 11
107.5154053697
 21
115.3933353466
 31
0.0
 11
107.0233800515
 21
115.3985475446
 31
0.0
 11
106.5338222504
 21
115.3490307049
 31
0.0
 11
106.0424638955
 21
115.3222812324
 31
0.0
  0
SPLINE
  5
125F
330
1B
100
AcDbEntity
  8
0
  6
Continuous
100
AcDbSpline
210
0.0
220
0.0
230
1.0
 70
    24
 71
     3
 72
     8
 73
     4
 74
     2
 42
0.0000000001
 43
0.0000000001
 44
0.0000000001
 40
0.0
 40
0.0
 40
0.0
 40
0.0
 40
0.3273144763497143
 40
0.3273144763497143
 40
0.3273144763497143
 40
0.3273144763497143
 10
106.0424638955
 20
115.3222812324
 30
0.0
 10
105.9365405103
 20
115.2961259384
 30
0.0
 10
105.8306171251
 20
115.2699706444
 30
0.0
 10
105.7246937399
 20
115.2438153504
 30
0.0
 11
106.0424638955
 21
115.3222812324
 31
0.0
 11
105.7246937399
 21
115.2438153504
 31
0.0
  0
SPLINE
  5
1260
330
1B
100
AcDbEntity
  8
0
  6
Continuous
100
AcDbSpline
210
0.0
220
0.0
230
1.0
 70
     8
 71
     3
 72
    15
 73
    11
 74
     9
 42
0.0000000001
 43
0.0000000001
 44
0.0000000001
 40
0.0
 40
0.0
 40
0.0
 40
0.0
 40
0.1444542321529171
 40
0.289604973768554
 40
0.3609930252561352
 40
0.4327557792730615
 40
0.4703563995139168
 40
0.5091147559715157
 40
0.546321370351334
 40
0.5815231093140207
 40
0.5815231093140207
 40
0.5815231093140207
 40
0.5815231093140207
 10
105.7246937399
 20
115.2438153504
 30
0.0
 10
105.6814838122829
 20
115.2219431377566
 30
0.0
 10
105.5948556133883
 20
115.1780932520561
 30
0.0
 10
105.471270566757
 20
115.1667346865261
 30
0.0
 10
105.3765893588809
 20
115.1858658321181
 30
0.0
 10
105.3207570766915
 20
115.2093586196897
 30
0.0
 10
105.2774959033254
 20
115.2333342853041
 30
0.0
 10
105.2457786020132
 20
115.2536192108914
 30
0.0
 10
105.2165589462948
 20
115.2781479079804
 30
0.0
 10
105.2078698644147
 20
115.3010706453189
 30
0.0
 10
105.2036456171
 20
115.3122146664
 30
0.0
 11
105.7246937399
 21
115.2438153504
 31
0.0
 11
105.5919496589
 21
115.1868413726
 31
0.0
 11
105.4473741481
 21
115.1739317069
 31
0.0
 11
105.3774073557
 21
115.1881056921
 31
0.0
 11
105.3109970182
 21
115.2153005434
 31
0.0
 11
105.2780706406
 21
115.2334570932
 31
0.0
 11
105.2456703396
 21
115.2547275114
 31
0.0
 11
105.2187629287
 21
115.2804242698
 31
0.0
 11
105.2036456171
 21
115.3122146664
 31
0.0
  0
SPLINE
  5
1261
330
1B
100
AcDbEntity
  8
0
  6
Continuous
100
AcDbSpline
210
0.0
220
0.0
230
1.0
 70
     8
 71
     3
 72
    15
 73
    11
 74
     9
 42
0.0000000001
 43
0.0000000001
 44
0.0000000001
 40
0.0
 40
0.0
 40
0.0
 40
0.0
 40
0.0186199512026705
 40
0.0377268460141874
 40
0.0594230237766918
 40
0.0833152887707523
 40
0.1313401757188114
 40
0.1729339657012222
 40
0.2507506078098598
 40
0.3321139661796417
 40
0.3321139661796417
 40
0.3321139661796417
 40
0.3321139661796417
 10
105.2036456171
 20
115.3122146664
 30
0.0
 10
105.2027218632197
 20
115.3185186667189
 30
0.0
 10
105.2008501977134
 20
115.33129152776
 30
0.0
 10
105.2111761322614
 20
115.3494317783763
 30
0.0
 10
105.2265247747729
 20
115.3645317797775
 30
0.0
 10
105.2524179413075
 20
115.3822368137671
 30
0.0
 10
105.2866157035203
 20
115.3987608820111
 30
0.0
 10
105.3395175375965
 20
115.4168375180828
 30
0.0
 10
105.4050922358845
 20
115.4306875172732
 30
0.0
 10
105.456879112404
 20
115.4421705372603
 30
0.0
 10
105.4833494867
 20
115.4480399748
 30
0.0
 11
105.2036456171
 21
115.3122146664
 31
0.0
 11
105.2029271837
 21
115.3308207524
 31
0.0
 11
105.2112941168
 21
115.3479982918
 31
0.0
 11
105.2264100943
 21
115.3635620752
 31
0.0
 11
105.245938794
 21
115.3773268932
 31
0.0
 11
105.2889310432
 21
115.3987291425
 31
0.0
 11
105.3282271743
 21
115.4123620969
 31
0.0
 11
105.4038853584
 21
115.4305628927
 31
0.0
 11
105.4833494867
 21
115.4480399748
 31
0.0
  0
SPLINE
  5
1262
330
1B
100
AcDbEntity
  8
0
  6
Continuous
100
AcDbSpline
210
0.0
220
0.0
230
1.0
 70
     8
 71
     3
 72
     9
 73
     5
 74
     3
 42
0.0000000001
 43
0.0000000001
 44
0.0000000001
 40
0.0
 40
0.0
 40
0.0
 40
0.0
 40
0.7779556127137098
 40
0.9894473947241024
 40
0.9894473947241024
 40
0.9894473947241024
 40
0.9894473947241024
 10
105.4833494867
 20
115.4480399748
 30
0.0
 10
105.7419782474546
 20
115.5278492987454
 30
0.0
 10
106.0709167490186
 20
115.6293552540491
 30
0.0
 10
106.2785143219128
 20
115.8897057638875
 30
0.0
 10
106.3228877579
 20
115.9453550016
 30
0.0
 11
105.4833494867
 21
115.4480399748
 31
0.0
 11
106.1842236329
 21
115.7856645689
 31
0.0
 11
106.3228877579
 21
115.9453550016
 31
0.0
  0
SPLINE
  5
1263
330
1B
100
AcDbEntity
  8
0
  6
Continuous
100
AcDbSpline
210
0.0
220
0.0
230
1.0
 70
     8
 71
     3
 72
    19
 73
    15
 74
    13
 42
0.0000000001
 43
0.0000000001
 44
0.0000000001
 40
0.0
 40
0.0
 40
0.0
 40
0.0
 40
0.2134481684393736
 40
0.3195352150700467
 40
0.4260525940580484
 40
0.5328075661889589
 40
0.6397179915761293
 40
0.7458930947117454
 40
0.8515852076071543
 40
0.9584211230446171
 40
1.065506100786078
 40
1.277488109543908
 40
1.490818808946399
 40
1.703727833730467
 40
1.703727833730467
 40
1.703727833730467
 40
1.703727833730467
 10
106.3228877579
 20
115.9453550016
 30
0.0
 10
106.3679899181479
 20
116.0006101699443
 30
0.0
 10
106.4355085507991
 20
116.0833280130146
 30
0.0
 10
106.5446555781664
 20
116.1752670207474
 30
0.0
 10
106.6383160551465
 20
116.2273847038993
 30
0.0
 10
106.7412915015426
 20
116.2587815927307
 30
0.0
 10
106.8486733371374
 20
116.265140807526
 30
0.0
 10
106.9543996446535
 20
116.2479055629338
 30
0.0
 10
107.053932852861
 20
116.2094218838182
 30
0.0
 10
107.1486823777132
 20
116.1606907264713
 30
0.0
 10
107.2737364045873
 20
116.0933890810072
 30
0.0
 10
107.4380699307002
 20
116.0253562621103
 30
0.0
 10
107.650577668443
 20
115.9836954396733
 30
0.0
 10
107.7917895871187
 20
116.0067378157538
 30
0.0
 10
107.8623256967
 20
116.018247606
 30
0.0
 11
106.3228877579
 21
115.9453550016
 31
0.0
 11
106.4645932568
 21
116.1049785343
 31
0.0
 11
106.5465089509
 21
116.1723898132
 31
0.0
 11
106.6397539635
 21
116.2238807799
 31
0.0
 11
106.741994701
 21
116.2545965034
 31
0.0
 11
106.8487016849
 21
116.2611888204
 31
0.0
 11
106.9535300007
 21
116.2443312781
 31
0.0
 11
107.0527422081
 21
116.2078928282
 31
0.0
 11
107.1484575568
 21
116.1604324779
 31
0.0
 11
107.2434771814
 21
116.111051678
 31
0.0
 11
107.4402212219
 21
116.0321330201
 31
0.0
 11
107.6505395987
 21
115.9964095308
 31
0.0
 11
107.8623256967
 21
116.018247606
 31
0.0
  0
SPLINE
  5
1264
330
1B
100
AcDbEntity
  8
0
  6
Continuous
100
AcDbSpline
210
0.0
220
0.0
230
1.0
 70
     8
 71
     3
 72
    19
 73
    15
 74
    13
 42
0.0000000001
 43
0.0000000001
 44
0.0000000001
 40
0.0
 40
0.0
 40
0.0
 40
0.0
 40
0.2228587746924695
 40
0.5292459230721296
 40
1.215909014375791
 40
1.412890202888726
 40
1.598108874399461
 40
1.756371613040965
 40
1.973882942407463
 40
2.265227789662899
 40
2.60023562556712
 40
5.376733251801683
 40
5.486712303276075
 40
5.762194708128157
 40
5.762194708128157
 40
5.762194708128157
 40
5.762194708128157
 10
107.8623256967
 20
116.018247606
 30
0.0
 10
107.9324409585144
 20
116.0445164046856
 30
0.0
 10
108.0989509669786
 20
116.1068996544703
 30
0.0
 10
108.4113990732781
 20
116.363688666791
 30
0.0
 10
108.8407486982039
 20
116.4943318388118
 30
0.0
 10
109.1702688484727
 20
116.3978030603563
 30
0.0
 10
109.3670435262163
 20
116.3125986559732
 30
0.0
 10
109.4901972421677
 20
116.516748673183
 30
0.0
 10
109.3680381223209
 20
116.7278870778757
 30
0.0
 10
109.1759575054173
 20
116.9262342731315
 30
0.0
 10
108.6243859286913
 20
117.9259962251506
 30
0.0
 10
108.0471118772649
 20
118.9399077705549
 30
0.0
 10
108.1095575947105
 20
119.9946541107848
 30
0.0
 10
108.1387127344622
 20
120.1201379610199
 30
0.0
 10
108.1595493911
 20
120.2098190232
 30
0.0
 11
107.8623256967
 21
116.018247606
 31
0.0
 11
108.0672613593
 21
116.1058113408
 31
0.0
 11
108.3234951044
 21
116.2737915556
 31
0.0
 11
108.9894076735
 21
116.4413226013
 31
0.0
 11
109.1795595528
 21
116.3899042055
 31
0.0
 11
109.3624198014
 21
116.3604409104
 31
0.0
 11
109.4503524966
 21
116.492027139
 31
0.0
 11
109.3774201484
 21
116.6969467598
 31
0.0
 11
109.1947764635
 21
116.9239337735
 31
0.0
 11
109.0195126389
 21
117.2094383127
 31
0.0
 11
108.1006067592
 21
119.8294671394
 31
0.0
 11
108.1080427657
 21
119.9391945178
 31
0.0
 11
108.1595493911
 21
120.2098190232
 31
0.0
  0
SPLINE
  5
1265
330
1B
100
AcDbEntity
  8
0
  6
Continuous
100
AcDbSpline
210
0.0
220
0.0
230
1.0
 70
     8
 71
     3
 72
     9
 73
     5
 74
     3
 42
0.0000000001
 43
0.0000000001
 44
0.0000000001
 40
0.0
 40
0.0
 40
0.0
 40
0.0
 40
0.6562083902447856
 40
1.312416454537524
 40
1.312416454537524
 40
1.312416454537524
 40
1.312416454537524
 10
108.1595493911
 20
120.2098190232
 30
0.0
 10
108.2284653265951
 20
120.4176680258705
 30
0.0
 10
108.3662971633534
 20
120.8333659279687
 30
0.0
 10
108.5551642860201
 20
121.2285008046348
 30
0.0
 10
108.6495978239
 20
121.4260681939
 30
0.0
 11
108.1595493911
 21
120.2098190232
 31
0.0
 11
108.3790560254
 21
120.8282252723
 31
0.0
 11
108.6495978239
 21
121.4260681939
 31
0.0
  0
SPLINE
  5
1266
330
1B
100
AcDbEntity
  8
0
  6
Continuous
100
AcDbSpline
210
0.0
220
0.0
230
1.0
 70
     8
 71
     3
 72
     9
 73
     5
 74
     3
 42
0.0000000001
 43
0.0000000001
 44
0.0000000001
 40
0.0
 40
0.0
 40
0.0
 40
0.0
 40
0.3268674656071048
 40
0.6537306221910921
 40
0.6537306221910921
 40
0.6537306221910921
 40
0.6537306221910921
 10
108.6495978239
 20
121.4260681939
 30
0.0
 10
108.7043685024147
 20
121.5208954365937
 30
0.0
 10
108.8139091374141
 20
121.7105486718942
 30
0.0
 10
108.8689000705611
 20
121.9225474690902
 30
0.0
 10
108.8963953559
 20
122.028546169
 30
0.0
 11
108.6495978239
 21
121.4260681939
 31
0.0
 11
108.8002722542
 21
121.7161363861
 31
0.0
 11
108.8963953559
 21
122.028546169
 31
0.0
  0
SPLINE
  5
1267
330
1B
100
AcDbEntity
  8
0
  6
Continuous
100
AcDbSpline
210
0.0
220
0.0
230
1.0
 70
     8
 71
     3
 72
    11
 73
     7
 74
     5
 42
0.0000000001
 43
0.0000000001
 44
0.0000000001
 40
0.0
 40
0.0
 40
0.0
 40
0.0
 40
0.3525799436136435
 40
0.710360773245388
 40
1.064024639564448
 40
1.418134530896938
 40
1.418134530896938
 40
1.418134530896938
 40
1.418134530896938
 10
108.8963953559
 20
122.028546169
 30
0.0
 10
108.9039883725499
 20
122.1463364329784
 30
0.0
 10
108.9192864099918
 20
122.3836544781936
 30
0.0
 10
108.8519590467311
 20
122.7337731629714
 30
0.0
 10
108.8168209328152
 20
123.0877415030138
 30
0.0
 10
108.8236206934469
 20
123.3238198226431
 30
0.0
 10
108.8270227163
 20
123.4419333684
 30
0.0
 11
108.8963953559
 21
122.028546169
 31
0.0
 11
108.9043324167
 21
122.3810367642
 31
0.0
 11
108.8571502458
 21
122.7356928861
 31
0.0
 11
108.8243610385
 21
123.0878334805
 31
0.0
 11
108.8270227163
 21
123.4419333684
 31
0.0
  0
SPLINE
  5
1268
330
1B
100
AcDbEntity
  8
0
  6
Continuous
100
AcDbSpline
210
0.0
220
0.0
230
1.0
 70
     8
 71
     3
 72
    11
 73
     7
 74
     5
 42
0.0000000001
 43
0.0000000001
 44
0.0000000001
 40
0.0
 40
0.0
 40
0.0
 40
0.0
 40
0.6555808474359383
 40
1.311148585039623
 40
1.966727863556
 40
2.62230676223085
 40
2.62230676223085
 40
2.62230676223085
 40
2.62230676223085
 10
108.8270227163
 20
123.4419333684
 30
0.0
 10
108.8397340389702
 20
123.6602879305301
 30
0.0
 10
108.8651564301187
 20
124.0969926882933
 30
0.0
 10
108.7903183988056
 20
124.7534486212879
 30
0.0
 10
108.5808280921675
 20
125.3777549398308
 30
0.0
 10
108.5269066835822
 20
125.8125500139302
 30
0.0
 10
108.4999459871
 20
126.029947488
 30
0.0
 11
108.8270227163
 21
123.4419333684
 31
0.0
 11
108.8463277364
 21
124.0972299148
 31
0.0
 11
108.7678772363
 21
124.7480867175
 31
0.0
 11
108.6022629646
 21
125.382402178
 31
0.0
 11
108.4999459871
 21
126.029947488
 31
0.0
  0
SPLINE
  5
1269
330
1B
100
AcDbEntity
  8
0
  6
Continuous
100
AcDbSpline
210
0.0
220
0.0
230
1.0
 70
     8
 71
     3
 72
    15
 73
    11
 74
     9
 42
0.0000000001
 43
0.0000000001
 44
0.0000000001
 40
0.0
 40
0.0
 40
0.0
 40
0.0
 40
0.6745710761627736
 40
1.104185184697545
 40
1.62708093261339
 40
3.340078624012335
 40
4.12884849399317
 40
4.844339167584283
 40
6.142091477410313
 40
6.969455128407135
 40
6.969455128407135
 40
6.969455128407135
 40
6.969455128407135
 10
108.4999459871
 20
126.029947488
 30
0.0
 10
108.458965963059
 20
126.2537500077369
 30
0.0
 10
108.3918869894511
 20
126.6200856472624
 30
0.0
 10
108.6235298694617
 20
127.1678841919204
 30
0.0
 10
109.5372643733006
 20
127.4189148344072
 30
0.0
 10
110.4568268346767
 20
127.7100791464956
 30
0.0
 10
111.4655247984082
 20
128.1618543607586
 30
0.0
 10
112.0316227506363
 20
128.9253876740607
 30
0.0
 10
112.6507145455226
 20
129.6384602019117
 30
0.0
 10
113.1860309311195
 20
130.1041857153995
 30
0.0
 10
113.3944437083
 20
130.285504932
 30
0.0
 11
108.4999459871
 21
126.029947488
 31
0.0
 11
108.4607124917
 21
126.7033766748
 31
0.0
 11
108.6490874871
 21
127.0894895383
 31
0.0
 11
109.1245560552
 21
127.3070891797
 31
0.0
 11
110.7489613597
 21
127.8508432578
 31
0.0
 11
111.4423859701
 21
128.2267690716
 31
0.0
 11
111.9180327387
 21
128.7612660833
 31
0.0
 11
112.7801432028
 21
129.7312797973
 31
0.0
 11
113.3944437083
 21
130.285504932
 31
0.0
  0
SPLINE
  5
126A
330
1B
100
AcDbEntity
  8
0
  6
Continuous
100
AcDbSpline
210
0.0
220
0.0
230
1.0
 70
     8
 71
     3
 72
    14
 73
    10
 74
     8
 42
0.0000000001
 43
0.0000000001
 44
0.0000000001
 40
0.0
 40
0.0
 40
0.0
 40
0.0
 40
0.1792674688705823
 40
0.358597761534568
 40
0.5366733839582709
 40
0.7155309414098241
 40
0.8938040265192123
 40
1.072254770842208
 40
1.426444804777123
 40
1.426444804777123
 40
1.426444804777123
 40
1.426444804777123
 10
113.3944437083
 20
130.285504932
 30
0.0
 10
113.4461560194532
 20
130.3157125737653
 30
0.0
 10
113.5495987641974
 20
130.3761384434812
 30
0.0
 10
113.7229881195283
 20
130.4283752127547
 30
0.0
 10
113.9041111961678
 20
130.4322803912027
 30
0.0
 10
114.0783552949382
 20
130.3823997356885
 30
0.0
 10
114.2302957164485
 20
130.2849975461735
 30
0.0
 10
114.393825660862
 20
130.1085024440869
 30
0.0
 10
114.4546438054272
 20
129.9391022218098
 30
0.0
 10
114.4950860351
 20
129.8264561892
 30
0.0
 11
113.3944437083
 21
130.285504932
 31
0.0
 11
113.5526829629
 21
130.3697495977
 31
0.0
 11
113.7247133468
 21
130.4203944482
 31
0.0
 11
113.9027644792
 21
130.4233476757
 31
0.0
 11
114.0747948983
 21
130.3744032096
 31
0.0
 11
114.2254642116
 21
130.2791139085
 31
0.0
 11
114.3464747567
 21
130.1479608829
 31
0.0
 11
114.4950860351
 21
129.8264561892
 31
0.0
  0
SPLINE
  5
126B
330
1B
100
AcDbEntity
  8
0
  6
Continuous
100
AcDbSpline
210
0.0
220
0.0
230
1.0
 70
     8
 71
     3
 72
    10
 73
     6
 74
     4
 42
0.0000000001
 43
0.0000000001
 44
0.0000000001
 40
0.0
 40
0.0
 40
0.0
 40
0.0
 40
0.8198845792499235
 40
1.22987917414845
 40
1.640133156939446
 40
1.640133156939446
 40
1.640133156939446
 40
1.640133156939446
 10
114.4950860351
 20
129.8264561892
 30
0.0
 10
114.5426306391991
 20
129.5574410008758
 30
0.0
 10
114.6139505784984
 20
129.1539010563238
 30
0.0
 10
114.705687198572
 20
128.6141469310319
 30
0.0
 10
114.7864579192599
 20
128.352604703583
 30
0.0
 10
114.8268560507
 20
128.221792236
 30
0.0
 11
114.4950860351
 21
129.8264561892
 31
0.0
 11
114.6365955794
 21
129.0188759937
 31
0.0
 11
114.714390232
 21
128.6163296487
 31
0.0
 11
114.8268560507
 21
128.221792236
 31
0.0
  0
SPLINE
  5
126C
330
1B
100
AcDbEntity
  8
0
  6
Continuous
100
AcDbSpline
210
0.0
220
0.0
230
1.0
 70
     8
 71
     3
 72
    11
 73
     7
 74
     5
 42
0.0000000001
 43
0.0000000001
 44
0.0000000001
 40
0.0
 40
0.0
 40
0.0
 40
0.0
 40
0.3273372650330582
 40
0.6545866484640786
 40
0.9818362657004671
 40
1.309092366010486
 40
1.309092366010486
 40
1.309092366010486
 40
1.309092366010486
 10
114.8268560507
 20
128.221792236
 30
0.0
 10
114.8773762393849
 20
128.1247756242866
 30
0.0
 10
114.9784030533888
 20
127.9307684473145
 30
0.0
 10
115.1887639863934
 20
127.6772690171455
 30
0.0
 10
115.4340268785466
 20
127.4582364539323
 30
0.0
 10
115.5551695562641
 20
127.275610050567
 30
0.0
 10
115.6157414951
 20
127.1842959444
 30
0.0
 11
114.8268560507
 21
128.221792236
 31
0.0
 11
114.9882242624
 21
127.9369940876
 31
0.0
 11
115.1945837845
 21
127.68301002
 31
0.0
 11
115.4234338448
 21
127.4490870372
 31
0.0
 11
115.6157414951
 21
127.1842959444
 31
0.0
  0
SPLINE
  5
126D
330
1B
100
AcDbEntity
  8
0
  6
Continuous
100
AcDbSpline
210
0.0
220
0.0
230
1.0
 70
     8
 71
     3
 72
    15
 73
    11
 74
     9
 42
0.0000000001
 43
0.0000000001
 44
0.0000000001
 40
0.0
 40
0.0
 40
0.0
 40
0.0
 40
3.418093926645752
 40
6.708931758785123
 40
9.941899682063028
 40
13.15528270685603
 40
16.36856134449031
 40
19.60127346845714
 40
22.89099332866201
 40
26.30842453391853
 40
26.30842453391853
 40
26.30842453391853
 40
26.30842453391853
 10
123.3648687698
 20
85.4430682735
 30
0.0
 10
122.2578643555631
 20
85.17223011255456
 30
0.0
 10
120.0850694496382
 20
84.64063713165572
 30
0.0
 10
116.8152987061382
 20
84.08384072080804
 30
0.0
 10
113.5860349123692
 20
83.73651719728507
 30
0.0
 10
110.3653701518019
 20
83.62088642041313
 30
0.0
 10
107.1447964808136
 20
83.73666473479948
 30
0.0
 10
103.9160372295209
 20
84.08406440756197
 30
0.0
 10
100.6469512615494
 20
84.64082138845028
 30
0.0
 10
98.47473478044815
 20
85.17227946799856
 30
0.0
 10
97.36794587490002
 20
85.4430682735
 30
0.0
 11
123.3648687698
 21
85.4430682735
 31
0.0
 11
120.035110029
 21
84.6710107501
 31
0.0
 11
116.7916936677
 21
84.1143565085
 31
0.0
 11
113.5766656099
 21
83.77424449679999
 31
0.0
 11
110.3653363127
 21
83.65937670770001
 31
0.0
 11
107.154116657
 21
83.77438942839999
 31
0.0
 11
103.9393565426
 21
84.1146027193
 31
0.0
 11
100.6970548386
 21
84.67114240239999
 31
0.0
 11
97.36794587490002
 21
85.4430682735
 31
0.0
  0
SPLINE
  5
126E
330
1B
100
AcDbEntity
  8
0
  6
Continuous
100
AcDbSpline
210
0.0
220
0.0
230
1.0
 70
     8
 71
     3
 72
    15
 73
    11
 74
     9
 42
0.0000000001
 43
0.0000000001
 44
0.0000000001
 40
0.0
 40
0.0
 40
0.0
 40
0.0
 40
1.83518286212082
 40
3.549767758835069
 40
5.192867735492444
 40
6.802635909092752
 40
8.412359750430721
 40
10.05534962611143
 40
11.76937019302576
 40
13.60420293018575
 40
13.60420293018575
 40
13.60420293018575
 40
13.60420293018575
 10
139.2090934637
 20
85.4430682735
 30
0.0
 10
138.6593968047536
 20
85.17358428576182
 30
0.0
 10
137.5961264803937
 20
84.65232529248101
 30
0.0
 10
135.9542745973725
 20
84.08898571017107
 30
0.0
 10
134.3316836371589
 20
83.73804065471219
 30
0.0
 10
132.7093400534029
 20
83.62041038276433
 30
0.0
 10
131.0870451208685
 20
83.73819015536293
 30
0.0
 10
129.4647173229008
 20
84.0892096962278
 30
0.0
 10
127.8232161850251
 20
84.65250380648777
 30
0.0
 10
126.7602224273197
 20
85.17363325188106
 30
0.0
 10
126.2106320163
 20
85.4430682735
 30
0.0
 11
139.2090934637
 21
85.4430682735
 31
0.0
 11
137.5442140933
 21
84.6710107501
 31
0.0
 11
135.9225059126
 21
84.1143565085
 31
0.0
 11
134.3149918838
 21
83.77424449679999
 31
0.0
 11
132.7093272352
 21
83.65937670770001
 31
0.0
 11
131.1037174073
 21
83.77438942839999
 31
0.0
 11
129.4963373501
 21
84.1146027193
 31
0.0
 11
127.8751864981
 21
84.67114240239999
 31
0.0
 11
126.2106320163
 21
85.4430682735
 31
0.0
  0
SPLINE
  5
126F
330
1B
100
AcDbEntity
  8
0
  6
Continuous
100
AcDbSpline
210
0.0
220
0.0
230
1.0
 70
     8
 71
     3
 72
    15
 73
    11
 74
     9
 42
0.0000000001
 43
0.0000000001
 44
0.0000000001
 40
0.0
 40
0.0
 40
0.0
 40
0.0
 40
1.835182862120833
 40
3.549767758740497
 40
5.192867735495708
 40
6.802635909096017
 40
8.412359750433986
 40
10.05534962601686
 40
11.76937019302579
 40
13.60420293018576
 40
13.60420293018576
 40
13.60420293018576
 40
13.60420293018576
 10
94.5221826284
 20
85.4430682735
 30
0.0
 10
93.97248596945239
 20
85.17358428576591
 30
0.0
 10
92.90921564511825
 20
84.65232529250685
 30
0.0
 10
91.26736376211596
 20
84.08898571013596
 30
0.0
 10
89.64477280188856
 20
83.7380406547253
 30
0.0
 10
88.02242921810441
 20
83.62041038276436
 30
0.0
 10
86.40013428559811
 20
83.73819015534984
 30
0.0
 10
84.77780648764431
 20
84.08920969626294
 30
0.0
 10
83.13630534974958
 20
84.65250380646191
 30
0.0
 10
82.07331159201834
 20
85.17363325187699
 30
0.0
 10
81.523721181
 20
85.4430682735
 30
0.0
 11
94.5221826284
 21
85.4430682735
 31
0.0
 11
92.85730325800002
 21
84.6710107501
 31
0.0
 11
91.23559507740001
 21
84.1143565085
 31
0.0
 11
89.62808104849999
 21
83.77424449679999
 31
0.0
 11
88.0224163999
 21
83.65937670770001
 31
0.0
 11
86.416806572
 21
83.77438942839999
 31
0.0
 11
84.8094265149
 21
84.1146027193
 31
0.0
 11
83.1882756628
 21
84.67114240239999
 31
0.0
 11
81.523721181
 21
85.4430682735
 31
0.0
  0
SPLINE
  5
1270
330
1B
100
AcDbEntity
  8
0
  6
Continuous
100
AcDbSpline
210
0.0
220
0.0
230
1.0
 70
     8
 71
     3
 72
    11
 73
     7
 74
     5
 42
0.0000000001
 43
0.0000000001
 44
0.0000000001
 40
0.0
 40
0.0
 40
0.0
 40
0.0
 40
0.0811306507142749
 40
0.3385215478620636
 40
0.7936459733296188
 40
1.471474858327604
 40
1.471474858327604
 40
1.471474858327604
 40
1.471474858327604
 10
138.7343565148
 20
143.7974964796
 30
0.0
 10
138.7088387430034
 20
143.7885412041714
 30
0.0
 10
138.6023646110872
 20
143.7511748861035
 30
0.0
 10
138.3526764123726
 20
143.6637574802847
 30
0.0
 10
137.915094357679
 20
143.5110930450078
 30
0.0
 10
137.5581695397749
 20
143.3877026176356
 30
0.0
 10
137.3446268023
 20
143.3138799852
 30
0.0
 11
138.7343565148
 21
143.7974964796
 31
0.0
 11
138.6578016022
 21
143.7706352093
 31
0.0
 11
138.4148739867
 21
143.6855690729
 31
0.0
 11
137.9851292976
 21
143.5357099896
 31
0.0
 11
137.3446268023
 21
143.3138799852
 31
0.0
  0
SPLINE
  5
1271
330
1B
100
AcDbEntity
  8
0
  6
Continuous
100
AcDbSpline
210
0.0
220
0.0
230
1.0
 70
     8
 71
     3
 72
    10
 73
     6
 74
     4
 42
0.0000000001
 43
0.0000000001
 44
0.0000000001
 40
0.0
 40
0.0
 40
0.0
 40
0.0
 40
0.115835757294084
 40
0.2343890365417851
 40
0.3558538867736887
 40
0.3558538867736887
 40
0.3558538867736887
 40
0.3558538867736887
 10
139.3152409065
 20
102.7136296787
 30
0.0
 10
139.3067649024566
 20
102.6759473949985
 30
0.0
 10
139.2896140462109
 20
102.5996987963119
 30
0.0
 10
139.25379641524
 20
102.4864356750145
 30
0.0
 10
139.2241144677818
 20
102.4121253580441
 30
0.0
 10
139.2090934637
 20
102.3745194841
 30
0.0
 11
139.3152409065
 21
102.7136296787
 31
0.0
 11
139.2882397623
 21
102.6009848347
 31
0.0
 11
139.2527418984
 21
102.487870814
 31
0.0
 11
139.2090934637
 21
102.3745194841
 31
0.0
  0
SPLINE
  5
1272
330
1B
100
AcDbEntity
  8
0
  6
Continuous
100
AcDbSpline
210
0.0
220
0.0
230
1.0
 70
     8
 71
     3
 72
    18
 73
    14
 74
    12
 42
0.0000000001
 43
0.0000000001
 44
0.0000000001
 40
0.0
 40
0.0
 40
0.0
 40
0.0
 40
0.1536040470266892
 40
0.2954914001315243
 40
0.4305818482871808
 40
0.561047927056517
 40
0.6878227936443562
 40
0.8108058654762584
 40
0.9294053490719861
 40
1.042801631757337
 40
1.150286092775511
 40
1.251604604067636
 40
1.348906224301356
 40
1.348906224301356
 40
1.348906224301356
 40
1.348906224301356
 10
135.8435701704
 20
146.7974964796
 30
0.0
 10
135.84178951083
 20
146.8486689559157
 30
0.0
 10
135.8383640178193
 20
146.9471105462736
 30
0.0
 10
135.8293200052891
 20
147.090371963172
 30
0.0
 10
135.8174196083596
 20
147.2256795696548
 30
0.0
 10
135.8019174669553
 20
147.3555606503684
 30
0.0
 10
135.7822144360736
 20
147.4807956447791
 30
0.0
 10
135.757509831345
 20
147.6011320985509
 30
0.0
 10
135.7268751240308
 20
147.7154963005737
 30
0.0
 10
135.6894212859647
 20
147.8224815421593
 30
0.0
 10
135.6436212572304
 20
147.9197193926212
 30
0.0
 10
135.5893410701309
 20
148.0069820684903
 30
0.0
 10
135.5422708512709
 20
148.0538217136295
 30
0.0
 10
135.5192117156
 20
148.076767894
 30
0.0
 11
135.8435701704
 21
146.7974964796
 31
0.0
 11
135.8374766976
 21
146.950979615
 31
0.0
 11
135.8285809895
 21
147.0925878328
 31
0.0
 11
135.8165763386
 21
147.2271438343
 31
0.0
 11
135.8009572963
 21
147.3566716044
 31
0.0
 11
135.7810367799
 21
147.4818716037
 31
0.0
 11
135.7560117012
 21
147.6022816589
 31
0.0
 11
135.7249693423
 21
147.716746542
 31
0.0
 11
135.6869165637
 21
147.823567434
 31
0.0
 11
135.6407984363
 21
147.9206551659
 31
0.0
 11
135.5855452907
 21
148.005581785
 31
0.0
 11
135.5192117156
 21
148.076767894
 31
0.0
  0
SPLINE
  5
1273
330
1B
100
AcDbEntity
  8
0
  6
Continuous
100
AcDbSpline
210
0.0
220
0.0
230
1.0
 70
     8
 71
     3
 72
     9
 73
     5
 74
     3
 42
0.0000000001
 43
0.0000000001
 44
0.0000000001
 40
0.0
 40
0.0
 40
0.0
 40
0.0
 40
0.0351432896168047
 40
0.0688250269902368
 40
0.0688250269902368
 40
0.0688250269902368
 40
0.0688250269902368
 10
135.5192117156
 20
148.076767894
 30
0.0
 10
135.5097106622155
 20
148.0840714012244
 30
0.0
 10
135.4911036888003
 20
148.0983746746891
 30
0.0
 10
135.4677530016152
 20
148.1004559811427
 30
0.0
 10
135.4563255929
 20
148.1014745353
 30
0.0
 11
135.5192117156
 21
148.076767894
 31
0.0
 11
135.489471724
 21
148.0954917746
 31
0.0
 11
135.4563255929
 21
148.1014745353
 31
0.0
  0
SPLINE
  5
1274
330
1B
100
AcDbEntity
  8
0
  6
Continuous
100
AcDbSpline
210
0.0
220
0.0
230
1.0
 70
     8
 71
     3
 72
    16
 73
    12
 74
    10
 42
0.0000000001
 43
0.0000000001
 44
0.0000000001
 40
0.0
 40
0.0
 40
0.0
 40
0.0
 40
0.6293995068055479
 40
1.287122505029495
 40
1.971331757386381
 40
2.67451332142514
 40
3.385073338175947
 40
4.089909278926823
 40
4.777087322286985
 40
5.438439184569138
 40
6.071794590876704
 40
6.071794590876704
 40
6.071794590876704
 40
6.071794590876704
 10
135.5202792674
 20
148.0762124927
 30
0.0
 10
135.3956961550892
 20
147.9058391277945
 30
0.0
 10
135.1409235887495
 20
147.5574254575322
 30
0.0
 10
134.9470315561628
 20
146.9178553797375
 30
0.0
 10
134.8959896310326
 20
146.2339045847916
 30
0.0
 10
135.0032461784343
 20
145.536528628096
 30
0.0
 10
135.2576550402156
 20
144.8724610842281
 30
0.0
 10
135.6443136703774
 20
144.2804814175549
 30
0.0
 10
136.1402295722191
 20
143.802812079356
 30
0.0
 10
136.7131247030521
 20
143.4522334918152
 30
0.0
 10
137.1371826803528
 20
143.3593281086354
 30
0.0
 10
137.3446268023
 20
143.3138798995
 30
0.0
 11
135.5202792674
 21
148.0762124927
 31
0.0
 11
135.1771792981
 21
147.5485514744
 31
0.0
 11
134.9732979531
 21
146.9232260075
 31
0.0
 11
134.9221353598
 21
146.2409323097
 31
0.0
 11
135.0269882313
 21
145.5456121048
 31
0.0
 11
135.2811055833
 21
144.8820460502
 31
0.0
 11
135.6681233702
 21
144.2929697088
 31
0.0
 11
136.1631182199
 21
143.8163212408
 31
0.0
 11
136.7342124174
 21
143.4827980732
 31
0.0
 11
137.3446268023
 21
143.3138798995
 31
0.0
  0
SPLINE
  5
1275
330
1B
100
AcDbEntity
  8
0
  6
Continuous
100
AcDbSpline
210
0.0
220
0.0
230
1.0
 70
     8
 71
     3
 72
    12
 73
     8
 74
     6
 42
0.0000000001
 43
0.0000000001
 44
0.0000000001
 40
0.0
 40
0.0
 40
0.0
 40
0.0
 40
0.0562389878656824
 40
0.1143946699541451
 40
0.1724192745501811
 40
0.2280556974794518
 40
0.2787685459453091
 40
0.2787685459453091
 40
0.2787685459453091
 40
0.2787685459453091
 10
137.3446268023
 20
143.3138799852
 30
0.0
 10
137.3270857499682
 20
143.3072291643811
 30
0.0
 10
137.2914058245588
 20
143.2937008545487
 30
0.0
 10
137.2403891085876
 20
143.2669218689461
 30
0.0
 10
137.1922064238715
 20
143.2359075392208
 30
0.0
 10
137.1488514116015
 20
143.2020930417085
 30
0.0
 10
137.124479202959
 20
143.1762935220702
 30
0.0
 10
137.1128572698
 20
143.163990973
 30
0.0
 11
137.3446268023
 21
143.3138799852
 31
0.0
 11
137.2924464183
 21
143.2929030626
 31
0.0
 11
137.2408002824
 21
143.2661680667
 31
0.0
 11
137.1920305663
 21
143.2347297218
 31
0.0
 11
137.1485594738
 21
143.200006881
 31
0.0
 11
137.1128572698
 21
143.163990973
 31
0.0
  0
SPLINE
  5
1276
330
1B
100
AcDbEntity
  8
0
  6
Continuous
100
AcDbSpline
210
0.0
220
0.0
230
1.0
 70
     8
 71
     3
 72
    12
 73
     8
 74
     6
 42
0.0000000001
 43
0.0000000001
 44
0.0000000001
 40
0.0
 40
0.0
 40
0.0
 40
0.0
 40
0.5081890004438339
 40
1.019978880944502
 40
1.533187162238652
 40
2.04524661211742
 40
2.552325197641529
 40
2.552325197641529
 40
2.552325197641529
 40
2.552325197641529
 10
135.4563354985
 20
148.1014745324
 30
0.0
 10
135.3334663616193
 20
147.9843462311189
 30
0.0
 10
135.0868574727439
 20
147.7492596913409
 30
0.0
 10
134.7940966021299
 20
147.3260736474022
 30
0.0
 10
134.5687009670067
 20
146.8646168023026
 30
0.0
 10
134.4169220679673
 20
146.3730689868985
 30
0.0
 10
134.3853436673628
 20
146.0341012278158
 30
0.0
 10
134.3696316341
 20
145.865445672
 30
0.0
 11
135.4563354985
 21
148.1014745324
 31
0.0
 11
135.1005979174
 21
147.7385601712
 31
0.0
 11
134.8056900053
 21
147.3202801153
 31
0.0
 11
134.5807582283
 21
146.8589901461
 31
0.0
 11
134.4339404427
 21
146.3684298358
 31
0.0
 11
134.3696316341
 21
145.865445672
 31
0.0
  0
SPLINE
  5
1277
330
1B
100
AcDbEntity
  8
0
  6
Continuous
100
AcDbSpline
210
0.0
220
0.0
230
1.0
 70
     8
 71
     3
 72
    11
 73
     7
 74
     5
 42
0.0000000001
 43
0.0000000001
 44
0.0000000001
 40
0.0
 40
0.0
 40
0.0
 40
0.0
 40
0.9820667515639138
 40
2.379265258585249
 40
4.114040483971559
 40
6.043912340840777
 40
6.043912340840777
 40
6.043912340840777
 40
6.043912340840777
 10
134.3696316341
 20
145.865445672
 30
0.0
 10
134.187432896534
 20
145.5934763558152
 30
0.0
 10
133.7460177628289
 20
144.934572931614
 30
0.0
 10
132.9981981465425
 20
143.785037234712
 30
0.0
 10
132.0972551973815
 20
142.358203993889
 30
0.0
 10
131.4762584063561
 20
141.3062013386686
 30
0.0
 10
131.149229854
 20
140.7521970179
 30
0.0
 11
134.3696316341
 21
145.865445672
 31
0.0
 11
133.8245568414
 21
145.048531616
 31
0.0
 11
133.0619198337
 21
143.8778273568
 31
0.0
 11
132.1389855729
 21
142.4089374927
 31
0.0
 11
131.149229854
 21
140.7521970179
 31
0.0
  0
SPLINE
  5
1278
330
1B
100
AcDbEntity
  8
0
  6
Continuous
100
AcDbSpline
210
0.0
220
0.0
230
1.0
 70
     8
 71
     3
 72
    13
 73
     9
 74
     7
 42
0.0000000001
 43
0.0000000001
 44
0.0000000001
 40
0.0
 40
0.0
 40
0.0
 40
0.0
 40
0.6883717856066814
 40
1.385770221511047
 40
2.089751707420729
 40
2.796306253382793
 40
3.500822379460686
 40
4.199164553737345
 40
4.199164553737345
 40
4.199164553737345
 40
4.199164553737345
 10
134.3696058402
 20
145.8654456727
 30
0.0
 10
134.3990809581737
 20
145.6366591850245
 30
0.0
 10
134.4584177026734
 20
145.1760861221332
 30
0.0
 10
134.7626173859208
 20
144.5375657403705
 30
0.0
 10
135.2023588375534
 20
143.9821929931782
 30
0.0
 10
135.7664831331058
 20
143.5497646422177
 30
0.0
 10
136.4143494536698
 20
143.2510773876135
 30
0.0
 10
136.8807054730477
 20
143.1929078648958
 30
0.0
 10
137.1128572709
 20
143.163951105
 30
0.0
 11
134.3696058402
 21
145.8654456727
 31
0.0
 11
134.4931655152
 21
145.1882538816
 31
0.0
 11
134.7835396178
 21
144.5541817572
 31
0.0
 11
135.2222376601
 21
144.0036057314
 31
0.0
 11
135.7813241744
 21
143.5715853662
 31
0.0
 11
136.4251975899
 21
143.2856308301
 31
0.0
 11
137.1128572709
 21
143.163951105
 31
0.0
  0
SPLINE
  5
1279
330
1B
100
AcDbEntity
  8
0
  6
Continuous
100
AcDbSpline
210
0.0
220
0.0
230
1.0
 70
     8
 71
     3
 72
    11
 73
     7
 74
     5
 42
0.0000000001
 43
0.0000000001
 44
0.0000000001
 40
0.0
 40
0.0
 40
0.0
 40
0.0
 40
0.9325546312208007
 40
2.254719592639789
 40
3.889286924939424
 40
5.698253386205403
 40
5.698253386205403
 40
5.698253386205403
 40
5.698253386205403
 10
137.1128572698
 20
143.163990973
 30
0.0
 10
136.9098186913274
 20
142.9286059095461
 30
0.0
 10
136.4189144101009
 20
142.3594946782935
 30
0.0
 10
135.5863844314629
 20
141.3656663960018
 30
0.0
 10
134.5840118868244
 20
140.1330027396967
 30
0.0
 10
133.8893376931723
 20
139.2191380940001
 30
0.0
 10
133.5244095719
 20
138.7390642532
 30
0.0
 11
137.1128572698
 21
143.163990973
 31
0.0
 11
136.5051554378
 21
142.4566320658
 31
0.0
 11
135.6554596927
 21
141.4436476997
 31
0.0
 11
134.6273642696
 21
140.1728880195
 31
0.0
 11
133.5244095719
 21
138.7390642532
 31
0.0
  0
SPLINE
  5
127A
330
1B
100
AcDbEntity
  8
0
  6
Continuous
100
AcDbSpline
210
0.0
220
0.0
230
1.0
 70
     8
 71
     3
 72
    12
 73
     8
 74
     6
 42
0.0000000001
 43
0.0000000001
 44
0.0000000001
 40
0.0
 40
0.0
 40
0.0
 40
0.0
 40
0.7111510890207109
 40
1.519471814335337
 40
2.437705624382337
 40
3.484293671237229
 40
4.69854416449361
 40
4.69854416449361
 40
4.69854416449361
 40
4.69854416449361
 10
131.149229854
 20
140.7521970179
 30
0.0
 10
130.9530351144438
 20
140.6189173796691
 30
0.0
 10
130.5338381512681
 20
140.3341471573589
 30
0.0
 10
129.8143745469636
 20
139.9529302370043
 30
0.0
 10
128.9641192784087
 20
139.5885008184545
 30
0.0
 10
127.9555875249159
 20
139.2559633973691
 30
0.0
 10
127.2172218302954
 20
139.1025444260561
 30
0.0
 10
126.8206606018
 20
139.0201462104
 30
0.0
 11
131.149229854
 21
140.7521970179
 31
0.0
 11
130.5542364283
 21
140.3626861775
 31
0.0
 11
129.8424759734
 21
139.979568115
 31
0.0
 11
128.9989083791
 21
139.6168739687
 31
0.0
 11
128.0042477254
 21
139.2913025882
 31
0.0
 11
126.8206606018
 21
139.0201462104
 31
0.0
  0
SPLINE
  5
127B
330
1B
100
AcDbEntity
  8
0
  6
Continuous
100
AcDbSpline
210
0.0
220
0.0
230
1.0
 70
     8
 71
     3
 72
    11
 73
     7
 74
     5
 42
0.0000000001
 43
0.0000000001
 44
0.0000000001
 40
0.0
 40
0.0
 40
0.0
 40
0.0
 40
0.7422267454107233
 40
1.547195215123163
 40
2.37930309002842
 40
3.19711808307201
 40
3.19711808307201
 40
3.19711808307201
 40
3.19711808307201
 10
131.1491864101
 20
140.7521970205
 30
0.0
 10
131.2667221822283
 20
140.5330837113302
 30
0.0
 10
131.5117292307713
 20
140.0763350619268
 30
0.0
 10
132.0814943073222
 20
139.5119630325708
 30
0.0
 10
132.7528847789906
 20
139.0334022601514
 30
0.0
 10
133.2687241726058
 20
138.83658862177
 30
0.0
 10
133.5244095736
 20
138.739034277
 30
0.0
 11
131.1491864101
 21
140.7521970205
 31
0.0
 11
131.5306746476
 21
140.1155124312
 31
0.0
 11
132.088462294
 21
139.5351270603
 31
0.0
 11
132.7732248942
 21
139.0623652843
 31
0.0
 11
133.5244095736
 21
138.739034277
 31
0.0
  0
SPLINE
  5
127C
330
1B
100
AcDbEntity
  8
0
  6
Continuous
100
AcDbSpline
210
0.0
220
0.0
230
1.0
 70
     8
 71
     3
 72
    12
 73
     8
 74
     6
 42
0.0000000001
 43
0.0000000001
 44
0.0000000001
 40
0.0
 40
0.0
 40
0.0
 40
0.0
 40
1.069604086924361
 40
2.281366911855701
 40
3.643570577621489
 40
5.166307427317067
 40
6.872316335641555
 40
6.872316335641555
 40
6.872316335641555
 40
6.872316335641555
 10
133.5244095719
 20
138.7390642532
 30
0.0
 10
133.2976888910798
 20
138.4631840599752
 30
0.0
 10
132.8141145800055
 20
137.8747570409
 30
0.0
 10
131.8842565401135
 20
137.0839693660686
 30
0.0
 10
130.7448012345059
 20
136.3281442540748
 30
0.0
 10
129.3707628560412
 20
135.6399821984693
 30
0.0
 10
128.3436311719214
 20
135.3139809347731
 30
0.0
 10
127.8009139887
 20
135.1417279605
 30
0.0
 11
133.5244095719
 21
138.7390642532
 31
0.0
 11
132.8225645438
 21
137.9319295313
 31
0.0
 11
131.9095664451
 21
137.1351838908
 31
0.0
 11
130.7758460325
 21
136.3800171191
 31
0.0
 11
129.4120934554
 21
135.702590797
 31
0.0
 11
127.8009139887
 21
135.1417279605
 31
0.0
  0
SPLINE
  5
127D
330
1B
100
AcDbEntity
  8
0
  6
Continuous
100
AcDbSpline
210
0.0
220
0.0
230
1.0
 70
     8
 71
     3
 72
    10
 73
     6
 74
     4
 42
0.0000000001
 43
0.0000000001
 44
0.0000000001
 40
0.0
 40
0.0
 40
0.0
 40
0.0
 40
1.27838026103984
 40
2.568185337179527
 40
3.869221017642238
 40
3.869221017642238
 40
3.869221017642238
 40
3.869221017642238
 10
126.8206606018
 20
139.0201462104
 30
0.0
 10
126.4160903140422
 20
138.8863215733788
 30
0.0
 10
125.6033341157942
 20
138.6174763158091
 30
0.0
 10
124.3727587324827
 20
138.2310371472312
 30
0.0
 10
123.5441334566193
 20
137.9876611537709
 30
0.0
 10
123.1280248838
 20
137.865445672
 30
0.0
 11
126.8206606018
 21
139.0201462104
 31
0.0
 11
125.6059499446
 21
138.6217317138
 31
0.0
 11
124.3751833726
 21
138.2359717111
 31
0.0
 11
123.1280248838
 21
137.865445672
 31
0.0
  0
SPLINE
  5
127E
330
1B
100
AcDbEntity
  8
0
  6
Continuous
100
AcDbSpline
210
0.0
220
0.0
230
1.0
 70
     8
 71
     3
 72
    13
 73
     9
 74
     7
 42
0.0000000001
 43
0.0000000001
 44
0.0000000001
 40
0.0
 40
0.0
 40
0.0
 40
0.0
 40
0.4129738187318672
 40
0.994751526476227
 40
1.704263302008069
 40
2.487126957761275
 40
3.282129980221355
 40
4.026961187522009
 40
4.026961187522009
 40
4.026961187522009
 40
4.026961187522009
 10
126.8206607006
 20
139.020145966
 30
0.0
 10
126.8167462879424
 20
138.8822850693497
 30
0.0
 10
126.8073174384855
 20
138.5502123539284
 30
0.0
 10
126.9023156355785
 20
137.987343272496
 30
0.0
 10
127.0496006143281
 20
137.3123348994039
 30
0.0
 10
127.2604396000685
 20
136.5789538486322
 30
0.0
 10
127.506872091991
 20
135.8444793266665
 30
0.0
 10
127.7050524339315
 20
135.3708342001189
 30
0.0
 10
127.8009139887
 20
135.1417279336
 30
0.0
 11
126.8206607006
 21
139.020145966
 31
0.0
 11
126.8200992669
 21
138.6071725289
 31
0.0
 11
126.8991975563
 21
138.03079699
 31
0.0
 11
127.0515313669
 21
137.3378313561
 31
0.0
 11
127.2647284665
 21
136.5845568376
 31
0.0
 11
127.5214734352
 21
135.832152806
 31
0.0
 11
127.8009139887
 21
135.1417279336
 31
0.0
  0
SPLINE
  5
127F
330
1B
100
AcDbEntity
  8
0
  6
Continuous
100
AcDbSpline
210
0.0
220
0.0
230
1.0
 70
     8
 71
     3
 72
    10
 73
     6
 74
     4
 42
0.0000000001
 43
0.0000000001
 44
0.0000000001
 40
0.0
 40
0.0
 40
0.0
 40
0.0
 40
1.305899542301634
 40
2.629117407471638
 40
3.96994379225761
 40
3.96994379225761
 40
3.96994379225761
 40
3.96994379225761
 10
127.8009139887
 20
135.1417279605
 30
0.0
 10
127.3813239614113
 20
135.0258307486719
 30
0.0
 10
126.5365794699615
 20
134.7924993420632
 30
0.0
 10
125.2561499803182
 20
134.458051441369
 30
0.0
 10
124.3932936885749
 20
134.2481249166809
 30
0.0
 10
123.9590139343
 20
134.1424678792
 30
0.0
 11
127.8009139887
 21
135.1417279605
 31
0.0
 11
126.5413477314
 21
134.796957808
 31
0.0
 11
125.2609362602
 21
134.4631135582
 31
0.0
 11
123.9590139343
 21
134.1424678792
 31
0.0
  0
SPLINE
  5
1280
330
1B
100
AcDbEntity
  8
0
  6
Continuous
100
AcDbSpline
210
0.0
220
0.0
230
1.0
 70
     8
 71
     3
 72
    12
 73
     8
 74
     6
 42
0.0000000001
 43
0.0000000001
 44
0.0000000001
 40
0.0
 40
0.0
 40
0.0
 40
0.0
 40
0.5102472387963076
 40
1.062886536916517
 40
1.652182029261212
 40
2.266916833597578
 40
2.893055740179543
 40
2.893055740179543
 40
2.893055740179543
 40
2.893055740179543
 10
123.1280248838
 20
137.865445672
 30
0.0
 10
123.0052012323565
 20
137.7469275437991
 30
0.0
 10
122.7493495675005
 20
137.5000446343641
 30
0.0
 10
122.461257545059
 20
137.0243842514833
 30
0.0
 10
122.2354474824184
 20
136.4830484319407
 30
0.0
 10
122.0843404007597
 20
135.8885935679398
 30
0.0
 10
122.0500237221708
 20
135.47588475892
 30
0.0
 10
122.0327076912
 20
135.2676338788
 30
0.0
 11
123.1280248838
 21
137.865445672
 31
0.0
 11
122.7758046235
 21
137.4962666735
 31
0.0
 11
122.4799055199
 21
137.0295184391
 31
0.0
 11
122.2519791838
 21
136.486086049
 31
0.0
 11
122.1020041911
 21
135.8899263546
 31
0.0
 11
122.0327076912
 21
135.2676338788
 31
0.0
  0
SPLINE
  5
1281
330
1B
100
AcDbEntity
  8
0
  6
Continuous
100
AcDbSpline
210
0.0
220
0.0
230
1.0
 70
     8
 71
     3
 72
    13
 73
     9
 74
     7
 42
0.0000000001
 43
0.0000000001
 44
0.0000000001
 40
0.0
 40
0.0
 40
0.0
 40
0.0
 40
0.404568667905843
 40
0.9598792648054635
 40
1.628666291161711
 40
2.364237664429857
 40
3.114692405853957
 40
3.826988118774975
 40
3.826988118774975
 40
3.826988118774975
 40
3.826988118774975
 10
123.1280193308
 20
137.8654618859
 30
0.0
 10
123.1322226391557
 20
137.730557394952
 30
0.0
 10
123.1421954048546
 20
137.4104831186605
 30
0.0
 10
123.2297042073571
 20
136.873507873849
 30
0.0
 10
123.3573350466925
 20
136.2330522559285
 30
0.0
 10
123.5298468168423
 20
135.5355186214143
 30
0.0
 10
123.7281124658683
 20
134.8298426502888
 30
0.0
 10
123.8833970905997
 20
134.3675730361732
 30
0.0
 10
123.9590139343
 20
134.1424678835
 30
0.0
 11
123.1280193308
 21
137.8654618859
 31
0.0
 11
123.1480195924
 21
137.461387887
 31
0.0
 11
123.2264785269
 21
136.9116478988
 31
0.0
 11
123.3577405514
 21
136.2558686924
 31
0.0
 11
123.5323438957
 21
135.5413206413
 31
0.0
 11
123.7377026377
 21
134.8195103435
 31
0.0
 11
123.9590139343
 21
134.1424678835
 31
0.0
  0
SPLINE
  5
1282
330
1B
100
AcDbEntity
  8
0
  6
Continuous
100
AcDbSpline
210
0.0
220
0.0
230
1.0
 70
     8
 71
     3
 72
    12
 73
     8
 74
     6
 42
0.0000000001
 43
0.0000000001
 44
0.0000000001
 40
0.0
 40
0.0
 40
0.0
 40
0.0
 40
0.0774131729068683
 40
0.1522009584711327
 40
0.2212874310528304
 40
0.2823590207673722
 40
0.3337694874919591
 40
0.3337694874919591
 40
0.3337694874919591
 40
0.3337694874919591
 10
123.9590139343
 20
134.1424678792
 30
0.0
 10
123.9340577360457
 20
134.135856188248
 30
0.0
 10
123.8849917030765
 20
134.1228570349744
 30
0.0
 10
123.8160303530609
 20
134.0961283338159
 30
0.0
 10
123.755108134021
 20
134.0652081047603
 30
0.0
 10
123.7039180662439
 20
134.0320940704412
 30
0.0
 10
123.6778769755663
 20
134.0049741551584
 30
0.0
 10
123.6659747694
 20
133.992578867
 30
0.0
 11
123.9590139343
 21
134.1424678792
 31
0.0
 11
123.8845682049
 21
134.1212397678
 31
0.0
 11
123.8148125257
 21
134.0942701907
 31
0.0
 11
123.7532876972
 21
134.0628435114
 31
0.0
 11
123.7028661082
 21
134.0283848052
 31
0.0
 11
123.6659747694
 21
133.992578867
 31
0.0
  0
SPLINE
  5
1283
330
1B
100
AcDbEntity
  8
0
  6
Continuous
100
AcDbSpline
210
0.0
220
0.0
230
1.0
 70
    24
 71
     3
 72
     8
 73
     4
 74
     2
 42
0.0000000001
 43
0.0000000001
 44
0.0000000001
 40
0.0
 40
0.0
 40
0.0
 40
0.0
 40
0.9614806998794091
 40
0.9614806998794091
 40
0.9614806998794091
 40
0.9614806998794091
 10
120.31244138
 20
122.8340323397
 30
0.0
 10
120.4434662737
 20
122.5415454109667
 30
0.0
 10
120.5744911674
 20
122.2490584822333
 30
0.0
 10
120.7055160611
 20
121.9565715535
 30
0.0
 11
120.31244138
 21
122.8340323397
 31
0.0
 11
120.7055160611
 21
121.9565715535
 31
0.0
  0
SPLINE
  5
1284
330
1B
100
AcDbEntity
  8
0
  6
Continuous
100
AcDbSpline
210
0.0
220
0.0
230
1.0
 70
     8
 71
     3
 72
    14
 73
    10
 74
     8
 42
0.0000000001
 43
0.0000000001
 44
0.0000000001
 40
0.0
 40
0.0
 40
0.0
 40
0.0
 40
0.4641448255505429
 40
2.034859644227518
 40
3.764339394863442
 40
5.639220028885726
 40
7.651581909788211
 40
9.806952249575737
 40
12.08743130510702
 40
12.08743130510702
 40
12.08743130510702
 40
12.08743130510702
 10
120.7055160611
 20
121.9565715535
 30
0.0
 10
120.7758068300968
 20
121.8187314906329
 30
0.0
 10
121.0839689409718
 20
121.2144261836561
 30
0.0
 10
121.7403892703624
 20
120.1423945761303
 30
0.0
 10
122.7441666286431
 20
118.7385091849451
 30
0.0
 10
123.9177404105036
 20
117.2786669291721
 30
0.0
 10
125.2426099220348
 20
115.761092196748
 30
0.0
 10
126.7026898700112
 20
114.183288856348
 30
0.0
 10
127.7357867126479
 20
113.1253876394981
 30
0.0
 10
128.2669038679
 20
112.5815185058
 30
0.0
 11
120.7055160611
 21
121.9565715535
 31
0.0
 11
120.9188167241
 21
121.5443419497
 31
0.0
 11
121.7273454744
 21
120.1977067721
 31
0.0
 11
122.7283945297
 21
118.7873873059
 31
0.0
 11
123.898339314
 21
117.3223253299
 31
0.0
 11
125.218228618
 21
115.8032820241
 31
0.0
 11
126.6811324386
 21
114.2203942475
 31
0.0
 11
128.2669038679
 21
112.5815185058
 31
0.0
  0
SPLINE
  5
1285
330
1B
100
AcDbEntity
  8
0
  6
Continuous
100
AcDbSpline
210
0.0
220
0.0
230
1.0
 70
     8
 71
     3
 72
    12
 73
     8
 74
     6
 42
0.0000000001
 43
0.0000000001
 44
0.0000000001
 40
0.0
 40
0.0
 40
0.0
 40
0.0
 40
1.909739263096764
 40
3.962661468855946
 40
6.150047379256683
 40
8.481995969602124
 40
10.94216871508732
 40
10.94216871508732
 40
10.94216871508732
 40
10.94216871508732
 10
120.1455298874
 20
119.7078145424
 30
0.0
 10
120.433416054648
 20
119.1398279332451
 30
0.0
 10
121.0307726909252
 20
117.9612698471142
 30
0.0
 10
122.0938034600277
 20
116.2065744862252
 30
0.0
 10
123.2947659566998
 20
114.3742571433056
 30
0.0
 10
124.6295196270084
 20
112.4681731320329
 30
0.0
 10
125.5804289831978
 20
111.1846308589079
 30
0.0
 10
126.0686055375
 20
110.5256876693
 30
0.0
 11
120.1455298874
 21
119.7078145424
 31
0.0
 11
121.0295311566
 21
118.0149926944
 31
0.0
 11
122.0803842753
 21
116.2514175455
 31
0.0
 11
123.2773559511
 21
114.4205937068
 31
0.0
 11
124.6131604639
 21
112.5091517036
 31
0.0
 11
126.0686055375
 21
110.5256876693
 31
0.0
  0
SPLINE
  5
1286
330
1B
100
AcDbEntity
  8
0
  6
Continuous
100
AcDbSpline
210
0.0
220
0.0
230
1.0
 70
     8
 71
     3
 72
    12
 73
     8
 74
     6
 42
0.0000000001
 43
0.0000000001
 44
0.0000000001
 40
0.0
 40
0.0
 40
0.0
 40
0.0
 40
1.924338092963293
 40
3.77798955655823
 40
5.519436867545814
 40
7.138051065093775
 40
8.644659884221021
 40
8.644659884221021
 40
8.644659884221021
 40
8.644659884221021
 10
122.0328469304
 20
135.2676338976
 30
0.0
 10
121.69898199693
 20
134.7198280654854
 30
0.0
 10
121.0435159763991
 20
133.6443389296011
 30
0.0
 10
120.1839567430729
 20
132.0156574794234
 30
0.0
 10
119.4829778280333
 20
130.424550631037
 30
0.0
 10
118.9532596673365
 20
128.8857876536339
 30
0.0
 10
118.7638674338433
 20
127.8601616986752
 30
0.0
 10
118.6725651467
 20
127.3657275093
 30
0.0
 11
122.0328469304
 21
135.2676338976
 31
0.0
 11
121.0486627621
 21
133.6140140444
 31
0.0
 11
120.1868251257
 21
131.9728986807
 31
0.0
 11
119.4895711009
 21
130.3771306644
 31
0.0
 11
118.9815126165
 21
128.8403195189
 31
0.0
 11
118.6725651467
 21
127.3657275093
 31
0.0
  0
SPLINE
  5
1287
330
1B
100
AcDbEntity
  8
0
  6
Continuous
100
AcDbSpline
210
0.0
220
0.0
230
1.0
 70
     8
 71
     3
 72
    10
 73
     6
 74
     4
 42
0.0000000001
 43
0.0000000001
 44
0.0000000001
 40
0.0
 40
0.0
 40
0.0
 40
0.0
 40
0.6693669067391177
 40
1.375106685769696
 40
2.078838535447109
 40
2.078838535447109
 40
2.078838535447109
 40
2.078838535447109
 10
122.0326896706
 20
135.2673694609
 30
0.0
 10
122.1903918134166
 20
135.1093320006412
 30
0.0
 10
122.5143655097017
 20
134.7846694485849
 30
0.0
 10
123.0635180050494
 20
134.3581454273093
 30
0.0
 10
123.4653466626116
 20
134.114319561887
 30
0.0
 10
123.6659747694
 20
133.992580306
 30
0.0
 11
122.0326896706
 21
135.2673694609
 31
0.0
 11
122.5151031865
 21
134.8033336266
 31
0.0
 11
123.0714440074
 21
134.3691061209
 31
0.0
 11
123.6659747694
 21
133.992580306
 31
0.0
  0
SPLINE
  5
1288
330
1B
100
AcDbEntity
  8
0
  6
Continuous
100
AcDbSpline
210
0.0
220
0.0
230
1.0
 70
     8
 71
     3
 72
    13
 73
     9
 74
     7
 42
0.0000000001
 43
0.0000000001
 44
0.0000000001
 40
0.0
 40
0.0
 40
0.0
 40
0.0
 40
1.967285221073002
 40
3.824494565860388
 40
5.518618625291486
 40
7.04813232127228
 40
8.43925437897807
 40
9.737555318302524
 40
9.737555318302524
 40
9.737555318302524
 40
9.737555318302524
 10
123.6659747694
 20
133.992578867
 30
0.0
 10
123.2556159797756
 20
133.4808429837735
 30
0.0
 10
122.4578592822919
 20
132.4860044704805
 30
0.0
 10
121.4194974197281
 20
130.9651547170896
 30
0.0
 10
120.5905617725956
 20
129.4837676954544
 30
0.0
 10
120.0218198078979
 20
128.0506420785748
 30
0.0
 10
119.7046025061266
 20
126.668366603564
 30
0.0
 10
119.714697525776
 20
125.7693389367092
 30
0.0
 10
119.7195708289
 20
125.3353393518
 30
0.0
 11
123.6659747694
 21
133.992578867
 31
0.0
 11
122.455577963
 21
132.4417240343
 31
0.0
 11
121.4130999472
 21
130.9046924351
 31
0.0
 11
120.5992337942
 21
129.4188666668
 31
0.0
 11
120.0432557778
 21
127.9939804989
 31
0.0
 11
119.7544278363
 21
126.6331722833
 31
0.0
 11
119.7195708289
 21
125.3353393518
 31
0.0
  0
SPLINE
  5
1289
330
1B
100
AcDbEntity
  8
0
  6
Continuous
100
AcDbSpline
210
0.0
220
0.0
230
1.0
 70
     8
 71
     3
 72
    10
 73
     6
 74
     4
 42
0.0000000001
 43
0.0000000001
 44
0.0000000001
 40
0.0
 40
0.0
 40
0.0
 40
0.0
 40
0.0203414661632256
 40
0.0694822894893671
 40
0.1477638046535885
 40
0.1477638046535885
 40
0.1477638046535885
 40
0.1477638046535885
 10
139.3422345148
 20
85.5068975563
 30
0.0
 10
139.3358370251667
 20
85.50463691603488
 30
0.0
 10
139.3139845085811
 20
85.49691503108957
 30
0.0
 10
139.2702007733403
 20
85.47407136270191
 30
0.0
 10
139.2323481217983
 20
85.45486663679938
 30
0.0
 10
139.2090934637
 20
85.4430682735
 30
0.0
 11
139.3422345148
 21
85.5068975563
 31
0.0
 11
139.3231504047
 21
85.49985681859999
 31
0.0
 11
139.2788211019
 21
85.47864989919998
 31
0.0
 11
139.2090934637
 21
85.4430682735
 31
0.0
  0
SPLINE
  5
128A
330
1B
100
AcDbEntity
  8
0
  6
Continuous
100
AcDbSpline
210
0.0
220
0.0
230
1.0
 70
    24
 71
     3
 72
     8
 73
     4
 74
     2
 42
0.0000000001
 43
0.0000000001
 44
0.0000000001
 40
0.0
 40
0.0
 40
0.0
 40
0.0
 40
0.0575609961839816
 40
0.0575609961839816
 40
0.0575609961839816
 40
0.0575609961839816
 10
118.6097573553
 20
126.8461938885
 30
0.0
 10
118.6079300930334
 20
126.8270940970667
 30
0.0
 10
118.6061028307667
 20
126.8079943056333
 30
0.0
 10
118.6042755685
 20
126.7888945142
 30
0.0
 11
118.6097573553
 21
126.8461938885
 31
0.0
 11
118.6042755685
 21
126.7888945142
 31
0.0
  0
SPLINE
  5
128B
330
1B
100
AcDbEntity
  8
0
  6
Continuous
100
AcDbSpline
210
0.0
220
0.0
230
1.0
 70
     8
 71
     3
 72
    12
 73
     8
 74
     6
 42
0.0000000001
 43
0.0000000001
 44
0.0000000001
 40
0.0
 40
0.0
 40
0.0
 40
0.0
 40
1.294883745506199
 40
2.607978382440848
 40
3.927732708534348
 40
5.301092792159776
 40
6.72277270296052
 40
6.72277270296052
 40
6.72277270296052
 40
6.72277270296052
 10
118.6042755685
 20
126.7888945142
 30
0.0
 10
118.5792513194097
 20
126.357464827711
 30
0.0
 10
118.5288508870227
 20
125.4885379454241
 30
0.0
 10
118.6555294665889
 20
124.1804068917464
 30
0.0
 10
118.927693496962
 20
122.8714159737672
 30
0.0
 10
119.3372972313431
 20
121.559501599333
 30
0.0
 10
119.7019243634701
 20
120.7017069862146
 30
0.0
 10
119.8873897127
 20
120.2653950295
 30
0.0
 11
118.6042755685
 21
126.7888945142
 31
0.0
 11
118.5623632828
 21
125.4946892466
 31
0.0
 11
118.6786831334
 21
124.1867568256
 31
0.0
 11
118.9444943868
 21
122.8940480963
 31
0.0
 11
119.3533462328
 21
121.5829576771
 31
0.0
 11
119.8873897127
 21
120.2653950295
 31
0.0
  0
SPLINE
  5
128C
330
1B
100
AcDbEntity
  8
0
  6
Continuous
100
AcDbSpline
210
0.0
220
0.0
230
1.0
 70
     8
 71
     3
 72
    11
 73
     7
 74
     5
 42
0.0000000001
 43
0.0000000001
 44
0.0000000001
 40
0.0
 40
0.0
 40
0.0
 40
0.0
 40
0.6291081632120077
 40
1.254583938564428
 40
1.867771776889148
 40
2.46174928374736
 40
2.46174928374736
 40
2.46174928374736
 40
2.46174928374736
 10
126.0685979141
 20
110.5256876693
 30
0.0
 10
126.0894057000303
 20
110.3164462185599
 30
0.0
 10
126.1309011304695
 20
109.8991714497186
 30
0.0
 10
126.3252391097151
 20
109.3037610202148
 30
0.0
 10
126.6017301610334
 20
108.7537402084201
 30
0.0
 10
126.8642300264789
 20
108.4470107134442
 30
0.0
 10
126.9933913019
 20
108.2960865493
 30
0.0
 11
126.0685979141
 21
110.5256876693
 31
0.0
 11
126.1534107493
 21
109.9023227168
 31
0.0
 11
126.3413059954
 21
109.3057363257
 31
0.0
 11
126.6253666683
 21
108.7623130476
 31
0.0
 11
126.9933913019
 21
108.2960865493
 31
0.0
  0
SPLINE
  5
128D
330
1B
100
AcDbEntity
  8
0
  6
Continuous
100
AcDbSpline
210
0.0
220
0.0
230
1.0
 70
    24
 71
     3
 72
     8
 73
     4
 74
     2
 42
0.0000000001
 43
0.0000000001
 44
0.0000000001
 40
0.0
 40
0.0
 40
0.0
 40
0.0
 40
0.0869230651184024
 40
0.0869230651184024
 40
0.0869230651184024
 40
0.0869230651184024
 10
126.9933913019
 20
108.2960865493
 30
0.0
 10
127.0138223281
 20
108.2755418074333
 30
0.0
 10
127.0342533543
 20
108.2549970655666
 30
0.0
 10
127.0546843805
 20
108.2344523237
 30
0.0
 11
126.9933913019
 21
108.2960865493
 31
0.0
 11
127.0546843805
 21
108.2344523237
 31
0.0
  0
SPLINE
  5
128E
330
1B
100
AcDbEntity
  8
0
  6
Continuous
100
AcDbSpline
210
0.0
220
0.0
230
1.0
 70
    24
 71
     3
 72
     8
 73
     4
 74
     2
 42
0.0000000001
 43
0.0000000001
 44
0.0000000001
 40
0.0
 40
0.0
 40
0.0
 40
0.0
 40
0.4847336396789069
 40
0.4847336396789069
 40
0.4847336396789069
 40
0.4847336396789069
 10
127.0546843805
 20
108.2344523237
 30
0.0
 10
127.1797722489333
 20
108.1321760486333
 30
0.0
 10
127.3048601173666
 20
108.0298997735667
 30
0.0
 10
127.4299479858
 20
107.9276234985
 30
0.0
 11
127.0546843805
 21
108.2344523237
 31
0.0
 11
127.4299479858
 21
107.9276234985
 31
0.0
  0
SPLINE
  5
128F
330
1B
100
AcDbEntity
  8
0
  6
Continuous
100
AcDbSpline
210
0.0
220
0.0
230
1.0
 70
     8
 71
     3
 72
    11
 73
     7
 74
     5
 42
0.0000000001
 43
0.0000000001
 44
0.0000000001
 40
0.0
 40
0.0
 40
0.0
 40
0.0
 40
0.7371673007449415
 40
1.519547621460889
 40
2.311476754014708
 40
3.075535971825596
 40
3.075535971825596
 40
3.075535971825596
 40
3.075535971825596
 10
126.0685661178
 20
110.52569972
 30
0.0
 10
126.1847666983102
 20
110.7432569077348
 30
0.0
 10
126.4242948428009
 20
111.1917148179269
 30
0.0
 10
126.9519032781877
 20
111.76181025096
 30
0.0
 10
127.5634353309216
 20
112.2539532939292
 30
0.0
 10
128.0352311955414
 20
112.4736417913884
 30
0.0
 10
128.2669038679
 20
112.5815185769
 30
0.0
 11
126.0685661178
 21
110.52569972
 31
0.0
 11
126.442424461
 21
111.16103079
 31
0.0
 11
126.9626576405
 21
111.7453906151
 31
0.0
 11
127.5875282106
 21
112.2318970607
 31
0.0
 11
128.2669038679
 21
112.5815185769
 31
0.0
  0
SPLINE
  5
1290
330
1B
100
AcDbEntity
  8
0
  6
Continuous
100
AcDbSpline
210
0.0
220
0.0
230
1.0
 70
     8
 71
     3
 72
    12
 73
     8
 74
     6
 42
0.0000000001
 43
0.0000000001
 44
0.0000000001
 40
0.0
 40
0.0
 40
0.0
 40
0.0
 40
0.0543710609381587
 40
0.1154549849610586
 40
0.1810079395992992
 40
0.2485890769563235
 40
0.3153939005967774
 40
0.3153939005967774
 40
0.3153939005967774
 40
0.3153939005967774
 10
128.2669038679
 20
112.5815185058
 30
0.0
 10
128.2802432264396
 20
112.5692146039904
 30
0.0
 10
128.3085688727119
 20
112.5430877127016
 30
0.0
 10
128.3590273928305
 20
112.5096011495435
 30
0.0
 10
128.4158993231535
 20
112.4786181654622
 30
0.0
 10
128.4770495281068
 20
112.4517523647653
 30
0.0
 10
128.5198070168359
 20
112.4383112353197
 30
0.0
 10
128.5410622616
 20
112.4316294936
 30
0.0
 11
128.2669038679
 21
112.5815185058
 31
0.0
 11
128.3077777823
 21
112.5456641422
 31
0.0
 11
128.3581958849
 21
112.5111784828
 31
0.0
 11
128.4157256439
 21
112.4797537045
 31
0.0
 11
128.4777058297
 21
112.4528155031
 31
0.0
 11
128.5410622616
 21
112.4316294936
 31
0.0
  0
SPLINE
  5
1291
330
1B
100
AcDbEntity
  8
0
  6
Continuous
100
AcDbSpline
210
0.0
220
0.0
230
1.0
 70
     8
 71
     3
 72
     9
 73
     5
 74
     3
 42
0.0000000001
 43
0.0000000001
 44
0.0000000001
 40
0.0
 40
0.0
 40
0.0
 40
0.0
 40
2.777926961587828
 40
5.674124470517391
 40
5.674124470517391
 40
5.674124470517391
 40
5.674124470517391
 10
127.4299479858
 20
107.9276234985
 30
0.0
 10
128.304475096719
 20
107.6231094682126
 30
0.0
 10
130.0907624069368
 20
107.0011166891506
 30
0.0
 10
131.8584804872764
 20
106.3281452093871
 30
0.0
 10
132.7607625446
 20
105.9846458143
 30
0.0
 11
127.4299479858
 21
107.9276234985
 31
0.0
 11
130.0490785212
 21
107.0018624913
 31
0.0
 11
132.7607625446
 21
105.9846458143
 31
0.0
  0
SPLINE
  5
1292
330
1B
100
AcDbEntity
  8
0
  6
Continuous
100
AcDbSpline
210
0.0
220
0.0
230
1.0
 70
     8
 71
     3
 72
    14
 73
    10
 74
     8
 42
0.0000000001
 43
0.0000000001
 44
0.0000000001
 40
0.0
 40
0.0
 40
0.0
 40
0.0
 40
0.4366541014015541
 40
1.026047230351345
 40
1.739175159615789
 40
2.527638500991206
 40
3.333807127737487
 40
4.098042534931584
 40
4.76555051407476
 40
4.76555051407476
 40
4.76555051407476
 40
4.76555051407476
 10
127.4299480395
 20
107.9276236155
 30
0.0
 10
127.3867760377847
 20
108.067489615772
 30
0.0
 10
127.2853307229542
 20
108.3961459177253
 30
0.0
 10
127.3067025320162
 20
108.9838196955445
 30
0.0
 10
127.3990014852932
 20
109.6733401223578
 30
0.0
 10
127.5871032543987
 20
110.4217899901309
 30
0.0
 10
127.8490699368798
 20
111.1633435524567
 30
0.0
 10
128.1559555500889
 20
111.8462905204547
 30
0.0
 10
128.4186082253744
 20
112.2455060028529
 30
0.0
 10
128.5410622616
 20
112.4316284061
 30
0.0
 11
127.4299480395
 21
107.9276236155
 31
0.0
 11
127.3210882333
 21
108.3504904348
 31
0.0
 11
127.3136772385
 21
108.9398369692
 31
0.0
 11
127.408331342
 21
109.6466552232
 31
0.0
 11
127.5971794488
 21
110.4121686674
 31
0.0
 11
127.8645176216
 21
111.172719886
 31
0.0
 11
128.1881149636
 21
111.8650641052
 31
0.0
 11
128.5410622616
 21
112.4316284061
 31
0.0
  0
SPLINE
  5
1293
330
1B
100
AcDbEntity
  8
0
  6
Continuous
100
AcDbSpline
210
0.0
220
0.0
230
1.0
 70
     8
 71
     3
 72
     9
 73
     5
 74
     3
 42
0.0000000001
 43
0.0000000001
 44
0.0000000001
 40
0.0
 40
0.0
 40
0.0
 40
0.0
 40
2.816834714415079
 40
5.732939757758143
 40
5.732939757758143
 40
5.732939757758143
 40
5.732939757758143
 10
128.5410622616
 20
112.4316294936
 30
0.0
 10
129.4424760791243
 20
112.1686444406027
 30
0.0
 10
131.2770711606999
 20
111.6334062676601
 30
0.0
 10
133.0962781228923
 20
111.0479825341933
 30
0.0
 10
134.0216320986
 20
110.7502021329
 30
0.0
 11
128.5410622616
 21
112.4316294936
 31
0.0
 11
131.2415887595
 21
111.6305586837
 31
0.0
 11
134.0216320986
 21
110.7502021329
 31
0.0
  0
SPLINE
  5
1294
330
1B
100
AcDbEntity
  8
0
  6
Continuous
100
AcDbSpline
210
0.0
220
0.0
230
1.0
 70
     8
 71
     3
 72
    11
 73
     7
 74
     5
 42
0.0000000001
 43
0.0000000001
 44
0.0000000001
 40
0.0
 40
0.0
 40
0.0
 40
0.0
 40
0.5290696878892752
 40
1.096075137447074
 40
1.706992196733002
 40
2.360762111199004
 40
2.360762111199004
 40
2.360762111199004
 40
2.360762111199004
 10
132.7607542067
 20
105.9846283405
 30
0.0
 10
132.930820862186
 20
105.937872374192
 30
0.0
 10
133.2831484232878
 20
105.8410079093198
 30
0.0
 10
133.8244529379076
 20
105.6651376308919
 30
0.0
 10
134.4002125462113
 20
105.4617383571008
 30
0.0
 10
134.7932405418353
 20
105.3092118023386
 30
0.0
 10
134.9964132513
 20
105.2303644079
 30
0.0
 11
132.7607542067
 21
105.9846283405
 31
0.0
 11
133.2698472099
 21
105.840617755
 31
0.0
 11
133.8097698856
 21
105.6674742189
 31
0.0
 11
134.3856916204
 21
105.4636757677
 31
0.0
 11
134.9964132513
 21
105.2303644079
 31
0.0
  0
SPLINE
  5
1295
330
1B
100
AcDbEntity
  8
0
  6
Continuous
100
AcDbSpline
210
0.0
220
0.0
230
1.0
 70
     8
 71
     3
 72
    15
 73
    11
 74
     9
 42
0.0000000001
 43
0.0000000001
 44
0.0000000001
 40
0.0
 40
0.0
 40
0.0
 40
0.0
 40
0.4479959926582032
 40
1.006247067907939
 40
1.668977187749856
 40
2.407285295139241
 40
3.180275652396672
 40
3.942324894716102
 40
4.649259457074143
 40
5.264836935111007
 40
5.264836935111007
 40
5.264836935111007
 40
5.264836935111007
 10
132.7607542067
 20
105.9846283405
 30
0.0
 10
132.6803805999126
 20
106.1122345040524
 30
0.0
 10
132.4998528552623
 20
106.3988516390847
 30
0.0
 10
132.4269837131988
 20
106.9640721052312
 30
0.0
 10
132.4488269569237
 20
107.616096681603
 30
0.0
 10
132.59090078673
 20
108.3304887663805
 30
0.0
 10
132.8334404235261
 20
109.0506035945427
 30
0.0
 10
133.1649438687519
 20
109.7215405362229
 30
0.0
 10
133.5482889742381
 20
110.3076775617993
 30
0.0
 10
133.8712884927089
 20
110.6096483486885
 30
0.0
 10
134.0216320986
 20
110.7502039049
 30
0.0
 11
132.7607542067
 21
105.9846283405
 31
0.0
 11
132.5467085278
 21
106.378182475
 31
0.0
 11
132.4455349941
 21
106.9271890133
 31
0.0
 11
132.4649761257
 21
107.5896339198
 31
0.0
 11
132.6035441142
 21
108.3148220154
 31
0.0
 11
132.8506346824
 21
109.0472565473
 31
0.0
 11
133.1873386027
 21
109.7308862115
 31
0.0
 11
133.5878887711
 21
110.3133946132
 31
0.0
 11
134.0216320986
 21
110.7502039049
 31
0.0
  0
SPLINE
  5
1296
330
1B
100
AcDbEntity
  8
0
  6
Continuous
100
AcDbSpline
210
0.0
220
0.0
230
1.0
 70
     8
 71
     3
 72
    15
 73
    11
 74
     9
 42
0.0000000001
 43
0.0000000001
 44
0.0000000001
 40
0.0
 40
0.0
 40
0.0
 40
0.0
 40
0.7387608120174444
 40
1.495813422669625
 40
2.272592860906953
 40
3.064150345454993
 40
3.862439512720139
 40
4.665048180531584
 40
5.476152425331508
 40
6.296179352498648
 40
6.296179352498648
 40
6.296179352498648
 40
6.296179352498648
 10
134.0216320986
 20
110.7502021329
 30
0.0
 10
134.2547564000724
 20
110.6707511508777
 30
0.0
 10
134.7267771862599
 20
110.5098819718145
 30
0.0
 10
135.4301919127736
 20
110.2279149516403
 30
0.0
 10
136.141195236278
 20
109.9191016287336
 30
0.0
 10
136.8574496180171
 20
109.588380712772
 30
0.0
 10
137.5781771338613
 20
109.2469924847642
 30
0.0
 10
138.3066744209823
 20
108.9069291019705
 30
0.0
 10
139.0475980945963
 20
108.5758724939518
 30
0.0
 10
139.5553696202773
 20
108.3812088923253
 30
0.0
 10
139.8106441997
 20
108.283344663
 30
0.0
 11
134.0216320986
 21
110.7502021329
 31
0.0
 11
134.7188010506
 21
110.5058192576
 31
0.0
 11
135.4226795519
 21
110.2271012806
 31
0.0
 11
136.1354807136
 21
109.9183930048
 31
0.0
 11
136.8548614355
 21
109.5881588026
 31
0.0
 11
137.5771863674
 21
109.2482878163
 31
0.0
 11
138.3050698334
 21
108.9101068979
 31
0.0
 11
139.0476493306
 21
108.5838159445
 31
0.0
 11
139.8106441997
 21
108.283344663
 31
0.0
  0
SPLINE
  5
1297
330
1B
100
AcDbEntity
  8
0
  6
Continuous
100
AcDbSpline
210
0.0
220
0.0
230
1.0
 70
     8
 71
     3
 72
     9
 73
     5
 74
     3
 42
0.0000000001
 43
0.0000000001
 44
0.0000000001
 40
0.0
 40
0.0
 40
0.0
 40
0.0
 40
0.4904887222672884
 40
0.9851920848618929
 40
0.9851920848618929
 40
0.9851920848618929
 40
0.9851920848618929
 10
142.8501241798
 20
105.456159257
 30
0.0
 10
142.9302340342297
 20
105.313634053506
 30
0.0
 10
143.0911421059561
 20
105.0273589650053
 30
0.0
 10
143.2522424331408
 20
104.7411920233557
 30
0.0
 10
143.3331371894
 20
104.5974964431
 30
0.0
 11
142.8501241798
 21
105.456159257
 31
0.0
 11
143.0905013966
 21
105.0286104524
 31
0.0
 11
143.3331371894
 21
104.5974964431
 31
0.0
  0
SPLINE
  5
1298
330
1B
100
AcDbEntity
  8
0
  6
Continuous
100
AcDbSpline
210
0.0
220
0.0
230
1.0
 70
     8
 71
     3
 72
    10
 73
     6
 74
     4
 42
0.0000000001
 43
0.0000000001
 44
0.0000000001
 40
0.0
 40
0.0
 40
0.0
 40
0.0
 40
1.021311041943199
 40
2.062056792032951
 40
3.114191041917702
 40
3.114191041917702
 40
3.114191041917702
 40
3.114191041917702
 10
145.2749953103
 20
106.81873687
 30
0.0
 10
145.4422865375159
 20
106.5222389548548
 30
0.0
 10
145.7800524062484
 20
105.9236010133855
 30
0.0
 10
146.2909644965309
 20
105.0199720048132
 30
0.0
 10
146.6347838765504
 20
104.4129537051814
 30
0.0
 10
146.8076290208
 20
104.1077929968
 30
0.0
 11
145.2749953103
 21
106.81873687
 31
0.0
 11
145.7769999342
 21
105.929317058
 31
0.0
 11
146.2892105742
 21
105.0233413538
 31
0.0
 11
146.8076290208
 21
104.1077929968
 31
0.0
  0
SPLINE
  5
1299
330
1B
100
AcDbEntity
  8
0
  6
Continuous
100
AcDbSpline
210
0.0
220
0.0
230
1.0
 70
     8
 71
     3
 72
    12
 73
     8
 74
     6
 42
0.0000000001
 43
0.0000000001
 44
0.0000000001
 40
0.0
 40
0.0
 40
0.0
 40
0.0
 40
0.0416727853098452
 40
0.0836524784192094
 40
0.1258501344715728
 40
0.1682758450287396
 40
0.2107403383138118
 40
0.2107403383138118
 40
0.2107403383138118
 40
0.2107403383138118
 10
142.676919099
 20
105.5589194545
 30
0.0
 10
142.6908320026309
 20
105.5580431362598
 30
0.0
 10
142.7187602743333
 20
105.5562840459534
 30
0.0
 10
142.7589186184425
 20
105.5424686100591
 30
0.0
 10
142.7952954995047
 20
105.5207227704348
 30
0.0
 10
142.8271048557435
 20
105.4920105413659
 30
0.0
 10
142.8424487351256
 20
105.4681133243297
 30
0.0
 10
142.8501241798
 20
105.456159257
 30
0.0
 11
142.676919099
 21
105.5589194545
 31
0.0
 11
142.7183513078
 21
105.554448089
 31
0.0
 11
142.7581840226
 21
105.5411948077
 31
0.0
 11
142.7944506628
 21
105.5196223024
 31
0.0
 11
142.825620585
 21
105.4908407655
 31
0.0
 11
142.8501241798
 21
105.456159257
 31
0.0
  0
SPLINE
  5
129A
330
1B
100
AcDbEntity
  8
0
  6
Continuous
100
AcDbSpline
210
0.0
220
0.0
230
1.0
 70
     8
 71
     3
 72
    12
 73
     8
 74
     6
 42
0.0000000001
 43
0.0000000001
 44
0.0000000001
 40
0.0
 40
0.0
 40
0.0
 40
0.0
 40
0.6270351965364515
 40
1.252696187997
 40
1.876254361118454
 40
2.496733259494124
 40
3.114441028227417
 40
3.114441028227417
 40
3.114441028227417
 40
3.114441028227417
 10
142.676919099
 20
108.2833432848
 30
0.0
 10
142.8862632755933
 20
108.2709366528252
 30
0.0
 10
143.3044928318388
 20
108.2461505791463
 30
0.0
 10
143.9053678249376
 20
108.0489388256229
 30
0.0
 10
144.4505668541592
 20
107.7418573558922
 30
0.0
 10
144.9267485701661
 20
107.3327124819219
 30
0.0
 10
145.1590863918495
 20
106.9898062596657
 30
0.0
 10
145.2749953103
 20
106.81873687
 30
0.0
 11
142.676919099
 21
108.2833432848
 31
0.0
 11
143.3006796277
 21
108.2193437494
 31
0.0
 11
143.8970619943
 21
108.0301883925
 31
0.0
 11
144.4402674341
 21
107.7239978547
 31
0.0
 11
144.9062740113
 21
107.3143248957
 31
0.0
 11
145.2749953103
 21
106.81873687
 31
0.0
  0
SPLINE
  5
129B
330
1B
100
AcDbEntity
  8
0
  6
Continuous
100
AcDbSpline
210
0.0
220
0.0
230
1.0
 70
     8
 71
     3
 72
    14
 73
    10
 74
     8
 42
0.0000000001
 43
0.0000000001
 44
0.0000000001
 40
0.0
 40
0.0
 40
0.0
 40
0.0
 40
0.6649954695421134
 40
1.345544523800367
 40
2.031378757885105
 40
2.711378011859472
 40
3.375598388592727
 40
4.016974971285016
 40
4.633757818866939
 40
4.633757818866939
 40
4.633757818866939
 40
4.633757818866939
 10
137.382326167
 20
104.8504954923
 30
0.0
 10
137.3671572584951
 20
105.0725309687431
 30
0.0
 10
137.3364646557548
 20
105.521795111284
 30
0.0
 10
137.478342638781
 20
106.1921323003821
 30
0.0
 10
137.7465458739735
 20
106.8231370020767
 30
0.0
 10
138.1398110062911
 20
107.3813008933536
 30
0.0
 10
138.6324895001662
 20
107.8287892674047
 30
0.0
 10
139.1954158328847
 20
108.1552582588054
 30
0.0
 10
139.6082228358792
 20
108.2412085932845
 30
0.0
 10
139.8105916873
 20
108.2833437081
 30
0.0
 11
137.382326167
 21
104.8504954923
 31
0.0
 11
137.36727049
 21
105.5153205077
 31
0.0
 11
137.4987241704
 21
106.1830531976
 31
0.0
 11
137.7688893961
 21
106.8134335173
 31
0.0
 11
138.1615824225
 21
107.368583202
 31
0.0
 11
138.6532632626
 21
107.8151687597
 31
0.0
 11
139.2141513105
 21
108.1262451467
 31
0.0
 11
139.8105916873
 21
108.2833437081
 31
0.0
  0
SPLINE
  5
129C
330
1B
100
AcDbEntity
  8
0
  6
Continuous
100
AcDbSpline
210
0.0
220
0.0
230
1.0
 70
     8
 71
     3
 72
     9
 73
     5
 74
     3
 42
0.0000000001
 43
0.0000000001
 44
0.0000000001
 40
0.0
 40
0.0
 40
0.0
 40
0.0
 40
0.522573190486365
 40
1.078796807021034
 40
1.078796807021034
 40
1.078796807021034
 40
1.078796807021034
 10
140.2969881465
 20
104.5975085703
 30
0.0
 10
140.23029207078
 20
104.7587109992247
 30
0.0
 10
140.0926051116373
 20
105.0914962793997
 30
0.0
 10
139.9065452199264
 20
105.3999050439393
 30
0.0
 10
139.8106134326
 20
105.5589194545
 30
0.0
 11
140.2969881465
 21
104.5975085703
 31
0.0
 11
140.0855493574
 21
105.0753959816
 31
0.0
 11
139.8106134326
 21
105.5589194545
 31
0.0
  0
SPLINE
  5
129D
330
1B
100
AcDbEntity
  8
0
  6
Continuous
100
AcDbSpline
210
0.0
220
0.0
230
1.0
 70
     8
 71
     3
 72
    10
 73
     6
 74
     4
 42
0.0000000001
 43
0.0000000001
 44
0.0000000001
 40
0.0
 40
0.0
 40
0.0
 40
0.0
 40
0.0993314153041342
 40
0.2125935704083027
 40
0.3398792438733773
 40
0.3398792438733773
 40
0.3398792438733773
 40
0.3398792438733773
 10
126.2106320163
 20
85.4430682735
 30
0.0
 10
126.1800890455826
 20
85.45608350633552
 30
0.0
 10
126.1147196035403
 20
85.48393929405108
 30
0.0
 10
126.0020761007439
 20
85.50310498070445
 30
0.0
 10
125.9219440866791
 20
85.50558516758014
 30
0.0
 10
125.8795423014
 20
85.5068975563
 30
0.0
 11
126.2106320163
 21
85.4430682735
 31
0.0
 11
126.117892176
 21
85.47864989919998
 31
0.0
 11
126.0066330984
 21
85.49985681859999
 31
0.0
 11
125.8795423014
 21
85.5068975563
 31
0.0
  0
SPLINE
  5
129E
330
1B
100
AcDbEntity
  8
0
  6
Continuous
100
AcDbSpline
210
0.0
220
0.0
230
1.0
 70
     8
 71
     3
 72
    10
 73
     6
 74
     4
 42
0.0000000001
 43
0.0000000001
 44
0.0000000001
 40
0.0
 40
0.0
 40
0.0
 40
0.0
 40
0.1307778086898155
 40
0.2583992352371325
 40
0.382916174993111
 40
0.382916174993111
 40
0.382916174993111
 40
0.382916174993111
 10
126.0335764239
 20
102.7136376305
 30
0.0
 10
126.0561041649713
 20
102.676311662507
 30
0.0
 10
126.1006159297942
 20
102.6025606058063
 30
0.0
 10
126.1599850951975
 20
102.4894327667339
 30
0.0
 10
126.1938888574429
 20
102.4125104321915
 30
0.0
 10
126.2106320163
 20
102.3745228231
 30
0.0
 11
126.0335764239
 21
102.7136376305
 31
0.0
 11
126.1000202367
 21
102.6009963637
 31
0.0
 11
126.1591370424
 21
102.4878927307
 31
0.0
 11
126.2106320163
 21
102.3745228231
 31
0.0
  0
SPLINE
  5
129F
330
1B
100
AcDbEntity
  8
0
  6
Continuous
100
AcDbSpline
210
0.0
220
0.0
230
1.0
 70
     8
 71
     3
 72
    10
 73
     6
 74
     4
 42
0.0000000001
 43
0.0000000001
 44
0.0000000001
 40
0.0
 40
0.0
 40
0.0
 40
0.0
 40
0.1463570963687067
 40
0.2938207450661578
 40
0.441818285855335
 40
0.441818285855335
 40
0.441818285855335
 40
0.441818285855335
 10
123.6480718468
 20
102.7136356283
 30
0.0
 10
123.6169601953831
 20
102.6760574407009
 30
0.0
 10
123.5545016687633
 20
102.6006169506081
 30
0.0
 10
123.4599080660885
 20
102.4877388173622
 30
0.0
 10
123.3965866753654
 20
102.4123061306748
 30
0.0
 10
123.3648687698
 20
102.3745216347
 30
0.0
 11
123.6480718468
 21
102.7136356283
 31
0.0
 11
123.554625561
 21
102.6009937563
 31
0.0
 11
123.4600066935
 21
102.4878885062
 31
0.0
 11
123.3648687698
 21
102.3745216347
 31
0.0
  0
SPLINE
  5
12A0
330
1B
100
AcDbEntity
  8
0
  6
Continuous
100
AcDbSpline
210
0.0
220
0.0
230
1.0
 70
     8
 71
     3
 72
    14
 73
    10
 74
     8
 42
0.0000000001
 43
0.0000000001
 44
0.0000000001
 40
0.0
 40
0.0
 40
0.0
 40
0.0
 40
0.6162810483720552
 40
1.287144145410777
 40
1.959722861769965
 40
2.562630004062771
 40
3.037968056744842
 40
3.354420489327688
 40
3.508685720792509
 40
3.508685720792509
 40
3.508685720792509
 40
3.508685720792509
 10
143.3331372094
 20
104.5974964067
 30
0.0
 10
143.5365622666377
 20
104.5688868781959
 30
0.0
 10
143.9614290902161
 20
104.5091339664128
 30
0.0
 10
144.6082913546141
 20
104.4180682899261
 30
0.0
 10
145.2507303500491
 20
104.3275613831669
 30
0.0
 10
145.8286238218046
 20
104.2460911472956
 30
0.0
 10
146.2889660019429
 20
104.181157701502
 30
0.0
 10
146.6012233984183
 20
104.1370879527483
 30
0.0
 10
146.7565896511223
 20
104.1151611378179
 30
0.0
 10
146.8075068203
 20
104.1079752057
 30
0.0
 11
143.3331372094
 21
104.5974964067
 31
0.0
 11
143.9434104801
 21
104.5116543095
 31
0.0
 11
144.6077235457
 21
104.418137221
 31
0.0
 11
145.2737255365
 21
104.3243103701
 31
0.0
 11
145.8707292986
 21
104.240146659
 31
0.0
 11
146.3414077164
 21
104.1737532004
 31
0.0
 11
146.6547553195
 21
104.1295330498
 31
0.0
 11
146.8075068203
 21
104.1079752057
 31
0.0
  0
SPLINE
  5
12A1
330
1B
100
AcDbEntity
  8
0
  6
Continuous
100
AcDbSpline
210
0.0
220
0.0
230
1.0
 70
     8
 71
     3
 72
    11
 73
     7
 74
     5
 42
0.0000000001
 43
0.0000000001
 44
0.0000000001
 40
0.0
 40
0.0
 40
0.0
 40
0.0
 40
0.347394549220567
 40
0.7410872569508162
 40
1.169282657956545
 40
1.61839043828914
 40
1.61839043828914
 40
1.61839043828914
 40
1.61839043828914
 10
138.6990339297
 20
104.850538642
 30
0.0
 10
138.812575459627
 20
104.8277675153823
 30
0.0
 10
139.0547904890579
 20
104.7791904959654
 30
0.0
 10
139.4389343573334
 20
104.712992197735
 30
0.0
 10
139.8579744517094
 20
104.6502009967071
 30
0.0
 10
140.1483395818274
 20
104.6153572438502
 30
0.0
 10
140.2969828808
 20
104.5975200801
 30
0.0
 11
138.6990339297
 21
104.850538642
 31
0.0
 11
139.0399340745
 21
104.783680104
 31
0.0
 11
139.4278188611
 21
104.7163054764
 31
0.0
 11
139.8513473502
 21
104.6532585069
 31
0.0
 11
140.2969828808
 21
104.5975200801
 31
0.0
  0
SPLINE
  5
12A2
330
1B
100
AcDbEntity
  8
0
  6
Continuous
100
AcDbSpline
210
0.0
220
0.0
230
1.0
 70
     8
 71
     3
 72
    10
 73
     6
 74
     4
 42
0.0000000001
 43
0.0000000001
 44
0.0000000001
 40
0.0
 40
0.0
 40
0.0
 40
0.0
 40
0.1463443728096542
 40
0.3033713689434944
 40
0.4696895388997648
 40
0.4696895388997648
 40
0.4696895388997648
 40
0.4696895388997648
 10
123.8290995357
 20
85.5068975563
 30
0.0
 10
123.7803167343814
 20
85.5054017092903
 30
0.0
 10
123.6791901592164
 20
85.5023008237123
 30
0.0
 10
123.5237769837947
 20
85.48051289124362
 30
0.0
 10
123.4188432485838
 20
85.45578664516353
 30
0.0
 10
123.3648687698
 20
85.4430682735
 30
0.0
 11
123.8290995357
 21
85.5068975563
 31
0.0
 11
123.6829246286
 21
85.49985681859999
 31
0.0
 11
123.5273362483
 21
85.47864989919998
 31
0.0
 11
123.3648687698
 21
85.4430682735
 31
0.0
  0
SPLINE
  5
12A3
330
1B
100
AcDbEntity
  8
0
  6
Continuous
100
AcDbSpline
210
0.0
220
0.0
230
1.0
 70
     8
 71
     3
 72
    10
 73
     6
 74
     4
 42
0.0000000001
 43
0.0000000001
 44
0.0000000001
 40
0.0
 40
0.0
 40
0.0
 40
0.0
 40
0.1068736427008947
 40
0.2620322491966385
 40
0.4618365083036549
 40
0.4618365083036549
 40
0.4618365083036549
 40
0.4618365083036549
 10
138.959878812
 20
103.5974964796
 30
0.0
 10
138.9246392170726
 20
103.6037901871502
 30
0.0
 10
138.838238958915
 20
103.6192210670519
 30
0.0
 10
138.7008874568399
 20
103.6929169028559
 30
0.0
 10
138.6010095288656
 20
103.7558150022296
 30
0.0
 10
138.5447894638
 20
103.7912195737
 30
0.0
 11
138.959878812
 21
103.5974964796
 31
0.0
 11
138.8555692263
 21
103.6207663278
 31
0.0
 11
138.7152521915
 21
103.6869880985
 31
0.0
 11
138.5447894638
 21
103.7912195737
 31
0.0
  0
SPLINE
  5
12A4
330
1B
100
AcDbEntity
  8
0
  6
Continuous
100
AcDbSpline
210
0.0
220
0.0
230
1.0
 70
     8
 71
     3
 72
    11
 73
     7
 74
     5
 42
0.0000000001
 43
0.0000000001
 44
0.0000000001
 40
0.0
 40
0.0
 40
0.0
 40
0.0
 40
0.2959040245140462
 40
0.5886846644171222
 40
0.8571940171521553
 40
1.083909092654019
 40
1.083909092654019
 40
1.083909092654019
 40
1.083909092654019
 10
138.6990339297
 20
104.850538642
 30
0.0
 10
138.7059842402107
 20
104.7519830203378
 30
0.0
 10
138.7198114979418
 20
104.5559120707792
 30
0.0
 10
138.6945928086718
 20
104.2706848161809
 30
0.0
 10
138.6450052128784
 20
104.0108282863435
 30
0.0
 10
138.5762608280918
 20
103.8601846401772
 30
0.0
 10
138.5447894638
 20
103.7912195737
 30
0.0
 11
138.6990339297
 21
104.850538642
 31
0.0
 11
138.7120154181
 21
104.5549195075
 31
0.0
 11
138.6887613917
 21
104.2630638011
 31
0.0
 11
138.6313272288
 21
104.000768949
 31
0.0
 11
138.5447894638
 21
103.7912195737
 31
0.0
  0
SPLINE
  5
12A5
330
1B
100
AcDbEntity
  8
0
  6
Continuous
100
AcDbSpline
210
0.0
220
0.0
230
1.0
 70
     8
 71
     3
 72
    12
 73
     8
 74
     6
 42
0.0000000001
 43
0.0000000001
 44
0.0000000001
 40
0.0
 40
0.0
 40
0.0
 40
0.0
 40
0.504122792662782
 40
0.9794480243331496
 40
1.44163794811455
 40
1.913650139023352
 40
2.416415031228546
 40
2.416415031228546
 40
2.416415031228546
 40
2.416415031228546
 10
134.9964204749
 20
105.2303719809
 30
0.0
 10
135.1615586129339
 20
105.1992627446924
 30
0.0
 10
135.4824015214343
 20
105.1388213594079
 30
0.0
 10
135.9559507302593
 20
105.0570031356297
 30
0.0
 10
136.4198876386279
 20
104.9827025152311
 30
0.0
 10
136.8937798762855
 20
104.912829834019
 30
0.0
 10
137.216099916266
 20
104.8717086183448
 30
0.0
 10
137.3823442843
 20
104.8504993553
 30
0.0
 11
134.9964204749
 21
105.2303719809
 31
0.0
 11
135.4920696484
 21
105.1383302138
 31
0.0
 11
135.9604253432
 21
105.0572313913
 31
0.0
 11
136.4168016975
 21
104.984155069
 31
0.0
 11
136.8838377715
 21
104.9157970852
 31
0.0
 11
137.3823442843
 21
104.8504993553
 31
0.0
  0
SPLINE
  5
12A6
330
1B
100
AcDbEntity
  8
0
  6
Continuous
100
AcDbSpline
210
0.0
220
0.0
230
1.0
 70
     8
 71
     3
 72
    10
 73
     6
 74
     4
 42
0.0000000001
 43
0.0000000001
 44
0.0000000001
 40
0.0
 40
0.0
 40
0.0
 40
0.0
 40
0.7932328022786707
 40
1.638637477473301
 40
2.523078427887448
 40
2.523078427887448
 40
2.523078427887448
 40
2.523078427887448
 10
137.4053245814
 20
104.4802403355
 30
0.0
 10
137.1537374636483
 20
104.5615849115415
 30
0.0
 10
136.634016041623
 20
104.7296241939664
 30
0.0
 10
135.8316432582809
 20
104.9817548128704
 30
0.0
 10
135.2789852247312
 20
105.1462621490254
 30
0.0
 10
134.9964204749
 20
105.2303719809
 30
0.0
 11
137.4053245814
 21
104.4802403355
 31
0.0
 11
136.6502381421
 21
104.7232686215
 31
0.0
 11
135.8434497167
 21
104.9758582125
 31
0.0
 11
134.9964204749
 21
105.2303719809
 31
0.0
  0
SPLINE
  5
12A7
330
1B
100
AcDbEntity
  8
0
  6
Continuous
100
AcDbSpline
210
0.0
220
0.0
230
1.0
 70
     8
 71
     3
 72
    10
 73
     6
 74
     4
 42
0.0000000001
 43
0.0000000001
 44
0.0000000001
 40
0.0
 40
0.0
 40
0.0
 40
0.0
 40
0.3383306403480141
 40
0.7836019863480132
 40
1.316657486648032
 40
1.316657486648032
 40
1.316657486648032
 40
1.316657486648032
 10
137.382326167
 20
104.8504954923
 30
0.0
 10
137.4951030470963
 20
104.8504978313472
 30
0.0
 10
137.7563037091667
 20
104.8505032487756
 30
0.0
 10
138.1951895380726
 20
104.8505004787368
 30
0.0
 10
138.5212984868354
 20
104.8505008577754
 30
0.0
 10
138.6989836536
 20
104.8505010643
 30
0.0
 11
137.382326167
 21
104.8504954923
 31
0.0
 11
137.7206568073
 21
104.8505011922
 31
0.0
 11
138.1659281533
 21
104.8505011683
 31
0.0
 11
138.6989836536
 21
104.8505010643
 31
0.0
  0
SPLINE
  5
12A8
330
1B
100
AcDbEntity
  8
0
  6
Continuous
100
AcDbSpline
210
0.0
220
0.0
230
1.0
 70
     8
 71
     3
 72
    10
 73
     6
 74
     4
 42
0.0000000001
 43
0.0000000001
 44
0.0000000001
 40
0.0
 40
0.0
 40
0.0
 40
0.0
 40
0.516671395496349
 40
0.9924182393963585
 40
1.334433761522396
 40
1.334433761522396
 40
1.334433761522396
 40
1.334433761522396
 10
138.5447929038
 20
103.7912081568
 30
0.0
 10
138.4029465459701
 20
103.8886492800478
 30
0.0
 10
138.1304892086192
 20
104.0758134018112
 30
0.0
 10
137.7601357546119
 20
104.3251533672464
 30
0.0
 10
137.5099470173635
 20
104.4345067414792
 30
0.0
 10
137.405309735
 20
104.4802419733
 30
0.0
 11
138.5447929038
 21
103.7912081568
 31
0.0
 11
138.1184476148
 21
104.0830626162
 31
0.0
 11
137.7151581726
 21
104.3354367141
 31
0.0
 11
137.405309735
 21
104.4802419733
 31
0.0
  0
SPLINE
  5
12A9
330
1B
100
AcDbEntity
  8
0
  6
Continuous
100
AcDbSpline
210
0.0
220
0.0
230
1.0
 70
     8
 71
     3
 72
     9
 73
     5
 74
     3
 42
0.0000000001
 43
0.0000000001
 44
0.0000000001
 40
0.0
 40
0.0
 40
0.0
 40
0.0
 40
0.1859020373079883
 40
0.3722729282916506
 40
0.3722729282916506
 40
0.3722729282916506
 40
0.3722729282916506
 10
137.3823299078
 20
104.8504966106
 30
0.0
 10
137.3939219919842
 20
104.7893481020278
 30
0.0
 10
137.4171353961338
 20
104.6668968654708
 30
0.0
 10
137.4092549303569
 20
104.5425124887162
 30
0.0
 10
137.405309735
 20
104.4802419733
 30
0.0
 11
137.3823299078
 21
104.8504966106
 31
0.0
 11
137.4093522609
 21
104.6665690164
 31
0.0
 11
137.405309735
 21
104.4802419733
 31
0.0
  0
SPLINE
  5
12AA
330
1B
100
AcDbEntity
  8
0
  6
Continuous
100
AcDbSpline
210
0.0
220
0.0
230
1.0
 70
     8
 71
     3
 72
    10
 73
     6
 74
     4
 42
0.0000000001
 43
0.0000000001
 44
0.0000000001
 40
0.0
 40
0.0
 40
0.0
 40
0.0
 40
0.1663181699562844
 40
0.3233451660901245
 40
0.4696895389996505
 40
0.4696895389996505
 40
0.4696895389996505
 40
0.4696895389996505
 10
97.36794587490002
 20
85.4430682735
 30
0.0
 10
97.31397139611623
 20
85.45578664516347
 30
0.0
 10
97.20903766090527
 20
85.48051289124352
 30
0.0
 10
97.0536244854506
 20
85.50230082371735
 30
0.0
 10
96.95249791025201
 20
85.50540170929156
 30
0.0
 10
96.90371510890002
 20
85.5068975563
 30
0.0
 11
97.36794587490002
 21
85.4430682735
 31
0.0
 11
97.2054783964
 21
85.47864989919998
 31
0.0
 11
97.04989001609999
 21
85.49985681859999
 31
0.0
 11
96.90371510890002
 21
85.5068975563
 31
0.0
  0
SPLINE
  5
12AB
330
1B
100
AcDbEntity
  8
0
  6
Continuous
100
AcDbSpline
210
0.0
220
0.0
230
1.0
 70
     8
 71
     3
 72
    10
 73
     6
 74
     4
 42
0.0000000001
 43
0.0000000001
 44
0.0000000001
 40
0.0
 40
0.0
 40
0.0
 40
0.0
 40
0.1463570964622454
 40
0.2938207453292748
 40
0.4418182863313829
 40
0.4418182863313829
 40
0.4418182863313829
 40
0.4418182863313829
 10
97.0847427954
 20
102.7136356247
 30
0.0
 10
97.11585444685555
 20
102.676057437097
 30
0.0
 10
97.17831297356904
 20
102.6006169469771
 30
0.0
 10
97.27290656782066
 20
102.4877388064681
 30
0.0
 10
97.33622796573029
 20
102.4123061256435
 30
0.0
 10
97.36794587490002
 20
102.3745216326
 30
0.0
 11
97.0847427954
 21
102.7136356247
 31
0.0
 11
97.17818907989999
 21
102.6009937515
 31
0.0
 11
97.2728079436
 21
102.487888498
 31
0.0
 11
97.36794587490002
 21
102.3745216326
 31
0.0
  0
SPLINE
  5
12AC
330
1B
100
AcDbEntity
  8
0
  6
Continuous
100
AcDbSpline
210
0.0
220
0.0
230
1.0
 70
     8
 71
     3
 72
    10
 73
     6
 74
     4
 42
0.0000000001
 43
0.0000000001
 44
0.0000000001
 40
0.0
 40
0.0
 40
0.0
 40
0.0
 40
0.1307777007365436
 40
0.2583988752750065
 40
0.3829162294614823
 40
0.3829162294614823
 40
0.3829162294614823
 40
0.3829162294614823
 10
94.6992379365
 20
102.7136381695
 30
0.0
 10
94.67671022172296
 20
102.676312232309
 30
0.0
 10
94.63219853411776
 20
102.602561278328
 30
0.0
 10
94.57282865681682
 20
102.4894337727022
 30
0.0
 10
94.53892552223128
 20
102.41251108966
 30
0.0
 10
94.5221826284
 20
102.3745232065
 30
0.0
 11
94.6992379365
 21
102.7136381695
 31
0.0
 11
94.6327940768
 21
102.6009970557
 31
0.0
 11
94.57367708619999
 21
102.4878938037
 31
0.0
 11
94.5221826284
 21
102.3745232065
 31
0.0
  0
SPLINE
  5
12AD
330
1B
100
AcDbEntity
  8
0
  6
Continuous
100
AcDbSpline
210
0.0
220
0.0
230
1.0
 70
     8
 71
     3
 72
    10
 73
     6
 74
     4
 42
0.0000000001
 43
0.0000000001
 44
0.0000000001
 40
0.0
 40
0.0
 40
0.0
 40
0.0
 40
0.1272856734650747
 40
0.2405478285692571
 40
0.339879243873378
 40
0.339879243873378
 40
0.339879243873378
 40
0.339879243873378
 10
94.85327234330001
 20
85.5068975563
 30
0.0
 10
94.81087055802091
 20
85.50558516758017
 30
0.0
 10
94.73073854395616
 20
85.50310498070444
 30
0.0
 10
94.61809504115968
 20
85.4839392940511
 30
0.0
 10
94.55272559911742
 20
85.45608350633552
 30
0.0
 10
94.5221826284
 20
85.4430682735
 30
0.0
 11
94.85327234330001
 21
85.5068975563
 31
0.0
 11
94.7261815463
 21
85.49985681859999
 31
0.0
 11
94.61492246869999
 21
85.47864989919998
 31
0.0
 11
94.5221826284
 21
85.4430682735
 31
0.0
  0
SPLINE
  5
12AE
330
1B
100
AcDbEntity
  8
0
  6
Continuous
100
AcDbSpline
210
0.0
220
0.0
230
1.0
 70
     8
 71
     3
 72
    10
 73
     6
 74
     4
 42
0.0000000001
 43
0.0000000001
 44
0.0000000001
 40
0.0
 40
0.0
 40
0.0
 40
0.0
 40
0.0782815152532707
 40
0.1274223384892275
 40
0.1477638046524397
 40
0.1477638046524397
 40
0.1477638046524397
 40
0.1477638046524397
 10
81.523721181
 20
85.4430682735
 30
0.0
 10
81.50046652286167
 20
85.4548666367857
 30
0.0
 10
81.46261387129806
 20
85.47407136264395
 30
0.0
 10
81.41883013609311
 20
85.49691503110498
 30
0.0
 10
81.39697761953387
 20
85.50463691603611
 30
0.0
 10
81.3905801299
 20
85.5068975563
 30
0.0
 11
81.523721181
 21
85.4430682735
 31
0.0
 11
81.45399354270001
 21
85.47864989919998
 31
0.0
 11
81.40966424
 21
85.49985681859999
 31
0.0
 11
81.3905801299
 21
85.5068975563
 31
0.0
  0
SPLINE
  5
12AF
330
1B
100
AcDbEntity
  8
0
  6
Continuous
100
AcDbSpline
210
0.0
220
0.0
230
1.0
 70
     8
 71
     3
 72
    10
 73
     6
 74
     4
 42
0.0000000001
 43
0.0000000001
 44
0.0000000001
 40
0.0
 40
0.0
 40
0.0
 40
0.0
 40
0.1158357516258141
 40
0.2343890173838251
 40
0.3558538866544933
 40
0.3558538866544933
 40
0.3558538866544933
 40
0.3558538866544933
 10
81.4175737401
 20
102.7136296902
 30
0.0
 10
81.42604974363738
 20
102.6759474081551
 30
0.0
 10
81.44320059829656
 20
102.5996988153216
 30
0.0
 10
81.47901825597518
 20
102.4864357030395
 30
0.0
 10
81.50870018449513
 20
102.4121253769725
 30
0.0
 10
81.523721181
 20
102.3745194934
 30
0.0
 11
81.4175737401
 21
102.7136296902
 31
0.0
 11
81.4445748871
 21
102.6009848527
 31
0.0
 11
81.4800727598
 21
102.4878708489
 31
0.0
 11
81.523721181
 21
102.3745194934
 31
0.0
  0
SPLINE
  5
12B0
330
1B
100
AcDbEntity
  8
0
  6
Continuous
100
AcDbSpline
210
0.0
220
0.0
230
1.0
 70
     8
 71
     3
 72
    12
 73
     8
 74
     6
 42
0.0000000001
 43
0.0000000001
 44
0.0000000001
 40
0.0
 40
0.0
 40
0.0
 40
0.0
 40
0.1368654730750375
 40
0.3074793757392226
 40
0.5037515323561266
 40
0.7185612134675615
 40
0.9459317282314403
 40
0.9459317282314403
 40
0.9459317282314403
 40
0.9459317282314403
 10
146.8075270057
 20
104.1079846744
 30
0.0
 10
146.7645895319818
 20
104.0925202162207
 30
0.0
 10
146.6681270179668
 20
104.0577780578057
 30
0.0
 10
146.5151229665418
 20
103.9882675520326
 30
0.0
 10
146.3405175031365
 20
103.9040027847857
 30
0.0
 10
146.145055630959
 20
103.8196054397871
 30
0.0
 10
146.0077533601107
 20
103.765996775398
 30
0.0
 10
145.9371520797
 20
103.7384310234
 30
0.0
 11
146.8075270057
 21
104.1079846744
 31
0.0
 11
146.6793232573
 21
104.0600685329
 31
0.0
 11
146.5231988111
 21
103.991262566
 31
0.0
 11
146.345521154
 21
103.9078754589
 31
0.0
 11
146.1484458777
 21
103.822408889
 31
0.0
 11
145.9371520797
 21
103.7384310234
 31
0.0
  0
SPLINE
  5
12B1
330
1B
100
AcDbEntity
  8
0
  6
Continuous
100
AcDbSpline
210
0.0
220
0.0
230
1.0
 70
     8
 71
     3
 72
    12
 73
     8
 74
     6
 42
0.0000000001
 43
0.0000000001
 44
0.0000000001
 40
0.0
 40
0.0
 40
0.0
 40
0.0
 40
0.2065061398729829
 40
0.4997721884097478
 40
0.8443980607935108
 40
1.200226787918252
 40
1.542345642910204
 40
1.542345642910204
 40
1.542345642910204
 40
1.542345642910204
 10
146.8076290208
 20
104.1077929968
 30
0.0
 10
146.8401622360302
 20
104.0471287347322
 30
0.0
 10
146.9188969224741
 20
103.900313191957
 30
0.0
 10
147.0456828051391
 20
103.64898716446
 30
0.0
 10
147.1906529030214
 20
103.3511533596117
 30
0.0
 10
147.3379491294341
 20
103.0363523282033
 30
0.0
 10
147.4314736873625
 20
102.8233220435098
 30
0.0
 10
147.477317409
 20
102.7188991915
 30
0.0
 11
146.8076290208
 21
104.1077929968
 31
0.0
 11
146.9045979418
 21
103.9254696188
 31
0.0
 11
147.0373963557
 21
103.6639938905
 31
0.0
 11
147.1882377889
 21
103.3541328669
 31
0.0
 11
147.3385650598
 21
103.0316180693
 31
0.0
 11
147.477317409
 21
102.7188991915
 31
0.0
  0
SPLINE
  5
12B2
330
1B
100
AcDbEntity
  8
0
  6
Continuous
100
AcDbSpline
210
0.0
220
0.0
230
1.0
 70
     8
 71
     3
 72
    11
 73
     7
 74
     5
 42
0.0000000001
 43
0.0000000001
 44
0.0000000001
 40
0.0
 40
0.0
 40
0.0
 40
0.0
 40
0.164635145888883
 40
0.331388107949421
 40
0.5067023176362848
 40
0.6981531515998775
 40
0.6981531515998775
 40
0.6981531515998775
 40
0.6981531515998775
 10
145.9371544544
 20
103.7384374806
 30
0.0
 10
145.8854714797899
 20
103.7199445121766
 30
0.0
 10
145.7814406965889
 20
103.6827206874392
 30
0.0
 10
145.6187675942996
 20
103.6368255569364
 30
0.0
 10
145.4434226536215
 20
103.603930357949
 30
0.0
 10
145.3210798284662
 20
103.5997018357213
 30
0.0
 10
145.2572170468
 20
103.5974945531
 30
0.0
 11
145.9371544544
 21
103.7384374806
 31
0.0
 11
145.7815233032
 21
103.6847376106
 31
0.0
 11
145.6208970816
 21
103.6399518172
 31
0.0
 11
145.4483142221
 21
103.609126037
 31
0.0
 11
145.2572170468
 21
103.5974945531
 31
0.0
  0
SPLINE
  5
12B3
330
1B
100
AcDbEntity
  8
0
  6
Continuous
100
AcDbSpline
210
0.0
220
0.0
230
1.0
 70
     8
 71
     3
 72
    10
 73
     6
 74
     4
 42
0.0000000001
 43
0.0000000001
 44
0.0000000001
 40
0.0
 40
0.0
 40
0.0
 40
0.0
 40
0.6536004405225453
 40
1.282533481969499
 40
1.892750281940818
 40
1.892750281940818
 40
1.892750281940818
 40
1.892750281940818
 10
145.9371544544
 20
103.7384374806
 30
0.0
 10
146.1476408144019
 20
103.6796931211719
 30
0.0
 10
146.5606696122169
 20
103.5644214610378
 30
0.0
 10
147.1024232053575
 20
103.2122489267569
 30
0.0
 10
147.3536172033631
 20
102.8816847218628
 30
0.0
 10
147.4773171729
 20
102.7188990566
 30
0.0
 11
145.9371544544
 21
103.7384374806
 31
0.0
 11
146.5566838266
 21
103.5301662804
 31
0.0
 11
147.0811222631
 21
103.183004795
 31
0.0
 11
147.4773171729
 21
102.7188990566
 31
0.0
  0
SPLINE
  5
12B4
330
1B
100
AcDbEntity
  8
0
  6
Continuous
100
AcDbSpline
210
0.0
220
0.0
230
1.0
 70
     8
 71
     3
 72
    11
 73
     7
 74
     5
 42
0.0000000001
 43
0.0000000001
 44
0.0000000001
 40
0.0
 40
0.0
 40
0.0
 40
0.0
 40
0.1217852149554378
 40
0.2274679743903637
 40
0.3059794526806864
 40
0.3470349512692164
 40
0.3470349512692164
 40
0.3470349512692164
 40
0.3470349512692164
 10
147.477317409
 20
102.7188991915
 30
0.0
 10
147.4897549938739
 20
102.6802110647115
 30
0.0
 10
147.5129856646792
 20
102.6079501598326
 30
0.0
 10
147.5410012281925
 20
102.5103560941744
 30
0.0
 10
147.5645340787502
 20
102.437860742682
 30
0.0
 10
147.563123061176
 20
102.3978279933128
 30
0.0
 10
147.5626385626
 20
102.3840820199
 30
0.0
 11
147.477317409
 21
102.7188991915
 31
0.0
 11
147.5139411655
 21
102.6027512727
 31
0.0
 11
147.5442721073
 21
102.5015145224
 31
0.0
 11
147.5624529041
 21
102.4251370987
 31
0.0
 11
147.5626385626
 21
102.3840820199
 31
0.0
  0
SPLINE
  5
12B5
330
1B
100
AcDbEntity
  8
0
  6
Continuous
100
AcDbSpline
210
0.0
220
0.0
230
1.0
 70
     8
 71
     3
 72
    11
 73
     7
 74
     5
 42
0.0000000001
 43
0.0000000001
 44
0.0000000001
 40
0.0
 40
0.0
 40
0.0
 40
0.0
 40
0.6757227207808721
 40
1.351500697566777
 40
2.027376393163989
 40
2.70336979302551
 40
2.70336979302551
 40
2.70336979302551
 40
2.70336979302551
 10
145.2572170471
 20
103.5975002724
 30
0.0
 10
145.4831399539875
 20
103.5817219671375
 30
0.0
 10
145.9350042422001
 20
103.5501640663701
 30
0.0
 10
146.5708499319926
 20
103.2968746349045
 30
0.0
 10
147.1396701245459
 20
102.9160774719056
 30
0.0
 10
147.421640196411
 20
102.561423646211
 30
0.0
 10
147.5626375076
 20
102.3840812939
 30
0.0
 11
145.2572170471
 21
103.5975002724
 31
0.0
 11
145.9279879975
 21
103.5158453431
 31
0.0
 11
146.5596367553
 21
103.2756460078
 31
0.0
 11
147.1153231712
 21
102.8909116019
 31
0.0
 11
147.5626375076
 21
102.3840812939
 31
0.0
  0
SPLINE
  5
12B6
330
1B
100
AcDbEntity
  8
0
  6
Continuous
100
AcDbSpline
210
0.0
220
0.0
230
1.0
 70
     8
 71
     3
 72
     9
 73
     5
 74
     3
 42
0.0000000001
 43
0.0000000001
 44
0.0000000001
 40
0.0
 40
0.0
 40
0.0
 40
0.0
 40
0.0170374603375754
 40
0.0228661589824115
 40
0.0228661589824115
 40
0.0228661589824115
 40
0.0228661589824115
 10
147.5626385626
 20
102.3840820199
 30
0.0
 10
147.5598985068722
 20
102.3791075550841
 30
0.0
 10
147.5562210485744
 20
102.3724312722885
 30
0.0
 10
147.5525943541134
 20
102.3657273187826
 30
0.0
 10
147.5516698915
 20
102.3640184474
 30
0.0
 11
147.5626385626
 21
102.3840820199
 31
0.0
 11
147.5544465778
 21
102.3691432636
 31
0.0
 11
147.5516698915
 21
102.3640184474
 31
0.0
  0
SPLINE
  5
12B7
330
1B
100
AcDbEntity
  8
0
  6
Continuous
100
AcDbSpline
210
0.0
220
0.0
230
1.0
 70
     8
 71
     3
 72
    18
 73
    14
 74
    12
 42
0.0000000001
 43
0.0000000001
 44
0.0000000001
 40
0.0
 40
0.0
 40
0.0
 40
0.0
 40
1.84117080272061
 40
3.44073016790016
 40
4.791911067169666
 40
5.965268805406307
 40
7.058512542823156
 40
8.157940405052379
 40
9.284398634588127
 40
10.42181887615861
 40
11.54719077987758
 40
12.64124689965949
 40
13.69563287366453
 40
13.69563287366453
 40
13.69563287366453
 40
13.69563287366453
 10
94.5221826284
 20
102.3745232065
 30
0.0
 10
93.97811953261599
 20
102.6595584825025
 30
0.0
 10
92.9613891433772
 20
103.1922246922904
 30
0.0
 10
91.46223280128847
 20
103.7555034970271
 30
0.0
 10
90.12907812120626
 20
104.1009738013268
 30
0.0
 10
88.93264358640815
 20
104.2707737690489
 30
0.0
 10
87.80916336848546
 20
104.3076629278252
 30
0.0
 10
86.7037376610154
 20
104.2256327055442
 30
0.0
 10
85.59852354121622
 20
104.0265926145224
 30
0.0
 10
84.50936191879109
 20
103.720575306939
 30
0.0
 10
83.46046678889023
 20
103.3281331508305
 30
0.0
 10
82.46483719327803
 20
102.879077888902
 30
0.0
 10
81.83354097221397
 20
102.5406224761463
 30
0.0
 10
81.523721181
 20
102.3745194934
 30
0.0
 11
94.5221826284
 21
102.3745232065
 31
0.0
 11
92.87289663270001
 21
103.1929153064
 31
0.0
 11
91.3755022357
 21
103.7554099131
 31
0.0
 11
90.06620762359998
 21
104.0892323828
 31
0.0
 11
88.9042899536
 21
104.252681794
 31
0.0
 11
87.8116217222
 21
104.2881501671
 31
0.0
 11
86.7151497338
 21
104.2075846478
 31
0.0
 11
85.60619037399999
 21
104.0098037559
 31
0.0
 11
84.51057479520001
 21
103.7042692907
 31
0.0
 11
83.455443649
 21
103.3129124382
 31
0.0
 11
82.4585000819
 21
102.8622880744
 31
0.0
 11
81.523721181
 21
102.3745194934
 31
0.0
  0
SPLINE
  5
12B8
330
1B
100
AcDbEntity
  8
0
  6
Continuous
100
AcDbSpline
210
0.0
220
0.0
230
1.0
 70
     8
 71
     3
 72
    10
 73
     6
 74
     4
 42
0.0000000001
 43
0.0000000001
 44
0.0000000001
 40
0.0
 40
0.0
 40
0.0
 40
0.0
 40
0.5955805963729934
 40
1.19638545250262
 40
1.805645192917389
 40
1.805645192917389
 40
1.805645192917389
 40
1.805645192917389
 10
82.3805570466
 20
104.1748467488
 30
0.0
 10
82.21804463099146
 20
104.0590013635329
 30
0.0
 10
81.89159428813413
 20
103.8262944309746
 30
0.0
 10
81.54929766720515
 20
103.3088888992341
 30
0.0
 10
81.46168576784794
 20
102.9129715358556
 30
0.0
 10
81.4175737401
 20
102.7136296902
 30
0.0
 11
82.3805570466
 21
104.1748467488
 31
0.0
 11
81.9177155128
 21
103.8000215077
 31
0.0
 11
81.58585196190001
 21
103.2991891418
 31
0.0
 11
81.4175737401
 21
102.7136296902
 31
0.0
  0
SPLINE
  5
12B9
330
1B
100
AcDbEntity
  8
0
  6
Continuous
100
AcDbSpline
210
0.0
220
0.0
230
1.0
 70
     8
 71
     3
 72
    18
 73
    14
 74
    12
 42
0.0000000001
 43
0.0000000001
 44
0.0000000001
 40
0.0
 40
0.0
 40
0.0
 40
0.0
 40
1.872998905404219
 40
3.507968888712412
 40
4.895863109159265
 40
6.102477993656996
 40
7.222487549780568
 40
8.340797036972711
 40
9.476775633537349
 40
10.61541628021293
 40
11.73603008033448
 40
12.82162390585601
 40
13.86474184232537
 40
13.86474184232537
 40
13.86474184232537
 40
13.86474184232537
 10
95.60267763209998
 20
104.1748467488
 30
0.0
 10
95.04126563839108
 20
104.4490292131497
 30
0.0
 10
93.98978835135236
 20
104.9625498308042
 30
0.0
 10
92.44577822075114
 20
105.502744244062
 30
0.0
 10
91.07367119744259
 20
105.8359933504813
 30
0.0
 10
89.84436947275228
 20
106.0014922113424
 30
0.0
 10
88.69482468038835
 20
106.0395076041344
 30
0.0
 10
87.57072215559305
 20
105.9632535315935
 30
0.0
 10
86.45383633690165
 20
105.7742177762831
 30
0.0
 10
85.35907672592731
 20
105.4811201363683
 30
0.0
 10
84.30931708648328
 20
105.1025752184755
 30
0.0
 10
83.31645537843906
 20
104.6672370893544
 30
0.0
 10
82.68834545324211
 20
104.3367788967416
 30
0.0
 10
82.3805570806
 20
104.1748467488
 30
0.0
 11
95.60267763209998
 21
104.1748467488
 31
0.0
 11
93.9028102191
 21
104.9613425707
 31
0.0
 11
92.3598595337
 21
105.5021105697
 31
0.0
 11
91.01001337690001
 21
105.8248577155
 31
0.0
 11
89.81398932839998
 21
105.9843755982
 31
0.0
 11
88.6945682233
 21
106.0206770481
 31
0.0
 11
87.5788032239
 21
105.9452809258
 31
0.0
 11
86.45853654499999
 21
105.7569993813
 31
0.0
 11
85.35819734339999
 21
105.4641578479
 31
0.0
 11
84.3030417776
 21
105.086769426
 31
0.0
 11
83.3092860082
 21
104.649775805
 31
0.0
 11
82.3805570806
 21
104.1748467488
 31
0.0
  0
SPLINE
  5
12BA
330
1B
100
AcDbEntity
  8
0
  6
Continuous
100
AcDbSpline
210
0.0
220
0.0
230
1.0
 70
     8
 71
     3
 72
    10
 73
     6
 74
     4
 42
0.0000000001
 43
0.0000000001
 44
0.0000000001
 40
0.0
 40
0.0
 40
0.0
 40
0.0
 40
0.6189941882988577
 40
1.20863897889365
 40
1.750678970617558
 40
1.750678970617558
 40
1.750678970617558
 40
1.750678970617558
 10
94.6992379365
 20
102.7136381695
 30
0.0
 10
94.75750821919488
 20
102.9119539522821
 30
0.0
 10
94.8712859190627
 20
103.2991824428418
 30
0.0
 10
95.17897788877508
 20
103.8082252914515
 30
0.0
 10
95.46546671857831
 20
104.0561154646672
 30
0.0
 10
95.60268549659999
 20
104.1748467488
 30
0.0
 11
94.6992379365
 21
102.7136381695
 31
0.0
 11
94.8999229578
 21
103.2991971566
 31
0.0
 11
95.2111228508
 21
103.8000320652
 31
0.0
 11
95.60268549659999
 21
104.1748467488
 31
0.0
  0
SPLINE
  5
12BB
330
1B
100
AcDbEntity
  8
0
  6
Continuous
100
AcDbSpline
210
0.0
220
0.0
230
1.0
 70
     8
 71
     3
 72
    10
 73
     6
 74
     4
 42
0.0000000001
 43
0.0000000001
 44
0.0000000001
 40
0.0
 40
0.0
 40
0.0
 40
0.0
 40
0.0911112595681221
 40
0.1818621667645498
 40
0.2723719544053904
 40
0.2723719544053904
 40
0.2723719544053904
 40
0.2723719544053904
 10
81.4175737401
 20
102.7136296902
 30
0.0
 10
81.41288440818876
 20
102.6836199728436
 30
0.0
 10
81.40352429105181
 20
102.6237192289805
 30
0.0
 10
81.39451039100277
 20
102.5333114217751
 30
0.0
 10
81.39188905460199
 20
102.4729409990825
 30
0.0
 10
81.3905801299
 20
102.4427959412
 30
0.0
 11
81.4175737401
 21
102.7136296902
 31
0.0
 11
81.40434444710002
 21
102.6234839891
 31
0.0
 11
81.3953489892
 21
102.5331800086
 31
0.0
 11
81.3905801299
 21
102.4427959412
 31
0.0
  0
SPLINE
  5
12BC
330
1B
100
AcDbEntity
  8
0
  6
Continuous
100
AcDbSpline
210
0.0
220
0.0
230
1.0
 70
     8
 71
     3
 72
    10
 73
     6
 74
     4
 42
0.0000000001
 43
0.0000000001
 44
0.0000000001
 40
0.0
 40
0.0
 40
0.0
 40
0.0
 40
0.0905097838303152
 40
0.181260687086475
 40
0.2723719427496753
 40
0.2723719427496753
 40
0.2723719427496753
 40
0.2723719427496753
 10
139.3422345148
 20
102.4427959412
 30
0.0
 10
139.3409255901816
 20
102.4729409978147
 30
0.0
 10
139.3383042539498
 20
102.5333114179284
 30
0.0
 10
139.3292903544593
 20
102.6237192212769
 30
0.0
 10
139.3199302380487
 20
102.6836199626051
 30
0.0
 10
139.3152409065
 20
102.7136296787
 30
0.0
 11
139.3422345148
 21
102.4427959412
 31
0.0
 11
139.3374656558
 21
102.5331800048
 31
0.0
 11
139.3284701985
 21
102.6234839814
 31
0.0
 11
139.3152409065
 21
102.7136296787
 31
0.0
  0
SPLINE
  5
12BD
330
1B
100
AcDbEntity
  8
0
  6
Continuous
100
AcDbSpline
210
0.0
220
0.0
230
1.0
 70
     8
 71
     3
 72
     9
 73
     5
 74
     3
 42
0.0000000001
 43
0.0000000001
 44
0.0000000001
 40
0.0
 40
0.0
 40
0.0
 40
0.0
 40
0.4795266366951245
 40
0.9534668637594581
 40
0.9534668637594581
 40
0.9534668637594581
 40
0.9534668637594581
 10
139.3152409065
 20
102.7136296787
 30
0.0
 10
139.2851169103366
 20
102.8720644939762
 30
0.0
 10
139.2252198578105
 20
103.1870883839374
 30
0.0
 10
139.0589394823487
 20
103.4612291825564
 30
0.0
 10
138.9762864171
 20
103.5974964796
 30
0.0
 11
139.3152409065
 21
102.7136296787
 31
0.0
 11
139.1979605217
 21
103.1785932328
 31
0.0
 11
138.9762864171
 21
103.5974964796
 31
0.0
  0
SPLINE
  5
12BE
330
1B
100
AcDbEntity
  8
0
  6
Continuous
100
AcDbSpline
210
0.0
220
0.0
230
1.0
 70
     8
 71
     3
 72
    18
 73
    14
 74
    12
 42
0.0000000001
 43
0.0000000001
 44
0.0000000001
 40
0.0
 40
0.0
 40
0.0
 40
0.0
 40
1.050246753341345
 40
2.139052103302492
 40
3.258370969955282
 40
4.390288755921793
 40
5.51340722447935
 40
6.613139649961052
 40
7.709245665211841
 40
8.886709111397698
 40
10.24227714709576
 40
11.84718079692206
 40
13.69561654571911
 40
13.69561654571911
 40
13.69561654571911
 40
13.69561654571911
 10
139.2090934637
 20
102.3745194841
 30
0.0
 10
138.9004992814913
 20
102.5399865042787
 30
0.0
 10
138.2719812380693
 20
102.8769954751844
 30
0.0
 10
137.28122888586
 20
103.3243082140961
 30
0.0
 10
136.2379192243041
 20
103.7156367853374
 30
0.0
 10
135.1540022078628
 20
104.0218509291427
 30
0.0
 10
134.0520165091924
 20
104.222610126038
 30
0.0
 10
132.9468449608029
 20
104.3072083786829
 30
0.0
 10
131.820845900799
 20
104.2727162618247
 30
0.0
 10
130.620333112881
 20
104.1044968980518
 30
0.0
 10
129.2822649248198
 20
103.7594685023369
 30
0.0
 10
127.7773819467384
 20
103.1951697855753
 30
0.0
 10
126.7568710589453
 20
102.6606370283241
 30
0.0
 10
126.2106320163
 20
102.3745228231
 30
0.0
 11
139.2090934637
 21
102.3745194841
 31
0.0
 11
138.2780339177
 21
102.8604684163
 31
0.0
 11
137.2860505537
 21
103.3093181636
 31
0.0
 11
136.2369251011
 21
103.6994598173
 31
0.0
 11
135.1470499904
 21
104.005090505
 31
0.0
 11
134.0417785672
 21
104.204515116
 31
0.0
 11
132.9451914582
 21
104.2876302171
 31
0.0
 11
131.8495875474
 21
104.254456925
 31
0.0
 11
130.683317744
 21
104.0924849744
 31
0.0
 11
129.3693652725
 21
103.7591779057
 31
0.0
 11
127.8665867191
 21
103.1958198094
 31
0.0
 11
126.2106320163
 21
102.3745228231
 31
0.0
  0
SPLINE
  5
12BF
330
1B
100
AcDbEntity
  8
0
  6
Continuous
100
AcDbSpline
210
0.0
220
0.0
230
1.0
 70
     8
 71
     3
 72
    10
 73
     6
 74
     4
 42
0.0000000001
 43
0.0000000001
 44
0.0000000001
 40
0.0
 40
0.0
 40
0.0
 40
0.0
 40
0.5420391380502493
 40
1.131684327669585
 40
1.750678645456271
 40
1.750678645456271
 40
1.750678645456271
 40
1.750678645456271
 10
125.130129408
 20
104.1748467488
 30
0.0
 10
125.2673474241019
 20
104.0561151076
 30
0.0
 10
125.5538349992519
 20
103.8082238980689
 30
0.0
 10
125.8615283664386
 20
103.2991822380515
 30
0.0
 10
125.9753061246273
 20
102.9119534965607
 30
0.0
 10
126.0335764239
 20
102.7136376305
 30
0.0
 11
125.130129408
 21
104.1748467488
 31
0.0
 11
125.5216903004
 21
103.800031468
 31
0.0
 11
125.8328910922
 21
103.2991966481
 31
0.0
 11
126.0335764239
 21
102.7136376305
 31
0.0
  0
SPLINE
  5
12C0
330
1B
100
AcDbEntity
  8
0
  6
Continuous
100
AcDbSpline
210
0.0
220
0.0
230
1.0
 70
     8
 71
     3
 72
    13
 73
     9
 74
     7
 42
0.0000000001
 43
0.0000000001
 44
0.0000000001
 40
0.0
 40
0.0
 40
0.0
 40
0.0
 40
1.045975415835896
 40
2.113486608500812
 40
3.278051469434848
 40
4.61555030623923
 40
6.175429328734076
 40
7.946093289789425
 40
7.946093289789425
 40
7.946093289789425
 40
7.946093289789425
 10
132.7607625446
 20
105.9846458143
 30
0.0
 10
132.412373500424
 20
106.0038598314912
 30
0.0
 10
131.7084223670927
 20
106.0426834667451
 30
0.0
 10
130.6156060924824
 20
105.9720786691511
 30
0.0
 10
129.438158839483
 20
105.7905356501499
 30
0.0
 10
128.125436393125
 20
105.4506336503834
 30
0.0
 10
126.6581390954118
 20
104.9234106930207
 30
0.0
 10
125.6605170285124
 20
104.4346784343149
 30
0.0
 10
125.1301370126
 20
104.1748467488
 30
0.0
 11
132.7607625446
 21
105.9846458143
 31
0.0
 11
131.7154411546
 21
106.0216290827
 31
0.0
 11
130.6497569856
 21
105.9591999356
 31
0.0
 11
129.4988232627
 21
105.7815404838
 31
0.0
 11
128.2027671475
 21
105.4511744978
 31
0.0
 11
126.7352006331
 21
104.9225242442
 31
0.0
 11
125.1301370126
 21
104.1748467488
 31
0.0
  0
SPLINE
  5
12C1
330
1B
100
AcDbEntity
  8
0
  6
Continuous
100
AcDbSpline
210
0.0
220
0.0
230
1.0
 70
     8
 71
     3
 72
    10
 73
     6
 74
     4
 42
0.0000000001
 43
0.0000000001
 44
0.0000000001
 40
0.0
 40
0.0
 40
0.0
 40
0.0
 40
0.1025241683163563
 40
0.2064317958484652
 40
0.3116220597057556
 40
0.3116220597057556
 40
0.3116220597057556
 40
0.3116220597057556
 10
126.0335764239
 20
102.7136376305
 30
0.0
 10
126.0174273744557
 20
102.6835181205197
 30
0.0
 10
125.9849113605949
 20
102.6228726684531
 30
0.0
 10
125.9334761673118
 20
102.532610850734
 30
0.0
 10
125.8975936262476
 20
102.4728564251046
 30
0.0
 10
125.8795423014
 20
102.4427959412
 30
0.0
 11
126.0335764239
 21
102.7136376305
 31
0.0
 11
125.9847452598
 21
102.6234892944
 31
0.0
 11
125.9333496597
 21
102.5331826648
 31
0.0
 11
125.8795423014
 21
102.4427959412
 31
0.0
  0
SPLINE
  5
12C2
330
1B
100
AcDbEntity
  8
0
  6
Continuous
100
AcDbSpline
210
0.0
220
0.0
230
1.0
 70
     8
 71
     3
 72
    10
 73
     6
 74
     4
 42
0.0000000001
 43
0.0000000001
 44
0.0000000001
 40
0.0
 40
0.0
 40
0.0
 40
0.0
 40
0.1077069357744168
 40
0.2163450719986169
 40
0.3257897121157152
 40
0.3257897121157152
 40
0.3257897121157152
 40
0.3257897121157152
 10
123.8290995357
 20
102.4427959412
 30
0.0
 10
123.8096625467084
 20
102.4729822479061
 30
0.0
 10
123.770620522603
 20
102.5336158426763
 30
0.0
 10
123.7102177852484
 20
102.6238724733868
 30
0.0
 10
123.6688381690266
 20
102.6836408990298
 30
0.0
 10
123.6480718468
 20
102.7136356283
 30
0.0
 11
123.8290995357
 21
102.4427959412
 31
0.0
 11
123.7705235569
 21
102.533181995
 31
0.0
 11
123.710132515
 21
102.6234879566
 31
0.0
 11
123.6480718468
 21
102.7136356283
 31
0.0
  0
SPLINE
  5
12C3
330
1B
100
AcDbEntity
  8
0
  6
Continuous
100
AcDbSpline
210
0.0
220
0.0
230
1.0
 70
     8
 71
     3
 72
    15
 73
    11
 74
     9
 42
0.0000000001
 43
0.0000000001
 44
0.0000000001
 40
0.0
 40
0.0
 40
0.0
 40
0.0
 40
3.459796925823449
 40
6.772277940280498
 40
9.996089205586021
 40
13.17733139463496
 40
16.35857211751979
 40
19.58238084255916
 40
22.8948613115065
 40
26.35465614622815
 40
26.35465614622815
 40
26.35465614622815
 40
26.35465614622815
 10
123.3648687698
 20
102.3745216347
 30
0.0
 10
122.2487001165725
 20
102.6659410359432
 30
0.0
 10
120.0638885481633
 20
103.2363713891465
 30
0.0
 10
116.7829848923773
 20
103.8359609221944
 30
0.0
 10
113.5627189100773
 20
104.2078657726781
 30
0.0
 10
110.3664044836967
 20
104.3312684346852
 30
0.0
 10
107.170090925759
 20
104.2078653476625
 30
0.0
 10
103.949826489319
 20
103.8359603926559
 30
0.0
 10
100.6689245615366
 20
103.2363710207517
 30
0.0
 10
98.48411385020553
 20
102.665940868503
 30
0.0
 10
97.36794587490002
 20
102.3745216326
 30
0.0
 11
123.3648687698
 21
102.3745216347
 31
0.0
 11
120.0064510504
 21
103.2059211716
 31
0.0
 11
116.7485629703
 21
103.8048332926
 31
0.0
 11
113.5453046742
 21
104.1682825501
 31
0.0
 11
110.3664039984
 21
104.2903168026
 31
0.0
 11
107.187504805
 21
104.1682821553
 31
0.0
 11
103.984249065
 21
103.8048329019
 31
0.0
 11
100.726361549
 21
103.2059207295
 31
0.0
 11
97.36794587490002
 21
102.3745216326
 31
0.0
  0
SPLINE
  5
12C4
330
1B
100
AcDbEntity
  8
0
  6
Continuous
100
AcDbSpline
210
0.0
220
0.0
230
1.0
 70
     8
 71
     3
 72
    10
 73
     6
 74
     4
 42
0.0000000001
 43
0.0000000001
 44
0.0000000001
 40
0.0
 40
0.0
 40
0.0
 40
0.0
 40
0.3815345929863518
 40
0.8827953043635454
 40
1.469250511973823
 40
1.469250511973823
 40
1.469250511973823
 40
1.469250511973823
 10
97.1442798352
 20
104.1748467488
 30
0.0
 10
97.11689282299982
 20
104.0504049354212
 30
0.0
 10
97.05352471375019
 20
103.76247128396
 30
0.0
 10
97.04502857392865
 20
103.2699651915905
 30
0.0
 10
97.07083106820076
 20
102.9085155664617
 30
0.0
 10
97.0847427954
 20
102.7136356247
 30
0.0
 11
97.1442798352
 21
104.1748467488
 31
0.0
 11
97.07300164100001
 21
103.8000293737
 31
0.0
 11
97.052336727
 21
103.2991948081
 31
0.0
 11
97.0847427954
 21
102.7136356247
 31
0.0
  0
SPLINE
  5
12C5
330
1B
100
AcDbEntity
  8
0
  6
Continuous
100
AcDbSpline
210
0.0
220
0.0
230
1.0
 70
     8
 71
     3
 72
    15
 73
    11
 74
     9
 42
0.0000000001
 43
0.0000000001
 44
0.0000000001
 40
0.0
 40
0.0
 40
0.0
 40
0.0
 40
3.485172291419059
 40
6.844733310870511
 40
10.13201136877572
 40
13.38646912141205
 40
16.64092536152565
 40
19.92820080578285
 40
23.28776116214714
 40
26.77293151749429
 40
26.77293151749429
 40
26.77293151749429
 40
26.77293151749429
 10
123.5885278739
 20
104.1748467488
 30
0.0
 10
122.4610520729561
 20
104.4561328137867
 30
0.0
 10
120.2467365308173
 20
105.0085669369544
 30
0.0
 10
116.9158688124648
 20
105.5852228605542
 30
0.0
 10
113.6326187317486
 20
105.9431552782861
 30
0.0
 10
110.3664044588012
 20
106.0617751732242
 30
0.0
 10
107.1001910765476
 20
105.9431548744439
 30
0.0
 10
103.8169426173599
 20
105.5852223657283
 30
0.0
 10
100.4860766388169
 20
105.0085665972135
 30
0.0
 10
98.27176194275032
 20
104.4561326663991
 30
0.0
 10
97.14428677079999
 20
104.1748467488
 30
0.0
 11
123.5885278739
 21
104.1748467488
 31
0.0
 11
120.1968009257
 21
104.9764789648
 31
0.0
 11
116.8872647965
 21
105.5540781796
 31
0.0
 11
113.618731235
 21
105.9046283006
 31
0.0
 11
110.3664039577
 21
106.0223676102
 31
0.0
 11
107.1140782075
 21
105.9046279253
 31
0.0
 11
103.8455472735
 21
105.5540778149
 31
0.0
 11
100.536011822
 21
104.9764785738
 31
0.0
 11
97.14428677079999
 21
104.1748467488
 31
0.0
  0
SPLINE
  5
12C6
330
1B
100
AcDbEntity
  8
0
  6
Continuous
100
AcDbSpline
210
0.0
220
0.0
230
1.0
 70
     8
 71
     3
 72
    10
 73
     6
 74
     4
 42
0.0000000001
 43
0.0000000001
 44
0.0000000001
 40
0.0
 40
0.0
 40
0.0
 40
0.0
 40
0.5864552073336184
 40
1.087715919897655
 40
1.469250505352999
 40
1.469250505352999
 40
1.469250505352999
 40
1.469250505352999
 10
123.6480718468
 20
102.7136356283
 30
0.0
 10
123.6619835746351
 20
102.9085155702288
 30
0.0
 10
123.6877860701206
 20
103.2699651961405
 30
0.0
 10
123.6792899081354
 20
103.7624712841533
 30
0.0
 10
123.6159218163909
 20
104.0504049365702
 30
0.0
 10
123.5885348121
 20
104.1748467488
 30
0.0
 11
123.6480718468
 21
102.7136356283
 31
0.0
 11
123.680477912
 21
103.2991948116
 31
0.0
 11
123.6598129886
 21
103.800029378
 31
0.0
 11
123.5885348121
 21
104.1748467488
 31
0.0
  0
SPLINE
  5
12C7
330
1B
100
AcDbEntity
  8
0
  6
Continuous
100
AcDbSpline
210
0.0
220
0.0
230
1.0
 70
     8
 71
     3
 72
    10
 73
     6
 74
     4
 42
0.0000000001
 43
0.0000000001
 44
0.0000000001
 40
0.0
 40
0.0
 40
0.0
 40
0.0
 40
0.1094446386183379
 40
0.2180827734003248
 40
0.3257897077870144
 40
0.3257897077870144
 40
0.3257897077870144
 40
0.3257897077870144
 10
97.0847427954
 20
102.7136356247
 30
0.0
 10
97.06397647347792
 20
102.6836408958266
 30
0.0
 10
97.0225968578543
 20
102.623872470962
 30
0.0
 10
96.96219412130145
 20
102.533615841452
 30
0.0
 10
96.92315209766298
 20
102.4729822475031
 30
0.0
 10
96.90371510890002
 20
102.4427959412
 30
0.0
 11
97.0847427954
 21
102.7136356247
 31
0.0
 11
97.0226821281
 21
102.6234879542
 31
0.0
 11
96.962291087
 21
102.5331819938
 31
0.0
 11
96.90371510890002
 21
102.4427959412
 31
0.0
  0
SPLINE
  5
12C8
330
1B
100
AcDbEntity
  8
0
  6
Continuous
100
AcDbSpline
210
0.0
220
0.0
230
1.0
 70
     8
 71
     3
 72
    10
 73
     6
 74
     4
 42
0.0000000001
 43
0.0000000001
 44
0.0000000001
 40
0.0
 40
0.0
 40
0.0
 40
0.0
 40
0.1051904725446665
 40
0.2090983033314787
 40
0.3116226690561255
 40
0.3116226690561255
 40
0.3116226690561255
 40
0.3116226690561255
 10
94.85327234330001
 20
102.4427959412
 30
0.0
 10
94.83522098293588
 20
102.4728564849219
 30
0.0
 10
94.79933837176731
 20
102.5326110286313
 30
0.0
 10
94.74790308324103
 20
102.6228730259627
 30
0.0
 10
94.7153870134654
 20
102.6835185996041
 30
0.0
 10
94.6992379365
 20
102.7136381695
 30
0.0
 11
94.85327234330001
 21
102.4427959412
 31
0.0
 11
94.7994648799
 21
102.5331828451
 31
0.0
 11
94.7480691848
 21
102.6234896545
 31
0.0
 11
94.6992379365
 21
102.7136381695
 31
0.0
  0
HATCH
  5
2151
330
1B
100
AcDbEntity
  8
0
100
AcDbHatch
 10
0.0
 20
0.0
 30
0.0
210
0.0
220
0.0
230
1.0
  2
SOLID
 70
     1
 71
     1
 91
        4
 92
        7
 72
     0
 73
     1
 93
        4
 10
203.1928181902
 20
146.2974964796
 10
197.3031872756
 20
148.7974964796
 10
197.3031872756
 20
125.7974964796
 10
203.1928181902
 20
125.7974964796
 97
        4
330
433
330
456
330
3E1
330
466
 92
        7
 72
     0
 73
     1
 93
        4
 10
197.3031872756
 20
148.7974964796
 10
195.1928181902
 20
148.7974964796
 10
195.1928181902
 20
125.7974964796
 10
197.3031872756
 20
125.7974964796
 97
        4
330
405
330
455
330
3E1
330
456
 92
        7
 72
     0
 73
     1
 93
        4
 10
197.3031872756
 20
125.7974964796
 10
195.1928181902
 20
125.7974964796
 10
195.1928181902
 20
102.7974964796
 10
197.3031872756
 20
102.7974964796
 97
        4
330
3E1
330
455
330
3C3
330
456
 92
        7
 72
     0
 73
     1
 93
        4
 10
203.1928181902
 20
125.7974964796
 10
197.3031872756
 20
125.7974964796
 10
197.3031872756
 20
102.7974964796
 10
203.1928181902
 20
105.2974964796
 97
        4
330
3E1
330
456
330
474
330
466
 75
     0
 76
     1
 47
0.1421722298996794
 98
        4
 10
199.7304752831674
 20
138.0659173315496
 10
196.1731164580535
 20
128.3982055199205
 10
196.1731164580535
 20
122.9956606217542
 10
200.1573583421812
 20
121.2895939974826
  0
ENDSEC
  0
SECTION
  2
OBJECTS
  0
DICTIONARY
  5
1700
330
0
100
AcDbDictionary
281
     1
  3
ACAD_COLOR
350
2114
  3
ACAD_GROUP
350
1701
  3
ACAD_LAYOUT
350
2115
  3
ACAD_MATERIAL
350
2113
  3
ACAD_MLINESTYLE
350
1702
  3
ACAD_PLOTSETTINGS
350
2116
  3
ACAD_PLOTSTYLENAME
350
2111
  3
ACDBHEADERROUNDTRIPXREC
350
2754
  3
AcDbVariableDictionary
350
2751
  0
DICTIONARY
  5
2114
102
{ACAD_REACTORS
330
1700
102
}
330
1700
100
AcDbDictionary
281
     1
  0
DICTIONARY
  5
1701
102
{ACAD_REACTORS
330
1700
102
}
330
1700
100
AcDbDictionary
281
     1
  0
DICTIONARY
  5
2115
102
{ACAD_REACTORS
330
1700
102
}
330
1700
100
AcDbDictionary
281
     1
  3
Layout1
350
2118
  3
Model
350
2117
  0
DICTIONARY
  5
2113
102
{ACAD_REACTORS
330
1700
102
}
330
1700
100
AcDbDictionary
281
     1
  0
DICTIONARY
  5
1702
102
{ACAD_REACTORS
330
1700
102
}
330
1700
100
AcDbDictionary
281
     1
  3
STANDARD
350
1703
  0
DICTIONARY
  5
2116
102
{ACAD_REACTORS
330
1700
102
}
330
1700
100
AcDbDictionary
281
     1
  0
ACDBDICTIONARYWDFLT
  5
2111
102
{ACAD_REACTORS
330
1700
102
}
330
1700
100
AcDbDictionary
281
     1
  3
Normal
350
2112
100
AcDbDictionaryWithDefault
340
2112
  0
DICTIONARY
  5
2754
102
{ACAD_REACTORS
330
1700
102
}
330
1700
100
AcDbDictionary
281
     1
  3
COLORDICT
350
2755
  3
MATERIALDICT
350
2756
  0
DICTIONARY
  5
2751
102
{ACAD_REACTORS
330
1700
102
}
330
1700
100
AcDbDictionary
281
     1
  3
DIMASSOC
350
2752
  3
HIDETEXT
350
2753
  0
LAYOUT
  5
2118
102
{ACAD_REACTORS
330
2115
102
}
330
2115
100
AcDbPlotSettings
  1

  2
\\alderaan\HP LaserJet 4050 Ricerca
  4

  6

 40
0.0
 41
0.0
 42
0.0
 43
0.0
 44
0.0
 45
0.0
 46
0.0
 47
0.0
 48
0.0
 49
0.0
140
0.0
141
0.0
142
1.0
143
1.0
 70
   688
 72
     0
 73
     0
 74
     5
  7

 75
    16
147
1.0
148
0.0
149
0.0
100
AcDbLayout
  1
Layout1
 70
     0
 71
     1
 10
0.0
 20
0.0
 11
12.0
 21
9.0
 12
0.0
 22
0.0
 32
0.0
 14
1.000000000000000E+20
 24
1.000000000000000E+20
 34
1.000000000000000E+20
 15
-1.000000000000000E+20
 25
-1.000000000000000E+20
 35
-1.000000000000000E+20
146
0.0
 13
0.0
 23
0.0
 33
0.0
 16
1.0
 26
0.0
 36
0.0
 17
0.0
 27
1.0
 37
0.0
 76
     0
330
1C
  0
LAYOUT
  5
2117
102
{ACAD_REACTORS
330
2115
102
}
330
2115
100
AcDbPlotSettings
  1

  2
\\alderaan\HP LaserJet 4050 Ricerca
  4
A4
  6

 40
5.027083396911621
 41
5.069430828094482
 42
5.365737915039062
 43
5.365753173828125
 44
209.8886566162109
 45
297.0530090332031
 46
-1.778
 47
44.958
 48
37.18830748874007
 49
13.85323168814
140
269.2137426367688
141
253.9590246222179
142
1.0
143
30.0
 70
 11940
 72
     0
 73
     1
 74
     4
  7

 75
     0
147
0.0333333333333333
148
-944.5830102139975
149
-351.872084878756
100
AcDbLayout
  1
Model
 70
     1
 71
     0
 10
0.0
 20
0.0
 11
12.0
 21
9.0
 12
0.0
 22
0.0
 32
0.0
 14
0.0
 24
0.0
 34
0.0
 15
0.0
 25
0.0
 35
0.0
146
0.0
 13
0.0
 23
0.0
 33
0.0
 16
1.0
 26
0.0
 36
0.0
 17
0.0
 27
1.0
 37
0.0
 76
     0
330
1B
  0
MLINESTYLE
  5
1703
102
{ACAD_REACTORS
330
1702
102
}
330
1702
100
AcDbMlineStyle
  2
STANDARD
 70
     0
  3

 62
   256
 51
90.00000000000019
 52
90.00000000000019
 71
     2
 49
0.5
 62
   256
  6
BYLAYER
 49
-0.5
 62
   256
  6
BYLAYER
  0
ACDBPLACEHOLDER
  5
2112
102
{ACAD_REACTORS
330
2111
102
}
330
2111
  0
XRECORD
  5
2755
102
{ACAD_REACTORS
330
2754
102
}
330
2754
100
AcDbXrecord
280
     1
340
2114
  0
XRECORD
  5
2756
102
{ACAD_REACTORS
330
2754
102
}
330
2754
100
AcDbXrecord
280
     1
340
2113
  0
DICTIONARYVAR
  5
2752
102
{ACAD_REACTORS
330
2751
102
}
330
2751
100
DictionaryVariables
280
     0
  1
1
  0
DICTIONARYVAR
  5
2753
102
{ACAD_REACTORS
330
2751
102
}
330
2751
100
DictionaryVariables
280
     0
  1
0
  0
ENDSEC
  0
EOF
