  0
SECTION
  2
HEADER
  9
$ACADVER
  1
AC1015
  9
$ACADMAINTVER
 70
     6
  9
$DWGCODEPAGE
  3
ANSI_1252
  9
$INSBASE
 10
0.0
 20
0.0
 30
0.0
  9
$EXTMIN
 10
29.61604060116736
 20
104.8592252396
 30
0.0
  9
$EXTMAX
 10
427.9368365611255
 20
210.0728771054551
 30
0.0
  9
$LIMMIN
 10
0.0
 20
0.0
  9
$LIMMAX
 10
420.0
 20
297.0
  9
$ORTHOMODE
 70
     1
  9
$REGENMODE
 70
     1
  9
$FILLMODE
 70
     1
  9
$QTEXTMODE
 70
     0
  9
$MIRRTEXT
 70
     1
  9
$LTSCALE
 40
23.1
  9
$ATTMODE
 70
     1
  9
$TEXTSIZE
 40
0.2
  9
$TRACEWID
 40
0.05
  9
$TEXTSTYLE
  7
STANDARD
  9
$CLAYER
  8
0
  9
$CELTYPE
  6
BYLAYER
  9
$CECOLOR
 62
   256
  9
$CELTSCALE
 40
1.0
  9
$DISPSILH
 70
     0
  9
$DIMSCALE
 40
1.0
  9
$DIMASZ
 40
3.0
  9
$DIMEXO
 40
2.625
  9
$DIMDLI
 40
15.96
  9
$DIMRND
 40
0.0
  9
$DIMDLE
 40
0.0
  9
$DIMEXE
 40
7.559999999999999
  9
$DIMTP
 40
0.003
  9
$DIMTM
 40
0.003
  9
$DIMTXT
 40
1.5
  9
$DIMCEN
 40
3.779999999999999
  9
$DIMTSZ
 40
0.0
  9
$DIMTOL
 70
     1
  9
$DIMLIM
 70
     0
  9
$DIMTIH
 70
     1
  9
$DIMTOH
 70
     1
  9
$DIMSE1
 70
     0
  9
$DIMSE2
 70
     0
  9
$DIMTAD
 70
     0
  9
$DIMZIN
 70
     0
  9
$DIMBLK
  1

  9
$DIMASO
 70
     1
  9
$DIMSHO
 70
     1
  9
$DIMPOST
  1

  9
$DIMAPOST
  1

  9
$DIMALT
 70
     0
  9
$DIMALTD
 70
     2
  9
$DIMALTF
 40
25.4
  9
$DIMLFAC
 40
1.0
  9
$DIMTOFL
 70
     0
  9
$DIMTVP
 40
0.0
  9
$DIMTIX
 70
     0
  9
$DIMSOXD
 70
     0
  9
$DIMSAH
 70
     0
  9
$DIMBLK1
  1

  9
$DIMBLK2
  1

  9
$DIMSTYLE
  2
STANDARD
  9
$DIMCLRD
 70
     0
  9
$DIMCLRE
 70
     0
  9
$DIMCLRT
 70
     0
  9
$DIMTFAC
 40
1.0
  9
$DIMGAP
 40
0.09
  9
$DIMJUST
 70
     0
  9
$DIMSD1
 70
     0
  9
$DIMSD2
 70
     0
  9
$DIMTOLJ
 70
     1
  9
$DIMTZIN
 70
     0
  9
$DIMALTZ
 70
     0
  9
$DIMALTTZ
 70
     0
  9
$DIMUPT
 70
     0
  9
$DIMDEC
 70
     4
  9
$DIMTDEC
 70
     4
  9
$DIMALTU
 70
     2
  9
$DIMALTTD
 70
     2
  9
$DIMTXSTY
  7
STANDARD
  9
$DIMAUNIT
 70
     0
  9
$DIMADEC
 70
     0
  9
$DIMALTRND
 40
0.0
  9
$DIMAZIN
 70
     0
  9
$DIMDSEP
 70
    46
  9
$DIMATFIT
 70
     3
  9
$DIMFRAC
 70
     0
  9
$DIMLDRBLK
  1

  9
$DIMLUNIT
 70
     2
  9
$DIMLWD
 70
    -2
  9
$DIMLWE
 70
    -2
  9
$DIMTMOVE
 70
     0
  9
$LUNITS
 70
     2
  9
$LUPREC
 70
     4
  9
$SKETCHINC
 40
0.1
  9
$FILLETRAD
 40
0.0
  9
$AUNITS
 70
     0
  9
$AUPREC
 70
     0
  9
$MENU
  1
acad
  9
$ELEVATION
 40
0.0
  9
$PELEVATION
 40
0.0
  9
$THICKNESS
 40
0.0
  9
$LIMCHECK
 70
     0
  9
$CHAMFERA
 40
0.0
  9
$CHAMFERB
 40
0.0
  9
$CHAMFERC
 40
0.0
  9
$CHAMFERD
 40
0.0
  9
$SKPOLY
 70
     0
  9
$TDCREATE
 40
2444972.041666667
  9
$TDUCREATE
 40
2444972.0
  9
$TDUPDATE
 40
2453410.370702917
  9
$TDUUPDATE
 40
2453410.32903625
  9
$TDINDWG
 40
0.0193345718
  9
$TDUSRTIMER
 40
0.0193345718
  9
$USRTIMER
 70
     1
  9
$ANGBASE
 50
0.0
  9
$ANGDIR
 70
     0
  9
$PDMODE
 70
     0
  9
$PDSIZE
 40
0.0
  9
$PLINEWID
 40
0.0
  9
$SPLFRAME
 70
     0
  9
$SPLINETYPE
 70
     6
  9
$SPLINESEGS
 70
     8
  9
$HANDSEED
  5
1503
  9
$SURFTAB1
 70
     6
  9
$SURFTAB2
 70
     6
  9
$SURFTYPE
 70
     6
  9
$SURFU
 70
     6
  9
$SURFV
 70
     6
  9
$UCSBASE
  2

  9
$UCSNAME
  2

  9
$UCSORG
 10
0.0
 20
0.0
 30
0.0
  9
$UCSXDIR
 10
1.0
 20
0.0
 30
0.0
  9
$UCSYDIR
 10
0.0
 20
1.0
 30
0.0
  9
$UCSORTHOREF
  2

  9
$UCSORTHOVIEW
 70
     0
  9
$UCSORGTOP
 10
0.0
 20
0.0
 30
0.0
  9
$UCSORGBOTTOM
 10
0.0
 20
0.0
 30
0.0
  9
$UCSORGLEFT
 10
0.0
 20
0.0
 30
0.0
  9
$UCSORGRIGHT
 10
0.0
 20
0.0
 30
0.0
  9
$UCSORGFRONT
 10
0.0
 20
0.0
 30
0.0
  9
$UCSORGBACK
 10
0.0
 20
0.0
 30
0.0
  9
$PUCSBASE
  2

  9
$PUCSNAME
  2

  9
$PUCSORG
 10
0.0
 20
0.0
 30
0.0
  9
$PUCSXDIR
 10
1.0
 20
0.0
 30
0.0
  9
$PUCSYDIR
 10
0.0
 20
1.0
 30
0.0
  9
$PUCSORTHOREF
  2

  9
$PUCSORTHOVIEW
 70
     0
  9
$PUCSORGTOP
 10
0.0
 20
0.0
 30
0.0
  9
$PUCSORGBOTTOM
 10
0.0
 20
0.0
 30
0.0
  9
$PUCSORGLEFT
 10
0.0
 20
0.0
 30
0.0
  9
$PUCSORGRIGHT
 10
0.0
 20
0.0
 30
0.0
  9
$PUCSORGFRONT
 10
0.0
 20
0.0
 30
0.0
  9
$PUCSORGBACK
 10
0.0
 20
0.0
 30
0.0
  9
$USERI1
 70
     0
  9
$USERI2
 70
     0
  9
$USERI3
 70
     0
  9
$USERI4
 70
     0
  9
$USERI5
 70
     0
  9
$USERR1
 40
0.0
  9
$USERR2
 40
0.0
  9
$USERR3
 40
0.0
  9
$USERR4
 40
0.0
  9
$USERR5
 40
0.0
  9
$WORLDVIEW
 70
     1
  9
$SHADEDGE
 70
     3
  9
$SHADEDIF
 70
    70
  9
$TILEMODE
 70
     1
  9
$MAXACTVP
 70
    16
  9
$PINSBASE
 10
0.0
 20
0.0
 30
0.0
  9
$PLIMCHECK
 70
     0
  9
$PEXTMIN
 10
1.000000000000000E+20
 20
1.000000000000000E+20
 30
1.000000000000000E+20
  9
$PEXTMAX
 10
-1.000000000000000E+20
 20
-1.000000000000000E+20
 30
-1.000000000000000E+20
  9
$PLIMMIN
 10
0.0
 20
0.0
  9
$PLIMMAX
 10
12.0
 20
9.0
  9
$UNITMODE
 70
     0
  9
$VISRETAIN
 70
     0
  9
$PLINEGEN
 70
     1
  9
$PSLTSCALE
 70
     0
  9
$TREEDEPTH
 70
  3020
  9
$CMLSTYLE
  2
STANDARD
  9
$CMLJUST
 70
     0
  9
$CMLSCALE
 40
1.0
  9
$PROXYGRAPHICS
 70
     1
  9
$MEASUREMENT
 70
     0
  9
$CELWEIGHT
370
    -1
  9
$ENDCAPS
280
     0
  9
$JOINSTYLE
280
     0
  9
$LWDISPLAY
290
     0
  9
$INSUNITS
 70
     0
  9
$HYPERLINKBASE
  1

  9
$STYLESHEET
  1

  9
$XEDIT
290
     1
  9
$CEPSNTYPE
380
     0
  9
$PSTYLEMODE
290
     1
  9
$FINGERPRINTGUID
  2
{A0CF18C8-85D1-4AA8-A465-3583EB23B99F}
  9
$VERSIONGUID
  2
{7238DA43-E51E-4C68-9C9D-D31B90163652}
  9
$EXTNAMES
290
     1
  9
$PSVPSCALE
 40
0.0
  9
$OLESTARTUP
290
     0
  0
ENDSEC
  0
SECTION
  2
CLASSES
  0
CLASS
  1
IMAGE
  2
AcDbRasterImage
  3
ISM
 90
      127
280
     0
281
     1
  0
CLASS
  1
DICTIONARYVAR
  2
AcDbDictionaryVar
  3
ObjectDBX Classes
 90
        0
280
     0
281
     0
  0
CLASS
  1
RASTERVARIABLES
  2
AcDbRasterVariables
  3
ISM
 90
        0
280
     0
281
     0
  0
CLASS
  1
IMAGEDEF
  2
AcDbRasterImageDef
  3
ISM
 90
        0
280
     0
281
     0
  0
CLASS
  1
IMAGEDEF_REACTOR
  2
AcDbRasterImageDefReactor
  3
ISM
 90
        1
280
     0
281
     0
  0
CLASS
  1
IDBUFFER
  2
AcDbIdBuffer
  3
ObjectDBX Classes
 90
        0
280
     0
281
     0
  0
CLASS
  1
SPATIAL_FILTER
  2
AcDbSpatialFilter
  3
ObjectDBX Classes
 90
        0
280
     0
281
     0
  0
CLASS
  1
SORTENTSTABLE
  2
AcDbSortentsTable
  3
ObjectDBX Classes
 90
        0
280
     0
281
     0
  0
CLASS
  1
LAYER_INDEX
  2
AcDbLayerIndex
  3
ObjectDBX Classes
 90
        0
280
     0
281
     0
  0
CLASS
  1
SPATIAL_INDEX
  2
AcDbSpatialIndex
  3
AutoCAD 2000
 90
        0
280
     0
281
     0
  0
CLASS
  1
OBJECT_PTR
  2
CAseDLPNTableRecord
  3
ASE-LPNTableRecord
 90
        1
280
     0
281
     0
  0
CLASS
  1
PLOTSETTINGS
  2
AcDbPlotSettings
  3
ObjectDBX Classes
 90
        0
280
     0
281
     0
  0
CLASS
  1
ACDBDICTIONARYWDFLT
  2
AcDbDictionaryWithDefault
  3
ObjectDBX Classes
 90
        0
280
     0
281
     0
  0
CLASS
  1
WIPEOUT
  2
AcDbWipeout
  3
WipeOut|AutoCAD Express Tool|expresstools@autodesk.com
 90
      127
280
     0
281
     1
  0
CLASS
  1
WIPEOUTVARIABLES
  2
AcDbWipeoutVariables
  3
WipeOut|AutoCAD Express Tool|expresstools@autodesk.com
 90
        0
280
     0
281
     0
  0
CLASS
  1
RTEXT
  2
RText
  3
RText|AutoCAD Express Tool|expresstools@autodesk.com
 90
        0
280
     0
281
     1
  0
CLASS
  1
ARCALIGNEDTEXT
  2
AcDbArcAlignedText
  3
ATEXT|AutoCAD Express Tool|expresstools@autodesk.com
 90
        0
280
     0
281
     1
  0
CLASS
  1
ACDBPLACEHOLDER
  2
AcDbPlaceHolder
  3
ObjectDBX Classes
 90
        0
280
     0
281
     0
  0
CLASS
  1
LAYOUT
  2
AcDbLayout
  3
ObjectDBX Classes
 90
        0
280
     0
281
     0
  0
ENDSEC
  0
SECTION
  2
TABLES
  0
TABLE
  2
VPORT
  5
8
330
0
100
AcDbSymbolTable
 70
     1
  0
VPORT
  5
14F7
330
8
100
AcDbSymbolTableRecord
100
AcDbViewportTableRecord
  2
*Active
 70
     0
 10
0.0
 20
0.0
 11
1.0
 21
1.0
 12
236.9739884927913
 22
146.3449687517271
 13
0.0
 23
0.0
 14
1.0
 24
1.0
 15
0.0
 25
0.0
 16
0.0
 26
0.0
 36
1.0
 17
0.0
 27
0.0
 37
0.0
 40
233.6255960253296
 41
1.888667992047713
 42
50.0
 43
0.0
 44
0.0
 50
0.0
 51
0.0
 71
     0
 72
   100
 73
     1
 74
     1
 75
     0
 76
     0
 77
     0
 78
     0
281
     0
 65
     1
110
0.0
120
0.0
130
0.0
111
1.0
121
0.0
131
0.0
112
0.0
122
1.0
132
0.0
 79
     0
146
0.0
  0
ENDTAB
  0
TABLE
  2
LTYPE
  5
5
330
0
100
AcDbSymbolTable
 70
     2
  0
LTYPE
  5
14
330
5
100
AcDbSymbolTableRecord
100
AcDbLinetypeTableRecord
  2
BYBLOCK
 70
     0
  3

 72
    65
 73
     0
 40
0.0
  0
LTYPE
  5
15
330
5
100
AcDbSymbolTableRecord
100
AcDbLinetypeTableRecord
  2
BYLAYER
 70
     0
  3

 72
    65
 73
     0
 40
0.0
  0
LTYPE
  5
16
330
5
100
AcDbSymbolTableRecord
100
AcDbLinetypeTableRecord
  2
CONTINUOUS
 70
     0
  3
Solid line
 72
    65
 73
     0
 40
0.0
  0
LTYPE
  5
1F5
330
5
100
AcDbSymbolTableRecord
100
AcDbLinetypeTableRecord
  2
CENTER
 70
     0
  3
____ _ ____ _ ____ _ ____ _ ____ _ ____ _ ____
 72
    65
 73
     4
 40
0.6
 49
0.375
 74
     0
 49
-0.075
 74
     0
 49
0.075
 74
     0
 49
-0.075
 74
     0
  0
ENDTAB
  0
TABLE
  2
LAYER
  5
2
330
0
100
AcDbSymbolTable
 70
     2
  0
LAYER
  5
10
330
2
100
AcDbSymbolTableRecord
100
AcDbLayerTableRecord
  2
0
 70
     0
 62
     7
  6
CONTINUOUS
370
    -3
390
769
  0
LAYER
  5
772
330
2
100
AcDbSymbolTableRecord
100
AcDbLayerTableRecord
  2
Defpoints
 70
     0
 62
     7
  6
CONTINUOUS
290
     0
370
    -3
390
769
  0
ENDTAB
  0
TABLE
  2
STYLE
  5
3
330
0
100
AcDbSymbolTable
 70
     2
  0
STYLE
  5
11
330
3
100
AcDbSymbolTableRecord
100
AcDbTextStyleTableRecord
  2
STANDARD
 70
     0
 40
0.0
 41
1.0
 50
0.0
 71
     0
 42
0.2
  3
VERDANA.TTF
  4

1001
ACAD
1000
Verdana
1071
       34
  0
STYLE
  5
207
330
3
100
AcDbSymbolTableRecord
100
AcDbTextStyleTableRecord
  2
TEXTSTYLE_1
 70
     0
 40
0.0
 41
1.0
 50
0.0
 71
     0
 42
0.2
  3
txt
  4

  0
ENDTAB
  0
TABLE
  2
VIEW
  5
6
330
0
100
AcDbSymbolTable
 70
     0
  0
ENDTAB
  0
TABLE
  2
UCS
  5
7
330
0
100
AcDbSymbolTable
 70
     0
  0
ENDTAB
  0
TABLE
  2
APPID
  5
9
330
0
100
AcDbSymbolTable
 70
     1
  0
APPID
  5
209
330
9
100
AcDbSymbolTableRecord
100
AcDbRegAppTableRecord
  2
ACAD
 70
     0
  0
ENDTAB
  0
TABLE
  2
DIMSTYLE
  5
A
330
0
100
AcDbSymbolTable
 70
     1
100
AcDbDimStyleTable
  0
DIMSTYLE
105
20A
330
A
100
AcDbSymbolTableRecord
100
AcDbDimStyleTableRecord
  2
STANDARD
 70
     0
 41
3.0
 47
0.003
 48
0.003
 71
     1
 73
     0
 74
     0
 77
     1
 78
     8
140
1.5
271
     3
272
     3
284
     8
340
11
  0
ENDTAB
  0
TABLE
  2
BLOCK_RECORD
  5
1
330
0
100
AcDbSymbolTable
 70
     0
  0
BLOCK_RECORD
  5
1B
330
1
100
AcDbSymbolTableRecord
100
AcDbBlockTableRecord
  2
*MODEL_SPACE
340
76E
  0
BLOCK_RECORD
  5
1C
330
1
100
AcDbSymbolTableRecord
100
AcDbBlockTableRecord
  2
*PAPER_SPACE
340
76F
  0
ENDTAB
  0
ENDSEC
  0
SECTION
  2
BLOCKS
  0
BLOCK
  5
1E
330
1B
100
AcDbEntity
  8
0
100
AcDbBlockBegin
  2
*MODEL_SPACE
 70
     0
 71
     0
 10
0.0
 20
0.0
 30
0.0
  3
*MODEL_SPACE
  1

  0
ENDBLK
  5
1F
330
1B
100
AcDbEntity
  8
0
100
AcDbBlockEnd
  0
BLOCK
  5
20
330
1C
100
AcDbEntity
 67
     1
  8
0
100
AcDbBlockBegin
  2
*PAPER_SPACE
 70
     0
 71
     0
 10
0.0
 20
0.0
 30
0.0
  3
*PAPER_SPACE
  1

  0
ENDBLK
  5
21
330
1C
100
AcDbEntity
 67
     1
  8
0
100
AcDbBlockEnd
  0
ENDSEC
  0
SECTION
  2
ENTITIES
  0
TEXT
  5
281
330
1B
100
AcDbEntity
  8
0
  6
Continuous
 62
     1
100
AcDbText
 10
337.8175459109
 20
42.04848201599999
 30
0.0
 40
1.5
  1
 
 41
1.2307692308
  7
TEXTSTYLE_1
 72
     5
 11
339.6636997571
 21
42.04848201599999
 31
0.0
100
AcDbText
  0
TEXT
  5
287
330
1B
100
AcDbEntity
  8
0
  6
Continuous
 62
     1
100
AcDbText
 10
328.1444689879
 20
32.048482016
 30
0.0
 40
1.5
  1
 
 41
1.2307692308
  7
TEXTSTYLE_1
 72
     5
 11
329.990622834
 21
32.048482016
 31
0.0
100
AcDbText
  0
TEXT
  5
288
330
1B
100
AcDbEntity
  8
0
  6
Continuous
 62
     1
100
AcDbText
 10
329.990622834
 20
32.048482016
 30
0.0
 40
1.5
  1
 
 41
1.2307692308
  7
TEXTSTYLE_1
 72
     5
 11
331.8367766802
 21
32.048482016
 31
0.0
100
AcDbText
  0
TEXT
  5
28A
330
1B
100
AcDbEntity
  8
0
  6
Continuous
 62
     1
100
AcDbText
 10
352.8175459109
 20
32.048482016
 30
0.0
 40
1.5
  1
 
 41
1.2307692308
  7
TEXTSTYLE_1
 72
     5
 11
354.6636997571
 21
32.048482016
 31
0.0
100
AcDbText
  0
TEXT
  5
294
330
1B
100
AcDbEntity
  8
0
  6
Continuous
 62
     1
100
AcDbText
 10
401.5675459108999
 20
20.9052127852
 30
0.0
 40
1.5
  1
 
 41
1.2307692308
  7
TEXTSTYLE_1
 72
     5
 11
403.4136997571
 21
20.9052127852
 31
0.0
100
AcDbText
  0
LINE
  5
387
330
1B
100
AcDbEntity
  8
0
  6
CENTER
100
AcDbLine
 10
127.9163338658
 20
104.8592252396
 30
0.0
 11
127.9163338658
 21
203.8592252396
 31
0.0
  0
LINE
  5
3ED
330
1B
100
AcDbEntity
  8
0
  6
Continuous
100
AcDbLine
 10
127.9163338658
 20
198.7779232938
 30
0.0
 11
127.83503192
 21
198.8592252396
 31
0.0
  0
SPLINE
  5
786
330
1B
100
AcDbEntity
  8
0
  6
Continuous
100
AcDbSpline
210
0.0
220
0.0
230
1.0
 70
     8
 71
     3
 72
    27
 73
    23
 74
    21
 42
0.0000000001
 43
0.0000000001
 44
0.0000000001
 40
0.0
 40
0.0
 40
0.0
 40
0.0
 40
0.4410954504270246
 40
0.9863788415581321
 40
1.570014883921793
 40
2.163941266865921
 40
2.749944614904715
 40
3.317066278536691
 40
3.859266131804146
 40
4.373431316721604
 40
4.858292422098439
 40
5.313715016134713
 40
5.740250197057332
 40
6.13885781548368
 40
6.510713967923637
 40
6.857118966676805
 40
7.17936238477834
 40
7.478554954463519
 40
7.755721678951431
 40
8.010740698951439
 40
8.241207779131836
 40
8.436633365550915
 40
8.436633365550915
 40
8.436633365550915
 40
8.436633365550915
 10
159.6623879305
 20
170.4337111888
 30
0.0
 10
159.5166175058353
 20
170.4607371429085
 30
0.0
 10
159.1906452871805
 20
170.5211726547229
 30
0.0
 10
158.7431522238732
 20
170.8100292418997
 30
0.0
 10
158.28475645064
 20
171.1523081593255
 30
0.0
 10
157.8386389626922
 20
171.5366969438506
 30
0.0
 10
157.4089599914441
 20
171.9295001648177
 30
0.0
 10
156.9992414741512
 20
172.3188169964525
 30
0.0
 10
156.6107014866665
 20
172.6954875291907
 30
0.0
 10
156.2436572999374
 20
173.0549512907638
 30
0.0
 10
155.8978125848674
 20
173.394711922639
 30
0.0
 10
155.5725452850768
 20
173.7137394631179
 30
0.0
 10
155.2670435922054
 20
174.0118584525279
 30
0.0
 10
154.9803934039799
 20
174.2894056034084
 30
0.0
 10
154.7116254865808
 20
174.5470255624532
 30
0.0
 10
154.4597143698641
 20
174.7854100513972
 30
0.0
 10
154.2236847309413
 20
175.0054168914442
 30
0.0
 10
154.0022542369482
 20
175.2069138281215
 30
0.0
 10
153.7948697052412
 20
175.3915174787788
 30
0.0
 10
153.5983713502756
 20
175.5505178910381
 30
0.0
 10
153.4179426418848
 20
175.6958637045578
 30
0.0
 10
153.2780543034762
 20
175.7284791625733
 30
0.0
 10
153.2138649837
 20
175.7434451282
 30
0.0
 11
159.6623879305
 21
170.4337111888
 31
0.0
 11
159.2340415479
 21
170.5389944871
 31
0.0
 11
158.7590762371
 21
170.806841328
 31
0.0
 11
158.2912854226
 21
171.1558438836
 31
0.0
 11
157.8387328377
 21
171.5404796935
 31
0.0
 11
157.4055876507
 21
171.9351759956
 31
0.0
 11
156.9939001445
 21
172.3252277596
 31
0.0
 11
156.6043187235
 21
172.7023311901
 31
0.0
 11
156.2367755583
 21
173.0618834938
 31
0.0
 11
155.8907650906
 21
173.4015407442
 31
0.0
 11
155.5655311751
 21
173.7203394885
 31
0.0
 11
155.2601811632
 21
174.0181542477
 31
0.0
 11
154.9737458231
 21
174.2953596398
 31
0.0
 11
154.7052196199
 21
174.5525962552
 31
0.0
 11
154.4535475267
 21
174.7906247843
 31
0.0
 11
154.2176381487
 21
175.0101414941
 31
0.0
 11
153.9963560776
 21
175.2115128892
 31
0.0
 11
153.7881607128
 21
175.3944775941
 31
0.0
 11
153.5910636106
 21
175.55630291
 31
0.0
 11
153.4007406614
 21
175.6862730991
 31
0.0
 11
153.2138649837
 21
175.7434451282
 31
0.0
  0
SPLINE
  5
787
330
1B
100
AcDbEntity
  8
0
  6
Continuous
100
AcDbSpline
210
0.0
220
0.0
230
1.0
 70
     8
 71
     3
 72
    14
 73
    10
 74
     8
 42
0.0000000001
 43
0.0000000001
 44
0.0000000001
 40
0.0
 40
0.0
 40
0.0
 40
0.0
 40
0.4829373902792753
 40
1.075762787845215
 40
1.795917427724307
 40
2.668291477860779
 40
3.73240323737476
 40
4.948651017791922
 40
6.224757753909631
 40
6.224757753909631
 40
6.224757753909631
 40
6.224757753909631
 10
199.9163338692
 20
198.8592252396
 30
0.0
 10
199.7545543812191
 20
198.8370537357982
 30
0.0
 10
199.3941839553428
 20
198.7876658043177
 30
0.0
 10
198.9039344857195
 20
198.4055919847369
 30
0.0
 10
198.4579980165199
 20
197.8283785937741
 30
0.0
 10
198.0674304179982
 20
197.0263476125134
 30
0.0
 10
197.7554425372386
 20
196.020638627739
 30
0.0
 10
197.5410781144216
 20
194.8504188919683
 30
0.0
 10
197.5059004147749
 20
194.019614675862
 30
0.0
 10
197.487889133
 20
193.5942358425
 30
0.0
 11
199.9163338692
 21
198.8592252396
 31
0.0
 11
199.4444394942
 21
198.7565401785
 31
0.0
 11
198.9571412875
 21
198.4189273681
 31
0.0
 11
198.5076354751
 21
197.856284293
 31
0.0
 11
198.1145054717
 21
197.0775126424
 31
0.0
 11
197.7897061717
 21
196.0641818714
 31
0.0
 11
197.5720830878
 21
194.8675621086
 31
0.0
 11
197.487889133
 21
193.5942358425
 31
0.0
  0
SPLINE
  5
788
330
1B
100
AcDbEntity
  8
0
  6
Continuous
100
AcDbSpline
210
0.0
220
0.0
230
1.0
 70
     8
 71
     3
 72
    12
 73
     8
 74
     6
 42
0.0000000001
 43
0.0000000001
 44
0.0000000001
 40
0.0
 40
0.0
 40
0.0
 40
0.0
 40
0.6215424856154479
 40
1.278634837715105
 40
1.990109861868018
 40
2.753047924567167
 40
3.547633818429275
 40
3.547633818429275
 40
3.547633818429275
 40
3.547633818429275
 10
150.8108103161
 20
198.8590241631
 30
0.0
 10
151.0191132197905
 20
198.8337552493858
 30
0.0
 10
151.4476331610977
 20
198.7817721361893
 30
0.0
 10
152.011290469463
 20
198.3891864992529
 30
0.0
 10
152.4489821135581
 20
197.8228365193765
 30
0.0
 10
152.7436132421328
 20
197.1118355945973
 30
0.0
 10
152.788837402217
 20
196.5923173019972
 30
0.0
 10
152.8119089444
 20
196.3272800259
 30
0.0
 11
150.8108103161
 21
198.8590241631
 31
0.0
 11
151.4200355953
 21
198.735899752
 31
0.0
 11
151.9713156014
 21
198.3783235865999
 31
0.0
 11
152.4124961078
 21
197.8201511484
 31
0.0
 11
152.7018274679
 21
197.1142036634
 31
0.0
 11
152.8119089444
 21
196.3272800259
 31
0.0
  0
SPLINE
  5
789
330
1B
100
AcDbEntity
  8
0
  6
Continuous
100
AcDbSpline
210
0.0
220
0.0
230
1.0
 70
     8
 71
     3
 72
    39
 73
    35
 74
    33
 42
0.0000000001
 43
0.0000000001
 44
0.0000000001
 40
0.0
 40
0.0
 40
0.0
 40
0.0
 40
1.053837952894051
 40
2.153706866803323
 40
3.30640665911864
 40
4.515059416912377
 40
5.774482413959245
 40
7.079894369499391
 40
8.429501793581482
 40
9.821585267179668
 40
11.25330311099221
 40
12.72235742823288
 40
14.22498068872985
 40
15.75448432688912
 40
17.30306849151388
 40
18.86226435210163
 40
20.42409871850954
 40
21.98303192483343
 40
23.53565051168432
 40
25.07929300752761
 40
26.61182321268983
 40
28.13143246388972
 40
29.63626367411423
 40
31.12452016283055
 40
32.59467567371172
 40
34.04466720954351
 40
35.47151737538002
 40
36.87375873330766
 40
38.25252104282483
 40
39.60815691268886
 40
40.93590969661555
 40
42.2274347457167
 40
43.49441798937171
 40
44.77170083125498
 40
44.77170083125498
 40
44.77170083125498
 40
44.77170083125498
 10
152.8120637152
 20
196.3272853052
 30
0.0
 10
153.1633452860491
 20
196.3255282289755
 30
0.0
 10
153.8812521798382
 20
196.3219373285722
 30
0.0
 10
154.9831320192961
 20
196.2957667500636
 30
0.0
 10
156.136197469725
 20
196.2559295392147
 30
0.0
 10
157.3419207021819
 20
196.2016001394368
 30
0.0
 10
158.597956198261
 20
196.1342275025468
 30
0.0
 10
159.900361959264
 20
196.0548220577217
 30
0.0
 10
161.2463789483802
 20
195.9645453016559
 30
0.0
 10
162.6339159307723
 20
195.8644728841113
 30
0.0
 10
164.0607313382201
 20
195.7557068320235
 30
0.0
 10
165.5239159421413
 20
195.639392805179
 30
0.0
 10
167.0192932075234
 20
195.5167897801767
 30
0.0
 10
168.5408679980715
 20
195.3893277623073
 30
0.0
 10
170.0810903246561
 20
195.2585860907949
 30
0.0
 10
171.6319863271167
 20
195.1261756443593
 30
0.0
 10
173.1863313881059
 20
194.9936106750257
 30
0.0
 10
174.7385754412377
 20
194.8622125203396
 30
0.0
 10
176.2849261902975
 20
194.7330950769149
 30
0.0
 10
177.8227144339088
 20
194.607220626159
 30
0.0
 10
179.3497965893807
 20
194.4854599838464
 30
0.0
 10
180.8642888110055
 20
194.3686240638833
 30
0.0
 10
182.3644119965005
 20
194.2574785437676
 30
0.0
 10
183.8484724124729
 20
194.1527489125103
 30
0.0
 10
185.3146990516142
 20
194.055137536284
 30
0.0
 10
186.7609186318116
 20
193.9653445274342
 30
0.0
 10
188.1849669505481
 20
193.8840381440392
 30
0.0
 10
189.5857306824148
 20
193.8117899958871
 30
0.0
 10
190.9631945994011
 20
193.7491109141362
 30
0.0
 10
192.3162356973379
 20
193.6965701608377
 30
0.0
 10
193.6405621072615
 20
193.6547844073158
 30
0.0
 10
194.9356352090437
 20
193.624341178909
 30
0.0
 10
196.214108073321
 20
193.6046366061897
 30
0.0
 10
197.0621982125553
 20
193.6017154031631
 30
0.0
 10
197.4879598848
 20
193.6002488889
 30
0.0
 11
152.8120637152
 21
196.3272853052
 31
0.0
 11
153.8658674449
 21
196.3187923534
 31
0.0
 11
154.9654626086
 21
196.2942545509
 31
0.0
 11
156.1174803438
 21
196.254606739
 31
0.0
 11
157.3249292684
 21
196.2006754549
 31
0.0
 11
158.582561891
 21
196.133545193
 31
0.0
 11
159.8855737
 21
196.0544212442
 31
0.0
 11
161.2321742815
 21
195.9643819581
 31
0.0
 11
162.6206692443
 21
195.8644913392
 31
0.0
 11
164.0482623046
 21
195.7558909779
 31
0.0
 11
165.5127130421
 21
195.6396815788
 31
0.0
 11
167.0103266595
 21
195.5170842054
 31
0.0
 11
168.534506389
 21
195.3895791807
 31
0.0
 11
170.0775550897
 21
195.258760137
 31
0.0
 11
171.6311119909
 21
195.1262735851999
 31
0.0
 11
173.1873089069
 21
194.9936924902999
 31
0.0
 11
174.74069782
 21
194.8623318172
 31
0.0
 11
176.2879428273
 21
194.7332684079
 31
0.0
 11
177.826450068
 21
194.6074605175
 31
0.0
 11
179.3541416656
 21
194.4857756279
 31
0.0
 11
180.869258638
 21
194.3690158904999
 31
0.0
 11
182.3699856806
 21
194.2579514278
 31
0.0
 11
183.8545591871
 21
194.1533145318
 31
0.0
 11
185.3214764794
 21
194.055790772
 31
0.0
 11
186.7686899319
 21
193.9660763535
 31
0.0
 11
188.1932284136
 21
193.8848882392
 31
0.0
 11
189.5936162341
 21
193.8128134303
 31
0.0
 11
190.9709607382
 21
193.7503024459
 31
0.0
 11
192.325582182
 21
193.6978681474
 31
0.0
 11
193.6526811866
 21
193.6562065678
 31
0.0
 11
194.943850767
 21
193.6259069455999
 31
0.0
 11
196.2106959912
 21
193.607206207
 31
0.0
 11
197.4879598848
 21
193.6002488889
 31
0.0
  0
SPLINE
  5
78A
330
1B
100
AcDbEntity
  8
0
  6
Continuous
100
AcDbSpline
210
0.0
220
0.0
230
1.0
 70
    24
 71
     3
 72
     8
 73
     4
 74
     2
 42
0.0000000001
 43
0.0000000001
 44
0.0000000001
 40
0.0
 40
0.0
 40
0.0
 40
0.0
 40
0.4450781822145383
 40
0.4450781822145383
 40
0.4450781822145383
 40
0.4450781822145383
 10
205.2909425787
 20
194.0382981583
 30
0.0
 10
205.3009606062334
 20
193.8902773863334
 30
0.0
 10
205.3109786337667
 20
193.7422566143667
 30
0.0
 10
205.3209966613
 20
193.5942358424
 30
0.0
 11
205.2909425787
 21
194.0382981583
 31
0.0
 11
205.3209966613
 21
193.5942358424
 31
0.0
  0
SPLINE
  5
78B
330
1B
100
AcDbEntity
  8
0
  6
Continuous
100
AcDbSpline
210
0.0
220
0.0
230
1.0
 70
     8
 71
     3
 72
    13
 73
     9
 74
     7
 42
0.0000000001
 43
0.0000000001
 44
0.0000000001
 40
0.0
 40
0.0
 40
0.0
 40
0.0
 40
1.008476082425802
 40
2.396422806724345
 40
3.784227274626054
 40
5.172031742491289
 40
6.559978466790053
 40
7.505618504704573
 40
7.505618504704573
 40
7.505618504704573
 40
7.505618504704573
 10
200.2981248083
 20
198.8456451891
 30
0.0
 10
200.6325449041785
 20
198.8033811758006
 30
0.0
 10
201.4272211079638
 20
198.7029499934063
 30
0.0
 10
202.6079605603962
 20
198.2068178749467
 30
0.0
 10
203.731810083492
 20
197.3694416409596
 30
0.0
 10
204.598481532168
 20
196.2678488451653
 30
0.0
 10
205.116066721271
 20
195.1199128501954
 30
0.0
 10
205.2405131261098
 20
194.3502064893166
 30
0.0
 10
205.2909425787
 20
194.0382981583
 30
0.0
 11
200.2981248083
 21
198.8456451891
 31
0.0
 11
201.2930698244001
 21
198.6809988294
 31
0.0
 11
202.5787937114
 21
198.158208053
 31
0.0
 11
203.6889485356001
 21
197.3254070519
 31
0.0
 11
204.550524622
 21
196.2374328388
 31
0.0
 11
205.1067925788
 21
194.9658346044
 31
0.0
 11
205.2909425787
 21
194.0382981583
 31
0.0
  0
SPLINE
  5
78C
330
1B
100
AcDbEntity
  8
0
  6
Continuous
100
AcDbSpline
210
0.0
220
0.0
230
1.0
 70
    24
 71
     3
 72
     8
 73
     4
 74
     2
 42
0.0000000001
 43
0.0000000001
 44
0.0000000001
 40
0.0
 40
0.0
 40
0.0
 40
0.0
 40
0.3820323794528972
 40
0.3820323794528972
 40
0.3820323794528972
 40
0.3820323794528972
 10
199.9163338692
 20
198.8592252396
 30
0.0
 10
200.0435975155666
 20
198.8546985561
 30
0.0
 10
200.1708611619333
 20
198.8501718726
 30
0.0
 10
200.2981248083
 20
198.8456451891
 30
0.0
 11
199.9163338692
 21
198.8592252396
 31
0.0
 11
200.2981248083
 21
198.8456451891
 31
0.0
  0
SPLINE
  5
78D
330
1B
100
AcDbEntity
  8
0
  6
Continuous
100
AcDbSpline
210
0.0
220
0.0
230
1.0
 70
     8
 71
     3
 72
    12
 73
     8
 74
     6
 42
0.0000000001
 43
0.0000000001
 44
0.0000000001
 40
0.0
 40
0.0
 40
0.0
 40
0.0
 40
0.3284318109289784
 40
1.185522058188169
 40
2.131825469280027
 40
3.096634903498459
 40
3.990207432020321
 40
3.990207432020321
 40
3.990207432020321
 40
3.990207432020321
 10
162.0743239983
 20
170.435149581
 30
0.0
 10
162.1838027249025
 20
170.4379069765153
 30
0.0
 10
162.5789820009979
 20
170.4478601938886
 30
0.0
 10
163.284711512482
 20
170.5433009920925
 30
0.0
 10
164.1947378856546
 20
170.6910004567101
 30
0.0
 10
165.1210013624158
 20
170.8276383133734
 30
0.0
 10
165.7405425103308
 20
170.8489689221445
 30
0.0
 10
166.0384387239
 20
170.859225396
 30
0.0
 11
162.0743239983
 21
170.435149581
 31
0.0
 11
162.4025515376
 21
170.4467313285
 31
0.0
 11
163.2542402342
 21
170.5428045091
 31
0.0
 11
164.189363169
 21
170.6878398243
 31
0.0
 11
165.1460910062
 21
170.8124555933
 31
0.0
 11
166.0384387239
 21
170.859225396
 31
0.0
  0
ARC
  5
78E
330
1B
100
AcDbEntity
  8
0
  6
Continuous
100
AcDbCircle
 10
200.17887516
 20
176.0352534173
 30
0.0
 40
5.599999999999999
100
AcDbArc
 50
292.4383468710007
 51
1.500003025800003
  0
ARC
  5
791
330
1B
100
AcDbEntity
  8
0
  6
Continuous
100
AcDbCircle
 10
158.9292259746
 20
110.8592252396
 30
0.0
 40
1.0
100
AcDbArc
 50
270.0000000000006
 51
359.2565537924008
  0
LINE
  5
792
330
1B
100
AcDbEntity
  8
0
  6
Continuous
100
AcDbLine
 10
205.3208305138
 20
193.6005807604999
 30
0.0
 11
205.7769561734001
 21
176.1818445748
 31
0.0
  0
LINE
  5
793
330
1B
100
AcDbEntity
  8
0
  6
Continuous
100
AcDbLine
 10
197.4878891355
 20
193.5942358424
 30
0.0
 11
197.2830155822
 21
176.1818446234
 31
0.0
  0
LWPOLYLINE
  5
794
330
1B
100
AcDbEntity
  8
0
  6
Continuous
100
AcDbPolyline
 90
       16
 70
     0
 43
0.0
 10
198.83795628
 20
170.8592253742
 10
198.6543693665
 20
171.0475025026
 10
198.478165537
 20
171.267969353
 10
198.3104819679
 20
171.519203087
 10
198.1524008478
 20
171.7995823037
 10
198.0049423935
 20
172.107297505
 10
197.8690582656
 20
172.4403627732
 10
197.745625427
 20
172.796628587
 10
197.6354404832
 20
173.1737956946
 10
197.5392145408
 20
173.5694299526999
 10
197.4575686186
 20
173.980978035
 10
197.3910296396
 20
174.4057839112999
 10
197.3400270303
 20
174.8411059892
 10
197.3048899493
 20
175.2841348069
 10
197.2858451629
 20
175.732011165
 10
197.2830155818
 20
176.1818445793
  0
LINE
  5
795
330
1B
100
AcDbEntity
  8
0
  6
Continuous
100
AcDbLine
 10
127.9163338658
 20
199.4592252396
 30
0.0
 11
153.8305215446
 21
199.4592252396
 31
0.0
  0
LINE
  5
796
330
1B
100
AcDbEntity
  8
0
  6
Continuous
100
AcDbLine
 10
150.7279296867
 20
196.3273111819
 30
0.0
 11
152.8120637152
 21
196.3272853052
 31
0.0
  0
LINE
  5
797
330
1B
100
AcDbEntity
  8
0
  6
Continuous
100
AcDbLine
 10
127.9163338658
 20
196.3272980402988
 30
0.0
 11
150.7279296867
 21
196.3273111819
 31
0.0
  0
LINE
  5
798
330
1B
100
AcDbEntity
  8
0
  6
Continuous
100
AcDbLine
 10
127.9163338658
 20
198.8592252396
 30
0.0
 11
199.9238299936
 21
198.8592252396
 31
0.0
  0
LINE
  5
799
330
1B
100
AcDbEntity
  8
0
  6
Continuous
100
AcDbLine
 10
205.3209966613
 20
193.5942358424
 30
0.0
 11
197.4878891355
 21
193.5942358424
 31
0.0
  0
LINE
  5
79A
330
1B
100
AcDbEntity
  8
0
  6
Continuous
100
AcDbLine
 10
159.9291417929
 20
110.8462500196
 30
0.0
 11
160.7023864273
 21
170.4352538202
 31
0.0
  0
LINE
  5
79B
330
1B
100
AcDbEntity
  8
0
  6
Continuous
100
AcDbLine
 10
153.8305215446
 20
199.4592252396
 30
0.0
 11
153.8305215446
 21
198.8592252396
 31
0.0
  0
LINE
  5
79F
330
1B
100
AcDbEntity
  8
0
  6
Continuous
100
AcDbLine
 10
153.2182471568
 20
176.1818445793
 30
0.0
 11
152.8120637152
 21
196.3272853052
 31
0.0
  0
LINE
  5
7A0
330
1B
100
AcDbEntity
  8
0
  6
Continuous
100
AcDbLine
 10
205.7769561721
 20
176.1818446234
 30
0.0
 11
153.215149596
 21
175.7799525195
 31
0.0
  0
LINE
  5
7A1
330
1B
100
AcDbEntity
  8
0
  6
Continuous
100
AcDbLine
 10
127.9163338658
 20
175.743445013366
 30
0.0
 11
153.2138649837
 21
175.7434451282
 31
0.0
  0
LWPOLYLINE
  5
7A2
330
1B
100
AcDbEntity
  8
0
  6
Continuous
100
AcDbPolyline
 90
        7
 70
     0
 43
0.0
 10
153.2138667226
 20
175.7434451279
 10
153.2164324694
 20
175.8164599111
 10
153.2182642391
 20
175.8895120076999
 10
153.2193617183
 20
175.9625889729
 10
153.2197247189
 20
176.0356783579
 10
153.2193531777
 20
176.1087677118
 10
153.2182471569
 20
176.1818445834
  0
LINE
  5
7AF
330
1B
100
AcDbEntity
  8
0
  6
Continuous
100
AcDbLine
 10
202.3163338658
 20
170.8592252396
 30
0.0
 11
166.0384780634
 21
170.859225396
 31
0.0
  0
LINE
  5
7B0
330
1B
100
AcDbEntity
  8
0
  6
Continuous
100
AcDbLine
 10
162.0947574572
 20
170.4352538202
 30
0.0
 11
159.6579614917
 21
170.4352538202
 31
0.0
  0
LINE
  5
7B2
330
1B
100
AcDbEntity
  8
0
  6
Continuous
100
AcDbLine
 10
158.9290645562
 20
109.8592252396
 30
0.0
 11
127.9163338658
 21
109.8592252396
 31
0.0
  0
SPLINE
  5
7B5
330
1B
100
AcDbEntity
  8
0
  6
Continuous
100
AcDbSpline
210
0.0
220
0.0
230
1.0
 70
     8
 71
     3
 72
    13
 73
     9
 74
     7
 42
0.0000000001
 43
0.0000000001
 44
0.0000000001
 40
0.0
 40
0.0
 40
0.0
 40
0.0
 40
0.7683645064773763
 40
1.486066369388237
 40
2.105817190347054
 40
2.586882999654112
 40
2.89798049200001
 40
3.021121388561574
 40
3.021121388561574
 40
3.021121388561574
 40
3.021121388561574
 10
373.3513673052438
 20
171.7372437408785
 30
0.0
 10
373.2284334909926
 20
171.9619608542386
 30
0.0
 10
372.9906715883031
 20
172.3965782031338
 30
0.0
 10
372.6433668806482
 20
173.0063120851967
 30
0.0
 10
372.3395468216221
 20
173.5317387233754
 30
0.0
 10
372.0864138548363
 20
173.9266747119647
 30
0.0
 10
371.9305172152774
 20
174.1927148190143
 30
0.0
 10
371.8253238779129
 20
174.2926958647569
 30
0.0
 10
371.7954932544437
 20
174.3210483916785
 30
0.0
 11
373.3513673052438
 21
171.7372437408785
 31
0.0
 11
372.9806064000438
 21
172.4102373262785
 31
0.0
 11
372.6263865426438
 21
173.0344362181785
 31
0.0
 11
372.3121152523438
 21
173.5685940938785
 31
0.0
 11
372.0585593143437
 21
173.9774139798786
 31
0.0
 11
371.8824734674438
 21
174.2338811790785
 31
0.0
 11
371.7954932544437
 21
174.3210483916785
 31
0.0
  0
SPLINE
  5
7B7
330
1B
100
AcDbEntity
  8
0
  6
Continuous
100
AcDbSpline
210
0.0
220
0.0
230
1.0
 70
     8
 71
     3
 72
    28
 73
    24
 74
    22
 42
0.0000000001
 43
0.0000000001
 44
0.0000000001
 40
0.0
 40
0.0
 40
0.0
 40
0.0
 40
0.8352748551378934
 40
1.669203081293581
 40
2.501846542015719
 40
3.333313185619668
 40
4.163645136191338
 40
4.992930866963054
 40
5.821236854514612
 40
6.648640742824608
 40
7.475217744997046
 40
8.301045920732166
 40
9.126204126396587
 40
9.950772877575879
 40
10.7748337711083
 40
11.59847042098107
 40
12.42176606331273
 40
13.24481045145972
 40
14.06767992252396
 40
14.89049064023699
 40
15.71326776135167
 40
16.53624021367121
 40
17.35918653131766
 40
17.35918653131766
 40
17.35918653131766
 40
17.35918653131766
 10
373.3513692125438
 20
171.7372447769785
 30
0.0
 10
373.1044051699544
 20
171.6085018328247
 30
0.0
 10
372.6108752398683
 20
171.3512235037161
 30
0.0
 10
371.8438140999137
 20
171.022090302629
 30
0.0
 10
371.0613070599414
 20
170.7363105642193
 30
0.0
 10
370.2639465827502
 20
170.4986982930073
 30
0.0
 10
369.4550779558508
 20
170.3089057304327
 30
0.0
 10
368.637367545822
 20
170.1677656358286
 30
0.0
 10
367.8136896517862
 20
170.0755897430979
 30
0.0
 10
366.9868870520908
 20
170.0326238156191
 30
0.0
 10
366.1598194924532
 20
170.0389250912652
 30
0.0
 10
365.3353403368312
 20
170.0943951497907
 30
0.0
 10
364.5162908464467
 20
170.1987719857855
 30
0.0
 10
363.7054903438554
 20
170.3516333719199
 30
0.0
 10
362.9057277071565
 20
170.5523985098785
 30
0.0
 10
362.1197513230077
 20
170.8003283175209
 30
0.0
 10
361.3502655368142
 20
171.0945358325492
 30
0.0
 10
360.599901690254
 20
171.4339606120485
 30
0.0
 10
359.8712920625899
 20
171.8174783544399
 30
0.0
 10
359.1667384201804
 20
172.2435144763902
 30
0.0
 10
358.4894568425515
 20
172.7114878323459
 30
0.0
 10
357.8387969252315
 20
173.2164866017974
 30
0.0
 10
357.431900794477
 20
173.5847518932147
 30
0.0
 10
357.2284559595438
 20
173.7688816151785
 30
0.0
 11
373.3513692125438
 21
171.7372447769785
 31
0.0
 11
372.6059086244438
 21
171.3604522674785
 31
0.0
 11
371.8406449880438
 21
171.0290795872785
 31
0.0
 11
371.0582694854438
 21
170.7441520427785
 31
0.0
 11
370.2614827372438
 21
170.5065227993785
 31
0.0
 11
369.4530904960438
 21
170.3169096866785
 31
0.0
 11
368.6358885424438
 21
170.1758572485785
 31
0.0
 11
367.8127191415438
 21
170.0837543363785
 31
0.0
 11
366.9864296530437
 21
170.0408256095786
 31
0.0
 11
366.1598767210437
 21
170.0471336300785
 31
0.0
 11
365.3359118866438
 21
170.1025784450785
 31
0.0
 11
364.5173745292437
 21
170.2068984283785
 31
0.0
 11
363.7070819822437
 21
170.3596715074785
 31
0.0
 11
362.9078211825438
 21
170.5603167922785
 31
0.0
 11
362.1223389756437
 21
170.8080970046785
 31
0.0
 11
361.3533357620438
 21
171.1021204257785
 31
0.0
 11
360.6034506564438
 21
171.4413465940785
 31
0.0
 11
359.8752712938438
 21
171.8245814858786
 31
0.0
 11
359.1712789306438
 21
172.2505066315785
 31
0.0
 11
358.4939523948437
 21
172.7176157782785
 31
0.0
 11
357.8455175439438
 21
173.2243858458785
 31
0.0
 11
357.2284559595438
 21
173.7688816151785
 31
0.0
  0
SPLINE
  5
7B8
330
1B
100
AcDbEntity
  8
0
  6
Continuous
100
AcDbSpline
210
0.0
220
0.0
230
1.0
 70
     8
 71
     3
 72
    12
 73
     8
 74
     6
 42
0.0000000001
 43
0.0000000001
 44
0.0000000001
 40
0.0
 40
0.0
 40
0.0
 40
0.0
 40
0.790422018207792
 40
1.505976259740334
 40
2.078954898940585
 40
2.455137470358229
 40
2.598912436609637
 40
2.598912436609637
 40
2.598912436609637
 40
2.598912436609637
 10
314.0050009097438
 20
171.0423989181785
 30
0.0
 10
313.801913703628
 20
171.2102503626488
 30
0.0
 10
313.4149754554238
 20
171.5300545744653
 30
0.0
 10
312.8810009542
 20
171.971756374951
 30
0.0
 10
312.4539040653434
 20
172.3260248860275
 30
0.0
 10
312.1731884142671
 20
172.5582414911446
 30
0.0
 10
312.0405723374403
 20
172.6698329350012
 30
0.0
 10
312.0039022815438
 20
172.7006894086785
 30
0.0
 11
314.0050009097438
 21
171.0423989181785
 31
0.0
 11
313.3957756305438
 21
171.5459974944785
 31
0.0
 11
312.8444956244438
 21
172.0021863012785
 31
0.0
 11
312.4033151180438
 21
172.3677875618786
 31
0.0
 11
312.1139837579438
 21
172.6082053047785
 31
0.0
 11
312.0039022815438
 21
172.7006894086785
 31
0.0
  0
SPLINE
  5
7BA
330
1B
100
AcDbEntity
  8
0
  6
Continuous
100
AcDbSpline
210
0.0
220
0.0
230
1.0
 70
     8
 71
     3
 72
    14
 73
    10
 74
     8
 42
0.0000000001
 43
0.0000000001
 44
0.0000000001
 40
0.0
 40
0.0
 40
0.0
 40
0.0
 40
1.048709933438
 40
2.137077324662079
 40
3.136710599863022
 40
4.011387542088371
 40
4.733988026706034
 40
5.218105432786114
 40
5.404665365244206
 40
5.404665365244206
 40
5.404665365244206
 40
5.404665365244206
 10
264.8994773566437
 20
158.5754507040785
 30
0.0
 10
265.0570347464263
 20
158.8875006714341
 30
0.0
 10
265.3781076325516
 20
159.5234009219551
 30
0.0
 10
265.8446239002759
 20
160.4591292093524
 30
0.0
 10
266.2896893364842
 20
161.3407148139559
 30
0.0
 10
266.6784193960626
 20
162.1141591781652
 30
0.0
 10
266.9905128608866
 20
162.7337990175396
 30
0.0
 10
267.1988893001966
 20
163.1488548078457
 30
0.0
 10
267.2998407787251
 20
163.3483228764196
 30
0.0
 10
267.3279220928438
 20
163.4038082003785
 30
0.0
 11
264.8994773566437
 21
158.5754507040785
 31
0.0
 11
265.3713717316438
 21
159.5119912655785
 31
0.0
 11
265.8586699383437
 21
160.4851736924785
 31
0.0
 11
266.3081757507438
 21
161.3780405411785
 31
0.0
 11
266.7013057541437
 21
162.1593910090785
 31
0.0
 11
267.0261050541437
 21
162.8048806488785
 31
0.0
 11
267.2437281381438
 21
163.2373270110785
 31
0.0
 11
267.3279220928438
 21
163.4038082003785
 31
0.0
  0
SPLINE
  5
7BB
330
1B
100
AcDbEntity
  8
0
  6
Continuous
100
AcDbSpline
210
0.0
220
0.0
230
1.0
 70
     8
 71
     3
 72
    39
 73
    35
 74
    33
 42
0.0000000001
 43
0.0000000001
 44
0.0000000001
 40
0.0
 40
0.0
 40
0.0
 40
0.0
 40
1.723357682124001
 40
3.437178229493804
 40
5.15643712925179
 40
6.888853656871548
 40
8.630063089631685
 40
10.37707576599098
 40
12.13126959264694
 40
13.89410953720157
 40
15.66567904647048
 40
17.44682012925577
 40
19.236664257826
 40
21.03106756365592
 40
22.82484709789662
 40
24.61222771635723
 40
26.38806717999361
 40
28.14990093506125
 40
29.89745310267679
 40
31.63104369072165
 40
33.3513406011007
 40
35.05915435870207
 40
36.75503760146476
 40
38.43942433548143
 40
40.11288210467394
 40
41.77520264101185
 40
43.42494625482366
 40
45.06222630920713
 40
46.69007784370819
 40
48.31060305670789
 40
49.91966329338083
 40
51.50830451350544
 40
53.09205845153679
 40
54.72718399388214
 40
54.72718399388214
 40
54.72718399388214
 40
54.72718399388214
 10
314.0050008975438
 20
171.0423989282785
 30
0.0
 10
313.6341401497564
 20
170.6036244964646
 30
0.0
 10
312.8944710133426
 20
169.7285038292156
 30
0.0
 10
311.7285057948657
 20
168.4649343993528
 30
0.0
 10
310.5202904423021
 20
167.237787934035
 30
0.0
 10
309.2613587237937
 20
166.049202373192
 30
0.0
 10
307.9530385411599
 20
164.9011664097817
 30
0.0
 10
306.5969649148284
 20
163.7983564940569
 30
0.0
 10
305.1940264010211
 20
162.7437497822205
 30
0.0
 10
303.744315429941
 20
161.7399330760728
 30
0.0
 10
302.2482485528595
 20
160.7897098730082
 30
0.0
 10
300.7070806277206
 20
159.8963974708791
 30
0.0
 10
299.1235601896486
 20
159.0639801830213
 30
0.0
 10
297.502625776192
 20
158.2970498769447
 30
0.0
 10
295.8512191637532
 20
157.6002218785256
 30
0.0
 10
294.1771259952279
 20
156.9773193862316
 30
0.0
 10
292.4877276946139
 20
156.4308684997982
 30
0.0
 10
290.7889381807913
 20
155.9620216428885
 30
0.0
 10
289.0850260410273
 20
155.5709434915069
 30
0.0
 10
287.3792510263723
 20
155.2573118063327
 30
0.0
 10
285.6744839465466
 20
155.020617141913
 30
0.0
 10
283.9734748442687
 20
154.8602723925767
 30
0.0
 10
282.2790087700332
 20
154.775635543493
 30
0.0
 10
280.5939108904362
 20
154.7659938145139
 30
0.0
 10
278.9212190782027
 20
154.8305513296895
 30
0.0
 10
277.2645514496101
 20
154.9683451699571
 30
0.0
 10
275.627616514081
 20
155.1781628486891
 30
0.0
 10
274.0129774873556
 20
155.4587269420229
 30
0.0
 10
272.42198294343
 20
155.8090171017758
 30
0.0
 10
270.8574052467907
 20
156.227883721068
 30
0.0
 10
269.325588579042
 20
156.7125527500092
 30
0.0
 10
267.8291428052619
 20
157.2623024383274
 30
0.0
 10
266.3487610836923
 20
157.8780689337492
 30
0.0
 10
265.3834764849731
 20
158.3469837012145
 30
0.0
 10
264.8931314712438
 20
158.5851829000785
 30
0.0
 11
314.0050008975438
 21
171.0423989282785
 31
0.0
 11
312.8829814902438
 21
169.7343338877786
 31
0.0
 11
311.7230769526437
 21
168.4726673976785
 31
0.0
 11
310.5160609036437
 21
167.2483457806785
 31
0.0
 11
309.2564301925438
 21
166.0589772520785
 31
0.0
 11
307.9474804916438
 21
164.9107346952785
 31
0.0
 11
306.5919883226438
 21
163.8086030011785
 31
0.0
 11
305.1896754746437
 21
162.7546985188786
 31
0.0
 11
303.7402625094437
 21
161.7513009274785
 31
0.0
 11
302.2447416934438
 21
160.8016293973786
 31
0.0
 11
300.7036691284438
 21
159.9085678618785
 31
0.0
 11
299.1193077798438
 21
159.0758967853785
 31
0.0
 11
297.4972270159437
 21
158.3086046510785
 31
0.0
 11
295.8444918058437
 21
157.6113877961786
 31
0.0
 11
294.1692614881438
 21
156.9882242077785
 31
0.0
 11
292.4795691276438
 21
156.4418310091785
 31
0.0
 11
290.7811926300437
 21
155.9732422204785
 31
0.0
 11
289.0778977179437
 21
155.5824417330785
 31
0.0
 11
287.3728645203438
 21
155.2690759371786
 31
0.0
 11
285.6688960693438
 21
155.0326166851785
 31
0.0
 11
283.9686085443437
 21
154.8724600025785
 31
0.0
 11
282.2748310843437
 21
154.7879739736785
 31
0.0
 11
280.5904712731437
 21
154.7784505212785
 31
0.0
 11
278.9182628252438
 21
154.8431019871785
 31
0.0
 11
277.2616720426438
 21
154.9810024749785
 31
0.0
 11
275.6253299235437
 21
155.1908559013785
 31
0.0
 11
274.0122403016437
 21
155.4712624779785
 31
0.0
 11
272.4224903007438
 21
155.8213989556785
 31
0.0
 11
270.8571098240437
 21
156.2405480092786
 31
0.0
 11
269.3231068798437
 21
156.7262534883786
 31
0.0
 11
267.8316214208437
 21
157.2732928396785
 31
0.0
 11
266.3708514400438
 21
157.8851977337786
 31
0.0
 11
264.8931314712438
 21
158.5851829000785
 31
0.0
  0
SPLINE
  5
7BC
330
1B
100
AcDbEntity
  8
0
  6
Continuous
100
AcDbSpline
210
0.0
220
0.0
230
1.0
 70
     8
 71
     3
 72
    34
 73
    30
 74
    28
 42
0.0000000001
 43
0.0000000001
 44
0.0000000001
 40
0.0
 40
0.0
 40
0.0
 40
0.0
 40
1.357779651385706
 40
2.720099211971284
 40
4.086152740936225
 40
5.456475290395062
 40
6.831549682749804
 40
8.211800910653603
 40
9.597595005536441
 40
10.98923910039906
 40
12.38698073655524
 40
13.79100749379596
 40
15.20144669935645
 40
16.61836521565401
 40
18.0417700017854
 40
19.4716073347118
 40
20.90776719272717
 40
22.35007298850014
 40
23.79843470327693
 40
25.25187852373741
 40
26.70566039874853
 40
28.15215320061138
 40
29.58771147968892
 40
31.01284199978833
 40
32.42773985129573
 40
33.83251603427654
 40
35.22715936901116
 40
36.6119810794919
 40
37.98629115284275
 40
37.98629115284275
 40
37.98629115284275
 40
37.98629115284275
 10
408.9023403847437
 20
167.3696789326785
 30
0.0
 10
408.5476125437538
 20
167.6508398857775
 30
0.0
 10
407.8369707840573
 20
168.2141018894326
 30
0.0
 10
406.7321616724988
 20
169.011462267535
 30
0.0
 10
405.5976830501446
 20
169.7731770491968
 30
0.0
 10
404.4315507412723
 20
170.4938062451185
 30
0.0
 10
403.2350410505767
 20
171.1723913787086
 30
0.0
 10
402.0086578914502
 20
171.806727438444
 30
0.0
 10
400.7533387579691
 20
172.3948461395532
 30
0.0
 10
399.4701473945517
 20
172.9346351913676
 30
0.0
 10
398.1603720793698
 20
173.4239615704109
 30
0.0
 10
396.8255134221407
 20
173.8606613032574
 30
0.0
 10
395.4673001821483
 20
174.242567270058
 30
0.0
 10
394.0876953482918
 20
174.5675289720542
 30
0.0
 10
392.688902726968
 20
174.833436245716
 30
0.0
 10
391.2733694715677
 20
175.0382437850877
 30
0.0
 10
389.8437901343717
 20
175.1799962239221
 30
0.0
 10
388.4030571851698
 20
175.2568575518893
 30
0.0
 10
386.9545334848529
 20
175.2671243365533
 30
0.0
 10
385.5032809579115
 20
175.2093611838405
 30
0.0
 10
384.0570096191399
 20
175.0829006153611
 30
0.0
 10
382.6243360916779
 20
174.8882853492034
 30
0.0
 10
381.2120381606839
 20
174.6269291490122
 30
0.0
 10
379.8241732061182
 20
174.3004354367099
 30
0.0
 10
378.4635600797977
 20
173.9102047949482
 30
0.0
 10
377.1328276361883
 20
173.4583081312403
 30
0.0
 10
375.8354992985338
 20
172.9450523583661
 30
0.0
 10
374.5714804892641
 20
172.3779072538718
 30
0.0
 10
373.757038694816
 20
171.950255852502
 30
0.0
 10
373.3513692125438
 20
171.7372447769785
 30
0.0
 11
408.9023403847437
 21
167.3696789326785
 31
0.0
 11
407.8319736968437
 21
168.2050714961785
 31
0.0
 11
406.7288100806438
 21
169.0044116121785
 31
0.0
 11
405.5941999004437
 21
169.7651756905785
 31
0.0
 11
404.4285299629438
 21
170.4855904921785
 31
0.0
 11
403.2323355085437
 21
171.1637854580786
 31
0.0
 11
402.0063188886438
 21
171.7978017826785
 31
0.0
 11
400.7513637447438
 21
172.3856052023785
 31
0.0
 11
399.4685476936438
 21
172.9251015098786
 31
0.0
 11
398.1591546204438
 21
173.4141531035785
 31
0.0
 11
396.8246856462438
 21
173.8505974779785
 31
0.0
 11
395.4668686944438
 21
174.2322673326785
 31
0.0
 11
394.0876664738438
 21
174.5570123349786
 31
0.0
 11
392.6892819341438
 21
174.8227224482785
 31
0.0
 11
391.2741630491438
 21
175.0273522113785
 31
0.0
 11
389.8450003131438
 21
175.1689467444785
 31
0.0
 11
388.4047364506438
 21
175.2456671126785
 31
0.0
 11
386.9564102982438
 21
175.2558166498785
 31
0.0
 11
385.5041210273438
 21
175.1978959034786
 31
0.0
 11
384.0558750426437
 21
175.0711469077785
 31
0.0
 11
382.6225616913438
 21
174.8763283695786
 31
0.0
 11
381.2109901619438
 21
174.6149983291785
 31
0.0
 11
379.8237594753438
 21
174.2885201193786
 31
0.0
 11
378.4637033996438
 21
173.8984132094786
 31
0.0
 11
377.1336557389437
 21
173.4463409314785
 31
0.0
 11
375.8364743698437
 21
172.9341392848786
 31
0.0
 11
374.5746244485438
 21
172.3636430570785
 31
0.0
 11
373.3513692125438
 21
171.7372447769785
 31
0.0
  0
SPLINE
  5
7BE
330
1B
100
AcDbEntity
  8
0
  6
Continuous
100
AcDbSpline
210
0.0
220
0.0
230
1.0
 70
     8
 71
     3
 72
    10
 73
     6
 74
     4
 42
0.0000000001
 43
0.0000000001
 44
0.0000000001
 40
0.0
 40
0.0
 40
0.0
 40
0.0
 40
7.581670145446566
 40
14.85299914621497
 40
21.8149079099247
 40
21.8149079099247
 40
21.8149079099247
 40
21.8149079099247
 10
264.8931314712438
 20
158.5851829000785
 30
0.0
 10
264.8928136032778
 20
156.0579595743947
 30
0.0
 10
264.892190878662
 20
151.1069599689555
 30
0.0
 10
264.8913632181984
 20
143.8353235384695
 30
0.0
 10
264.8948840482569
 20
139.0909120378834
 30
0.0
 10
264.8966061931437
 20
136.7702763152786
 30
0.0
 11
264.8931314712438
 21
158.5851829000785
 31
0.0
 11
264.8921932922438
 21
151.0035128126785
 31
0.0
 11
264.8924113086438
 21
143.7321838151785
 31
0.0
 11
264.8966061931437
 21
136.7702763152786
 31
0.0
  0
SPLINE
  5
7C0
330
1B
100
AcDbEntity
  8
0
  6
Continuous
100
AcDbSpline
210
0.0
220
0.0
230
1.0
 70
     8
 71
     3
 72
    13
 73
     9
 74
     7
 42
0.0000000001
 43
0.0000000001
 44
0.0000000001
 40
0.0
 40
0.0
 40
0.0
 40
0.0
 40
1.376736367804682
 40
2.662460428607143
 40
3.772615276171733
 40
4.634191392577389
 40
5.190459751193659
 40
5.404666485578085
 40
5.404666485578085
 40
5.404666485578085
 40
5.404666485578085
 10
264.8994773566437
 20
158.5754507040785
 30
0.0
 10
264.4405653753556
 20
158.5750677818775
 30
0.0
 10
263.5530788391051
 20
158.5743272514237
 30
0.0
 10
262.2955407408784
 20
158.5737172023651
 30
0.0
 10
261.2097218764386
 20
158.5733202431345
 30
0.0
 10
260.367056771979
 20
158.5738153481466
 30
0.0
 10
259.8230372081492
 20
158.5736398355682
 30
0.0
 10
259.5662158016564
 20
158.5750567694905
 30
0.0
 10
259.4948145645437
 20
158.5754507040785
 30
0.0
 11
264.8994773566437
 21
158.5754507040785
 31
0.0
 11
263.5227414014438
 21
158.5743848260785
 31
0.0
 11
262.2370175144438
 21
158.5737163023785
 31
0.0
 11
261.1268626902438
 21
158.5734885378785
 31
0.0
 11
260.2652866039438
 21
158.5737163023785
 31
0.0
 11
259.7090186470438
 21
158.5743848260785
 31
0.0
 11
259.4948145645437
 21
158.5754507040785
 31
0.0
  0
SPLINE
  5
7C1
330
1B
100
AcDbEntity
  8
0
  6
Continuous
100
AcDbSpline
210
0.0
220
0.0
230
1.0
 70
     8
 71
     3
 72
    34
 73
    30
 74
    28
 42
0.0000000001
 43
0.0000000001
 44
0.0000000001
 40
0.0
 40
0.0
 40
0.0
 40
0.0
 40
1.357793932887671
 40
2.72012632497091
 40
4.086190898884397
 40
5.456527324453862
 40
6.83161700428392
 40
8.211885387941692
 40
9.597698516944909
 40
10.9893635659274
 40
12.38712806471129
 40
13.79117952850953
 40
15.20164521906663
 40
16.61859186023167
 40
18.04202643341722
 40
19.47189459610235
 40
20.90808758976385
 40
22.35042416794324
 40
23.79882596834847
 40
25.2523070362719
 40
26.70606183060183
 40
28.15251614849985
 40
29.58807419642297
 40
31.01318752455492
 40
32.42806807180847
 40
33.83282396725713
 40
35.22744309445169
 40
36.61223476548008
 40
37.98653499822519
 40
37.98653499822519
 40
37.98653499822519
 40
37.98653499822519
 10
264.8966061931437
 20
136.7702763152786
 30
0.0
 10
265.2513375997908
 20
136.4891122048037
 30
0.0
 10
265.9619861114263
 20
135.9258441859863
 30
0.0
 10
267.0668030416483
 20
135.1284729797438
 30
0.0
 10
268.2012885922855
 20
134.3667459719187
 30
0.0
 10
269.3674278893323
 20
133.6461026304916
 30
0.0
 10
270.5639460392251
 20
132.967501145104
 30
0.0
 10
271.790339168379
 20
132.3331470363666
 30
0.0
 10
273.0456702314147
 20
131.7450089152228
 30
0.0
 10
274.3288757650029
 20
131.2051995213746
 30
0.0
 10
275.6386677110616
 20
130.7158523792659
 30
0.0
 10
276.9735455951336
 20
130.2791319957345
 30
0.0
 10
278.3317806951314
 20
129.8972060403549
 30
0.0
 10
279.7114100310512
 20
129.5722255637167
 30
0.0
 10
281.1102295671731
 20
129.3063013312219
 30
0.0
 10
282.5257923157417
 20
129.101479158967
 30
0.0
 10
283.9554022825928
 20
128.9597151319353
 30
0.0
 10
285.3961695505944
 20
128.8828454973021
 30
0.0
 10
286.8447293179559
 20
128.8725744941421
 30
0.0
 10
288.2959986801816
 20
128.9303373127025
 30
0.0
 10
289.7422605559027
 20
129.0567977191433
 30
0.0
 10
291.1749122384727
 20
129.2514107689218
 30
0.0
 10
292.5871915688177
 20
129.5127652227519
 30
0.0
 10
293.9750445140865
 20
129.8392595021535
 30
0.0
 10
295.3356388025147
 20
130.2294896519571
 30
0.0
 10
296.6663497517018
 20
130.6813856070189
 30
0.0
 10
297.9636521306466
 20
131.194639491558
 30
0.0
 10
299.2276477064288
 20
131.7617842592117
 30
0.0
 10
300.0420740860874
 20
132.1894364469557
 30
0.0
 10
300.4477388490437
 20
132.4024494677785
 30
0.0
 11
264.8966061931437
 21
136.7702763152786
 31
0.0
 11
265.9669833146438
 21
135.9348739080785
 31
0.0
 11
267.0701549943437
 21
135.1355230516785
 31
0.0
 11
268.2047708483437
 21
134.3747476025785
 31
0.0
 11
269.3704482245438
 21
133.6543184430786
 31
0.0
 11
270.5666510429437
 21
132.9761072334785
 31
0.0
 11
271.7926776642438
 21
132.3420729009785
 31
0.0
 11
273.0476447544438
 21
131.7542501121785
 31
0.0
 11
274.3304750026438
 21
131.2147335110785
 31
0.0
 11
275.6398847426437
 21
130.7256611985785
 31
0.0
 11
276.9743729719437
 21
130.2891962184785
 31
0.0
 11
278.3322118280438
 21
129.9075064162785
 31
0.0
 11
279.7114385354438
 21
129.5827426967785
 31
0.0
 11
281.1098501762438
 21
129.3170156431785
 31
0.0
 11
282.5249981126437
 21
129.1123713645785
 31
0.0
 11
283.9541929886437
 21
128.9707651448785
 31
0.0
 11
285.3944872485438
 21
128.8940367299785
 31
0.0
 11
286.8428534581438
 21
128.8838829963785
 31
0.0
 11
288.2951799850438
 21
128.9418042711785
 31
0.0
 11
289.7433989311437
 21
129.0685516032785
 31
0.0
 11
291.1766740440437
 21
129.2633657313785
 31
0.0
 11
292.5882450354438
 21
129.5246974079786
 31
0.0
 11
293.9754582223438
 21
129.8511749295786
 31
0.0
 11
295.3354963536437
 21
130.2412816385785
 31
0.0
 11
296.6655227855438
 21
130.6933533322785
 31
0.0
 11
297.9626787698437
 21
131.2055533540785
 31
0.0
 11
299.2244974812438
 21
131.7760456955785
 31
0.0
 11
300.4477388490437
 21
132.4024494677785
 31
0.0
  0
SPLINE
  5
7C3
330
1B
100
AcDbEntity
  8
0
  6
Continuous
100
AcDbSpline
210
0.0
220
0.0
230
1.0
 70
     8
 71
     3
 72
    28
 73
    24
 74
    22
 42
0.0000000001
 43
0.0000000001
 44
0.0000000001
 40
0.0
 40
0.0
 40
0.0
 40
0.0
 40
0.8352936429574056
 40
1.669237728350642
 40
2.501894053648814
 40
3.333370751989776
 40
4.163709973415924
 40
4.993000269644194
 40
5.821308171202901
 40
6.648711373518951
 40
7.475285115884777
 40
8.301107467927388
 40
9.126257289067203
 40
9.950815088606149
 40
10.77486243781055
 40
11.59848291078644
 40
12.42175969762724
 40
13.24478248283826
 40
14.06762751811697
 40
14.89041085666936
 40
15.71315761856994
 40
16.53609649083476
 40
17.35900621107017
 40
17.35900621107017
 40
17.35900621107017
 40
17.35900621107017
 10
300.4477388490437
 20
132.4024494677785
 30
0.0
 10
300.6947072663509
 20
132.5311975705773
 30
0.0
 10
301.1882450818916
 20
132.7884857619306
 30
0.0
 10
301.9553176724627
 20
133.1176324628304
 30
0.0
 10
302.7378341350861
 20
133.403424097919
 30
0.0
 10
303.5352019823682
 20
133.6410468942621
 30
0.0
 10
304.3440759019104
 20
133.8308488664736
 30
0.0
 10
305.1617894937692
 20
133.9719975005493
 30
0.0
 10
305.9854684498498
 20
134.06418130367
 30
0.0
 10
306.8122699842823
 20
134.1071547473952
 30
0.0
 10
307.6393343463509
 20
134.1008608262207
 30
0.0
 10
308.463808168074
 20
134.04539819145
 30
0.0
 10
309.282850190408
 20
133.941029080239
 30
0.0
 10
310.0936410983734
 20
133.7881759534588
 30
0.0
 10
310.8933920250547
 20
133.5874198474991
 30
0.0
 10
311.6793546006653
 20
133.3395000885176
 30
0.0
 10
312.4488245020923
 20
133.0453038897404
 30
0.0
 10
313.1991704168327
 20
132.7058919552664
 30
0.0
 10
313.9277600978549
 20
132.3223888620429
 30
0.0
 10
314.6322918439906
 20
131.8963694681559
 30
0.0
 10
315.3095496311054
 20
131.4284152336259
 30
0.0
 10
315.960183976743
 20
130.9234381790857
 30
0.0
 10
316.3670629015525
 20
130.5551887386797
 30
0.0
 10
316.5704987605437
 20
130.3710672797786
 30
0.0
 11
300.4477388490437
 21
132.4024494677785
 31
0.0
 11
301.1932127419437
 21
132.7792573033785
 31
0.0
 11
301.9584878232438
 21
133.1106434640785
 31
0.0
 11
302.7408727077437
 21
133.3955828410785
 31
0.0
 11
303.5376668227438
 21
133.6332225645785
 31
0.0
 11
304.3460643359438
 21
133.8228450402785
 31
0.0
 11
305.1632694560437
 21
133.9639059742785
 31
0.0
 11
305.9864399024438
 21
134.0560167551785
 31
0.0
 11
306.8127283155438
 21
134.0989529587785
 31
0.0
 11
307.6392780434437
 21
134.0926522542785
 31
0.0
 11
308.4632375379438
 21
134.0372148250785
 31
0.0
 11
309.2817674226437
 21
133.9329025286785
 31
0.0
 11
310.0920503749437
 21
133.7801376701785
 31
0.0
 11
310.8912994673437
 21
133.5795013772786
 31
0.0
 11
311.6767678683438
 21
133.3317311721785
 31
0.0
 11
312.4457552048438
 21
133.0377190226786
 31
0.0
 11
313.1956223888437
 21
132.6985056512785
 31
0.0
 11
313.9237818196438
 21
132.3152853550785
 31
0.0
 11
314.6277522782437
 21
131.8893768958785
 31
0.0
 11
315.3050550613437
 21
131.4222867822785
 31
0.0
 11
315.9534642968438
 21
130.9155384711785
 31
0.0
 11
316.5704987605437
 21
130.3710672797786
 31
0.0
  0
SPLINE
  5
7C5
330
1B
100
AcDbEntity
  8
0
  6
Continuous
100
AcDbSpline
210
0.0
220
0.0
230
1.0
 70
     8
 71
     3
 72
    13
 73
     9
 74
     7
 42
0.0000000001
 43
0.0000000001
 44
0.0000000001
 40
0.0
 40
0.0
 40
0.0
 40
0.0
 40
0.7682867157855946
 40
1.485915925657995
 40
2.105604012878326
 40
2.58662108477924
 40
2.89768683320302
 40
3.020813812464939
 40
3.020813812464939
 40
3.020813812464939
 40
3.020813812464939
 10
300.4477407561437
 20
132.4024505038785
 30
0.0
 10
300.5706640167723
 20
132.1777571871119
 30
0.0
 10
300.8084055094324
 20
131.7431858598816
 30
0.0
 10
301.1556781468069
 20
131.133515361713
 30
0.0
 10
301.4594691125633
 20
130.6081432278557
 30
0.0
 10
301.7125746556956
 20
130.2132454773223
 30
0.0
 10
301.8684548301604
 20
129.947234011606
 30
0.0
 10
301.9736317254609
 20
129.8472580354995
 30
0.0
 10
302.0034574516437
 20
129.8189071692785
 30
0.0
 11
300.4477407561437
 21
132.4024505038785
 31
0.0
 11
300.8184694062438
 21
131.7295279632785
 31
0.0
 11
301.1726566974437
 21
131.1053941269785
 31
0.0
 11
301.4868972875438
 21
130.5712909749785
 31
0.0
 11
301.7404264417437
 21
130.1625118274785
 31
0.0
 11
301.9164912089437
 21
129.9060686610785
 31
0.0
 11
302.0034574516437
 21
129.8189071692785
 31
0.0
  0
SPLINE
  5
7C6
330
1B
100
AcDbEntity
  8
0
  6
Continuous
100
AcDbSpline
210
0.0
220
0.0
230
1.0
 70
     8
 71
     3
 72
    39
 73
    35
 74
    33
 42
0.0000000001
 43
0.0000000001
 44
0.0000000001
 40
0.0
 40
0.0
 40
0.0
 40
0.0
 40
1.723337591594349
 40
3.437096347621604
 40
5.15632189971231
 40
6.888642453382087
 40
8.62980289093785
 40
10.37679918708368
 40
12.1309573749758
 40
13.89374376836012
 40
15.6652418598042
 40
17.44634056478445
 40
19.2362097357322
 40
21.0306911839882
 40
22.82453253329042
 40
24.61188862749223
 40
26.38758912024433
 40
28.14925442867231
 40
29.89669296693415
 40
31.63019176191227
 40
33.35037657606795
 40
35.05806386244276
 40
36.75381070222058
 40
38.43802356769641
 40
40.11124519963585
 40
41.77339112827929
 40
43.42319864661778
 40
45.0605495091767
 40
46.68799899281369
 40
48.30771855062532
 40
49.91655065535123
 40
51.50627113194594
 40
53.09084625772717
 40
54.72759016735287
 40
54.72759016735287
 40
54.72759016735287
 40
54.72759016735287
 10
359.7939538225437
 20
133.0975499666785
 30
0.0
 10
360.1647929565133
 20
133.5363339669073
 30
0.0
 10
360.9044099875226
 20
134.4114630721604
 30
0.0
 10
362.0703169832214
 20
135.6750340614723
 30
0.0
 10
363.2784445748845
 20
136.9021773923303
 30
0.0
 10
364.537297939614
 20
138.09075947206
 30
0.0
 10
365.8455426737609
 20
139.2387998214982
 30
0.0
 10
367.201558478906
 20
140.3416275453637
 30
0.0
 10
368.6044400026073
 20
141.3962515252243
 30
0.0
 10
370.0540804352503
 20
142.40007606823
 30
0.0
 10
371.5500755695603
 20
143.350308160428
 30
0.0
 10
373.0911951928105
 20
144.2436449193675
 30
0.0
 10
374.6747137540563
 20
145.0761094740257
 30
0.0
 10
376.2956819111059
 20
145.8430973131274
 30
0.0
 10
377.9471117928673
 20
146.5399693818011
 30
0.0
 10
379.6211635535594
 20
147.1628860184408
 30
0.0
 10
381.3104478047138
 20
147.709329695241
 30
0.0
 10
383.0090933879134
 20
148.1781700763527
 30
0.0
 10
384.7128760576665
 20
148.5692548893406
 30
0.0
 10
386.4185401732488
 20
148.8829041211968
 30
0.0
 10
388.1231927056346
 20
149.1196225098524
 30
0.0
 10
389.8240733305387
 20
149.2799973898346
 30
0.0
 10
391.5183916294206
 20
149.3646724243638
 30
0.0
 10
393.20330694408
 20
149.3743631586334
 30
0.0
 10
394.875806035778
 20
149.3098701155431
 30
0.0
 10
396.5323635859629
 20
149.1721493746989
 30
0.0
 10
398.1692936192407
 20
148.9623974041881
 30
0.0
 10
399.7838548666629
 20
148.6819059717804
 30
0.0
 10
401.3744931105811
 20
148.3317616744412
 30
0.0
 10
402.9386303762212
 20
147.9131031535605
 30
0.0
 10
404.4704948449071
 20
147.4285362505858
 30
0.0
 10
405.9674979936534
 20
146.8786834475572
 30
0.0
 10
407.4489705614517
 20
146.2624827301349
 30
0.0
 10
408.4149908336518
 20
145.7932209822919
 30
0.0
 10
408.9058232472438
 20
145.5547902961785
 30
0.0
 11
359.7939538225437
 21
133.0975499666785
 31
0.0
 11
360.9159116720438
 21
134.4056413390785
 31
0.0
 11
362.0757373375437
 21
135.6672964026786
 31
0.0
 11
363.2826902077438
 21
136.8916334755786
 31
0.0
 11
364.5422147031438
 21
138.0809746991785
 31
0.0
 11
365.8510929007438
 21
139.2292244686785
 31
0.0
 11
367.2065405609437
 21
140.3313849375785
 31
0.0
 11
368.6087960581438
 21
141.3853064093785
 31
0.0
 11
370.0581384649438
 21
142.3887118391785
 31
0.0
 11
371.5535743409438
 21
143.3383839029785
 31
0.0
 11
373.0945875199437
 21
144.2314633949785
 31
0.0
 11
374.6789511499437
 21
145.0641839585785
 31
0.0
 11
376.3010864733437
 21
145.8315434966785
 31
0.0
 11
377.9538663609437
 21
146.5288134799785
 31
0.0
 11
379.6290640240438
 21
147.1519945106785
 31
0.0
 11
381.3186154543438
 21
147.6983718567786
 31
0.0
 11
383.0168210410437
 21
148.1669467645786
 31
0.0
 11
384.7199972699438
 21
148.5577564091786
 31
0.0
 11
386.4249334411438
 21
148.8711423123785
 31
0.0
 11
388.1287854642437
 21
149.1076250352785
 31
0.0
 11
389.8289431305437
 21
149.2678117318785
 31
0.0
 11
391.5225820894438
 21
149.3523364117785
 31
0.0
 11
393.2067677510438
 21
149.3619089503785
 31
0.0
 11
394.8787424373438
 21
149.2973235188785
 31
0.0
 11
396.5351645104438
 21
149.1595011554785
 31
0.0
 11
398.1715781857438
 21
148.9497033221785
 31
0.0
 11
399.7847476355438
 21
148.6693425307786
 31
0.0
 11
401.3741189393438
 21
148.3193558446785
 31
0.0
 11
402.9387440525438
 21
147.9005006177786
 31
0.0
 11
404.4725633843437
 21
147.4149710114786
 31
0.0
 11
405.9650926865438
 21
146.8676434351785
 31
0.0
 11
407.4266327077436
 21
146.2554513936785
 31
0.0
 11
408.9058232472438
 21
145.5547902961785
 31
0.0
  0
SPLINE
  5
7C8
330
1B
100
AcDbEntity
  8
0
  6
Continuous
100
AcDbSpline
210
0.0
220
0.0
230
1.0
 70
     8
 71
     3
 72
    12
 73
     8
 74
     6
 42
0.0000000001
 43
0.0000000001
 44
0.0000000001
 40
0.0
 40
0.0
 40
0.0
 40
0.0
 40
0.7904254338019506
 40
1.505983039730076
 40
2.078963905886392
 40
2.45514687559931
 40
2.598920384005244
 40
2.598920384005244
 40
2.598920384005244
 40
2.598920384005244
 10
359.7939538113437
 20
133.0975499759785
 30
0.0
 10
359.9970449662447
 20
132.9297015247914
 30
0.0
 10
360.3839908079657
 20
132.6099029581932
 30
0.0
 10
360.9179731316309
 20
132.1682058692717
 30
0.0
 10
361.3450691786886
 20
131.8139332877889
 30
0.0
 10
361.6257880178999
 20
131.5817197707922
 30
0.0
 10
361.758392038284
 20
131.4701145317671
 30
0.0
 10
361.7950584633438
 20
131.4392544935786
 30
0.0
 11
359.7939538113437
 21
133.0975499759785
 31
0.0
 11
360.4031904241438
 21
132.5939597496785
 31
0.0
 11
360.9544775100437
 21
132.1377742212785
 31
0.0
 11
361.3956597227438
 21
131.7721715295785
 31
0.0
 11
361.6849868745437
 21
131.5317480990785
 31
0.0
 11
361.7950584633438
 21
131.4392544935786
 31
0.0
  0
SPLINE
  5
7C9
330
1B
100
AcDbEntity
  8
0
  6
Continuous
100
AcDbSpline
210
0.0
220
0.0
230
1.0
 70
     8
 71
     3
 72
    10
 73
     6
 74
     4
 42
0.0000000001
 43
0.0000000001
 44
0.0000000001
 40
0.0
 40
0.0
 40
0.0
 40
0.0
 40
7.588569366249899
 40
14.85958402803377
 40
21.81488997259079
 40
21.81488997259079
 40
21.81488997259079
 40
21.81488997259079
 10
408.9058232472438
 20
145.5547902961785
 30
0.0
 10
408.9061420740479
 20
148.0843133615494
 30
0.0
 10
408.9067663858856
 20
153.037507926509
 30
0.0
 10
408.9076051579253
 20
160.3091383824788
 30
0.0
 10
408.9040691522733
 20
165.0512441541885
 30
0.0
 10
408.9023403847437
 20
167.3696789326785
 30
0.0
 11
408.9058232472438
 21
145.5547902961785
 31
0.0
 11
408.9067659136437
 21
153.1433596038785
 31
0.0
 11
408.9065507391437
 21
160.4143742624785
 31
0.0
 11
408.9023403847437
 21
167.3696789326785
 31
0.0
  0
SPLINE
  5
7CB
330
1B
100
AcDbEntity
  8
0
  6
Continuous
100
AcDbSpline
210
0.0
220
0.0
230
1.0
 70
     8
 71
     3
 72
    14
 73
    10
 74
     8
 42
0.0000000001
 43
0.0000000001
 44
0.0000000001
 40
0.0
 40
0.0
 40
0.0
 40
0.0
 40
1.047916813396242
 40
2.135789702537788
 40
3.135011777722679
 40
4.0095572923023
 40
4.732781299292444
 40
5.217786478533991
 40
5.404668497154807
 40
5.404668497154807
 40
5.404668497154807
 40
5.404668497154807
 10
408.8994773628437
 20
145.5644981906785
 30
0.0
 10
409.2487822767452
 20
145.5654429820139
 30
0.0
 10
409.9607107701327
 20
145.5673685886837
 30
0.0
 10
411.0057146849018
 20
145.5645388952616
 30
0.0
 10
411.9929274478204
 20
145.5665143192974
 30
0.0
 10
412.8585917387445
 20
145.5665410369378
 30
0.0
 10
413.5528490489984
 20
145.5662480973824
 30
0.0
 10
414.0178878179299
 20
145.5660677933345
 30
0.0
 10
414.2418470345731
 20
145.5648397616635
 30
0.0
 10
414.3041401555437
 20
145.5644981908785
 30
0.0
 11
408.8994773628437
 21
145.5644981906785
 31
0.0
 11
409.9473924415438
 21
145.5664049238786
 31
0.0
 11
411.0352648181438
 21
145.5653489125785
 31
0.0
 11
412.0344864892437
 21
145.5662475454785
 31
0.0
 11
412.9090319754437
 21
145.5664703424785
 31
0.0
 11
413.6322559389437
 21
145.5662195311785
 31
0.0
 11
414.1172604830437
 21
145.5654346149785
 31
0.0
 11
414.3041401555437
 21
145.5644981908785
 31
0.0
  0
ARC
  5
7CD
330
1B
100
AcDbEntity
  8
0
  6
Continuous
100
AcDbCircle
 10
336.8994773600438
 20
152.0699744474785
 30
0.0
 40
29.733982663
100
AcDbArc
 50
46.8669353228001
 51
140.3517959424003
  0
ARC
  5
7CE
330
1B
100
AcDbEntity
  8
0
  6
Continuous
100
AcDbCircle
 10
336.8994773600438
 20
152.0699744474785
 30
0.0
 40
29.7339826691
100
AcDbArc
 50
226.8669353228005
 51
320.3517959424007
  0
ARC
  5
7D4
330
1B
100
AcDbEntity
  8
0
  6
Continuous
100
AcDbCircle
 10
390.0278691703438
 20
144.0430056254785
 30
0.0
 40
35.8606221486
100
AcDbArc
 50
51.01966620930011
 51
121.0548768753002
  0
ARC
  5
7D5
330
1B
100
AcDbEntity
  8
0
  6
Continuous
100
AcDbCircle
 10
366.2983635379437
 20
183.4499918391785
 30
0.0
 40
10.13937768
100
AcDbArc
 50
226.8669353228005
 51
301.0548768753007
  0
ARC
  5
7D6
330
1B
100
AcDbEntity
  8
0
  6
Continuous
100
AcDbCircle
 10
336.8994773600438
 20
152.0699744474785
 30
0.0
 40
32.8606221234
100
AcDbArc
 50
46.8669353228001
 51
140.3517959424003
  0
ARC
  5
7D7
330
1B
100
AcDbEntity
  8
0
  6
Continuous
100
AcDbCircle
 10
283.7710855497437
 20
196.0969432694786
 30
0.0
 40
36.1393775149
100
AcDbArc
 50
243.2996789495005
 51
320.3517959424007
  0
ARC
  5
7D8
330
1B
100
AcDbEntity
  8
0
  6
Continuous
100
AcDbCircle
 10
264.8994773600438
 20
158.5754507040785
 30
0.0
 40
5.860622296899999
100
AcDbArc
 50
63.29967894950014
 51
180.0000000000004
  0
ARC
  5
7D9
330
1B
100
AcDbEntity
  8
0
  6
Continuous
100
AcDbCircle
 10
264.8994773600438
 20
136.7760855592785
 30
0.0
 40
5.860622308099999
100
AcDbArc
 50
180.0000000000004
 51
231.0196662093005
  0
ARC
  5
7DA
330
1B
100
AcDbEntity
  8
0
  6
Continuous
100
AcDbCircle
 10
283.7710855497437
 20
160.0969432694786
 30
0.0
 40
35.8606221486
100
AcDbArc
 50
231.0196662093005
 51
301.0548768753007
  0
ARC
  5
7DB
330
1B
100
AcDbEntity
  8
0
  6
Continuous
100
AcDbCircle
 10
307.5005911821438
 20
120.6899570557785
 30
0.0
 40
10.13937768
100
AcDbArc
 50
46.8669353228001
 51
121.0548768753002
  0
ARC
  5
7DC
330
1B
100
AcDbEntity
  8
0
  6
Continuous
100
AcDbCircle
 10
336.8994773600438
 20
152.0699744474785
 30
0.0
 40
32.8606221234
100
AcDbArc
 50
226.8669353228005
 51
320.3517959424007
  0
ARC
  5
7DD
330
1B
100
AcDbEntity
  8
0
  6
Continuous
100
AcDbCircle
 10
390.0278691703438
 20
108.0430056254785
 30
0.0
 40
36.1393775149
100
AcDbArc
 50
63.29967894950014
 51
140.3517959424003
  0
ARC
  5
7DE
330
1B
100
AcDbEntity
  8
0
  6
Continuous
100
AcDbCircle
 10
408.8994773600437
 20
145.5644981908785
 30
0.0
 40
5.860622296899999
100
AcDbArc
 50
243.2996789495005
 51
0.0000000000007994
  0
ARC
  5
7DF
330
1B
100
AcDbEntity
  8
0
  6
Continuous
100
AcDbCircle
 10
408.8994773600437
 20
167.3638633356785
 30
0.0
 40
5.860622308099999
100
AcDbArc
 50
0.0
 51
51.01966620930011
  0
ARC
  5
7E4
330
1B
100
AcDbEntity
  8
0
  6
Continuous
100
AcDbCircle
 10
373.0403067093438
 20
159.1688919160785
 30
0.0
 40
2.0
100
AcDbArc
 50
8.000000000000018
 51
98.00000000000023
  0
ARC
  5
7E5
330
1B
100
AcDbEntity
  8
0
  6
Continuous
100
AcDbCircle
 10
373.5969991131437
 20
155.2078196411785
 30
0.0
 40
2.0
100
AcDbArc
 50
278.0000000000006
 51
8.000000000000018
  0
ARC
  5
7E8
330
1B
100
AcDbEntity
  8
0
  6
Continuous
100
AcDbCircle
 10
300.2019556069438
 20
148.9321292537785
 30
0.0
 40
2.0
100
AcDbArc
 50
98.00000000000023
 51
188.0000000000004
  0
ARC
  5
7E9
330
1B
100
AcDbEntity
  8
0
  6
Continuous
100
AcDbCircle
 10
300.7586480107438
 20
144.9710569788785
 30
0.0
 40
2.0
100
AcDbArc
 50
188.0000000000004
 51
278.0000000000006
  0
ARC
  5
7F9
330
1B
100
AcDbEntity
  8
0
  6
Continuous
100
AcDbCircle
 10
408.8994773600437
 20
167.3638633356785
 30
0.0
 40
5.862541293299999
100
AcDbArc
 50
0.0
 51
51.01966621540011
  0
ARC
  5
814
330
1B
100
AcDbEntity
  8
0
  6
Continuous
100
AcDbCircle
 10
336.8994773600438
 20
152.0699744474785
 30
0.0
 40
24.695
100
AcDbArc
 50
238.0000000000005
 51
318.0000000000007
  0
ARC
  5
815
330
1B
100
AcDbEntity
  8
0
  6
Continuous
100
AcDbCircle
 10
336.8994773600438
 20
152.0699744474785
 30
0.0
 40
25.495
100
AcDbArc
 50
238.0000000000005
 51
318.0000000000007
  0
ARC
  5
816
330
1B
100
AcDbEntity
  8
0
  6
Continuous
100
AcDbCircle
 10
336.8994773600438
 20
152.0699744474785
 30
0.0
 40
25.495
100
AcDbArc
 50
58.00000000000014
 51
138.0000000000003
  0
ARC
  5
817
330
1B
100
AcDbEntity
  8
0
  6
Continuous
100
AcDbCircle
 10
336.8994773600438
 20
152.0699744474785
 30
0.0
 40
24.695
100
AcDbArc
 50
58.00000000000014
 51
138.0000000000003
  0
LINE
  5
818
330
1B
100
AcDbEntity
  8
0
  6
Continuous
100
AcDbLine
 10
414.7620186477437
 20
167.3638633356785
 30
0.0
 11
414.7620186477437
 21
145.5644981917785
 31
0.0
  0
LINE
  5
819
330
1B
100
AcDbEntity
  8
0
  6
Continuous
100
AcDbLine
 10
414.7600996676438
 20
167.3638633356785
 30
0.0
 11
414.7600996676438
 21
145.5644981908785
 31
0.0
  0
LINE
  5
81A
330
1B
100
AcDbEntity
  8
0
  6
Continuous
100
AcDbLine
 10
406.2652968339437
 20
140.3270863054785
 30
0.0
 11
408.8994773628437
 21
145.5644981906785
 31
0.0
  0
LINE
  5
81B
330
1B
100
AcDbEntity
  8
0
  6
Continuous
100
AcDbLine
 10
408.8994773600437
 20
167.3638633356785
 30
0.0
 11
412.5873301023437
 21
171.9211797133785
 31
0.0
  0
LINE
  5
81C
330
1B
100
AcDbEntity
  8
0
  6
Continuous
100
AcDbLine
 10
371.5278610053438
 20
174.7654984578785
 30
0.0
 11
371.7954932544437
 21
174.3210483916785
 31
0.0
  0
LINE
  5
81D
330
1B
100
AcDbEntity
  8
0
  6
Continuous
100
AcDbLine
 10
375.0208428468437
 20
159.4472381179785
 30
0.0
 11
375.5775352506438
 21
155.4861658430785
 31
0.0
  0
LINE
  5
822
330
1B
100
AcDbEntity
  8
0
  6
Continuous
100
AcDbLine
 10
357.9341581674438
 20
168.3201494965785
 30
0.0
 11
357.6990440664438
 21
168.6437562943785
 31
0.0
  0
LINE
  5
823
330
1B
100
AcDbEntity
  8
0
  6
Continuous
100
AcDbLine
 10
359.1097286719438
 20
166.7021155078785
 30
0.0
 11
358.8746145710438
 21
167.0257223055785
 31
0.0
  0
LINE
  5
824
330
1B
100
AcDbEntity
  8
0
  6
Continuous
100
AcDbLine
 10
357.0424217758437
 20
169.4589621640785
 30
0.0
 11
355.1899994988438
 21
171.3772015858785
 31
0.0
  0
LINE
  5
825
330
1B
100
AcDbEntity
  8
0
  6
Continuous
100
AcDbLine
 10
354.8838974926438
 20
171.0816023145785
 30
0.0
 11
356.5047670678438
 21
169.4031427346786
 31
0.0
  0
LINE
  5
826
330
1B
100
AcDbEntity
  8
0
  6
Continuous
100
AcDbLine
 10
359.6866717038438
 20
138.2084088730785
 30
0.0
 11
360.7762489031438
 21
140.3468245310785
 31
0.0
  0
LINE
  5
827
330
1B
100
AcDbEntity
  8
0
  6
Continuous
100
AcDbLine
 10
360.1396707026438
 20
140.2222468297785
 30
0.0
 11
359.2316897031437
 21
138.4402337814785
 31
0.0
  0
LINE
  5
828
330
1B
100
AcDbEntity
  8
0
  6
Continuous
100
AcDbLine
 10
358.3669592603437
 20
139.1801228743785
 30
0.0
 11
359.1538761554438
 21
140.7245342395785
 31
0.0
  0
LINE
  5
829
330
1B
100
AcDbEntity
  8
0
  6
Continuous
100
AcDbLine
 10
358.6988941547438
 20
140.9563591479785
 30
0.0
 11
357.9119772596438
 21
139.4119477827785
 31
0.0
  0
LINE
  5
82A
330
1B
100
AcDbEntity
  8
0
  6
Continuous
100
AcDbLine
 10
361.9522474092438
 20
143.2168904590785
 30
0.0
 11
362.1020900466437
 21
143.5877640009785
 31
0.0
  0
LINE
  5
82B
330
1B
100
AcDbEntity
  8
0
  6
Continuous
100
AcDbLine
 10
361.2030342224437
 20
141.3625227499785
 30
0.0
 11
361.3528768597438
 21
141.7333962917785
 31
0.0
  0
LINE
  5
82C
330
1B
100
AcDbEntity
  8
0
  6
Continuous
100
AcDbLine
 10
362.6936911503437
 20
145.6867293111785
 30
0.0
 11
362.8136650388437
 21
146.2063933147785
 31
0.0
  0
LINE
  5
82D
330
1B
100
AcDbEntity
  8
0
  6
Continuous
100
AcDbLine
 10
360.0480289404438
 20
145.9554271253785
 30
0.0
 11
360.3179702163437
 21
147.1246712495785
 31
0.0
  0
LINE
  5
82E
330
1B
100
AcDbEntity
  8
0
  6
Continuous
100
AcDbLine
 10
360.0012665524438
 20
147.2662083580785
 30
0.0
 11
359.7013318097438
 21
145.9670482561785
 31
0.0
  0
LINE
  5
82F
330
1B
100
AcDbEntity
  8
0
  6
Continuous
100
AcDbLine
 10
357.8479195915438
 20
143.5090025980785
 30
0.0
 11
357.9058429826438
 21
143.1979906270785
 31
0.0
  0
LINE
  5
830
330
1B
100
AcDbEntity
  8
0
  6
Continuous
100
AcDbLine
 10
355.5030621033437
 20
165.7298094587785
 30
0.0
 11
355.4151718527437
 21
165.9955716205786
 31
0.0
  0
LINE
  5
831
330
1B
100
AcDbEntity
  8
0
  6
Continuous
100
AcDbLine
 10
354.9628711246437
 20
165.7493604183785
 30
0.0
 11
355.0899470434438
 21
165.4296637987785
 31
0.0
  0
LINE
  5
832
330
1B
100
AcDbEntity
  8
0
  6
Continuous
100
AcDbLine
 10
350.8866963395437
 20
174.4542039455786
 30
0.0
 11
352.0509659294437
 21
172.0747593533785
 31
0.0
  0
LINE
  5
833
330
1B
100
AcDbEntity
  8
0
  6
Continuous
100
AcDbLine
 10
355.6598047999438
 20
165.5140716450785
 30
0.0
 11
355.5030621033437
 21
165.7298094587785
 31
0.0
  0
LINE
  5
834
330
1B
100
AcDbEntity
  8
0
  6
Continuous
100
AcDbLine
 10
355.0899470434438
 20
165.4296637987785
 30
0.0
 11
355.2466897400437
 21
165.2139259850785
 31
0.0
  0
LINE
  5
835
330
1B
100
AcDbEntity
  8
0
  6
Continuous
100
AcDbLine
 10
354.5323850248437
 20
167.0350478492785
 30
0.0
 11
352.9578260959438
 21
168.6655513509785
 31
0.0
  0
LINE
  5
836
330
1B
100
AcDbEntity
  8
0
  6
Continuous
100
AcDbLine
 10
352.3126402974437
 20
168.5985681040785
 30
0.0
 11
354.1650625745437
 21
166.6803286822785
 31
0.0
  0
LINE
  5
837
330
1B
100
AcDbEntity
  8
0
  6
Continuous
100
AcDbLine
 10
355.2466897400437
 20
165.2139259850785
 30
0.0
 11
355.5114706467437
 21
164.9942779545785
 31
0.0
  0
LINE
  5
838
330
1B
100
AcDbEntity
  8
0
  6
Continuous
100
AcDbLine
 10
355.8854000545438
 20
165.3483580250785
 30
0.0
 11
355.6598047999438
 21
165.5140716450785
 31
0.0
  0
LINE
  5
839
330
1B
100
AcDbEntity
  8
0
  6
Continuous
100
AcDbLine
 10
355.5114706467437
 20
164.9942779545785
 30
0.0
 11
355.8059184774438
 21
164.8785885412785
 31
0.0
  0
LINE
  5
83A
330
1B
100
AcDbEntity
  8
0
  6
Continuous
100
AcDbLine
 10
352.0509659294437
 20
172.0747593533785
 30
0.0
 11
349.5089062524437
 21
172.2492788954785
 31
0.0
  0
LINE
  5
83B
330
1B
100
AcDbEntity
  8
0
  6
Continuous
100
AcDbLine
 10
356.9780889734437
 20
137.0164572278785
 30
0.0
 11
354.5826084822438
 21
136.1480116691786
 31
0.0
  0
LINE
  5
83C
330
1B
100
AcDbEntity
  8
0
  6
Continuous
100
AcDbLine
 10
358.4552660160438
 20
144.5578603541785
 30
0.0
 11
358.1975523822438
 21
144.3743741219785
 31
0.0
  0
LINE
  5
83D
330
1B
100
AcDbEntity
  8
0
  6
Continuous
100
AcDbLine
 10
358.4672298342438
 20
143.9059057608785
 30
0.0
 11
358.6460341925438
 21
144.1212734097785
 31
0.0
  0
LINE
  5
83E
330
1B
100
AcDbEntity
  8
0
  6
Continuous
100
AcDbLine
 10
358.1975523822438
 20
144.3743741219785
 30
0.0
 11
357.9937742501438
 21
144.0971942335785
 31
0.0
  0
LINE
  5
83F
330
1B
100
AcDbEntity
  8
0
  6
Continuous
100
AcDbLine
 10
357.2122228064438
 20
142.1627865300785
 30
0.0
 11
357.0306266065438
 21
141.8063839203785
 31
0.0
  0
LINE
  5
840
330
1B
100
AcDbEntity
  8
0
  6
Continuous
100
AcDbLine
 10
358.3673347664437
 20
143.6586567918785
 30
0.0
 11
358.4672298342438
 21
143.9059057608785
 31
0.0
  0
LINE
  5
841
330
1B
100
AcDbEntity
  8
0
  6
Continuous
100
AcDbLine
 10
357.9937742501438
 20
144.0971942335785
 30
0.0
 11
357.8938791823438
 21
143.8499452646785
 31
0.0
  0
LINE
  5
842
330
1B
100
AcDbEntity
  8
0
  6
Continuous
100
AcDbLine
 10
358.6462435359438
 20
145.9369535472785
 30
0.0
 11
358.5562631141438
 21
145.5472055213785
 31
0.0
  0
LINE
  5
843
330
1B
100
AcDbEntity
  8
0
  6
Continuous
100
AcDbLine
 10
359.1561325781438
 20
148.1455256321785
 30
0.0
 11
359.0661521564438
 21
147.7557776062786
 31
0.0
  0
LINE
  5
844
330
1B
100
AcDbEntity
  8
0
  6
Continuous
100
AcDbLine
 10
356.5147850285438
 20
134.4082720926786
 30
0.0
 11
356.9780889734437
 21
137.0164572278785
 31
0.0
  0
LINE
  5
845
330
1B
100
AcDbEntity
  8
0
  6
Continuous
100
AcDbLine
 10
357.8938791823438
 20
143.8499452646785
 30
0.0
 11
357.8479195915438
 21
143.5090025980785
 31
0.0
  0
LINE
  5
846
330
1B
100
AcDbEntity
  8
0
  6
Continuous
100
AcDbLine
 10
358.3463489178438
 20
143.3795263261785
 30
0.0
 11
358.3673347664437
 21
143.6586567918785
 31
0.0
  0
LINE
  5
847
330
1B
100
AcDbEntity
  8
0
  6
Continuous
100
AcDbLine
 10
354.9438333940437
 20
166.0651468639785
 30
0.0
 11
354.9628711246437
 21
165.7493604183785
 31
0.0
  0
LINE
  5
848
330
1B
100
AcDbEntity
  8
0
  6
Continuous
100
AcDbLine
 10
358.4292461640438
 20
143.1303267160785
 30
0.0
 11
358.3463489178438
 21
143.3795263261785
 31
0.0
  0
LINE
  5
849
330
1B
100
AcDbEntity
  8
0
  6
Continuous
100
AcDbLine
 10
357.9058429826438
 20
143.1979906270785
 30
0.0
 11
358.1215849617438
 21
142.8232160133785
 31
0.0
  0
LINE
  5
84A
330
1B
100
AcDbEntity
  8
0
  6
Continuous
100
AcDbLine
 10
356.1406621571438
 20
165.2866032028785
 30
0.0
 11
355.8854000545438
 21
165.3483580250785
 31
0.0
  0
LINE
  5
84B
330
1B
100
AcDbEntity
  8
0
  6
Continuous
100
AcDbLine
 10
355.8059184774438
 20
164.8785885412785
 30
0.0
 11
356.2380712059437
 21
164.8629478283785
 31
0.0
  0
LINE
  5
84C
330
1B
100
AcDbEntity
  8
0
  6
Continuous
100
AcDbLine
 10
408.8994773600437
 20
167.3638633356785
 30
0.0
 11
414.7620186477437
 21
167.3638633356785
 31
0.0
  0
LINE
  5
84D
330
1B
100
AcDbEntity
  8
0
  6
Continuous
100
AcDbLine
 10
356.5047670678438
 20
169.4031427346786
 30
0.0
 11
352.8024035502438
 21
169.0715269795785
 31
0.0
  0
LINE
  5
84E
330
1B
100
AcDbEntity
  8
0
  6
Continuous
100
AcDbLine
 10
352.9578260959438
 20
168.6655513509785
 30
0.0
 11
356.6138789672438
 21
169.0451231841786
 31
0.0
  0
LINE
  5
84F
330
1B
100
AcDbEntity
  8
0
  6
Continuous
100
AcDbLine
 10
358.8707981485438
 20
144.6775837225785
 30
0.0
 11
358.4552660160438
 21
144.5578603541785
 31
0.0
  0
LINE
  5
850
330
1B
100
AcDbEntity
  8
0
  6
Continuous
100
AcDbLine
 10
358.6460341925438
 20
144.1212734097785
 30
0.0
 11
358.8787740761438
 21
144.2429473415785
 31
0.0
  0
LINE
  5
851
330
1B
100
AcDbEntity
  8
0
  6
Continuous
100
AcDbLine
 10
355.0625007013437
 20
166.4809818171785
 30
0.0
 11
354.9438333940437
 21
166.0651468639785
 31
0.0
  0
LINE
  5
852
330
1B
100
AcDbEntity
  8
0
  6
Continuous
100
AcDbLine
 10
355.4151718527437
 20
165.9955716205786
 30
0.0
 11
355.4353198543438
 21
166.2574235960786
 31
0.0
  0
LINE
  5
853
330
1B
100
AcDbEntity
  8
0
  6
Continuous
100
AcDbLine
 10
358.6160263588438
 20
142.9110579179785
 30
0.0
 11
358.4292461640438
 21
143.1303267160785
 31
0.0
  0
LINE
  5
854
330
1B
100
AcDbEntity
  8
0
  6
Continuous
100
AcDbLine
 10
358.1215849617438
 20
142.8232160133785
 30
0.0
 11
358.3872744666437
 21
142.5720657845785
 31
0.0
  0
LINE
  5
855
330
1B
100
AcDbEntity
  8
0
  6
Continuous
100
AcDbLine
 10
362.8136650388437
 20
146.2063933147785
 30
0.0
 11
359.1561325781438
 21
148.1455256321785
 31
0.0
  0
LINE
  5
856
330
1B
100
AcDbEntity
  8
0
  6
Continuous
100
AcDbLine
 10
360.3179702163437
 20
147.1246712495785
 30
0.0
 11
362.4219776972438
 21
146.0231404325786
 31
0.0
  0
LINE
  5
857
330
1B
100
AcDbEntity
  8
0
  6
Continuous
100
AcDbLine
 10
359.0661521564438
 20
147.7557776062786
 30
0.0
 11
360.0012665524438
 21
147.2662083580785
 31
0.0
  0
LINE
  5
858
330
1B
100
AcDbEntity
  8
0
  6
Continuous
100
AcDbLine
 10
314.5625719519437
 20
159.4662663162785
 30
0.0
 11
314.9281565715437
 21
159.4623651724785
 31
0.0
  0
LINE
  5
859
330
1B
100
AcDbEntity
  8
0
  6
Continuous
100
AcDbLine
 10
259.4949807121437
 20
158.5754507040785
 30
0.0
 11
259.0369360723438
 21
158.5754507031785
 31
0.0
  0
LINE
  5
85A
330
1B
100
AcDbEntity
  8
0
  6
Continuous
100
AcDbLine
 10
311.3769770228438
 20
158.1168084623785
 30
0.0
 11
313.7509257796437
 21
158.1845217695786
 31
0.0
  0
LINE
  5
85B
330
1B
100
AcDbEntity
  8
0
  6
Continuous
100
AcDbLine
 10
314.0976229103437
 20
158.1729006387786
 30
0.0
 11
315.1527111841438
 21
158.2029953476785
 31
0.0
  0
LINE
  5
85C
330
1B
100
AcDbEntity
  8
0
  6
Continuous
100
AcDbLine
 10
315.2426916059437
 20
158.5927433735785
 30
0.0
 11
311.1052635697438
 21
158.4532195837785
 31
0.0
  0
LINE
  5
85D
330
1B
100
AcDbEntity
  8
0
  6
Continuous
100
AcDbLine
 10
314.9201806440438
 20
159.8970015533786
 30
0.0
 11
314.6335053278438
 21
159.8690212499785
 31
0.0
  0
LINE
  5
866
330
1B
100
AcDbEntity
  8
0
  6
Continuous
100
AcDbLine
 10
356.4255910673437
 20
165.3288070312785
 30
0.0
 11
356.1406621571438
 21
165.2866032028785
 31
0.0
  0
LINE
  5
867
330
1B
100
AcDbEntity
  8
0
  6
Continuous
100
AcDbLine
 10
356.2380712059437
 20
164.8629478283785
 30
0.0
 11
356.5918526662438
 21
164.9551759627786
 31
0.0
  0
LINE
  5
868
330
1B
100
AcDbEntity
  8
0
  6
Continuous
100
AcDbLine
 10
355.2595393915437
 20
166.7889478664785
 30
0.0
 11
355.0625007013437
 21
166.4809818171785
 31
0.0
  0
LINE
  5
869
330
1B
100
AcDbEntity
  8
0
  6
Continuous
100
AcDbLine
 10
355.4353198543438
 20
166.2574235960786
 30
0.0
 11
355.5635059839437
 21
166.5153653539785
 31
0.0
  0
LINE
  5
86A
330
1B
100
AcDbEntity
  8
0
  6
Continuous
100
AcDbLine
 10
358.9066896290437
 20
142.7217200863785
 30
0.0
 11
358.6160263588438
 21
142.9110579179785
 31
0.0
  0
LINE
  5
86B
330
1B
100
AcDbEntity
  8
0
  6
Continuous
100
AcDbLine
 10
358.3872744666437
 20
142.5720657845785
 30
0.0
 11
358.7568469916438
 21
142.3508465444785
 31
0.0
  0
LINE
  5
86C
330
1B
100
AcDbEntity
  8
0
  6
Continuous
100
AcDbLine
 10
314.5672650169438
 20
165.6997151134785
 30
0.0
 11
314.1122830163438
 21
165.9315400218785
 31
0.0
  0
LINE
  5
86D
330
1B
100
AcDbEntity
  8
0
  6
Continuous
100
AcDbLine
 10
315.8869774604438
 20
164.7280011121785
 30
0.0
 11
315.4319954598437
 21
164.9598260205785
 31
0.0
  0
LINE
  5
86E
330
1B
100
AcDbEntity
  8
0
  6
Continuous
100
AcDbLine
 10
362.1020900466437
 20
143.5877640009785
 30
0.0
 11
359.6559028158438
 21
144.5760877954785
 31
0.0
  0
LINE
  5
86F
330
1B
100
AcDbEntity
  8
0
  6
Continuous
100
AcDbLine
 10
359.5060601784437
 20
144.2052142536785
 30
0.0
 11
361.9522474092438
 21
143.2168904590785
 31
0.0
  0
LINE
  5
870
330
1B
100
AcDbEntity
  8
0
  6
Continuous
100
AcDbLine
 10
315.0421077284438
 20
161.7891023504786
 30
0.0
 11
312.5959204977437
 21
162.7774261449785
 31
0.0
  0
LINE
  5
871
330
1B
100
AcDbEntity
  8
0
  6
Continuous
100
AcDbLine
 10
314.1430519042438
 20
159.5638610994785
 30
0.0
 11
314.5625719519437
 21
159.4662663162785
 31
0.0
  0
LINE
  5
872
330
1B
100
AcDbEntity
  8
0
  6
Continuous
100
AcDbLine
 10
314.6335053278438
 20
159.8690212499785
 30
0.0
 11
314.2928945416438
 21
159.9347346412785
 31
0.0
  0
LINE
  5
875
330
1B
100
AcDbEntity
  8
0
  6
Continuous
100
AcDbLine
 10
371.7716924386437
 20
161.0102549525786
 30
0.0
 11
372.7619605074437
 21
161.1494280535785
 31
0.0
  0
LINE
  5
876
330
1B
100
AcDbEntity
  8
0
  6
Continuous
100
AcDbLine
 10
299.9236094050437
 20
150.9126653912785
 30
0.0
 11
300.9138774737437
 21
151.0518384922785
 31
0.0
  0
LINE
  5
877
330
1B
100
AcDbEntity
  8
0
  6
Continuous
100
AcDbLine
 10
317.0587679988438
 20
138.6649791951785
 30
0.0
 11
317.3733636528437
 21
138.8111418636785
 31
0.0
  0
LINE
  5
878
330
1B
100
AcDbEntity
  8
0
  6
Continuous
100
AcDbLine
 10
317.2071020538437
 20
139.1847729321785
 30
0.0
 11
316.8236538979438
 21
138.9885859929785
 31
0.0
  0
LINE
  5
879
330
1B
100
AcDbEntity
  8
0
  6
Continuous
100
AcDbLine
 10
356.9753008221437
 20
165.1513629019785
 30
0.0
 11
359.1097286719438
 21
166.7021155078785
 31
0.0
  0
LINE
  5
87A
330
1B
100
AcDbEntity
  8
0
  6
Continuous
100
AcDbLine
 10
316.0999106536437
 20
135.4961926005785
 30
0.0
 11
318.2343385034437
 21
137.0469452064785
 31
0.0
  0
LINE
  5
87B
330
1B
100
AcDbEntity
  8
0
  6
Continuous
100
AcDbLine
 10
358.8746145710438
 20
167.0257223055785
 30
0.0
 11
356.7401867212437
 21
165.4749696997785
 31
0.0
  0
LINE
  5
87C
330
1B
100
AcDbEntity
  8
0
  6
Continuous
100
AcDbLine
 10
317.9992244025438
 20
137.3705520041785
 30
0.0
 11
315.8647965527438
 21
135.8197993983785
 31
0.0
  0
LINE
  5
87D
330
1B
100
AcDbEntity
  8
0
  6
Continuous
100
AcDbLine
 10
356.6138789672438
 20
169.0451231841786
 30
0.0
 11
357.0424217758437
 21
169.4589621640785
 31
0.0
  0
LINE
  5
87E
330
1B
100
AcDbEntity
  8
0
  6
Continuous
100
AcDbLine
 10
354.1650625745437
 20
166.6803286822785
 30
0.0
 11
354.5323850248437
 21
167.0350478492785
 31
0.0
  0
LINE
  5
87F
330
1B
100
AcDbEntity
  8
0
  6
Continuous
100
AcDbLine
 10
320.9965511698438
 20
135.0684219153786
 30
0.0
 11
321.4863144226438
 21
135.5413807908786
 31
0.0
  0
LINE
  5
880
330
1B
100
AcDbEntity
  8
0
  6
Continuous
100
AcDbLine
 10
318.6089552212438
 20
132.7627473090785
 30
0.0
 11
318.9150572275437
 21
133.0583465803785
 31
0.0
  0
LINE
  5
881
330
1B
100
AcDbEntity
  8
0
  6
Continuous
100
AcDbLine
 10
355.5646162166438
 20
167.0930036884785
 30
0.0
 11
355.2595393915437
 21
166.7889478664785
 31
0.0
  0
LINE
  5
882
330
1B
100
AcDbEntity
  8
0
  6
Continuous
100
AcDbLine
 10
355.5635059839437
 20
166.5153653539785
 30
0.0
 11
355.7997303175438
 21
166.7693968907786
 31
0.0
  0
LINE
  5
883
330
1B
100
AcDbEntity
  8
0
  6
Continuous
100
AcDbLine
 10
354.5826084822438
 20
136.1480116691786
 30
0.0
 11
355.2514388252438
 21
135.5457941234786
 31
0.0
  0
LINE
  5
884
330
1B
100
AcDbEntity
  8
0
  6
Continuous
100
AcDbLine
 10
318.5475158949438
 20
168.5941547714785
 30
0.0
 11
319.2163462378437
 21
167.9919372257785
 31
0.0
  0
LINE
  5
885
330
1B
100
AcDbEntity
  8
0
  6
Continuous
100
AcDbLine
 10
317.2841696915437
 20
169.7316768022785
 30
0.0
 11
317.9530000345437
 21
169.1294592565786
 31
0.0
  0
LINE
  5
886
330
1B
100
AcDbEntity
  8
0
  6
Continuous
100
AcDbLine
 10
356.5147850285438
 20
134.4082720926786
 30
0.0
 11
355.8459546856437
 21
135.0104896383786
 31
0.0
  0
LINE
  5
887
330
1B
100
AcDbEntity
  8
0
  6
Continuous
100
AcDbLine
 10
362.2028682255437
 20
131.1013066078785
 30
0.0
 11
361.7952072094438
 21
131.4391312291785
 31
0.0
  0
LINE
  5
888
330
1B
100
AcDbEntity
  8
0
  6
Continuous
100
AcDbLine
 10
311.5960864946437
 20
173.0386422870785
 30
0.0
 11
312.0037475106437
 21
172.7008176657786
 31
0.0
  0
LINE
  5
889
330
1B
100
AcDbEntity
  8
0
  6
Continuous
100
AcDbLine
 10
314.8922650911438
 20
161.4182288085785
 30
0.0
 11
315.1829283612437
 21
161.2288909769785
 31
0.0
  0
LINE
  5
88A
330
1B
100
AcDbEntity
  8
0
  6
Continuous
100
AcDbLine
 10
315.4116802534438
 20
161.5678831103785
 30
0.0
 11
315.0421077284438
 21
161.7891023504786
 31
0.0
  0
LINE
  5
88B
330
1B
100
AcDbEntity
  8
0
  6
Continuous
100
AcDbLine
 10
360.7762489031438
 20
140.3468245310785
 30
0.0
 11
357.2122228064438
 21
142.1627865300785
 31
0.0
  0
LINE
  5
88C
330
1B
100
AcDbEntity
  8
0
  6
Continuous
100
AcDbLine
 10
314.6450785647437
 20
163.4154146553786
 30
0.0
 11
313.6592840175438
 21
163.9177020651785
 31
0.0
  0
LINE
  5
88D
330
1B
100
AcDbEntity
  8
0
  6
Continuous
100
AcDbLine
 10
316.7683281135437
 20
162.3335649745785
 30
0.0
 11
315.1000605653437
 21
163.1835897469785
 31
0.0
  0
LINE
  5
88E
330
1B
100
AcDbEntity
  8
0
  6
Continuous
100
AcDbLine
 10
359.1538761554438
 20
140.7245342395785
 30
0.0
 11
360.1396707026438
 21
140.2222468297785
 31
0.0
  0
LINE
  5
88F
330
1B
100
AcDbEntity
  8
0
  6
Continuous
100
AcDbLine
 10
357.0306266065438
 20
141.8063839203785
 30
0.0
 11
358.6988941547438
 21
140.9563591479785
 31
0.0
  0
LINE
  5
890
330
1B
100
AcDbEntity
  8
0
  6
Continuous
100
AcDbLine
 10
313.0227058169437
 20
163.7931243638786
 30
0.0
 11
316.5867319137437
 21
161.9771623648785
 31
0.0
  0
LINE
  5
891
330
1B
100
AcDbEntity
  8
0
  6
Continuous
100
AcDbLine
 10
357.9119772596438
 20
139.4119477827785
 30
0.0
 11
358.3669592603437
 21
139.1801228743785
 31
0.0
  0
LINE
  5
892
330
1B
100
AcDbEntity
  8
0
  6
Continuous
100
AcDbLine
 10
359.2316897031437
 20
138.4402337814785
 30
0.0
 11
359.6866717038438
 21
138.2084088730785
 31
0.0
  0
LINE
  5
893
330
1B
100
AcDbEntity
  8
0
  6
Continuous
100
AcDbLine
 10
312.4460778603437
 20
162.4065526031785
 30
0.0
 11
314.8922650911438
 21
161.4182288085785
 31
0.0
  0
LINE
  5
894
330
1B
100
AcDbEntity
  8
0
  6
Continuous
100
AcDbLine
 10
361.3528768597438
 20
141.7333962917785
 30
0.0
 11
358.9066896290437
 21
142.7217200863785
 31
0.0
  0
LINE
  5
895
330
1B
100
AcDbEntity
  8
0
  6
Continuous
100
AcDbLine
 10
358.7568469916438
 20
142.3508465444785
 30
0.0
 11
361.2030342224437
 21
141.3625227499785
 31
0.0
  0
LINE
  5
896
330
1B
100
AcDbEntity
  8
0
  6
Continuous
100
AcDbLine
 10
314.2928945416438
 20
159.9347346412785
 30
0.0
 11
311.8467073108438
 21
160.9230584358785
 31
0.0
  0
LINE
  5
897
330
1B
100
AcDbEntity
  8
0
  6
Continuous
100
AcDbLine
 10
311.6968646735438
 20
160.5521848939785
 30
0.0
 11
314.1430519042438
 21
159.5638610994785
 31
0.0
  0
LINE
  5
898
330
1B
100
AcDbEntity
  8
0
  6
Continuous
100
AcDbLine
 10
359.6559028158438
 20
144.5760877954785
 30
0.0
 11
359.2363827681438
 21
144.6736825786785
 31
0.0
  0
LINE
  5
89B
330
1B
100
AcDbEntity
  8
0
  6
Continuous
100
AcDbLine
 10
359.1654493922438
 20
144.2709276450785
 30
0.0
 11
359.5060601784437
 21
144.2052142536785
 31
0.0
  0
LINE
  5
89E
330
1B
100
AcDbEntity
  8
0
  6
Continuous
100
AcDbLine
 10
302.0272622814438
 20
143.1296939423785
 30
0.0
 11
301.0369942127438
 21
142.9905208413785
 31
0.0
  0
LINE
  5
89F
330
1B
100
AcDbEntity
  8
0
  6
Continuous
100
AcDbLine
 10
373.8753453151437
 20
153.2272835036785
 30
0.0
 11
372.8850772463438
 21
153.0881104026785
 31
0.0
  0
LINE
  5
8A2
330
1B
100
AcDbEntity
  8
0
  6
Continuous
100
AcDbLine
 10
356.7401867212437
 20
165.4749696997785
 30
0.0
 11
356.4255910673437
 21
165.3288070312785
 31
0.0
  0
LINE
  5
8A3
330
1B
100
AcDbEntity
  8
0
  6
Continuous
100
AcDbLine
 10
356.5918526662438
 20
164.9551759627786
 30
0.0
 11
356.9753008221437
 21
165.1513629019785
 31
0.0
  0
LINE
  5
8A6
330
1B
100
AcDbEntity
  8
0
  6
Continuous
100
AcDbLine
 10
355.7997303175438
 20
166.7693968907786
 30
0.0
 11
357.9341581674438
 21
168.3201494965785
 31
0.0
  0
LINE
  5
8A7
330
1B
100
AcDbEntity
  8
0
  6
Continuous
100
AcDbLine
 10
314.9243401490437
 20
137.1142265893785
 30
0.0
 11
317.0587679988438
 21
138.6649791951785
 31
0.0
  0
LINE
  5
8A8
330
1B
100
AcDbEntity
  8
0
  6
Continuous
100
AcDbLine
 10
357.6990440664438
 20
168.6437562943785
 30
0.0
 11
355.5646162166438
 21
167.0930036884785
 31
0.0
  0
LINE
  5
8A9
330
1B
100
AcDbEntity
  8
0
  6
Continuous
100
AcDbLine
 10
316.8236538979438
 20
138.9885859929785
 30
0.0
 11
314.6892260481438
 21
137.4378333870786
 31
0.0
  0
LINE
  5
8AA
330
1B
100
AcDbEntity
  8
0
  6
Continuous
100
AcDbLine
 10
352.8024035502438
 20
169.0715269795785
 30
0.0
 11
352.3126402974437
 21
168.5985681040785
 31
0.0
  0
LINE
  5
8AB
330
1B
100
AcDbEntity
  8
0
  6
Continuous
100
AcDbLine
 10
355.1899994988438
 20
171.3772015858785
 30
0.0
 11
354.8838974926438
 21
171.0816023145785
 31
0.0
  0
LINE
  5
8AC
330
1B
100
AcDbEntity
  8
0
  6
Continuous
100
AcDbLine
 10
317.1850757529437
 20
135.0948257107785
 30
0.0
 11
316.7565329442437
 21
134.6809867308786
 31
0.0
  0
LINE
  5
8AD
330
1B
100
AcDbEntity
  8
0
  6
Continuous
100
AcDbLine
 10
319.6338921455438
 20
137.4596202126785
 30
0.0
 11
319.2665696952438
 21
137.1049010456785
 31
0.0
  0
LINE
  5
8AE
330
1B
100
AcDbEntity
  8
0
  6
Continuous
100
AcDbLine
 10
318.2343385034437
 20
137.0469452064785
 30
0.0
 11
318.5394153285438
 21
137.3510010284785
 31
0.0
  0
LINE
  5
8AF
330
1B
100
AcDbEntity
  8
0
  6
Continuous
100
AcDbLine
 10
314.4315212951438
 20
128.0879484682786
 30
0.0
 11
316.5704987705437
 21
130.3710672904785
 31
0.0
  0
LINE
  5
8B0
330
1B
100
AcDbEntity
  8
0
  6
Continuous
100
AcDbLine
 10
357.2284559487438
 20
173.7688816036785
 30
0.0
 11
359.3674334250438
 21
176.0520004266785
 31
0.0
  0
LINE
  5
8B1
330
1B
100
AcDbEntity
  8
0
  6
Continuous
100
AcDbLine
 10
318.2354487362438
 20
137.6245835409785
 30
0.0
 11
317.9992244025438
 21
137.3705520041785
 31
0.0
  0
LINE
  5
8B2
330
1B
100
AcDbEntity
  8
0
  6
Continuous
100
AcDbLine
 10
350.4097690016438
 20
173.6909606589785
 30
0.0
 11
350.8866963395437
 21
174.4542039455786
 31
0.0
  0
LINE
  5
8B3
330
1B
100
AcDbEntity
  8
0
  6
Continuous
100
AcDbLine
 10
349.5089062524437
 20
172.2492788954785
 30
0.0
 11
349.9858335903438
 21
173.0125221820785
 31
0.0
  0
LINE
  5
8B4
330
1B
100
AcDbEntity
  8
0
  6
Continuous
100
AcDbLine
 10
323.3891857184437
 20
130.4489882359785
 30
0.0
 11
322.9122583806439
 21
129.6857449494785
 31
0.0
  0
LINE
  5
8B5
330
1B
100
AcDbEntity
  8
0
  6
Continuous
100
AcDbLine
 10
324.2900484676438
 20
131.8906699994786
 30
0.0
 11
323.8131211298437
 21
131.1274267128785
 31
0.0
  0
LINE
  5
8B6
330
1B
100
AcDbEntity
  8
0
  6
Continuous
100
AcDbLine
 10
315.6773697583437
 20
161.3167328815785
 30
0.0
 11
315.4116802534438
 21
161.5678831103785
 31
0.0
  0
LINE
  5
8B7
330
1B
100
AcDbEntity
  8
0
  6
Continuous
100
AcDbLine
 10
310.9852896812438
 20
157.9335555801785
 30
0.0
 11
314.6428221419437
 21
155.9944232627786
 31
0.0
  0
LINE
  5
8B8
330
1B
100
AcDbEntity
  8
0
  6
Continuous
100
AcDbLine
 10
314.7328025637437
 20
156.3841712886785
 30
0.0
 11
313.7976881676437
 21
156.8737405368785
 31
0.0
  0
LINE
  5
8B9
330
1B
100
AcDbEntity
  8
0
  6
Continuous
100
AcDbLine
 10
313.4809845037437
 20
157.0152776453785
 30
0.0
 11
311.3769770228438
 21
158.1168084623785
 31
0.0
  0
LINE
  5
8BA
330
1B
100
AcDbEntity
  8
0
  6
Continuous
100
AcDbLine
 10
359.2363827681438
 20
144.6736825786785
 30
0.0
 11
358.8707981485438
 21
144.6775837225785
 31
0.0
  0
LINE
  5
8BB
330
1B
100
AcDbEntity
  8
0
  6
Continuous
100
AcDbLine
 10
414.7620186477437
 20
145.5644981917785
 30
0.0
 11
414.3039740080437
 21
145.5644981908785
 31
0.0
  0
LINE
  5
8BC
330
1B
100
AcDbEntity
  8
0
  6
Continuous
100
AcDbLine
 10
359.7013318097438
 20
145.9670482561785
 30
0.0
 11
358.6462435359438
 21
145.9369535472785
 31
0.0
  0
LINE
  5
8BD
330
1B
100
AcDbEntity
  8
0
  6
Continuous
100
AcDbLine
 10
362.4219776972438
 20
146.0231404325786
 30
0.0
 11
360.0480289404438
 21
145.9554271253785
 31
0.0
  0
LINE
  5
8BE
330
1B
100
AcDbEntity
  8
0
  6
Continuous
100
AcDbLine
 10
358.5562631141438
 20
145.5472055213785
 30
0.0
 11
362.6936911503437
 21
145.6867293111785
 31
0.0
  0
LINE
  5
8BF
330
1B
100
AcDbEntity
  8
0
  6
Continuous
100
AcDbLine
 10
358.8787740761438
 20
144.2429473415785
 30
0.0
 11
359.1654493922438
 21
144.2709276450785
 31
0.0
  0
LINE
  5
8CA
330
1B
100
AcDbEntity
  8
0
  6
Continuous
100
AcDbLine
 10
317.3733636528437
 20
138.8111418636785
 30
0.0
 11
317.6582925630437
 21
138.8533456920785
 31
0.0
  0
LINE
  5
8CB
330
1B
100
AcDbEntity
  8
0
  6
Continuous
100
AcDbLine
 10
317.5608835142437
 20
139.2770010665786
 30
0.0
 11
317.2071020538437
 21
139.1847729321785
 31
0.0
  0
LINE
  5
8CC
330
1B
100
AcDbEntity
  8
0
  6
Continuous
100
AcDbLine
 10
318.5394153285438
 20
137.3510010284785
 30
0.0
 11
318.7364540187437
 21
137.6589670777785
 31
0.0
  0
LINE
  5
8CD
330
1B
100
AcDbEntity
  8
0
  6
Continuous
100
AcDbLine
 10
318.3636348657437
 20
137.8825252988785
 30
0.0
 11
318.2354487362438
 21
137.6245835409785
 31
0.0
  0
LINE
  5
8CE
330
1B
100
AcDbEntity
  8
0
  6
Continuous
100
AcDbLine
 10
315.8931117374438
 20
160.9419582678785
 30
0.0
 11
315.6773697583437
 21
161.3167328815785
 31
0.0
  0
LINE
  5
8CF
330
1B
100
AcDbEntity
  8
0
  6
Continuous
100
AcDbLine
 10
315.1829283612437
 20
161.2288909769785
 30
0.0
 11
315.3697085561438
 21
161.0096221788785
 31
0.0
  0
LINE
  5
8D0
330
1B
100
AcDbEntity
  8
0
  6
Continuous
100
AcDbLine
 10
317.9930362427437
 20
139.2613603536785
 30
0.0
 11
317.5608835142437
 21
139.2770010665786
 31
0.0
  0
LINE
  5
8D1
330
1B
100
AcDbEntity
  8
0
  6
Continuous
100
AcDbLine
 10
259.0369360723438
 20
136.7760855592785
 30
0.0
 11
264.8994773600438
 21
136.7760855592785
 31
0.0
  0
LINE
  5
8D2
330
1B
100
AcDbEntity
  8
0
  6
Continuous
100
AcDbLine
 10
317.2941876522437
 20
134.7368061602785
 30
0.0
 11
320.9965511698438
 21
135.0684219153786
 31
0.0
  0
LINE
  5
8D3
330
1B
100
AcDbEntity
  8
0
  6
Continuous
100
AcDbLine
 10
320.8411286241437
 20
135.4743975439785
 30
0.0
 11
317.1850757529437
 21
135.0948257107785
 31
0.0
  0
LINE
  5
8D4
330
1B
100
AcDbEntity
  8
0
  6
Continuous
100
AcDbLine
 10
314.9281565715437
 20
159.4623651724785
 30
0.0
 11
315.3436887040438
 21
159.5820885407785
 31
0.0
  0
LINE
  5
8D5
330
1B
100
AcDbEntity
  8
0
  6
Continuous
100
AcDbLine
 10
318.7364540187437
 20
137.6589670777785
 30
0.0
 11
318.8551213261437
 21
138.0748020309785
 31
0.0
  0
LINE
  5
8D6
330
1B
100
AcDbEntity
  8
0
  6
Continuous
100
AcDbLine
 10
315.9510351286438
 20
160.6309462968785
 30
0.0
 11
315.8931117374438
 21
160.9419582678785
 31
0.0
  0
LINE
  5
8D7
330
1B
100
AcDbEntity
  8
0
  6
Continuous
100
AcDbLine
 10
315.3697085561438
 20
161.0096221788785
 30
0.0
 11
315.4526058023438
 21
160.7604225687785
 31
0.0
  0
LINE
  5
8D8
330
1B
100
AcDbEntity
  8
0
  6
Continuous
100
AcDbLine
 10
318.2874840733437
 20
139.1456709403785
 30
0.0
 11
317.9930362427437
 21
139.2613603536785
 31
0.0
  0
LINE
  5
8D9
330
1B
100
AcDbEntity
  8
0
  6
Continuous
100
AcDbLine
 10
317.6582925630437
 20
138.8533456920785
 30
0.0
 11
317.9135546655438
 21
138.7915908698786
 31
0.0
  0
LINE
  5
8DA
330
1B
100
AcDbEntity
  8
0
  6
Continuous
100
AcDbLine
 10
321.7479887906439
 20
132.0651895415785
 30
0.0
 11
324.2900484676438
 21
131.8906699994786
 31
0.0
  0
LINE
  5
8DB
330
1B
100
AcDbEntity
  8
0
  6
Continuous
100
AcDbLine
 10
319.2163462378437
 20
167.9919372257785
 30
0.0
 11
316.8208657467437
 21
167.1234916670785
 31
0.0
  0
LINE
  5
8DC
330
1B
100
AcDbEntity
  8
0
  6
Continuous
100
AcDbLine
 10
315.1529205275438
 20
160.0186754851785
 30
0.0
 11
314.9201806440438
 21
159.8970015533786
 31
0.0
  0
LINE
  5
8DD
330
1B
100
AcDbEntity
  8
0
  6
Continuous
100
AcDbLine
 10
315.3436887040438
 20
159.5820885407785
 30
0.0
 11
315.6014023378438
 21
159.7655747729785
 31
0.0
  0
LINE
  5
8DE
330
1B
100
AcDbEntity
  8
0
  6
Continuous
100
AcDbLine
 10
315.6014023378438
 20
159.7655747729785
 30
0.0
 11
315.8051804700438
 21
160.0427546613786
 31
0.0
  0
LINE
  5
8DF
330
1B
100
AcDbEntity
  8
0
  6
Continuous
100
AcDbLine
 10
318.3837828674437
 20
138.1443772743786
 30
0.0
 11
318.3636348657437
 21
137.8825252988785
 31
0.0
  0
LINE
  5
8E0
330
1B
100
AcDbEntity
  8
0
  6
Continuous
100
AcDbLine
 10
318.8551213261437
 20
138.0748020309785
 30
0.0
 11
318.8360835954438
 21
138.3905884765785
 31
0.0
  0
LINE
  5
8E1
330
1B
100
AcDbEntity
  8
0
  6
Continuous
100
AcDbLine
 10
318.2958926167437
 20
138.4101394361785
 30
0.0
 11
318.3837828674437
 21
138.1443772743786
 31
0.0
  0
LINE
  5
8E2
330
1B
100
AcDbEntity
  8
0
  6
Continuous
100
AcDbLine
 10
318.8360835954438
 20
138.3905884765785
 30
0.0
 11
318.7090076766438
 21
138.7102850961785
 31
0.0
  0
LINE
  5
8E3
330
1B
100
AcDbEntity
  8
0
  6
Continuous
100
AcDbLine
 10
322.9122583806439
 20
129.6857449494785
 30
0.0
 11
321.7479887906439
 21
132.0651895415785
 31
0.0
  0
LINE
  5
8E4
330
1B
100
AcDbEntity
  8
0
  6
Continuous
100
AcDbLine
 10
318.7090076766438
 20
138.7102850961785
 30
0.0
 11
318.5522649800438
 21
138.9260229098785
 31
0.0
  0
LINE
  5
8E5
330
1B
100
AcDbEntity
  8
0
  6
Continuous
100
AcDbLine
 10
318.1391499201438
 20
138.6258772498785
 30
0.0
 11
318.2958926167437
 21
138.4101394361785
 31
0.0
  0
LINE
  5
8E6
330
1B
100
AcDbEntity
  8
0
  6
Continuous
100
AcDbLine
 10
315.8647965527438
 20
135.8197993983785
 30
0.0
 11
316.0999106536437
 21
135.4961926005785
 31
0.0
  0
LINE
  5
8E7
330
1B
100
AcDbEntity
  8
0
  6
Continuous
100
AcDbLine
 10
314.6892260481438
 20
137.4378333870786
 30
0.0
 11
314.9243401490437
 21
137.1142265893785
 31
0.0
  0
LINE
  5
8E8
330
1B
100
AcDbEntity
  8
0
  6
Continuous
100
AcDbLine
 10
321.4863144226438
 20
135.5413807908786
 30
0.0
 11
319.6338921455438
 21
137.4596202126785
 31
0.0
  0
LINE
  5
8E9
330
1B
100
AcDbEntity
  8
0
  6
Continuous
100
AcDbLine
 10
319.2665696952438
 20
137.1049010456785
 30
0.0
 11
320.8411286241437
 21
135.4743975439785
 31
0.0
  0
LINE
  5
8EA
330
1B
100
AcDbEntity
  8
0
  6
Continuous
100
AcDbLine
 10
318.9150572275437
 20
133.0583465803785
 30
0.0
 11
317.2941876522437
 21
134.7368061602785
 31
0.0
  0
LINE
  5
8EB
330
1B
100
AcDbEntity
  8
0
  6
Continuous
100
AcDbLine
 10
316.7565329442437
 20
134.6809867308786
 30
0.0
 11
318.6089552212438
 21
132.7627473090785
 31
0.0
  0
LINE
  5
8EC
330
1B
100
AcDbEntity
  8
0
  6
Continuous
100
AcDbLine
 10
318.5522649800438
 20
138.9260229098785
 30
0.0
 11
318.2874840733437
 21
139.1456709403785
 31
0.0
  0
LINE
  5
8ED
330
1B
100
AcDbEntity
  8
0
  6
Continuous
100
AcDbLine
 10
317.9135546655438
 20
138.7915908698786
 30
0.0
 11
318.1391499201438
 21
138.6258772498785
 31
0.0
  0
LINE
  5
8EE
330
1B
100
AcDbEntity
  8
0
  6
Continuous
100
AcDbLine
 10
315.3317248858438
 20
160.2340431340785
 30
0.0
 11
315.1529205275438
 21
160.0186754851785
 31
0.0
  0
LINE
  5
8EF
330
1B
100
AcDbEntity
  8
0
  6
Continuous
100
AcDbLine
 10
316.5867319137437
 20
161.9771623648785
 30
0.0
 11
316.7683281135437
 21
162.3335649745785
 31
0.0
  0
LINE
  5
8F0
330
1B
100
AcDbEntity
  8
0
  6
Continuous
100
AcDbLine
 10
315.1000605653437
 20
163.1835897469785
 30
0.0
 11
315.8869774604438
 21
164.7280011121785
 31
0.0
  0
LINE
  5
8F1
330
1B
100
AcDbEntity
  8
0
  6
Continuous
100
AcDbLine
 10
315.4319954598437
 20
164.9598260205785
 30
0.0
 11
314.6450785647437
 21
163.4154146553786
 31
0.0
  0
LINE
  5
8F2
330
1B
100
AcDbEntity
  8
0
  6
Continuous
100
AcDbLine
 10
313.6592840175438
 20
163.9177020651785
 30
0.0
 11
314.5672650169438
 21
165.6997151134785
 31
0.0
  0
LINE
  5
8F3
330
1B
100
AcDbEntity
  8
0
  6
Continuous
100
AcDbLine
 10
314.1122830163438
 20
165.9315400218785
 30
0.0
 11
313.0227058169437
 21
163.7931243638786
 31
0.0
  0
LINE
  5
8F4
330
1B
100
AcDbEntity
  8
0
  6
Continuous
100
AcDbLine
 10
315.8051804700438
 20
160.0427546613786
 30
0.0
 11
315.9050755377438
 21
160.2900036302785
 31
0.0
  0
LINE
  5
8F5
330
1B
100
AcDbEntity
  8
0
  6
Continuous
100
AcDbLine
 10
315.4316199536438
 20
160.4812921030785
 30
0.0
 11
315.3317248858438
 21
160.2340431340785
 31
0.0
  0
LINE
  5
8F6
330
1B
100
AcDbEntity
  8
0
  6
Continuous
100
AcDbLine
 10
311.8467073108438
 20
160.9230584358785
 30
0.0
 11
311.6968646735438
 21
160.5521848939785
 31
0.0
  0
LINE
  5
8F7
330
1B
100
AcDbEntity
  8
0
  6
Continuous
100
AcDbLine
 10
312.5959204977437
 20
162.7774261449785
 30
0.0
 11
312.4460778603437
 21
162.4065526031785
 31
0.0
  0
LINE
  5
8F8
330
1B
100
AcDbEntity
  8
0
  6
Continuous
100
AcDbLine
 10
315.1527111841438
 20
158.2029953476785
 30
0.0
 11
315.2426916059437
 21
158.5927433735785
 31
0.0
  0
LINE
  5
8F9
330
1B
100
AcDbEntity
  8
0
  6
Continuous
100
AcDbLine
 10
314.6428221419437
 20
155.9944232627786
 30
0.0
 11
314.7328025637437
 21
156.3841712886785
 31
0.0
  0
LINE
  5
8FA
330
1B
100
AcDbEntity
  8
0
  6
Continuous
100
AcDbLine
 10
313.7976881676437
 20
156.8737405368785
 30
0.0
 11
314.0976229103437
 21
158.1729006387786
 31
0.0
  0
LINE
  5
8FB
330
1B
100
AcDbEntity
  8
0
  6
Continuous
100
AcDbLine
 10
313.7509257796437
 20
158.1845217695786
 30
0.0
 11
313.4809845037437
 21
157.0152776453785
 31
0.0
  0
LINE
  5
8FC
330
1B
100
AcDbEntity
  8
0
  6
Continuous
100
AcDbLine
 10
311.1052635697438
 20
158.4532195837785
 30
0.0
 11
310.9852896812438
 21
157.9335555801785
 31
0.0
  0
LINE
  5
8FD
330
1B
100
AcDbEntity
  8
0
  6
Continuous
100
AcDbLine
 10
316.8208657467437
 20
167.1234916670785
 30
0.0
 11
317.2841696915437
 21
169.7316768022785
 31
0.0
  0
LINE
  5
8FE
330
1B
100
AcDbEntity
  8
0
  6
Continuous
100
AcDbLine
 10
315.9050755377438
 20
160.2900036302785
 30
0.0
 11
315.9510351286438
 21
160.6309462968785
 31
0.0
  0
LINE
  5
8FF
330
1B
100
AcDbEntity
  8
0
  6
Continuous
100
AcDbLine
 10
315.4526058023438
 20
160.7604225687785
 30
0.0
 11
315.4316199536438
 21
160.4812921030785
 31
0.0
  0
LINE
  5
904
330
1B
100
AcDbEntity
  8
0
  6
Continuous
100
AcDbLine
 10
298.7781118733437
 20
144.6927107769786
 30
0.0
 11
298.2214194694437
 21
148.6537830518785
 31
0.0
  0
LINE
  5
905
330
1B
100
AcDbEntity
  8
0
  6
Continuous
100
AcDbLine
 10
302.2710937148438
 20
129.3744504370785
 30
0.0
 11
302.0034574516437
 21
129.8189071692785
 31
0.0
  0
LINE
  5
906
330
1B
100
AcDbEntity
  8
0
  6
Continuous
100
AcDbLine
 10
261.2116246177438
 20
132.2187691815785
 30
0.0
 11
264.8994773600438
 21
136.7760855592785
 31
0.0
  0
LINE
  5
907
330
1B
100
AcDbEntity
  8
0
  6
Continuous
100
AcDbLine
 10
267.3279220903437
 20
163.4038082016785
 30
0.0
 11
267.5336578861438
 21
163.8128625894785
 31
0.0
  0
LINE
  5
908
330
1B
100
AcDbEntity
  8
0
  6
Continuous
100
AcDbLine
 10
259.0388550525438
 20
136.7760855592785
 30
0.0
 11
259.0388550525438
 21
158.5754507040785
 31
0.0
  0
LINE
  5
909
330
1B
100
AcDbEntity
  8
0
  6
Continuous
100
AcDbLine
 10
259.0369360723438
 20
136.7760855592785
 30
0.0
 11
259.0369360723438
 21
158.5754507031785
 31
0.0
  0
ARC
  5
136E
330
1B
100
AcDbEntity
  8
0
  6
Continuous
100
AcDbCircle
 10
373.0403067093438
 20
159.1688919160785
 30
0.0
 40
2.0
100
AcDbArc
 50
8.000000000000069
 51
98.00000000000077
  0
ARC
  5
136F
330
1B
100
AcDbEntity
  8
0
  6
Continuous
100
AcDbCircle
 10
373.5969991131437
 20
155.2078196411785
 30
0.0
 40
2.0
100
AcDbArc
 50
278.0000000000009
 51
8.000000000000069
  0
ARC
  5
1372
330
1B
100
AcDbEntity
  8
0
  6
Continuous
100
AcDbCircle
 10
300.2019556069438
 20
148.9321292537785
 30
0.0
 40
2.0
100
AcDbArc
 50
98.00000000000077
 51
188.0
  0
ARC
  5
1373
330
1B
100
AcDbEntity
  8
0
  6
Continuous
100
AcDbCircle
 10
300.7586480107439
 20
144.9710569788785
 30
0.0
 40
2.0
100
AcDbArc
 50
188.0
 51
278.0000000000009
  0
ARC
  5
1386
330
1B
100
AcDbEntity
  8
0
  6
Continuous
100
AcDbCircle
 10
336.8994773600438
 20
152.0699744474785
 30
0.0
 40
29.260316922
100
AcDbArc
 50
29.01133475240071
 51
166.9886652476999
  0
ARC
  5
1389
330
1B
100
AcDbEntity
  8
0
  6
Continuous
100
AcDbCircle
 10
336.8994773600438
 20
152.0699744474785
 30
0.0
 40
29.260316922
100
AcDbArc
 50
209.0113347524007
 51
346.9886652476999
  0
ARC
  5
138A
330
1B
100
AcDbEntity
  8
0
  6
Continuous
100
AcDbCircle
 10
336.8994773600438
 20
152.0699744474785
 30
0.0
 40
35.760316922
100
AcDbArc
 50
355.8936783623007
 51
20.10632163770096
  0
ARC
  5
138B
330
1B
100
AcDbEntity
  8
0
  6
Continuous
100
AcDbCircle
 10
306.0045241281438
 20
140.7601616817785
 30
0.0
 40
2.860316921999999
100
AcDbArc
 50
200.1063216377009
 51
278.0000000000009
  0
ARC
  5
138C
330
1B
100
AcDbEntity
  8
0
  6
Continuous
100
AcDbCircle
 10
304.0839353348438
 20
154.4258610303785
 30
0.0
 40
2.860316921999999
100
AcDbArc
 50
98.00000000000077
 51
175.8936783622999
  0
ARC
  5
138D
330
1B
100
AcDbEntity
  8
0
  6
Continuous
100
AcDbCircle
 10
367.7944305920438
 20
163.3797872131785
 30
0.0
 40
2.860316921999999
100
AcDbArc
 50
20.10632163770096
 51
98.00000000000077
  0
ARC
  5
138E
330
1B
100
AcDbEntity
  8
0
  6
Continuous
100
AcDbCircle
 10
369.7150193852437
 20
149.7140878645786
 30
0.0
 40
2.860316921999999
100
AcDbArc
 50
278.0000000000009
 51
355.8936783623007
  0
ARC
  5
138F
330
1B
100
AcDbEntity
  8
0
  6
Continuous
100
AcDbCircle
 10
363.4850002947438
 20
166.8134465721785
 30
0.0
 40
1.139683078
100
AcDbArc
 50
209.0113347524007
 51
278.0000000000009
  0
ARC
  5
1390
330
1B
100
AcDbEntity
  8
0
  6
Continuous
100
AcDbCircle
 10
366.5189738956438
 20
145.2256026735786
 30
0.0
 40
1.139683078
100
AcDbArc
 50
98.00000000000077
 51
166.9886652476003
  0
ARC
  5
1391
330
1B
100
AcDbEntity
  8
0
  6
Continuous
100
AcDbCircle
 10
310.3139544254438
 20
137.3265023227785
 30
0.0
 40
1.139683078
100
AcDbArc
 50
29.01133475240071
 51
98.00000000000077
  0
ARC
  5
1392
330
1B
100
AcDbEntity
  8
0
  6
Continuous
100
AcDbCircle
 10
307.2799808244438
 20
158.9143462213785
 30
0.0
 40
1.139683078
100
AcDbArc
 50
278.0000000000009
 51
346.9886652476002
  0
ARC
  5
1393
330
1B
100
AcDbEntity
  8
0
  6
Continuous
100
AcDbCircle
 10
336.8994773600438
 20
152.0699744474785
 30
0.0
 40
35.760316922
100
AcDbArc
 50
175.8936783622999
 51
200.1063216377009
  0
LINE
  5
13A7
330
1B
100
AcDbEntity
  8
0
  6
Continuous
100
AcDbLine
 10
375.0208428468438
 20
159.4472381179785
 30
0.0
 11
375.5775352506438
 21
155.4861658430785
 31
0.0
  0
LINE
  5
13EC
330
1B
100
AcDbEntity
  8
0
  6
Continuous
100
AcDbLine
 10
307.4385940525437
 20
157.7857544607785
 30
0.0
 11
303.6858561590439
 21
157.2583415447785
 31
0.0
  0
LINE
  5
13ED
330
1B
100
AcDbEntity
  8
0
  6
Continuous
100
AcDbLine
 10
367.3963514162438
 20
166.2122677275785
 30
0.0
 11
363.6436135227437
 21
165.6848548115785
 31
0.0
  0
LINE
  5
13FF
330
1B
100
AcDbEntity
  8
0
  6
Continuous
100
AcDbLine
 10
371.7716924386437
 20
161.0102549525786
 30
0.0
 11
372.7619605074437
 21
161.1494280535785
 31
0.0
  0
LINE
  5
1400
330
1B
100
AcDbEntity
  8
0
  6
Continuous
100
AcDbLine
 10
299.9236094050437
 20
150.9126653912785
 30
0.0
 11
300.9138774737438
 21
151.0518384922785
 31
0.0
  0
LINE
  5
1428
330
1B
100
AcDbEntity
  8
0
  6
Continuous
100
AcDbLine
 10
302.0272622814438
 20
143.1296939423785
 30
0.0
 11
301.0369942127438
 21
142.9905208413785
 31
0.0
  0
LINE
  5
1429
330
1B
100
AcDbEntity
  8
0
  6
Continuous
100
AcDbLine
 10
373.8753453151438
 20
153.2272835036785
 30
0.0
 11
372.8850772463438
 21
153.0881104026785
 31
0.0
  0
LINE
  5
144E
330
1B
100
AcDbEntity
  8
0
  6
Continuous
100
AcDbLine
 10
366.3603606675438
 20
146.3541944341785
 30
0.0
 11
370.1130985610438
 21
146.8816073501785
 31
0.0
  0
LINE
  5
144F
330
1B
100
AcDbEntity
  8
0
  6
Continuous
100
AcDbLine
 10
306.4026033038438
 20
137.9276811673786
 30
0.0
 11
310.1553411973438
 21
138.4550940833785
 31
0.0
  0
LINE
  5
148E
330
1B
100
AcDbEntity
  8
0
  6
Continuous
100
AcDbLine
 10
298.7781118733437
 20
144.6927107769786
 30
0.0
 11
298.2214194694439
 21
148.6537830518785
 31
0.0
  0
LINE
  5
14BC
330
1B
100
AcDbEntity
  8
0
  6
CENTER
100
AcDbLine
 10
427.9368365611255
 20
152.0699744474785
 30
0.0
 11
251.6499287761046
 21
152.0699744474785
 31
0.0
  0
LINE
  5
14BD
330
1B
100
AcDbEntity
  8
0
  6
CENTER
100
AcDbLine
 10
336.8994773600438
 20
108.4318389907821
 30
0.0
 11
336.8994773600438
 21
192.9117269384378
 31
0.0
  0
LINE
  5
14D9
330
1B
100
AcDbEntity
  8
0
  6
Continuous
100
AcDbLine
 10
93.73791027439995
 20
170.4352538202
 30
0.0
 11
96.1747062399
 21
170.4352538202
 31
0.0
  0
LINE
  5
14DA
330
1B
100
AcDbEntity
  8
0
  6
Continuous
100
AcDbLine
 10
53.51633386580002
 20
170.8592252396
 30
0.0
 11
89.79418966819998
 21
170.859225396
 31
0.0
  0
LWPOLYLINE
  5
14DB
330
1B
100
AcDbEntity
  8
0
  6
Continuous
100
AcDbPolyline
 90
        7
 70
     0
 43
0.0
 10
102.618801009
 20
175.7434451279
 10
102.6162352621999
 20
175.8164599111
 10
102.6144034924999
 20
175.8895120076999
 10
102.6133060132999
 20
175.9625889729
 10
102.6129430127
 20
176.0356783579
 10
102.6133145538999
 20
176.1087677118
 10
102.6144205747
 20
176.1818445834
  0
LINE
  5
14DC
330
1B
100
AcDbEntity
  8
0
  6
Continuous
100
AcDbLine
 10
127.9163338657999
 20
175.743445013366
 30
0.0
 11
102.6188027478999
 21
175.7434451282
 31
0.0
  0
LINE
  5
14DD
330
1B
100
AcDbEntity
  8
0
  6
Continuous
100
AcDbLine
 10
50.0557115595
 20
176.1818446234
 30
0.0
 11
102.6175181355999
 21
175.7799525195
 31
0.0
  0
LINE
  5
14DE
330
1B
100
AcDbEntity
  8
0
  6
Continuous
100
AcDbLine
 10
102.6144205747999
 20
176.1818445793
 30
0.0
 11
103.0206040164
 21
196.3272853052
 31
0.0
  0
LINE
  5
14DF
330
1B
100
AcDbEntity
  8
0
  6
Continuous
100
AcDbLine
 10
102.002146187
 20
199.4592252396
 30
0.0
 11
102.002146187
 21
198.8592252396
 31
0.0
  0
LINE
  5
14E0
330
1B
100
AcDbEntity
  8
0
  6
Continuous
100
AcDbLine
 10
95.90352593869999
 20
110.8462500196
 30
0.0
 11
95.13028130429996
 21
170.4352538202
 31
0.0
  0
LINE
  5
14E1
330
1B
100
AcDbEntity
  8
0
  6
Continuous
100
AcDbLine
 10
127.9163338657999
 20
198.8592252396
 30
0.0
 11
55.90883773800001
 21
198.8592252396
 31
0.0
  0
LINE
  5
14E2
330
1B
100
AcDbEntity
  8
0
  6
Continuous
100
AcDbLine
 10
127.9163338657999
 20
196.3272980402988
 30
0.0
 11
105.1047380449
 21
196.3273111819
 31
0.0
  0
LINE
  5
14E3
330
1B
100
AcDbEntity
  8
0
  6
Continuous
100
AcDbLine
 10
105.1047380449
 20
196.3273111819
 30
0.0
 11
103.0206040164
 21
196.3272853052
 31
0.0
  0
LINE
  5
14E4
330
1B
100
AcDbEntity
  8
0
  6
Continuous
100
AcDbLine
 10
127.9163338657999
 20
199.4592252396
 30
0.0
 11
102.002146187
 21
199.4592252396
 31
0.0
  0
SPLINE
  5
14E5
330
1B
100
AcDbEntity
  8
0
  6
Continuous
100
AcDbSpline
210
0.0
220
0.0
230
1.0
 70
     8
 71
     3
 72
    12
 73
     8
 74
     6
 42
0.0000000001
 43
0.0000000001
 44
0.0000000001
 40
0.0
 40
0.0
 40
0.0
 40
0.0
 40
0.32843181092895
 40
1.185522058188168
 40
2.13182546928007
 40
3.096634903498459
 40
3.990207432020321
 40
3.990207432020321
 40
3.990207432020321
 40
3.990207432020321
 10
93.75834373329997
 20
170.435149581
 30
0.0
 10
93.64886500669749
 20
170.4379069765153
 30
0.0
 10
93.2536857306021
 20
170.4478601938886
 30
0.0
 10
92.54795621911795
 20
170.5433009920926
 30
0.0
 10
91.63792984594539
 20
170.69100045671
 30
0.0
 10
90.71166636918414
 20
170.8276383133734
 30
0.0
 10
90.09212522126924
 20
170.8489689221445
 30
0.0
 10
89.79422900769998
 20
170.859225396
 30
0.0
 11
93.75834373329997
 21
170.435149581
 31
0.0
 11
93.43011619399999
 21
170.4467313285
 31
0.0
 11
92.57842749739996
 21
170.5428045091
 31
0.0
 11
91.64330456259994
 21
170.6878398243
 31
0.0
 11
90.68657672539996
 21
170.8124555933
 31
0.0
 11
89.79422900769998
 21
170.859225396
 31
0.0
  0
SPLINE
  5
14E6
330
1B
100
AcDbEntity
  8
0
  6
Continuous
100
AcDbSpline
210
0.0
220
0.0
230
1.0
 70
     8
 71
     3
 72
    39
 73
    35
 74
    33
 42
0.0000000001
 43
0.0000000001
 44
0.0000000001
 40
0.0
 40
0.0
 40
0.0
 40
0.0
 40
1.053837952894037
 40
2.153706866803408
 40
3.306406659118654
 40
4.515059416912378
 40
5.774482413959245
 40
7.079894369499392
 40
8.42950179358151
 40
9.821585267179696
 40
11.25330311099224
 40
12.72235742823289
 40
14.2249806887299
 40
15.75448432688912
 40
17.30306849151388
 40
18.86226435210166
 40
20.42409871850954
 40
21.98303192483348
 40
23.53565051168435
 40
25.07929300752764
 40
26.61182321268986
 40
28.13143246388976
 40
29.63626367411423
 40
31.1245201628306
 40
32.59467567371176
 40
34.04466720954353
 40
35.47151737538004
 40
36.87375873330765
 40
38.25252104282482
 40
39.60815691268882
 40
40.93590969661554
 40
42.22743474571669
 40
43.49441798937167
 40
44.77170083125497
 40
44.77170083125497
 40
44.77170083125497
 40
44.77170083125497
 10
103.0206040164
 20
196.3272853052
 30
0.0
 10
102.6693224455509
 20
196.3255282289755
 30
0.0
 10
101.9514155517618
 20
196.3219373285722
 30
0.0
 10
100.849535712304
 20
196.2957667500635
 30
0.0
 10
99.69647026187499
 20
196.2559295392148
 30
0.0
 10
98.49074702941809
 20
196.2016001394367
 30
0.0
 10
97.23471153333892
 20
196.1342275025468
 30
0.0
 10
95.93230577233605
 20
196.0548220577217
 30
0.0
 10
94.58628878321974
 20
195.9645453016559
 30
0.0
 10
93.19875180082765
 20
195.8644728841113
 30
0.0
 10
91.77193639337989
 20
195.7557068320235
 30
0.0
 10
90.3087517894587
 20
195.6393928051789
 30
0.0
 10
88.81337452407664
 20
195.5167897801768
 30
0.0
 10
87.29179973352849
 20
195.3893277623074
 30
0.0
 10
85.7515774069439
 20
195.2585860907948
 30
0.0
 10
84.20068140448329
 20
195.1261756443593
 30
0.0
 10
82.64633634349413
 20
194.9936106750257
 30
0.0
 10
81.0940922903623
 20
194.8622125203396
 30
0.0
 10
79.54774154130247
 20
194.733095076915
 30
0.0
 10
78.00995329769121
 20
194.607220626159
 30
0.0
 10
76.48287114221921
 20
194.4854599838465
 30
0.0
 10
74.96837892059452
 20
194.3686240638833
 30
0.0
 10
73.46825573509946
 20
194.2574785437675
 30
0.0
 10
71.9841953191271
 20
194.1527489125104
 30
0.0
 10
70.51796867998569
 20
194.055137536284
 30
0.0
 10
69.07174909978845
 20
193.9653445274342
 30
0.0
 10
67.64770078105178
 20
193.8840381440392
 30
0.0
 10
66.24693704918525
 20
193.811789995887
 30
0.0
 10
64.86947313219889
 20
193.7491109141363
 30
0.0
 10
63.51643203426212
 20
193.6965701608376
 30
0.0
 10
62.19210562433847
 20
193.6547844073159
 30
0.0
 10
60.89703252255636
 20
193.6243411789089
 30
0.0
 10
59.618559658279
 20
193.6046366061897
 30
0.0
 10
58.77046951904473
 20
193.6017154031631
 30
0.0
 10
58.34470784679999
 20
193.6002488889
 30
0.0
 11
103.0206040164
 21
196.3272853052
 31
0.0
 11
101.9668002867
 21
196.3187923534
 31
0.0
 11
100.8672051229999
 21
196.2942545509
 31
0.0
 11
99.71518738779999
 21
196.254606739
 31
0.0
 11
98.50773846319999
 21
196.2006754549
 31
0.0
 11
97.25010584059999
 21
196.133545193
 31
0.0
 11
95.94709403159999
 21
196.0544212442
 31
0.0
 11
94.60049345009998
 21
195.9643819581
 31
0.0
 11
93.21199848729998
 21
195.8644913392
 31
0.0
 11
91.78440542699997
 21
195.7558909779
 31
0.0
 11
90.31995468949999
 21
195.6396815788
 31
0.0
 11
88.82234107209995
 21
195.5170842054
 31
0.0
 11
87.2981613426
 21
195.3895791807
 31
0.0
 11
85.75511264189998
 21
195.258760137
 31
0.0
 11
84.20155574069997
 21
195.1262735851999
 31
0.0
 11
82.6453588247
 21
194.9936924902999
 31
0.0
 11
81.09196991159995
 21
194.8623318172
 31
0.0
 11
79.54472490429998
 21
194.7332684079
 31
0.0
 11
78.00621766359996
 21
194.6074605175
 31
0.0
 11
76.47852606599997
 21
194.4857756279
 31
0.0
 11
74.96340909359996
 21
194.3690158904999
 31
0.0
 11
73.462682051
 21
194.2579514278
 31
0.0
 11
71.97810854449995
 21
194.1533145318
 31
0.0
 11
70.51119125219996
 21
194.055790772
 31
0.0
 11
69.06397779969996
 21
193.9660763535
 31
0.0
 11
67.63943931799997
 21
193.8848882392
 31
0.0
 11
66.23905149749999
 21
193.8128134303
 31
0.0
 11
64.86170699339999
 21
193.7503024459
 31
0.0
 11
63.50708554960002
 21
193.6978681474
 31
0.0
 11
62.17998654499999
 21
193.6562065678
 31
0.0
 11
60.88881696460001
 21
193.6259069455999
 31
0.0
 11
59.62197174040003
 21
193.607206207
 31
0.0
 11
58.34470784679999
 21
193.6002488889
 31
0.0
  0
SPLINE
  5
14E7
330
1B
100
AcDbEntity
  8
0
  6
Continuous
100
AcDbSpline
210
0.0
220
0.0
230
1.0
 70
     8
 71
     3
 72
    12
 73
     8
 74
     6
 42
0.0000000001
 43
0.0000000001
 44
0.0000000001
 40
0.0
 40
0.0
 40
0.0
 40
0.0
 40
0.6215424856154479
 40
1.278634837715105
 40
1.990109861868018
 40
2.75304792456721
 40
3.547633818429318
 40
3.547633818429318
 40
3.547633818429318
 40
3.547633818429318
 10
105.0218574155
 20
198.8590241631
 30
0.0
 10
104.8135545118095
 20
198.8337552493858
 30
0.0
 10
104.3850345705022
 20
198.7817721361893
 30
0.0
 10
103.821377262137
 20
198.3891864992529
 30
0.0
 10
103.3836856180419
 20
197.8228365193765
 30
0.0
 10
103.0890544894671
 20
197.1118355945973
 30
0.0
 10
103.0438303293828
 20
196.5923173019973
 30
0.0
 10
103.0207587871999
 20
196.3272800259
 30
0.0
 11
105.0218574155
 21
198.8590241631
 31
0.0
 11
104.4126321363
 21
198.735899752
 31
0.0
 11
103.8613521302
 21
198.3783235865999
 31
0.0
 11
103.4201716238
 21
197.8201511484
 31
0.0
 11
103.1308402636999
 21
197.1142036634
 31
0.0
 11
103.0207587871999
 21
196.3272800259
 31
0.0
  0
SPLINE
  5
14E8
330
1B
100
AcDbEntity
  8
0
  6
Continuous
100
AcDbSpline
210
0.0
220
0.0
230
1.0
 70
     8
 71
     3
 72
    27
 73
    23
 74
    21
 42
0.0000000001
 43
0.0000000001
 44
0.0000000001
 40
0.0
 40
0.0
 40
0.0
 40
0.0
 40
0.4410954504270523
 40
0.9863788415581349
 40
1.570014883921795
 40
2.163941266865935
 40
2.749944614904729
 40
3.317066278536715
 40
3.85926613180417
 40
4.373431316721629
 40
4.858292422098443
 40
5.313715016134677
 40
5.740250197057357
 40
6.138857815483624
 40
6.51071396792359
 40
6.857118966676758
 40
7.179362384778356
 40
7.478554954463556
 40
7.755721678951383
 40
8.010740698951391
 40
8.241207779131788
 40
8.436633365550881
 40
8.436633365550881
 40
8.436633365550881
 40
8.436633365550881
 10
96.17027980109998
 20
170.4337111888
 30
0.0
 10
96.3160502257647
 20
170.4607371429085
 30
0.0
 10
96.64202244441944
 20
170.5211726547229
 30
0.0
 10
97.0895155077268
 20
170.8100292418997
 30
0.0
 10
97.54791128096004
 20
171.1523081593254
 30
0.0
 10
97.99402876890781
 20
171.5366969438506
 30
0.0
 10
98.42370774015581
 20
171.9295001648177
 30
0.0
 10
98.83342625744876
 20
172.3188169964525
 30
0.0
 10
99.22196624493344
 20
172.6954875291907
 30
0.0
 10
99.58901043166263
 20
173.0549512907638
 30
0.0
 10
99.93485514673253
 20
173.394711922639
 30
0.0
 10
100.2601224465231
 20
173.713739463118
 30
0.0
 10
100.5656241393946
 20
174.0118584525278
 30
0.0
 10
100.85227432762
 20
174.2894056034085
 30
0.0
 10
101.121042245019
 20
174.5470255624531
 30
0.0
 10
101.3729533617359
 20
174.7854100513972
 30
0.0
 10
101.6089830006586
 20
175.0054168914443
 30
0.0
 10
101.8304134946518
 20
175.2069138281215
 30
0.0
 10
102.0377980263587
 20
175.3915174787788
 30
0.0
 10
102.2342963813243
 20
175.5505178910381
 30
0.0
 10
102.4147250897152
 20
175.6958637045578
 30
0.0
 10
102.5546134281237
 20
175.7284791625733
 30
0.0
 10
102.6188027478999
 20
175.7434451282
 30
0.0
 11
96.17027980109998
 21
170.4337111888
 31
0.0
 11
96.59862618369999
 21
170.5389944871
 31
0.0
 11
97.07359149449997
 21
170.806841328
 31
0.0
 11
97.54138230899997
 21
171.1558438836
 31
0.0
 11
97.99393489389998
 21
171.5404796935
 31
0.0
 11
98.42708008089998
 21
171.9351759956
 31
0.0
 11
98.83876758709999
 21
172.3252277596
 31
0.0
 11
99.2283490081
 21
172.7023311901
 31
0.0
 11
99.5958921733
 21
173.0618834938
 31
0.0
 11
99.94190264099996
 21
173.4015407442
 31
0.0
 11
100.2671365564999
 21
173.7203394885
 31
0.0
 11
100.5724865684
 21
174.0181542477
 31
0.0
 11
100.8589219084999
 21
174.2953596398
 31
0.0
 11
101.1274481116999
 21
174.5525962552
 31
0.0
 11
101.3791202048999
 21
174.7906247843
 31
0.0
 11
101.6150295829
 21
175.0101414941
 31
0.0
 11
101.836311654
 21
175.2115128892
 31
0.0
 11
102.0445070187999
 21
175.3944775941
 31
0.0
 11
102.2416041209999
 21
175.55630291
 31
0.0
 11
102.4319270701999
 21
175.6862730991
 31
0.0
 11
102.6188027478999
 21
175.7434451282
 31
0.0
  0
LINE
  5
14E9
330
1B
100
AcDbEntity
  8
0
  6
Continuous
100
AcDbLine
 10
96.90360317539997
 20
109.8592252396
 30
0.0
 11
127.9163338657999
 21
109.8592252396
 31
0.0
  0
ARC
  5
14EA
330
1B
100
AcDbEntity
  8
0
  6
Continuous
100
AcDbCircle
 10
96.903441757
 20
110.8592252396
 30
0.0
 40
1.0
100
AcDbArc
 50
180.7434462075992
 51
269.9999999999994
  0
LINE
  5
14EB
330
1B
100
AcDbEntity
  8
0
  6
Continuous
100
AcDbLine
 10
53.51633386580004
 20
170.8592252396
 30
0.0
 11
89.79418966820003
 21
170.859225396
 31
0.0
  0
LINE
  5
14EC
330
1B
100
AcDbEntity
  8
0
  6
Continuous
100
AcDbLine
 10
50.05571155950002
 20
176.1818446234
 30
0.0
 11
102.6175181356
 21
175.7799525195
 31
0.0
  0
LINE
  5
14ED
330
1B
100
AcDbEntity
  8
0
  6
Continuous
100
AcDbLine
 10
50.51167107030005
 20
193.5942358424
 30
0.0
 11
58.34477859610001
 21
193.5942358424
 31
0.0
  0
LINE
  5
14EE
330
1B
100
AcDbEntity
  8
0
  6
Continuous
100
AcDbLine
 10
127.9163338658
 20
198.8592252396
 30
0.0
 11
55.90883773800005
 21
198.8592252396
 31
0.0
  0
LWPOLYLINE
  5
14EF
330
1B
100
AcDbEntity
  8
0
  6
Continuous
100
AcDbPolyline
 90
       16
 70
     0
 43
0.0
 10
56.99471145160003
 20
170.8592253742
 10
57.17829836510003
 20
171.0475025026
 10
57.35450219460005
 20
171.267969353
 10
57.52218576370001
 20
171.519203087
 10
57.68026688380001
 20
171.7995823037
 10
57.82772533810003
 20
172.107297505
 10
57.96360946600003
 20
172.4403627732
 10
58.0870423046
 20
172.796628587
 10
58.19722724840005
 20
173.1737956946
 10
58.29345319080005
 20
173.5694299526999
 10
58.37509911300003
 20
173.980978035
 10
58.44163809200001
 20
174.4057839112999
 10
58.49264070130004
 20
174.8411059892
 10
58.52777778230001
 20
175.2841348069
 10
58.54682256870001
 20
175.732011165
 10
58.54965214980001
 20
176.1818445793
  0
LINE
  5
14F0
330
1B
100
AcDbEntity
  8
0
  6
Continuous
100
AcDbLine
 10
50.51183721780001
 20
193.6005807604999
 30
0.0
 11
50.05571155820002
 21
176.1818445748
 31
0.0
  0
ARC
  5
14F1
330
1B
100
AcDbEntity
  8
0
  6
Continuous
100
AcDbCircle
 10
55.65379257160003
 20
176.0352534173
 30
0.0
 40
5.599999999999999
100
AcDbArc
 50
178.4999969742
 51
247.5616531289993
  0
SPLINE
  5
14F2
330
1B
100
AcDbEntity
  8
0
  6
Continuous
100
AcDbSpline
210
0.0
220
0.0
230
1.0
 70
    24
 71
     3
 72
     8
 73
     4
 74
     2
 42
0.0000000001
 43
0.0000000001
 44
0.0000000001
 40
0.0
 40
0.0
 40
0.0
 40
0.0
 40
0.3820323794529256
 40
0.3820323794529256
 40
0.3820323794529256
 40
0.3820323794529256
 10
55.91633386240005
 20
198.8592252396
 30
0.0
 10
55.78907021603337
 20
198.8546985561
 30
0.0
 10
55.6618065696667
 20
198.8501718726
 30
0.0
 10
55.53454292330002
 20
198.8456451891
 30
0.0
 11
55.91633386240005
 21
198.8592252396
 31
0.0
 11
55.53454292330002
 21
198.8456451891
 31
0.0
  0
SPLINE
  5
14F3
330
1B
100
AcDbEntity
  8
0
  6
Continuous
100
AcDbSpline
210
0.0
220
0.0
230
1.0
 70
     8
 71
     3
 72
    13
 73
     9
 74
     7
 42
0.0000000001
 43
0.0000000001
 44
0.0000000001
 40
0.0
 40
0.0
 40
0.0
 40
0.0
 40
1.008476082425725
 40
2.396422806724321
 40
3.784227274625973
 40
5.172031742491248
 40
6.559978466790024
 40
7.505618504704545
 40
7.505618504704545
 40
7.505618504704545
 40
7.505618504704545
 10
55.53454292330002
 20
198.8456451891
 30
0.0
 10
55.20012282742147
 20
198.8033811758006
 30
0.0
 10
54.40544662363622
 20
198.7029499934062
 30
0.0
 10
53.22470717120387
 20
198.2068178749466
 30
0.0
 10
52.10085764810812
 20
197.3694416409595
 30
0.0
 10
51.23418619943205
 20
196.2678488451654
 30
0.0
 10
50.71660101032907
 20
195.1199128501953
 30
0.0
 10
50.59215460549024
 20
194.3502064893166
 30
0.0
 10
50.54172515290002
 20
194.0382981583
 30
0.0
 11
55.53454292330002
 21
198.8456451891
 31
0.0
 11
54.5395979072
 21
198.6809988294
 31
0.0
 11
53.25387402020004
 21
198.158208053
 31
0.0
 11
52.14371919600001
 21
197.3254070519
 31
0.0
 11
51.28214310960004
 21
196.2374328388
 31
0.0
 11
50.72587515280003
 21
194.9658346044
 31
0.0
 11
50.54172515290002
 21
194.0382981583
 31
0.0
  0
SPLINE
  5
14F4
330
1B
100
AcDbEntity
  8
0
  6
Continuous
100
AcDbSpline
210
0.0
220
0.0
230
1.0
 70
    24
 71
     3
 72
     8
 73
     4
 74
     2
 42
0.0000000001
 43
0.0000000001
 44
0.0000000001
 40
0.0
 40
0.0
 40
0.0
 40
0.0
 40
0.4450781822145358
 40
0.4450781822145358
 40
0.4450781822145358
 40
0.4450781822145358
 10
50.54172515290002
 20
194.0382981583
 30
0.0
 10
50.53170712536669
 20
193.8902773863333
 30
0.0
 10
50.52168909783337
 20
193.7422566143667
 30
0.0
 10
50.51167107030005
 20
193.5942358424
 30
0.0
 11
50.54172515290002
 21
194.0382981583
 31
0.0
 11
50.51167107030005
 21
193.5942358424
 31
0.0
  0
SPLINE
  5
14F5
330
1B
100
AcDbEntity
  8
0
  6
Continuous
100
AcDbSpline
210
0.0
220
0.0
230
1.0
 70
     8
 71
     3
 72
    14
 73
    10
 74
     8
 42
0.0000000001
 43
0.0000000001
 44
0.0000000001
 40
0.0
 40
0.0
 40
0.0
 40
0.0
 40
0.4829373902792475
 40
1.075762787845205
 40
1.795917427724278
 40
2.668291477860763
 40
3.732403237374747
 40
4.948651017791903
 40
6.224757753909614
 40
6.224757753909614
 40
6.224757753909614
 40
6.224757753909614
 10
55.91633386240005
 20
198.8592252396
 30
0.0
 10
56.07811335038097
 20
198.8370537357982
 30
0.0
 10
56.43848377625725
 20
198.7876658043177
 30
0.0
 10
56.92873324588049
 20
198.405591984737
 30
0.0
 10
57.37466971508012
 20
197.8283785937739
 30
0.0
 10
57.76523731360178
 20
197.0263476125134
 30
0.0
 10
58.0772251943615
 20
196.0206386277391
 30
0.0
 10
58.29158961717849
 20
194.8504188919683
 30
0.0
 10
58.32676731682518
 20
194.0196146758621
 30
0.0
 10
58.34477859860005
 20
193.5942358425
 30
0.0
 11
55.91633386240005
 21
198.8592252396
 31
0.0
 11
56.38822823740003
 21
198.7565401785
 31
0.0
 11
56.87552644410004
 21
198.4189273681
 31
0.0
 11
57.32503225650003
 21
197.856284293
 31
0.0
 11
57.71816225990005
 21
197.0775126424
 31
0.0
 11
58.04296155990005
 21
196.0641818714
 31
0.0
 11
58.26058464380003
 21
194.8675621086
 31
0.0
 11
58.34477859860005
 21
193.5942358425
 31
0.0
  0
LINE
  5
14F6
330
1B
100
AcDbEntity
  8
0
  6
Continuous
100
AcDbLine
 10
58.34477859610001
 20
193.5942358424
 30
0.0
 11
58.5496521494
 21
176.1818446234
 31
0.0
  0
ENDSEC
  0
SECTION
  2
OBJECTS
  0
DICTIONARY
  5
708
330
0
100
AcDbDictionary
281
     1
  3
ACAD_COLOR
350
76B
  3
ACAD_GROUP
350
709
  3
ACAD_LAYOUT
350
76C
  3
ACAD_MATERIAL
350
76A
  3
ACAD_MLINESTYLE
350
70A
  3
ACAD_PLOTSETTINGS
350
76D
  3
ACAD_PLOTSTYLENAME
350
768
  3
ACDBHEADERROUNDTRIPXREC
350
1500
  3
AcDbVariableDictionary
350
14F8
  0
DICTIONARY
  5
76B
102
{ACAD_REACTORS
330
708
102
}
330
708
100
AcDbDictionary
281
     1
  0
DICTIONARY
  5
709
102
{ACAD_REACTORS
330
708
102
}
330
708
100
AcDbDictionary
281
     1
  0
DICTIONARY
  5
76C
102
{ACAD_REACTORS
330
708
102
}
330
708
100
AcDbDictionary
281
     1
  3
Layout1
350
76F
  3
Model
350
76E
  0
DICTIONARY
  5
76A
102
{ACAD_REACTORS
330
708
102
}
330
708
100
AcDbDictionary
281
     1
  0
DICTIONARY
  5
70A
102
{ACAD_REACTORS
330
708
102
}
330
708
100
AcDbDictionary
281
     1
  3
STANDARD
350
70B
  0
DICTIONARY
  5
76D
102
{ACAD_REACTORS
330
708
102
}
330
708
100
AcDbDictionary
281
     1
  0
ACDBDICTIONARYWDFLT
  5
768
102
{ACAD_REACTORS
330
708
102
}
330
708
100
AcDbDictionary
281
     1
  3
Normal
350
769
100
AcDbDictionaryWithDefault
340
769
  0
DICTIONARY
  5
1500
102
{ACAD_REACTORS
330
708
102
}
330
708
100
AcDbDictionary
281
     1
  3
COLORDICT
350
1501
  3
MATERIALDICT
350
1502
  0
DICTIONARY
  5
14F8
102
{ACAD_REACTORS
330
708
102
}
330
708
100
AcDbDictionary
281
     1
  0
LAYOUT
  5
76F
102
{ACAD_REACTORS
330
76C
102
}
330
76C
100
AcDbPlotSettings
  1

  2
\\kessel\HP DesignJet 1050C by HP
  4

  6

 40
0.0
 41
0.0
 42
0.0
 43
0.0
 44
0.0
 45
0.0
 46
0.0
 47
0.0
 48
0.0
 49
0.0
140
0.0
141
0.0
142
1.0
143
1.0
 70
   688
 72
     0
 73
     0
 74
     5
  7

 75
    16
147
1.0
148
0.0
149
0.0
100
AcDbLayout
  1
Layout1
 70
     0
 71
     1
 10
0.0
 20
0.0
 11
12.0
 21
9.0
 12
0.0
 22
0.0
 32
0.0
 14
1.000000000000000E+20
 24
1.000000000000000E+20
 34
1.000000000000000E+20
 15
-1.000000000000000E+20
 25
-1.000000000000000E+20
 35
-1.000000000000000E+20
146
0.0
 13
0.0
 23
0.0
 33
0.0
 16
1.0
 26
0.0
 36
0.0
 17
0.0
 27
1.0
 37
0.0
 76
     0
330
1C
  0
LAYOUT
  5
76E
102
{ACAD_REACTORS
330
76C
102
}
330
76C
100
AcDbPlotSettings
  1

  2
\\kessel\HP DesignJet 1050C by HP
  4

  6

 40
0.0
 41
0.0
 42
0.0
 43
0.0
 44
0.0
 45
0.0
 46
0.0
 47
0.0
 48
0.0
 49
0.0
140
0.0
141
0.0
142
1.0
143
1.0
 70
  1712
 72
     0
 73
     0
 74
     0
  7

 75
     0
147
1.0
148
0.0
149
0.0
100
AcDbLayout
  1
Model
 70
     1
 71
     0
 10
0.0
 20
0.0
 11
12.0
 21
9.0
 12
0.0
 22
0.0
 32
0.0
 14
0.0
 24
0.0
 34
0.0
 15
0.0
 25
0.0
 35
0.0
146
0.0
 13
0.0
 23
0.0
 33
0.0
 16
1.0
 26
0.0
 36
0.0
 17
0.0
 27
1.0
 37
0.0
 76
     0
330
1B
  0
MLINESTYLE
  5
70B
102
{ACAD_REACTORS
330
70A
102
}
330
70A
100
AcDbMlineStyle
  2
STANDARD
 70
     0
  3

 62
   256
 51
90.00000000000019
 52
90.00000000000019
 71
     2
 49
0.5
 62
   256
  6
BYLAYER
 49
-0.5
 62
   256
  6
BYLAYER
  0
ACDBPLACEHOLDER
  5
769
102
{ACAD_REACTORS
330
768
102
}
330
768
  0
XRECORD
  5
1501
102
{ACAD_REACTORS
330
1500
102
}
330
1500
100
AcDbXrecord
280
     1
340
76B
  0
XRECORD
  5
1502
102
{ACAD_REACTORS
330
1500
102
}
330
1500
100
AcDbXrecord
280
     1
340
76A
  0
ENDSEC
  0
EOF
