  0
SECTION
  2
HEADER
  9
$ACADVER
  1
AC1015
  9
$ACADMAINTVER
 70
     6
  9
$DWGCODEPAGE
  3
ANSI_1252
  9
$INSBASE
 10
0.0
 20
0.0
 30
0.0
  9
$EXTMIN
 10
58.54047675388656
 20
30.34070293845696
 30
-5.3860156406
  9
$EXTMAX
 10
213.5191415297333
 20
165.3858613421002
 30
12.55980354269556
  9
$LIMMIN
 10
0.0
 20
0.0
  9
$LIMMAX
 10
297.0
 20
210.0
  9
$ORTHOMODE
 70
     1
  9
$REGENMODE
 70
     1
  9
$FILLMODE
 70
     1
  9
$QTEXTMODE
 70
     0
  9
$MIRRTEXT
 70
     1
  9
$LTSCALE
 40
16.335
  9
$ATTMODE
 70
     1
  9
$TEXTSIZE
 40
0.2
  9
$TRACEWID
 40
0.05
  9
$TEXTSTYLE
  7
STANDARD
  9
$CLAYER
  8
0
  9
$CELTYPE
  6
BYLAYER
  9
$CECOLOR
 62
   256
  9
$CELTSCALE
 40
1.0
  9
$DISPSILH
 70
     0
  9
$DIMSCALE
 40
1.0
  9
$DIMASZ
 40
3.0
  9
$DIMEXO
 40
1.85625
  9
$DIMDLI
 40
11.286
  9
$DIMRND
 40
0.0
  9
$DIMDLE
 40
0.0
  9
$DIMEXE
 40
5.346
  9
$DIMTP
 40
0.0
  9
$DIMTM
 40
0.0
  9
$DIMTXT
 40
0.18
  9
$DIMCEN
 40
2.673
  9
$DIMTSZ
 40
0.0
  9
$DIMTOL
 70
     0
  9
$DIMLIM
 70
     0
  9
$DIMTIH
 70
     1
  9
$DIMTOH
 70
     1
  9
$DIMSE1
 70
     0
  9
$DIMSE2
 70
     0
  9
$DIMTAD
 70
     0
  9
$DIMZIN
 70
     0
  9
$DIMBLK
  1

  9
$DIMASO
 70
     1
  9
$DIMSHO
 70
     1
  9
$DIMPOST
  1

  9
$DIMAPOST
  1

  9
$DIMALT
 70
     0
  9
$DIMALTD
 70
     2
  9
$DIMALTF
 40
25.4
  9
$DIMLFAC
 40
1.0
  9
$DIMTOFL
 70
     0
  9
$DIMTVP
 40
0.0
  9
$DIMTIX
 70
     0
  9
$DIMSOXD
 70
     0
  9
$DIMSAH
 70
     0
  9
$DIMBLK1
  1

  9
$DIMBLK2
  1

  9
$DIMSTYLE
  2
STANDARD
  9
$DIMCLRD
 70
     0
  9
$DIMCLRE
 70
     0
  9
$DIMCLRT
 70
     0
  9
$DIMTFAC
 40
1.0
  9
$DIMGAP
 40
0.09
  9
$DIMJUST
 70
     0
  9
$DIMSD1
 70
     0
  9
$DIMSD2
 70
     0
  9
$DIMTOLJ
 70
     1
  9
$DIMTZIN
 70
     0
  9
$DIMALTZ
 70
     0
  9
$DIMALTTZ
 70
     0
  9
$DIMUPT
 70
     0
  9
$DIMDEC
 70
     4
  9
$DIMTDEC
 70
     4
  9
$DIMALTU
 70
     2
  9
$DIMALTTD
 70
     2
  9
$DIMTXSTY
  7
STANDARD
  9
$DIMAUNIT
 70
     0
  9
$DIMADEC
 70
     0
  9
$DIMALTRND
 40
0.0
  9
$DIMAZIN
 70
     0
  9
$DIMDSEP
 70
    46
  9
$DIMATFIT
 70
     3
  9
$DIMFRAC
 70
     0
  9
$DIMLDRBLK
  1

  9
$DIMLUNIT
 70
     2
  9
$DIMLWD
 70
    -2
  9
$DIMLWE
 70
    -2
  9
$DIMTMOVE
 70
     0
  9
$LUNITS
 70
     2
  9
$LUPREC
 70
     4
  9
$SKETCHINC
 40
0.1
  9
$FILLETRAD
 40
0.0
  9
$AUNITS
 70
     0
  9
$AUPREC
 70
     0
  9
$MENU
  1
acad
  9
$ELEVATION
 40
0.0
  9
$PELEVATION
 40
0.0
  9
$THICKNESS
 40
0.0
  9
$LIMCHECK
 70
     0
  9
$CHAMFERA
 40
0.0
  9
$CHAMFERB
 40
0.0
  9
$CHAMFERC
 40
0.0
  9
$CHAMFERD
 40
0.0
  9
$SKPOLY
 70
     0
  9
$TDCREATE
 40
2444972.041666667
  9
$TDUCREATE
 40
2444972.0
  9
$TDUPDATE
 40
2453409.732286748
  9
$TDUUPDATE
 40
2453409.690620081
  9
$TDINDWG
 40
0.0153720486
  9
$TDUSRTIMER
 40
0.0153720486
  9
$USRTIMER
 70
     1
  9
$ANGBASE
 50
0.0
  9
$ANGDIR
 70
     0
  9
$PDMODE
 70
     0
  9
$PDSIZE
 40
0.0
  9
$PLINEWID
 40
0.0
  9
$SPLFRAME
 70
     0
  9
$SPLINETYPE
 70
     6
  9
$SPLINESEGS
 70
     8
  9
$HANDSEED
  5
9F3
  9
$SURFTAB1
 70
     6
  9
$SURFTAB2
 70
     6
  9
$SURFTYPE
 70
     6
  9
$SURFU
 70
     6
  9
$SURFV
 70
     6
  9
$UCSBASE
  2

  9
$UCSNAME
  2

  9
$UCSORG
 10
0.0
 20
0.0
 30
0.0
  9
$UCSXDIR
 10
1.0
 20
0.0
 30
0.0
  9
$UCSYDIR
 10
0.0
 20
1.0
 30
0.0
  9
$UCSORTHOREF
  2

  9
$UCSORTHOVIEW
 70
     0
  9
$UCSORGTOP
 10
0.0
 20
0.0
 30
0.0
  9
$UCSORGBOTTOM
 10
0.0
 20
0.0
 30
0.0
  9
$UCSORGLEFT
 10
0.0
 20
0.0
 30
0.0
  9
$UCSORGRIGHT
 10
0.0
 20
0.0
 30
0.0
  9
$UCSORGFRONT
 10
0.0
 20
0.0
 30
0.0
  9
$UCSORGBACK
 10
0.0
 20
0.0
 30
0.0
  9
$PUCSBASE
  2

  9
$PUCSNAME
  2

  9
$PUCSORG
 10
0.0
 20
0.0
 30
0.0
  9
$PUCSXDIR
 10
1.0
 20
0.0
 30
0.0
  9
$PUCSYDIR
 10
0.0
 20
1.0
 30
0.0
  9
$PUCSORTHOREF
  2

  9
$PUCSORTHOVIEW
 70
     0
  9
$PUCSORGTOP
 10
0.0
 20
0.0
 30
0.0
  9
$PUCSORGBOTTOM
 10
0.0
 20
0.0
 30
0.0
  9
$PUCSORGLEFT
 10
0.0
 20
0.0
 30
0.0
  9
$PUCSORGRIGHT
 10
0.0
 20
0.0
 30
0.0
  9
$PUCSORGFRONT
 10
0.0
 20
0.0
 30
0.0
  9
$PUCSORGBACK
 10
0.0
 20
0.0
 30
0.0
  9
$USERI1
 70
     0
  9
$USERI2
 70
     0
  9
$USERI3
 70
     0
  9
$USERI4
 70
     0
  9
$USERI5
 70
     0
  9
$USERR1
 40
0.0
  9
$USERR2
 40
0.0
  9
$USERR3
 40
0.0
  9
$USERR4
 40
0.0
  9
$USERR5
 40
0.0
  9
$WORLDVIEW
 70
     1
  9
$SHADEDGE
 70
     3
  9
$SHADEDIF
 70
    70
  9
$TILEMODE
 70
     1
  9
$MAXACTVP
 70
    16
  9
$PINSBASE
 10
0.0
 20
0.0
 30
0.0
  9
$PLIMCHECK
 70
     0
  9
$PEXTMIN
 10
1.000000000000000E+20
 20
1.000000000000000E+20
 30
1.000000000000000E+20
  9
$PEXTMAX
 10
-1.000000000000000E+20
 20
-1.000000000000000E+20
 30
-1.000000000000000E+20
  9
$PLIMMIN
 10
0.0
 20
0.0
  9
$PLIMMAX
 10
12.0
 20
9.0
  9
$UNITMODE
 70
     0
  9
$VISRETAIN
 70
     0
  9
$PLINEGEN
 70
     1
  9
$PSLTSCALE
 70
     0
  9
$TREEDEPTH
 70
  3020
  9
$CMLSTYLE
  2
STANDARD
  9
$CMLJUST
 70
     0
  9
$CMLSCALE
 40
1.0
  9
$PROXYGRAPHICS
 70
     1
  9
$MEASUREMENT
 70
     0
  9
$CELWEIGHT
370
    -1
  9
$ENDCAPS
280
     0
  9
$JOINSTYLE
280
     0
  9
$LWDISPLAY
290
     0
  9
$INSUNITS
 70
     0
  9
$HYPERLINKBASE
  1

  9
$STYLESHEET
  1

  9
$XEDIT
290
     1
  9
$CEPSNTYPE
380
     0
  9
$PSTYLEMODE
290
     1
  9
$FINGERPRINTGUID
  2
{0CEE08B8-6E34-432E-930F-D40771601FC4}
  9
$VERSIONGUID
  2
{7EAA8B42-7252-4AFC-995E-87BB8B05A9F9}
  9
$EXTNAMES
290
     1
  9
$PSVPSCALE
 40
0.0
  9
$OLESTARTUP
290
     0
  0
ENDSEC
  0
SECTION
  2
CLASSES
  0
CLASS
  1
IMAGE
  2
AcDbRasterImage
  3
ISM
 90
      127
280
     0
281
     1
  0
CLASS
  1
DICTIONARYVAR
  2
AcDbDictionaryVar
  3
ObjectDBX Classes
 90
        0
280
     0
281
     0
  0
CLASS
  1
RASTERVARIABLES
  2
AcDbRasterVariables
  3
ISM
 90
        0
280
     0
281
     0
  0
CLASS
  1
IMAGEDEF
  2
AcDbRasterImageDef
  3
ISM
 90
        0
280
     0
281
     0
  0
CLASS
  1
IMAGEDEF_REACTOR
  2
AcDbRasterImageDefReactor
  3
ISM
 90
        1
280
     0
281
     0
  0
CLASS
  1
IDBUFFER
  2
AcDbIdBuffer
  3
ObjectDBX Classes
 90
        0
280
     0
281
     0
  0
CLASS
  1
SPATIAL_FILTER
  2
AcDbSpatialFilter
  3
ObjectDBX Classes
 90
        0
280
     0
281
     0
  0
CLASS
  1
SORTENTSTABLE
  2
AcDbSortentsTable
  3
ObjectDBX Classes
 90
        0
280
     0
281
     0
  0
CLASS
  1
LAYER_INDEX
  2
AcDbLayerIndex
  3
ObjectDBX Classes
 90
        0
280
     0
281
     0
  0
CLASS
  1
SPATIAL_INDEX
  2
AcDbSpatialIndex
  3
AutoCAD 2000
 90
        0
280
     0
281
     0
  0
CLASS
  1
OBJECT_PTR
  2
CAseDLPNTableRecord
  3
ASE-LPNTableRecord
 90
        1
280
     0
281
     0
  0
CLASS
  1
PLOTSETTINGS
  2
AcDbPlotSettings
  3
ObjectDBX Classes
 90
        0
280
     0
281
     0
  0
CLASS
  1
ACDBDICTIONARYWDFLT
  2
AcDbDictionaryWithDefault
  3
ObjectDBX Classes
 90
        0
280
     0
281
     0
  0
CLASS
  1
WIPEOUT
  2
AcDbWipeout
  3
WipeOut|AutoCAD Express Tool|expresstools@autodesk.com
 90
      127
280
     0
281
     1
  0
CLASS
  1
WIPEOUTVARIABLES
  2
AcDbWipeoutVariables
  3
WipeOut|AutoCAD Express Tool|expresstools@autodesk.com
 90
        0
280
     0
281
     0
  0
CLASS
  1
RTEXT
  2
RText
  3
RText|AutoCAD Express Tool|expresstools@autodesk.com
 90
        0
280
     0
281
     1
  0
CLASS
  1
ARCALIGNEDTEXT
  2
AcDbArcAlignedText
  3
ATEXT|AutoCAD Express Tool|expresstools@autodesk.com
 90
        0
280
     0
281
     1
  0
CLASS
  1
ACDBPLACEHOLDER
  2
AcDbPlaceHolder
  3
ObjectDBX Classes
 90
        0
280
     0
281
     0
  0
CLASS
  1
LAYOUT
  2
AcDbLayout
  3
ObjectDBX Classes
 90
        0
280
     0
281
     0
  0
ENDSEC
  0
SECTION
  2
TABLES
  0
TABLE
  2
VPORT
  5
6
330
0
100
AcDbSymbolTable
 70
     1
  0
VPORT
  5
9E9
330
6
100
AcDbSymbolTableRecord
100
AcDbViewportTableRecord
  2
*Active
 70
     0
 10
0.0
 20
0.0
 11
1.0
 21
1.0
 12
155.8368955767887
 22
98.97143189367904
 13
0.0
 23
0.0
 14
1.0
 24
1.0
 15
0.0
 25
0.0
 16
0.0
 26
0.0
 36
1.0
 17
0.0
 27
0.0
 37
0.0
 40
215.0538441696807
 41
1.888667992047713
 42
50.0
 43
0.0
 44
0.0
 50
0.0
 51
0.0
 71
     0
 72
   100
 73
     1
 74
     1
 75
     0
 76
     0
 77
     0
 78
     0
281
     0
 65
     1
110
0.0
120
0.0
130
0.0
111
1.0
121
0.0
131
0.0
112
0.0
122
1.0
132
0.0
 79
     0
146
0.0
  0
ENDTAB
  0
TABLE
  2
LTYPE
  5
3
330
0
100
AcDbSymbolTable
 70
     2
  0
LTYPE
  5
C
330
3
100
AcDbSymbolTableRecord
100
AcDbLinetypeTableRecord
  2
BYBLOCK
 70
     0
  3

 72
    65
 73
     0
 40
0.0
  0
LTYPE
  5
D
330
3
100
AcDbSymbolTableRecord
100
AcDbLinetypeTableRecord
  2
BYLAYER
 70
     0
  3

 72
    65
 73
     0
 40
0.0
  0
LTYPE
  5
E
330
3
100
AcDbSymbolTableRecord
100
AcDbLinetypeTableRecord
  2
CONTINUOUS
 70
     0
  3
Solid line
 72
    65
 73
     0
 40
0.0
  0
LTYPE
  5
F
330
3
100
AcDbSymbolTableRecord
100
AcDbLinetypeTableRecord
  2
CENTER
 70
     0
  3
____ _ ____ _ ____ _ ____ _ ____ _ ____ _ ____
 72
    65
 73
     4
 40
0.6
 49
0.375
 74
     0
 49
-0.075
 74
     0
 49
0.075
 74
     0
 49
-0.075
 74
     0
  0
ENDTAB
  0
TABLE
  2
LAYER
  5
1
330
0
100
AcDbSymbolTable
 70
     3
  0
LAYER
  5
14
330
1
100
AcDbSymbolTableRecord
100
AcDbLayerTableRecord
  2
0
 70
     0
 62
     7
  6
CONTINUOUS
370
    -3
390
7AC
  0
LAYER
  5
15
330
1
100
AcDbSymbolTableRecord
100
AcDbLayerTableRecord
  2
DEFAULT_1
 70
     0
 62
     7
  6
CENTER
370
    -3
390
7AC
  0
LAYER
  5
7B3
330
1
100
AcDbSymbolTableRecord
100
AcDbLayerTableRecord
  2
Defpoints
 70
     0
 62
     7
  6
CONTINUOUS
290
     0
370
    -3
390
7AC
  0
ENDTAB
  0
TABLE
  2
STYLE
  5
2
330
0
100
AcDbSymbolTable
 70
     2
  0
STYLE
  5
1D
330
2
100
AcDbSymbolTableRecord
100
AcDbTextStyleTableRecord
  2
STANDARD
 70
     0
 40
0.0
 41
1.0
 50
0.0
 71
     0
 42
0.2
  3
txt
  4

  0
STYLE
  5
1B
330
2
100
AcDbSymbolTableRecord
100
AcDbTextStyleTableRecord
  2
TEXTSTYLE_1
 70
     0
 40
0.0
 41
0.8
 50
0.0
 71
     0
 42
0.2
  3
txt
  4

  0
ENDTAB
  0
TABLE
  2
VIEW
  5
4
330
0
100
AcDbSymbolTable
 70
     0
  0
ENDTAB
  0
TABLE
  2
UCS
  5
5
330
0
100
AcDbSymbolTable
 70
     0
  0
ENDTAB
  0
TABLE
  2
APPID
  5
7
330
0
100
AcDbSymbolTable
 70
     1
  0
APPID
  5
19
330
7
100
AcDbSymbolTableRecord
100
AcDbRegAppTableRecord
  2
ACAD
 70
     0
  0
ENDTAB
  0
TABLE
  2
DIMSTYLE
  5
8
330
0
100
AcDbSymbolTable
 70
     1
100
AcDbDimStyleTable
  0
DIMSTYLE
105
2C
330
8
100
AcDbSymbolTableRecord
100
AcDbDimStyleTableRecord
  2
STANDARD
 70
     0
 47
0.003
 48
0.003
 71
     1
140
1.5
289
     0
340
1D
  0
ENDTAB
  0
TABLE
  2
BLOCK_RECORD
  5
27
330
0
100
AcDbSymbolTable
 70
     0
  0
BLOCK_RECORD
  5
25
330
27
100
AcDbSymbolTableRecord
100
AcDbBlockTableRecord
  2
*MODEL_SPACE
340
7AF
  0
BLOCK_RECORD
  5
26
330
27
100
AcDbSymbolTableRecord
100
AcDbBlockTableRecord
  2
*PAPER_SPACE
340
7B0
  0
ENDTAB
  0
ENDSEC
  0
SECTION
  2
BLOCKS
  0
BLOCK
  5
28
330
25
100
AcDbEntity
  8
0
100
AcDbBlockBegin
  2
*MODEL_SPACE
 70
     0
 71
     0
 10
0.0
 20
0.0
 30
0.0
  3
*MODEL_SPACE
  1

  0
ENDBLK
  5
29
330
25
100
AcDbEntity
  8
0
100
AcDbBlockEnd
  0
BLOCK
  5
2A
330
26
100
AcDbEntity
 67
     1
  8
0
100
AcDbBlockBegin
  2
*PAPER_SPACE
 70
     0
 71
     0
 10
0.0
 20
0.0
 30
0.0
  3
*PAPER_SPACE
  1

  0
ENDBLK
  5
2B
330
26
100
AcDbEntity
 67
     1
  8
0
100
AcDbBlockEnd
  0
ENDSEC
  0
SECTION
  2
ENTITIES
  0
TEXT
  5
AB
330
25
100
AcDbEntity
  8
0
  6
Continuous
 62
     1
100
AcDbText
 10
502.0118124081
 20
32.0363409665
 30
0.0
 40
1.5
  1
 
  7
TEXTSTYLE_1
 72
     5
 11
503.8579662542
 21
32.0363409665
 31
0.0
100
AcDbText
  0
TEXT
  5
AC
330
25
100
AcDbEntity
  8
0
  6
Continuous
 62
     1
100
AcDbText
 10
503.8579662542
 20
32.0363409665
 30
0.0
 40
1.5
  1
 
  7
TEXTSTYLE_1
 72
     5
 11
505.7041201004
 21
32.0363409665
 31
0.0
100
AcDbText
  0
TEXT
  5
AE
330
25
100
AcDbEntity
  8
0
  6
Continuous
 62
     1
100
AcDbText
 10
526.6848893311999
 20
32.0363409665
 30
0.0
 40
1.5
  1
 
  7
TEXTSTYLE_1
 72
     5
 11
528.5310431773
 21
32.0363409665
 31
0.0
100
AcDbText
  0
TEXT
  5
B8
330
25
100
AcDbEntity
  8
0
  6
Continuous
 62
     1
100
AcDbText
 10
575.4348893311999
 20
20.8930717357
 30
0.0
 40
1.5
  1
 
  7
TEXTSTYLE_1
 72
     5
 11
577.2810431773
 21
20.8930717357
 31
0.0
100
AcDbText
  0
LINE
  5
C0
330
25
100
AcDbEntity
  8
0
  6
Continuous
100
AcDbLine
 10
84.2979865268
 20
113.1835182188
 30
0.0
 11
84.2979865268
 21
90.0977317812
 31
0.0
  0
LINE
  5
C3
330
25
100
AcDbEntity
  8
0
  6
Continuous
100
AcDbLine
 10
85.5179823623
 20
114.6106208354
 30
0.0
 11
85.5179823623
 21
88.6706291646
 31
0.0
  0
LINE
  5
C4
330
25
100
AcDbEntity
  8
0
  6
Continuous
100
AcDbLine
 10
85.5179823623
 20
88.6706291646
 30
0.0
 11
84.44443313630001
 21
89.7441783906
 31
0.0
  0
LINE
  5
C5
330
25
100
AcDbEntity
  8
0
  6
Continuous
100
AcDbLine
 10
94.1584419161
 20
114.6608895586
 30
0.0
 11
94.1584419161
 21
88.6203604414
 31
0.0
  0
LINE
  5
C6
330
25
100
AcDbEntity
  8
0
  6
Continuous
100
AcDbLine
 10
96.29798652680002
 20
113.7006254196
 30
0.0
 11
96.29798652680002
 21
89.5806245804
 31
0.0
  0
LINE
  5
C7
330
25
100
AcDbEntity
  8
0
  6
Continuous
100
AcDbLine
 10
85.5179823623
 20
114.6106208354
 30
0.0
 11
84.44443313630001
 21
113.5370716094
 31
0.0
  0
LINE
  5
C8
330
25
100
AcDbEntity
  8
0
  6
Continuous
100
AcDbLine
 10
167.2421736347
 20
63.040625
 30
0.0
 11
136.3493533116
 21
63.040625
 31
0.0
  0
LINE
  5
CA
330
25
100
AcDbEntity
  8
0
  6
Continuous
100
AcDbLine
 10
169.5457634732
 20
64.33966310569998
 30
0.0
 11
169.5449511618
 21
64.33966310569998
 31
0.0
  0
LINE
  5
CB
330
25
100
AcDbEntity
  8
0
  6
Continuous
100
AcDbLine
 10
160.8174195357
 20
64.33966310569998
 30
0.0
 11
160.5232950992
 21
64.33966310569998
 31
0.0
  0
LINE
  5
CC
330
25
100
AcDbEntity
  8
0
  6
Continuous
100
AcDbLine
 10
143.0682318471
 20
64.33966310569998
 30
0.0
 11
142.7741074106
 21
64.33966310569998
 31
0.0
  0
LINE
  5
CD
330
25
100
AcDbEntity
  8
0
  6
Continuous
100
AcDbLine
 10
134.0465757846
 20
64.33966310569998
 30
0.0
 11
134.0457634732
 21
64.33966310569998
 31
0.0
  0
LINE
  5
CE
330
25
100
AcDbEntity
  8
0
  6
Continuous
100
AcDbLine
 10
150.6457634732
 20
69.04062500000001
 30
0.0
 11
152.9457634732
 21
69.04062500000001
 31
0.0
  0
LINE
  5
CF
330
25
100
AcDbEntity
  8
0
  6
Continuous
100
AcDbLine
 10
134.2416328726
 20
64.22657785520001
 30
0.0
 11
136.2493533116
 21
63.0674199192
 31
0.0
  0
LINE
  5
D0
330
25
100
AcDbEntity
  8
0
  6
Continuous
100
AcDbLine
 10
108.0599511859
 20
80.99062499999999
 30
0.0
 11
107.1939257821
 21
82.49062499999999
 31
0.0
  0
LINE
  5
D1
330
25
100
AcDbEntity
  8
0
  6
Continuous
100
AcDbLine
 10
104.9052506475
 20
83.99062500709999
 30
0.0
 11
104.9052506475
 21
119.290625
 31
0.0
  0
LINE
  5
D2
330
25
100
AcDbEntity
  8
0
  6
Continuous
100
AcDbLine
 10
105.9052506475
 20
120.290625
 30
0.0
 11
105.9052506475
 21
82.99062499999999
 31
0.0
  0
LINE
  5
D3
330
25
100
AcDbEntity
  8
0
  6
Continuous
100
AcDbLine
 10
108.0599511859
 20
122.2682900847
 30
0.0
 11
107.1939257821
 21
120.790625
 31
0.0
  0
LINE
  5
D4
330
25
100
AcDbEntity
  8
0
  6
Continuous
100
AcDbLine
 10
106.3279003783
 20
82.99062499999999
 30
0.0
 11
106.3279003783
 21
120.290625
 31
0.0
  0
LINE
  5
D5
330
25
100
AcDbEntity
  8
0
  6
Continuous
100
AcDbLine
 10
107.1939257821
 20
120.790625
 30
0.0
 11
107.1939257821
 21
120.2461100247
 31
0.0
  0
LINE
  5
D6
330
25
100
AcDbEntity
  8
0
  6
Continuous
100
AcDbLine
 10
107.1939257821
 20
114.8700480757
 30
0.0
 11
107.1939257821
 21
107.016686949
 31
0.0
  0
LINE
  5
D7
330
25
100
AcDbEntity
  8
0
  6
Continuous
100
AcDbLine
 10
107.1939257821
 20
82.49062499999999
 30
0.0
 11
107.1939257821
 21
83.0351399753
 31
0.0
  0
LINE
  5
D8
330
25
100
AcDbEntity
  8
0
  6
Continuous
100
AcDbLine
 10
107.1939257821
 20
88.4112019243
 30
0.0
 11
107.1939257821
 21
96.264563051
 31
0.0
  0
LINE
  5
DA
330
25
100
AcDbEntity
  8
0
  6
Continuous
100
AcDbLine
 10
108.0599511859
 20
112.7859878159
 30
0.0
 11
108.0599511859
 21
111.1229231013
 31
0.0
  0
LINE
  5
DB
330
25
100
AcDbEntity
  8
0
  6
Continuous
100
AcDbLine
 10
108.0599511859
 20
92.1583268792
 30
0.0
 11
108.0599511859
 21
90.49526220949998
 31
0.0
  0
LINE
  5
DC
330
25
100
AcDbEntity
  8
0
  6
Continuous
100
AcDbLine
 10
108.0599511859
 20
81.01295988050001
 30
0.0
 11
108.0599511859
 21
80.99062499999999
 31
0.0
  0
LINE
  5
E0
330
25
100
AcDbEntity
  8
0
  6
Continuous
100
AcDbLine
 10
108.9259765896
 20
80.64639371449999
 30
0.0
 11
108.9259765896
 21
80.51350071220001
 31
0.0
  0
LINE
  5
E1
330
25
100
AcDbEntity
  8
0
  6
Continuous
100
AcDbLine
 10
148.7957634732
 20
76.04062500000001
 30
0.0
 11
150.6457634732
 21
76.04062500000001
 31
0.0
  0
LINE
  5
E2
330
25
100
AcDbEntity
  8
0
  6
Continuous
100
AcDbLine
 10
152.9457634732
 20
76.04062500000001
 30
0.0
 11
154.7957634732
 21
76.04062500000001
 31
0.0
  0
LINE
  5
E3
330
25
100
AcDbEntity
  8
0
  6
Continuous
100
AcDbLine
 10
115.5803485688
 20
144.3103814737
 30
0.0
 11
115.2957645342
 21
140.2406401732
 31
0.0
  0
LWPOLYLINE
  5
E5
330
25
100
AcDbEntity
  8
0
  6
Continuous
100
AcDbPolyline
 90
       11
 70
     0
 43
0.0
 10
116.4197578802
 20
131.0292194748
 10
116.4178562333
 20
131.0150045151
 10
116.4162146551
 20
131.0022143488
 10
116.4148356798
 20
130.9908687218
 10
116.4137214365
 20
130.9809851502
 10
116.4128736453
 20
130.9725788927
 10
116.4122936152
 20
130.9656629273
 10
116.4119822415
 20
130.9602479312
 10
116.4119400051
 20
130.9563422642
 10
116.412166971
 20
130.9539519563
 10
116.412662789
 20
130.9530806976
  0
LINE
  5
FB
330
25
100
AcDbEntity
  8
0
  6
Continuous
100
AcDbLine
 10
108.9259765896
 20
80.51350071219999
 30
0.0
 11
119.0196100014
 21
80.51350071219999
 31
0.0
  0
LINE
  5
FD
330
25
100
AcDbEntity
  8
0
  6
Continuous
100
AcDbLine
 10
134.1312779055459
 20
81.14062500000001
 30
0.0
 11
131.4457634732
 21
81.14062500000001
 31
0.0
  0
LWPOLYLINE
  5
FE
330
25
100
AcDbEntity
  8
0
  6
Continuous
100
AcDbPolyline
 90
       13
 70
     0
 43
0.0
 10
108.9259765896
 20
80.51350071219999
 10
108.8388208469
 20
80.51730189830001
 10
108.752328412
 20
80.5286765274
 10
108.6671575445
 20
80.5475380315
 10
108.5839564463
 20
80.5737428633
 10
108.5033583279
 20
80.60709158829999
 10
108.4259765896
 20
80.64733040230001
 10
108.3524001533
 20
80.6941530639
 10
108.28318898
 20
80.74720322420001
 10
108.2188698085
 20
80.80607713950001
 10
108.1599321465
 20
80.87032674380001
 10
108.1068245454
 20
80.9394630587
 10
108.0599511859
 20
81.01295991529999
  0
LINE
  5
10D
330
25
100
AcDbEntity
  8
0
  6
Continuous
100
AcDbLine
 10
115.2957634732
 20
140.240625
 30
0.0
 11
115.5869201396
 21
131.9029889539
 31
0.0
  0
LINE
  5
110
330
25
100
AcDbEntity
  8
0
  6
Continuous
100
AcDbLine
 10
119.0196100014
 20
113.0558557983
 30
0.0
 11
119.0196100014
 21
111.3525184895
 31
0.0
  0
LINE
  5
112
330
25
100
AcDbEntity
  8
0
  6
Continuous
100
AcDbLine
 10
119.0196100014
 20
90.2253942017
 30
0.0
 11
119.0196100014
 21
91.92873151049999
 31
0.0
  0
LINE
  5
12E
330
25
100
AcDbEntity
  8
0
  6
Continuous
100
AcDbLine
 10
169.5457634732
 20
82.82437912529998
 30
0.0
 11
169.3440579135
 21
82.82437912529998
 31
0.0
  0
LINE
  5
12F
330
25
100
AcDbEntity
  8
0
  6
Continuous
100
AcDbLine
 10
161.3540641713
 20
82.82437912529998
 30
0.0
 11
160.8174195357
 21
82.82437912529998
 31
0.0
  0
LINE
  5
130
330
25
100
AcDbEntity
  8
0
  6
Continuous
100
AcDbLine
 10
160.8174195357
 20
82.82437912529998
 30
0.0
 11
159.7857572153
 21
82.82437912529998
 31
0.0
  0
LINE
  5
131
330
25
100
AcDbEntity
  8
0
  6
Continuous
100
AcDbLine
 10
143.805769731
 20
82.8243790035
 30
0.0
 11
143.0682318471
 21
82.8243790035
 31
0.0
  0
LINE
  5
132
330
25
100
AcDbEntity
  8
0
  6
Continuous
100
AcDbLine
 10
143.0682318471
 20
82.8243790035
 30
0.0
 11
142.237462775
 21
82.82437922299999
 31
0.0
  0
LINE
  5
135
330
25
100
AcDbEntity
  8
0
  6
Continuous
100
AcDbLine
 10
106.3279003783
 20
82.99062499999999
 30
0.0
 11
105.9052506475
 21
82.99062499999999
 31
0.0
  0
LINE
  5
136
330
25
100
AcDbEntity
  8
0
  6
Continuous
100
AcDbLine
 10
160.1521446938
 20
84.7179752692
 30
0.0
 11
160.1893684633
 21
84.7179752692
 31
0.0
  0
LINE
  5
137
330
25
100
AcDbEntity
  8
0
  6
Continuous
100
AcDbLine
 10
159.5227474587
 20
85.1798554845
 30
0.0
 11
158.3011662009
 21
85.1798554845
 31
0.0
  0
LINE
  5
138
330
25
100
AcDbEntity
  8
0
  6
Continuous
100
AcDbLine
 10
120.4528702543
 20
86.640625
 30
0.0
 11
122.2457634732
 21
86.640625
 31
0.0
  0
LINE
  5
13B
330
25
100
AcDbEntity
  8
0
  6
Continuous
100
AcDbLine
 10
122.7457634732
 20
85.06447794810001
 30
0.0
 11
129.091013166
 21
85.04602027599998
 31
0.0
  0
LINE
  5
13C
330
25
100
AcDbEntity
  8
0
  6
Continuous
100
AcDbLine
 10
131.4457634732
 20
81.14062500000001
 30
0.0
 11
131.2801883407
 21
81.30620013239999
 31
0.0
  0
LINE
  5
13F
330
25
100
AcDbEntity
  8
0
  6
Continuous
100
AcDbLine
 10
120.4052506475
 20
120.3370351309
 30
0.0
 11
120.4052506475
 21
82.94421486909999
 31
0.0
  0
LINE
  5
141
330
25
100
AcDbEntity
  8
0
  6
Continuous
100
AcDbLine
 10
122.2457634732
 20
116.640625
 30
0.0
 11
122.2457634732
 21
86.640625
 31
0.0
  0
LINE
  5
142
330
25
100
AcDbEntity
  8
0
  6
Continuous
100
AcDbLine
 10
122.7457634732
 20
118.2167720519
 30
0.0
 11
122.7457634732
 21
85.06447794810001
 31
0.0
  0
LINE
  5
143
330
25
100
AcDbEntity
  8
0
  6
Continuous
100
AcDbLine
 10
131.4457634732
 20
122.140625
 30
0.0
 11
131.2801883407
 21
121.9750498676
 31
0.0
  0
LINE
  5
145
330
25
100
AcDbEntity
  8
0
  6
Continuous
100
AcDbLine
 10
119.0811854944
 20
89.8990960225
 30
0.0
 11
108.9259765593
 21
89.8990960225
 31
0.0
  0
LINE
  5
147
330
25
100
AcDbEntity
  8
0
  6
Continuous
100
AcDbLine
 10
104.9052506475
 20
88.58909915380001
 30
0.0
 11
94.1584419161
 21
88.6203604414
 31
0.0
  0
LINE
  5
148
330
25
100
AcDbEntity
  8
0
  6
Continuous
100
AcDbLine
 10
94.1584419161
 20
88.6203604414
 30
0.0
 11
85.5179823623
 21
88.6706291646
 31
0.0
  0
LINE
  5
167
330
25
100
AcDbEntity
  8
0
  6
Continuous
100
AcDbLine
 10
159.532381429
 20
85.17796613429998
 30
0.0
 11
159.5227474587
 21
85.1798554845
 31
0.0
  0
LINE
  5
168
330
25
100
AcDbEntity
  8
0
  6
Continuous
100
AcDbLine
 10
130.863636883
 20
121.1748619623
 30
0.0
 11
130.5638614698
 21
119.4747511113
 31
0.0
  0
LINE
  5
16C
330
25
100
AcDbEntity
  8
0
  6
Continuous
100
AcDbLine
 10
108.9259765896
 20
92.387922692
 30
0.0
 11
119.0811854944
 21
92.387922692
 31
0.0
  0
LINE
  5
173
330
25
100
AcDbEntity
  8
0
  6
Continuous
100
AcDbLine
 10
130.863636883
 20
82.10638803770002
 30
0.0
 11
130.5638614698
 21
83.80649888870001
 31
0.0
  0
LINE
  5
174
330
25
100
AcDbEntity
  8
0
  6
Continuous
100
AcDbLine
 10
129.091013166
 20
118.235229724
 30
0.0
 11
129.091013166
 21
85.04602027599998
 31
0.0
  0
LINE
  5
178
330
25
100
AcDbEntity
  8
0
  6
Continuous
100
AcDbLine
 10
131.4457634732
 20
122.140625
 30
0.0
 11
131.4457634732
 21
81.14062500000001
 31
0.0
  0
LINE
  5
179
330
25
100
AcDbEntity
  8
0
  6
Continuous
100
AcDbLine
 10
163.6957634732
 20
126.640625
 30
0.0
 11
162.0457634732
 21
125.6879970558
 31
0.0
  0
LINE
  5
17A
330
25
100
AcDbEntity
  8
0
  6
Continuous
100
AcDbLine
 10
108.9259765897
 20
92.38792269210001
 30
0.0
 11
108.059951186
 21
92.1583271012
 31
0.0
  0
LINE
  5
183
330
25
100
AcDbEntity
  8
0
  6
Continuous
100
AcDbLine
 10
154.7957634732
 20
76.04062500000001
 30
0.0
 11
151.7957634732
 21
79.04062500000001
 31
0.0
  0
LINE
  5
184
330
25
100
AcDbEntity
  8
0
  6
Continuous
100
AcDbLine
 10
120.3784557371
 20
120.4370351461
 30
0.0
 11
119.0196100014
 21
122.7677492878
 31
0.0
  0
LINE
  5
189
330
25
100
AcDbEntity
  8
0
  6
Continuous
100
AcDbLine
 10
134.0457634732
 20
78.49078444830001
 30
0.0
 11
134.0457634732
 21
64.33966310569998
 31
0.0
  0
LINE
  5
18A
330
25
100
AcDbEntity
  8
0
  6
Continuous
100
AcDbLine
 10
134.0465757846
 20
78.4920601579
 30
0.0
 11
134.0465757846
 21
64.33966310569998
 31
0.0
  0
LINE
  5
18C
330
25
100
AcDbEntity
  8
0
  6
Continuous
100
AcDbLine
 10
134.1957634732
 20
80.9414822478
 30
0.0
 11
134.1957634732
 21
78.73770777510001
 31
0.0
  0
LINE
  5
18E
330
25
100
AcDbEntity
  8
0
  6
Continuous
100
AcDbLine
 10
135.5654031786
 20
122.140625
 30
0.0
 11
135.5654031786
 21
79.53438690313421
 31
0.0
  0
LINE
  5
190
330
25
100
AcDbEntity
  8
0
  6
Continuous
100
AcDbLine
 10
120.3784557371
 20
82.8442148539
 30
0.0
 11
119.0196100014
 21
80.51350071219999
 31
0.0
  0
LINE
  5
195
330
25
100
AcDbEntity
  8
DEFAULT_1
  6
CENTER
100
AcDbLine
 10
79.2979865268
 20
101.640625
 30
0.0
 11
193.2972094479
 21
101.640625
 31
0.0
  0
LINE
  5
19F
330
25
100
AcDbEntity
  8
0
  6
Continuous
100
AcDbLine
 10
108.9259765897
 20
110.8933273079
 30
0.0
 11
108.059951186
 21
111.1229228988
 31
0.0
  0
LINE
  5
1A7
330
25
100
AcDbEntity
  8
0
  6
Continuous
100
AcDbLine
 10
137.6725339292
 20
121.540625
 30
0.0
 11
137.6725339292
 21
80.58193676735891
 31
0.0
  0
LINE
  5
1A8
330
25
100
AcDbEntity
  8
0
  6
Continuous
100
AcDbLine
 10
139.8957634732
 20
128.240625
 30
0.0
 11
139.8957634732
 21
126.640625
 31
0.0
  0
LINE
  5
1B4
330
25
100
AcDbEntity
  8
0
  6
Continuous
100
AcDbLine
 10
142.237462775
 20
64.2366863812
 30
0.0
 11
142.237462775
 21
82.82437922299999
 31
0.0
  0
LINE
  5
1B5
330
25
100
AcDbEntity
  8
0
  6
Continuous
100
AcDbLine
 10
142.5457634732
 20
123.9559462483
 30
0.0
 11
142.5457634732
 21
123.540625
 31
0.0
  0
LINE
  5
1B8
330
25
100
AcDbEntity
  8
0
  6
Continuous
100
AcDbLine
 10
143.4115629522
 20
120.336887778
 30
0.0
 11
143.3320837011
 21
84.62934378350001
 31
0.0
  0
LINE
  5
1B9
330
25
100
AcDbEntity
  8
0
  6
Continuous
100
AcDbLine
 10
143.805769731
 20
82.8243790035
 30
0.0
 11
143.805769731
 21
64.2366863812
 31
0.0
  0
LINE
  5
1CE
330
25
100
AcDbEntity
  8
0
  6
Continuous
100
AcDbLine
 10
119.0811854944
 20
110.893327308
 30
0.0
 11
108.9259765896
 21
110.893327308
 31
0.0
  0
LINE
  5
1D1
330
25
100
AcDbEntity
  8
0
  6
Continuous
100
AcDbLine
 10
108.9259765595
 20
113.3821539775
 30
0.0
 11
119.0811854944
 21
113.3821539775
 31
0.0
  0
LWPOLYLINE
  5
1FA
330
25
100
AcDbEntity
  8
0
  6
Continuous
100
AcDbPolyline
 90
       13
 70
     0
 43
0.0
 10
159.5227474587
 20
85.1798554846
 10
159.4573508838
 20
85.27601189189998
 10
159.3892336875
 20
85.3818041997
 10
159.3220815299
 20
85.49769272970001
 10
159.2639982816
 20
85.62453453039998
 10
159.2153270024
 20
85.7631954854
 10
159.1681051473
 20
85.9119062921
 10
159.1263707266
 20
86.0670351126
 10
159.0964833251
 20
86.2277353053
 10
159.0713115467
 20
86.39426820190001
 10
159.0495768888
 20
86.5653985668
 10
159.0377828935
 20
86.73852774030002
 10
159.0382970521
 20
86.91190629090001
  0
LINE
  5
20A
330
25
100
AcDbEntity
  8
0
  6
Continuous
100
AcDbLine
 10
146.0573142633
 20
118.3929296778
 30
0.0
 11
146.0573142633
 21
87.00232233430675
 31
0.0
  0
LWPOLYLINE
  5
20D
330
25
100
AcDbEntity
  8
0
  6
Continuous
100
AcDbPolyline
 90
       13
 70
     0
 43
0.0
 10
145.992655806
 20
86.91190653140001
 10
145.9915446531
 20
86.7446746355
 10
145.9830800692
 20
86.5782018633
 10
145.9681952973
 20
86.4138537092
 10
145.9493058152
 20
86.25327810890001
 10
145.9262040613
 20
86.0975414139
 10
145.8963616946
 20
85.9471815078
 10
145.8626757716
 20
85.80374834600001
 10
145.8258995865
 20
85.668412168
 10
145.7816809899
 20
85.54129336139999
 10
145.7311488433
 20
85.4234108988
 10
145.6799051658
 20
85.3164980416
 10
145.6313788257
 20
85.22176290669999
  0
LINE
  5
21E
330
25
100
AcDbEntity
  8
0
  6
Continuous
100
AcDbLine
 10
134.0457634732
 20
78.4906249846
 30
0.0
 11
134.0465757846
 21
78.4920601579
 31
0.0
  0
LINE
  5
236
330
25
100
AcDbEntity
  8
0
  6
Continuous
100
AcDbLine
 10
94.1584419161
 20
114.6608895586
 30
0.0
 11
85.5179823623
 21
114.6106208354
 31
0.0
  0
LINE
  5
237
330
25
100
AcDbEntity
  8
0
  6
Continuous
100
AcDbLine
 10
104.9052506475
 20
114.6921508462
 30
0.0
 11
94.1584419161
 21
114.6608895586
 31
0.0
  0
LINE
  5
238
330
25
100
AcDbEntity
  8
0
  6
Continuous
100
AcDbLine
 10
120.4528702543
 20
116.640625
 30
0.0
 11
122.2457634732
 21
116.640625
 31
0.0
  0
LINE
  5
239
330
25
100
AcDbEntity
  8
0
  6
Continuous
100
AcDbLine
 10
164.7241905979
 20
117.490625
 30
0.0
 11
165.9097487919
 21
117.490625
 31
0.0
  0
LINE
  5
24B
330
25
100
AcDbEntity
  8
0
  6
Continuous
100
AcDbLine
 10
150.6457634732
 20
76.04062500000001
 30
0.0
 11
150.6457634732
 21
69.04062500000001
 31
0.0
  0
LINE
  5
250
330
25
100
AcDbEntity
  8
DEFAULT_1
  6
CENTER
100
AcDbLine
 10
151.7957634732
 20
62.54062499999999
 30
0.0
 11
151.7957634732
 21
92.64062499999999
 31
0.0
  0
LINE
  5
251
330
25
100
AcDbEntity
  8
DEFAULT_1
  6
CENTER
100
AcDbLine
 10
151.7957634732
 20
97.64062500000001
 30
0.0
 11
151.7957634732
 21
150.240625
 31
0.0
  0
LINE
  5
257
330
25
100
AcDbEntity
  8
0
  6
Continuous
100
AcDbLine
 10
152.9457634732
 20
69.04062500000001
 30
0.0
 11
152.9457634732
 21
76.04062500000001
 31
0.0
  0
LINE
  5
2A8
330
25
100
AcDbEntity
  8
0
  6
Continuous
100
AcDbLine
 10
122.7457634732
 20
118.2167720519
 30
0.0
 11
129.091013166
 21
118.235229724
 31
0.0
  0
LINE
  5
2A9
330
25
100
AcDbEntity
  8
0
  6
Continuous
100
AcDbLine
 10
106.3279003783
 20
120.290625
 30
0.0
 11
105.9052506475
 21
120.290625
 31
0.0
  0
LINE
  5
2AA
330
25
100
AcDbEntity
  8
0
  6
Continuous
100
AcDbLine
 10
137.6725339292
 20
121.540625
 30
0.0
 11
140.5457634732
 21
121.540625
 31
0.0
  0
LINE
  5
2AB
330
25
100
AcDbEntity
  8
0
  6
Continuous
100
AcDbLine
 10
133.9457634732
 20
122.140625
 30
0.0
 11
131.4457634732
 21
122.140625
 31
0.0
  0
LINE
  5
2AC
330
25
100
AcDbEntity
  8
0
  6
Continuous
100
AcDbLine
 10
133.9457634732
 20
122.140625
 30
0.0
 11
135.5654031786
 21
122.140625
 31
0.0
  0
LWPOLYLINE
  5
2AD
330
25
100
AcDbEntity
  8
0
  6
Continuous
100
AcDbPolyline
 90
       10
 70
     0
 43
0.0
 10
146.0573142633
 20
118.3929385939
 10
145.8973984148
 20
118.3976221531
 10
145.7379049177
 20
118.4148887295
 10
145.5801386223
 20
118.4441334418
 10
145.425788444
 20
118.4836962085
 10
145.2758338965
 20
118.533435592
 10
145.1305237631
 20
118.5947610658
 10
144.9908151264
 20
118.6671739533
 10
144.858367714
 20
118.7482264849
 10
144.7344386078
 20
118.8361214932
  0
LWPOLYLINE
  5
2F1
330
25
100
AcDbEntity
  8
0
  6
Continuous
100
AcDbPolyline
 90
       13
 70
     0
 43
0.0
 10
108.9259765896
 20
122.7677492878
 10
108.8388056486
 20
122.7639467726
 10
108.7522965447
 20
122.7525678581
 10
108.6671079853
 20
122.7336987013
 10
108.5838872967
 20
122.7074819928
 10
108.5032697698
 20
122.6741171575
 10
108.4258733348
 20
122.6338600418
 10
108.352282617
 20
122.5870147126
 10
108.2830624819
 20
122.5339407247
 10
108.2187540856
 20
122.4750572384
 10
108.1598471532
 20
122.410822056
 10
108.1067799925
 20
122.3417233735
 10
108.0599511859
 20
122.2682900847
  0
LINE
  5
301
330
25
100
AcDbEntity
  8
0
  6
Continuous
100
AcDbLine
 10
119.0196100014
 20
122.7677492878
 30
0.0
 11
108.9259765896
 21
122.7677492878
 31
0.0
  0
LINE
  5
303
330
25
100
AcDbEntity
  8
0
  6
Continuous
100
AcDbLine
 10
161.0457634732
 20
123.9559462483
 30
0.0
 11
142.5457634732
 21
123.9559462483
 31
0.0
  0
LINE
  5
304
330
25
100
AcDbEntity
  8
0
  6
Continuous
100
AcDbLine
 10
162.0457634732
 20
125.6879970558
 30
0.0
 11
141.5457634732
 21
125.6879970558
 31
0.0
  0
LINE
  5
305
330
25
100
AcDbEntity
  8
0
  6
Continuous
100
AcDbLine
 10
163.6957634732
 20
126.640625
 30
0.0
 11
139.8957634732
 21
126.640625
 31
0.0
  0
LINE
  5
306
330
25
100
AcDbEntity
  8
0
  6
Continuous
100
AcDbLine
 10
139.8957634732
 20
126.640625
 30
0.0
 11
141.5457634732
 21
125.6879970558
 31
0.0
  0
LINE
  5
31B
330
25
100
AcDbEntity
  8
0
  6
Continuous
100
AcDbLine
 10
159.7857572153
 20
64.2366863812
 30
0.0
 11
159.7857572153
 21
82.82437912529998
 31
0.0
  0
LINE
  5
320
330
25
100
AcDbEntity
  8
0
  6
Continuous
100
AcDbLine
 10
161.0457634732
 20
123.9559462483
 30
0.0
 11
161.0457634732
 21
121.1690521247
 31
0.0
  0
LINE
  5
321
330
25
100
AcDbEntity
  8
0
  6
Continuous
100
AcDbLine
 10
161.3540641713
 20
82.82437912529998
 30
0.0
 11
161.3540641713
 21
64.2366863812
 31
0.0
  0
LINE
  5
322
330
25
100
AcDbEntity
  8
0
  6
Continuous
100
AcDbLine
 10
161.4315499108
 20
119.8496041577
 30
0.0
 11
161.4315499108
 21
85.11557633348195
 31
0.0
  0
LINE
  5
32F
330
25
100
AcDbEntity
  8
0
  6
Continuous
100
AcDbLine
 10
133.1955820896
 20
128.240625
 30
0.0
 11
170.3959448567
 21
128.240625
 31
0.0
  0
LINE
  5
333
330
25
100
AcDbEntity
  8
0
  6
Continuous
100
AcDbLine
 10
116.412662789
 20
130.9530806976
 30
0.0
 11
130.4172112469
 21
128.4837009518
 31
0.0
  0
LINE
  5
335
330
25
100
AcDbEntity
  8
0
  6
Continuous
100
AcDbLine
 10
163.6957634732
 20
128.240625
 30
0.0
 11
163.6957634732
 21
126.640625
 31
0.0
  0
LINE
  5
337
330
25
100
AcDbEntity
  8
0
  6
Continuous
100
AcDbLine
 10
165.9097487919
 20
117.490625
 30
0.0
 11
165.9097487919
 21
85.14462992941481
 31
0.0
  0
LINE
  5
358
330
25
100
AcDbEntity
  8
0
  6
Continuous
100
AcDbLine
 10
151.7957634732
 20
79.04062500000001
 30
0.0
 11
148.7957634732
 21
76.04062500000001
 31
0.0
  0
LINE
  5
392
330
25
100
AcDbEntity
  8
0
  6
Continuous
100
AcDbLine
 10
161.6315499108
 20
119.7548385624
 30
0.0
 11
163.3099770355
 21
118.0764114376
 31
0.0
  0
LINE
  5
395
330
25
100
AcDbEntity
  8
0
  6
Continuous
100
AcDbLine
 10
169.5457634732
 20
82.98592446160001
 30
0.0
 11
169.5457634732
 21
64.33966310569998
 31
0.0
  0
LINE
  5
396
330
25
100
AcDbEntity
  8
0
  6
Continuous
100
AcDbLine
 10
170.833787557
 20
113.3588658883
 30
0.0
 11
170.833787557
 21
89.92238411169998
 31
0.0
  0
LINE
  5
397
330
25
100
AcDbEntity
  8
0
  6
Continuous
100
AcDbLine
 10
170.833787557
 20
113.3588658883
 30
0.0
 11
172.5938410033
 21
103.3771067767
 31
0.0
  0
LINE
  5
398
330
25
100
AcDbEntity
  8
0
  6
Continuous
100
AcDbLine
 10
172.5938410033
 20
103.3771067767
 30
0.0
 11
172.7457634732
 21
101.640625
 31
0.0
  0
LINE
  5
399
330
25
100
AcDbEntity
  8
0
  6
Continuous
100
AcDbLine
 10
172.5938410033
 20
103.3771067767
 30
0.0
 11
172.5938410033
 21
99.9041432233
 31
0.0
  0
LINE
  5
39A
330
25
100
AcDbEntity
  8
0
  6
Continuous
100
AcDbLine
 10
172.5938410033
 20
99.9041432233
 30
0.0
 11
172.7457634732
 21
101.640625
 31
0.0
  0
LINE
  5
39B
330
25
100
AcDbEntity
  8
0
  6
Continuous
100
AcDbLine
 10
170.833787557
 20
89.92238411169998
 30
0.0
 11
172.5938410033
 21
99.9041432233
 31
0.0
  0
LINE
  5
3C4
330
25
100
AcDbEntity
  8
0
  6
Continuous
100
AcDbLine
 10
165.9469156858
 20
141.240625
 30
0.0
 11
137.9842808486
 21
141.240625
 31
0.0
  0
LINE
  5
3ED
330
25
100
AcDbEntity
  8
0
  6
Continuous
100
AcDbLine
 10
135.2507147119
 20
145.240625
 30
0.0
 11
116.577912619
 21
145.240625
 31
0.0
  0
LINE
  5
409
330
25
100
AcDbEntity
  8
0
  6
Continuous
100
AcDbLine
 10
169.3498940737
 20
64.22657785520001
 30
0.0
 11
167.3421736347
 21
63.0674199192
 31
0.0
  0
ARC
  5
412
330
25
100
AcDbEntity
  8
0
  6
Continuous
100
AcDbCircle
 10
151.7957634732
 20
124.040269347
 30
0.0
 40
18.0
100
AcDbArc
 50
74.73383327350017
 51
105.2661667265002
  0
ARC
  5
413
330
25
100
AcDbEntity
  8
0
  6
Continuous
100
AcDbCircle
 10
156.3245824845
 20
140.633334114
 30
0.0
 40
0.8
100
AcDbArc
 50
49.34700358220011
 51
74.73383327350017
  0
ARC
  5
414
330
25
100
AcDbEntity
  8
0
  6
Continuous
100
AcDbCircle
 10
147.2669444619
 20
140.633334114
 30
0.0
 40
0.8
100
AcDbArc
 50
105.2661667265002
 51
130.6529964178003
  0
ARC
  5
415
330
25
100
AcDbEntity
  8
0
  6
Continuous
100
AcDbCircle
 10
120.2052506475
 20
120.3370351615
 30
0.0
 40
0.2
100
AcDbArc
 50
0.0
 51
29.99999491540007
  0
ARC
  5
416
330
25
100
AcDbEntity
  8
0
  6
Continuous
100
AcDbCircle
 10
120.2052506475
 20
82.94421483849999
 30
0.0
 40
0.2
100
AcDbArc
 50
330.0000050846007
 51
360.0000000000008
  0
ARC
  5
419
330
25
100
AcDbEntity
  8
0
  6
Continuous
100
AcDbCircle
 10
105.9052506475
 20
83.99062499999999
 30
0.0
 40
1.0
100
AcDbArc
 50
180.0000000000004
 51
270.0000000000006
  0
ARC
  5
41A
330
25
100
AcDbEntity
  8
0
  6
Continuous
100
AcDbCircle
 10
105.9052506475
 20
119.290625
 30
0.0
 40
1.0
100
AcDbArc
 50
90.00000000000019
 51
180.0000000000004
  0
ARC
  5
41B
330
25
100
AcDbEntity
  8
0
  6
Continuous
100
AcDbCircle
 10
106.3279003783
 20
121.290625
 30
0.0
 40
1.0
100
AcDbArc
 50
270.0000000000006
 51
330.0000000000007
  0
ARC
  5
41C
330
25
100
AcDbEntity
  8
0
  6
Continuous
100
AcDbCircle
 10
106.3279003783
 20
81.99062499999999
 30
0.0
 40
1.0
100
AcDbArc
 50
30.00000000000008
 51
90.00000000000019
  0
ARC
  5
41D
330
25
100
AcDbEntity
  8
0
  6
Continuous
100
AcDbCircle
 10
84.79798652680002
 20
90.0977317812
 30
0.0
 40
0.5
100
AcDbArc
 50
180.0000000000004
 51
224.9999999995005
  0
ARC
  5
41E
330
25
100
AcDbEntity
  8
0
  6
Continuous
100
AcDbCircle
 10
84.79798652680002
 20
113.1835182188
 30
0.0
 40
0.5
100
AcDbArc
 50
135.0000000006003
 51
180.0000000000004
  0
ARC
  5
41F
330
25
100
AcDbEntity
  8
0
  6
Continuous
100
AcDbCircle
 10
137.9842808486
 20
141.740625
 30
0.0
 40
0.5
100
AcDbArc
 50
186.9667053159004
 51
270.0000000000006
  0
ARC
  5
423
330
25
100
AcDbEntity
  8
0
  6
Continuous
100
AcDbCircle
 10
116.577912619
 20
144.240625
 30
0.0
 40
1.0
100
AcDbArc
 50
90.00000000000019
 51
176.0000000000004
  0
ARC
  5
424
330
25
100
AcDbEntity
  8
0
  6
Continuous
100
AcDbCircle
 10
116.5863109666
 20
131.9378884506
 30
0.0
 40
1.0
100
AcDbArc
 50
182.0000000000004
 51
260.0000000000006
  0
ARC
  5
425
330
25
100
AcDbEntity
  8
0
  6
Continuous
100
AcDbCircle
 10
133.1955820896
 20
144.240625
 30
0.0
 40
16.0
100
AcDbArc
 50
260.0000000000006
 51
270.0000000000006
  0
ARC
  5
429
330
25
100
AcDbEntity
  8
0
  6
Continuous
100
AcDbCircle
 10
122.2457634732
 20
117.140625
 30
0.0
 40
0.5
100
AcDbArc
 50
270.0000000000006
 51
360.0000000000008
  0
ARC
  5
42A
330
25
100
AcDbEntity
  8
0
  6
Continuous
100
AcDbCircle
 10
122.2457634732
 20
86.14062500000001
 30
0.0
 40
0.5
100
AcDbArc
 50
0.0
 51
90.00000000000019
  0
ARC
  5
42B
330
25
100
AcDbEntity
  8
0
  6
Continuous
100
AcDbCircle
 10
120.4528702543
 20
117.140625
 30
0.0
 40
0.5
100
AcDbArc
 50
264.5327065471006
 51
270.0000000000006
  0
ARC
  5
42C
330
25
100
AcDbEntity
  8
0
  6
Continuous
100
AcDbCircle
 10
120.4528702543
 20
86.14062500000001
 30
0.0
 40
0.5
100
AcDbArc
 50
90.00000000000019
 51
95.46729345290021
  0
ARC
  5
42D
330
25
100
AcDbEntity
  8
0
  6
Continuous
100
AcDbCircle
 10
132.3408485125
 20
82.3668603042
 30
0.0
 40
1.5
100
AcDbArc
 50
190.0000000000004
 51
225.0000000000005
  0
ARC
  5
42E
330
25
100
AcDbEntity
  8
0
  6
Continuous
100
AcDbCircle
 10
132.3408485125
 20
120.9143896958
 30
0.0
 40
1.5
100
AcDbArc
 50
135.0000000001003
 51
170.0000000000004
  0
ARC
  5
42F
330
25
100
AcDbEntity
  8
0
  6
Continuous
100
AcDbCircle
 10
129.0866498403
 20
119.7352233778
 30
0.0
 40
1.5
100
AcDbArc
 50
270.1666670000006
 51
350.0000000000008
  0
ARC
  5
430
330
25
100
AcDbEntity
  8
0
  6
Continuous
100
AcDbCircle
 10
129.0866498403
 20
83.5460266222
 30
0.0
 40
1.5
100
AcDbArc
 50
10.00000000000002
 51
89.8333330000002
  0
ARC
  5
434
330
25
100
AcDbEntity
  8
0
  6
Continuous
100
AcDbCircle
 10
167.2421736347
 20
63.240625
 30
0.0
 40
0.2
100
AcDbArc
 50
270.0000000000006
 51
299.9999999977006
  0
ARC
  5
435
330
25
100
AcDbEntity
  8
0
  6
Continuous
100
AcDbCircle
 10
136.3493533116
 20
63.240625
 30
0.0
 40
0.2
100
AcDbArc
 50
240.0000000050005
 51
270.0000000000006
  0
ARC
  5
436
330
25
100
AcDbEntity
  8
0
  6
Continuous
100
AcDbCircle
 10
170.5877494161
 20
85.5832926535
 30
0.0
 40
2.0000000002
100
AcDbArc
 50
136.8192330644003
 51
220.4920134519005
  0
ARC
  5
437
330
25
100
AcDbEntity
  8
0
  6
Continuous
100
AcDbCircle
 10
163.045762606
 20
121.1690518218
 30
0.0
 40
1.999999845799999
100
AcDbArc
 50
179.9999913167004
 51
225.0000113629006
  0
ARC
  5
438
330
25
100
AcDbEntity
  8
0
  6
Continuous
100
AcDbCircle
 10
135.5654031786
 20
120.140625
 30
0.0
 40
2.0
100
AcDbArc
 50
58.21166938290013
 51
90.00000000000019
  0
ARC
  5
439
330
25
100
AcDbEntity
  8
0
  6
Continuous
100
AcDbCircle
 10
137.6725339292
 20
123.540625
 30
0.0
 40
2.0
100
AcDbArc
 50
238.2116693829006
 51
270.0000000000006
  0
ARC
  5
43A
330
25
100
AcDbEntity
  8
0
  6
Continuous
100
AcDbCircle
 10
164.7241905979
 20
119.490625
 30
0.0
 40
2.0
100
AcDbArc
 50
225.0000000000005
 51
270.0000000000006
  0
ARC
  5
43B
330
25
100
AcDbEntity
  8
0
  6
Continuous
100
AcDbCircle
 10
165.9097487919
 20
112.490625
 30
0.0
 40
5.0
100
AcDbArc
 50
10.00000000000002
 51
90.00000000000019
  0
ARC
  5
43C
330
25
100
AcDbEntity
  8
0
  6
Continuous
100
AcDbCircle
 10
165.8313533607798
 20
90.81841134163857
 30
0.0
 40
5.082048079660059
100
AcDbArc
 50
310.4630808892103
 51
349.8449691699037
  0
ARC
  5
43D
330
25
100
AcDbEntity
  8
0
  6
Continuous
100
AcDbCircle
 10
167.5457634732
 20
82.98592446160001
 30
0.0
 40
2.0
100
AcDbArc
 50
0.0
 51
40.49201346630009
  0
ARC
  5
43E
330
25
100
AcDbEntity
  8
0
  6
Continuous
100
AcDbCircle
 10
163.0457634732
 20
123.9559462483
 30
0.0
 40
2.0
100
AcDbArc
 50
120.0000000000002
 51
180.0000000000004
  0
ARC
  5
43F
330
25
100
AcDbEntity
  8
0
  6
Continuous
100
AcDbCircle
 10
140.5457634732
 20
123.9559462483
 30
0.0
 40
2.0
100
AcDbArc
 50
0.0
 51
60.00000000030014
  0
SPLINE
  5
442
330
25
100
AcDbEntity
  8
0
  6
Continuous
100
AcDbSpline
210
-1.0
220
-1.300000000000000E-15
230
-1.300000000000000E-15
 70
     8
 71
     3
 72
    10
 73
     6
 74
     4
 42
0.0000000001
 43
0.0000000001
 44
0.0000000001
 40
0.0
 40
0.0
 40
0.0
 40
0.0
 40
1.946941373460594
 40
3.893882746836608
 40
5.040473480030651
 40
5.040473480030651
 40
5.040473480030651
 40
5.040473480030651
 10
96.29798652680002
 20
88.61413674080001
 30
-0.4666675
 10
96.29798652680003
 20
88.64292573436998
 30
0.1825786966029647
 10
96.29798652680003
 20
88.70050372150867
 30
1.481071089780689
 10
96.29798652680002
 20
89.08119197181067
 30
3.129600663235453
 10
96.2979865268
 20
89.44416737107733
 30
4.094900618970915
 10
96.29798652680002
 20
89.57870104159998
 30
4.452680640599999
 11
96.29798652680002
 21
88.61413674080001
 31
-0.4666675
 11
96.29798652680002
 21
88.7596318519
 31
1.4748298305
 11
96.29798652680002
 21
89.19286706459999
 31
3.3729573188
 11
96.29798652680002
 21
89.57870104159998
 31
4.452680640599999
  0
SPLINE
  5
443
330
25
100
AcDbEntity
  8
0
  6
Continuous
100
AcDbSpline
210
1.0
220
1.000000000000000E-16
230
0.0
 70
     8
 71
     3
 72
    24
 73
    20
 74
    18
 42
0.0000000001
 43
0.0000000001
 44
0.0000000001
 40
0.0
 40
0.0
 40
0.0
 40
0.0
 40
0.8016720545153165
 40
2.74861342787776
 40
4.695554801302023
 40
6.642496174748239
 40
8.589437548123421
 40
10.53637892158419
 40
12.48332029500701
 40
14.43026166843513
 40
16.37720304183513
 40
18.32414441526325
 40
20.27108578868607
 40
22.21802716214684
 40
24.16496853552203
 40
26.11190990896824
 40
28.05885128239251
 40
30.00579265575495
 40
30.80746471027026
 40
30.80746471027026
 40
30.80746471027026
 40
30.80746471027026
 10
96.29798652680002
 20
89.57870104159998
 30
4.452680640599999
 10
96.29798652680003
 20
89.68429019582719
 30
4.698220635578331
 10
96.29798652680003
 20
90.04631325190411
 30
5.540079252798704
 10
96.29798652679999
 20
90.839405664005
 30
6.898195719784665
 10
96.29798652680003
 20
92.05531514376399
 30
8.426877007308939
 10
96.29798652679997
 20
93.48853415016924
 30
9.755864347817189
 10
96.29798652680006
 20
95.10300275385829
 30
10.85677236333999
 10
96.29798652679999
 20
96.86374005693969
 30
11.70465972590392
 10
96.29798652680003
 20
98.73112363132792
 30
12.2806794780249
 10
96.2979865268
 20
100.6635174161393
 30
12.57193937159409
 10
96.29798652680005
 20
102.6177325838607
 30
12.57193937159409
 10
96.2979865268
 20
104.5501263686721
 30
12.2806794780249
 10
96.29798652680002
 20
106.4175099430603
 30
11.70465972590392
 10
96.29798652680003
 20
108.1782472461418
 30
10.85677236333999
 10
96.2979865268
 20
109.7927158498307
 30
9.755864347817189
 10
96.2979865268
 20
111.225934856236
 30
8.426877007308939
 10
96.29798652680002
 20
112.441844335995
 30
6.898195719784665
 10
96.29798652680003
 20
113.2349367480959
 30
5.540079252798709
 10
96.29798652680003
 20
113.5969598041728
 30
4.698220635578332
 10
96.29798652680002
 20
113.7025489584
 30
4.452680640599999
 11
96.29798652680002
 21
89.57870104159998
 31
4.452680640599999
 11
96.29798652680002
 21
89.9041646204
 31
5.185313933499999
 11
96.29798652680002
 21
90.87763530709999
 31
6.871414622499999
 11
96.29798652680002
 21
92.0915333982
 31
8.3935946828
 11
96.29798652680002
 21
93.5187424164
 31
9.717851126999999
 11
96.29798652680002
 21
95.1273808704
 31
10.8146022545
 11
96.29798652680002
 21
96.88151443549999
 31
11.6593484575
 11
96.29798652680002
 21
98.7419586664
 31
12.2332195016
 11
96.29798652680002
 21
100.6671543133
 31
12.523396056
 11
96.29798652680002
 21
102.6140956867
 31
12.523396056
 11
96.29798652680002
 21
104.5392913336
 31
12.2332195016
 11
96.29798652680002
 21
106.3997355645
 31
11.6593484575
 11
96.29798652680002
 21
108.1538691296
 31
10.8146022545
 11
96.29798652680002
 21
109.7625075836
 31
9.717851126999999
 11
96.29798652680002
 21
111.1897166018
 31
8.3935946828
 11
96.29798652680002
 21
112.4036146929
 31
6.871414622499999
 11
96.29798652680002
 21
113.3770853796
 31
5.185313933499999
 11
96.29798652680002
 21
113.7025489584
 31
4.452680640599999
  0
SPLINE
  5
444
330
25
100
AcDbEntity
  8
0
  6
Continuous
100
AcDbSpline
210
1.0
220
-1.000000000000000E-14
230
-2.600000000000000E-15
 70
     8
 71
     3
 72
    10
 73
     6
 74
     4
 42
0.0000000001
 43
0.0000000001
 44
0.0000000001
 40
0.0
 40
0.0
 40
0.0
 40
0.0
 40
1.146590733194048
 40
3.093532106570062
 40
5.040473480030656
 40
5.040473480030656
 40
5.040473480030656
 40
5.040473480030656
 10
96.29798652680002
 20
113.7025489584
 30
4.452680640599999
 10
96.29798652680002
 20
113.8370826289227
 30
4.094900618970915
 10
96.29798652680002
 20
114.2000580281893
 30
3.129600663235457
 10
96.29798652680003
 20
114.5807462784914
 30
1.481071089780689
 10
96.29798652680003
 20
114.63832426563
 30
0.1825786966029647
 10
96.29798652680002
 20
114.6671132592
 30
-0.4666675
 11
96.29798652680002
 21
113.7025489584
 31
4.452680640599999
 11
96.29798652680002
 21
114.0883829354
 31
3.3729573188
 11
96.29798652680002
 21
114.5216181481
 31
1.4748298305
 11
96.29798652680002
 21
114.6671132592
 31
-0.4666675
  0
SPLINE
  5
445
330
25
100
AcDbEntity
  8
0
  6
Continuous
100
AcDbSpline
210
-1.0
220
9.000000000000000E-15
230
-5.000000000000000E-16
 70
     8
 71
     3
 72
    10
 73
     6
 74
     4
 42
0.0000000001
 43
0.0000000001
 44
0.0000000001
 40
0.0
 40
0.0
 40
0.0
 40
0.0
 40
1.946941373460594
 40
3.893882746836607
 40
5.040473480030657
 40
5.040473480030657
 40
5.040473480030657
 40
5.040473480030657
 10
96.29798652680002
 20
114.6671132592
 30
-0.4666675
 10
96.29798652680003
 20
114.6383242656301
 30
-1.115913696602965
 10
96.2979865268
 20
114.5807462784913
 30
-2.414406089780688
 10
96.29798652680002
 20
114.2000580281893
 30
-4.062935663235455
 10
96.29798652680003
 20
113.8370826289227
 30
-5.028235618970916
 10
96.29798652680002
 20
113.7025489584
 30
-5.3860156406
 11
96.29798652680002
 21
114.6671132592
 31
-0.4666675
 11
96.29798652680002
 21
114.5216181481
 31
-2.4081648305
 11
96.29798652680002
 21
114.0883829354
 31
-4.306292318799999
 11
96.29798652680002
 21
113.7025489584
 31
-5.3860156406
  0
SPLINE
  5
446
330
25
100
AcDbEntity
  8
0
  6
Continuous
100
AcDbSpline
210
1.0
220
-3.800000000000000E-15
230
-2.100000000000000E-15
 70
     8
 71
     3
 72
    10
 73
     6
 74
     4
 42
0.0000000001
 43
0.0000000001
 44
0.0000000001
 40
0.0
 40
0.0
 40
0.0
 40
0.0
 40
1.146590733194045
 40
3.093532106570058
 40
5.040473480030652
 40
5.040473480030652
 40
5.040473480030652
 40
5.040473480030652
 10
96.29798652680002
 20
89.57870104159998
 30
-5.3860156406
 10
96.29798652680002
 20
89.44416737107733
 30
-5.028235618970915
 10
96.2979865268
 20
89.08119197181068
 30
-4.062935663235451
 10
96.29798652680003
 20
88.70050372150865
 30
-2.41440608978069
 10
96.29798652680002
 20
88.64292573436997
 30
-1.115913696602965
 10
96.29798652680002
 20
88.61413674080001
 30
-0.4666675
 11
96.29798652680002
 21
89.57870104159998
 31
-5.3860156406
 11
96.29798652680002
 21
89.19286706459999
 31
-4.306292318799999
 11
96.29798652680002
 21
88.7596318519
 31
-2.4081648305
 11
96.29798652680002
 21
88.61413674080001
 31
-0.4666675
  0
SPLINE
  5
447
330
25
100
AcDbEntity
  8
0
  6
Continuous
100
AcDbSpline
210
0.0
220
0.0
230
1.0
 70
     8
 71
     3
 72
    15
 73
    11
 74
     9
 42
0.0000000001
 43
0.0000000001
 44
0.0000000001
 40
0.0
 40
0.0
 40
0.0
 40
0.0
 40
1.298110151231367
 40
2.515479524599236
 40
3.68495771298975
 40
4.832042810480941
 40
5.979098984094031
 40
7.148506811705195
 40
8.3655131141004
 40
9.663389628557679
 40
9.663389628557679
 40
9.663389628557679
 40
9.663389628557679
 10
119.0811854944
 20
113.3821539775
 30
0.0
 10
119.2681780924446
 20
113.7727296603
 30
0.0
 10
119.630532590009
 20
114.529587721966
 30
0.0
 10
120.0209759453327
 20
115.6977354116016
 30
0.0
 10
120.2641965815864
 20
116.8533001054798
 30
0.0
 10
120.3456343603252
 20
118.0088453497158
 30
0.0
 10
120.2641019030783
 20
119.1643597972648
 30
0.0
 10
120.020833203756
 20
120.319755736255
 30
0.0
 10
119.6304177748944
 20
121.487675014418
 30
0.0
 10
119.2681460696406
 20
122.2443517977564
 30
0.0
 10
119.0811854944
 20
122.6348562855
 30
0.0
 11
119.0811854944
 21
113.3821539775
 31
0.0
 11
119.6166446517
 21
114.5646823939
 31
0.0
 11
120.0029953541
 21
115.7191178949
 31
0.0
 11
120.2389859405
 21
116.8645382004
 31
0.0
 11
120.3186480997
 21
118.0088537868
 31
0.0
 11
120.2388940609
 21
119.1531339792
 31
0.0
 11
120.0028385448
 21
120.2984690658
 31
0.0
 11
119.6165586457
 21
121.4525453976
 31
0.0
 11
119.0811854944
 21
122.6348562855
 31
0.0
  0
SPLINE
  5
448
330
25
100
AcDbEntity
  8
0
  6
Continuous
100
AcDbSpline
210
0.0
220
0.0
230
1.0
 70
     8
 71
     3
 72
    11
 73
     7
 74
     5
 42
0.0000000001
 43
0.0000000001
 44
0.0000000001
 40
0.0
 40
0.0
 40
0.0
 40
0.0
 40
2.29768535473263
 40
4.605146876081728
 40
6.94419552027794
 40
9.358169420902671
 40
9.358169420902671
 40
9.358169420902671
 40
9.358169420902671
 10
120.3186481071
 20
101.640625
 30
0.0
 10
120.3031373061932
 20
102.4066989243605
 30
0.0
 10
120.2720497091928
 20
103.9421062560694
 30
0.0
 10
120.0209770793162
 20
106.245639244939
 30
0.0
 10
119.637171830388
 20
108.5692050130282
 30
0.0
 10
119.2684517382715
 20
110.1105209253504
 30
0.0
 10
119.0811854944
 20
110.893327308
 30
0.0
 11
120.3186481071
 21
101.640625
 31
0.0
 11
120.2384055456
 21
103.9369087631
 31
0.0
 11
120.001259548
 21
106.2321517673
 31
0.0
 11
119.6145207322
 21
108.5390071265
 31
0.0
 11
119.0811854944
 21
110.893327308
 31
0.0
  0
SPLINE
  5
449
330
25
100
AcDbEntity
  8
0
  6
Continuous
100
AcDbSpline
210
0.0
220
0.0
230
1.0
 70
     8
 71
     3
 72
    11
 73
     7
 74
     5
 42
0.0000000001
 43
0.0000000001
 44
0.0000000001
 40
0.0
 40
0.0
 40
0.0
 40
0.0
 40
2.414272096400264
 40
4.753420648514374
 40
7.060737029748342
 40
9.358169471000458
 40
9.358169471000458
 40
9.358169471000458
 40
9.358169471000458
 10
119.0811854944
 20
92.387922692
 30
0.0
 10
119.2684736000263
 20
93.17082613557336
 30
0.0
 10
119.6372220728404
 20
94.71227185746339
 30
0.0
 10
120.0210200191866
 20
97.03592471143791
 30
0.0
 10
120.2720591464418
 20
99.33936088515671
 30
0.0
 10
120.3031406920481
 20
100.8746354336137
 30
0.0
 10
120.3186481071
 20
101.640625
 30
0.0
 11
119.0811854944
 21
92.387922692
 31
0.0
 11
119.6145786586
 21
94.74253550260001
 31
0.0
 11
120.0013133317
 21
97.04949285840002
 31
0.0
 11
120.238423124
 21
99.34459369050001
 31
0.0
 11
120.3186481071
 21
101.640625
 31
0.0
  0
SPLINE
  5
44A
330
25
100
AcDbEntity
  8
0
  6
Continuous
100
AcDbSpline
210
0.0
220
0.0
230
1.0
 70
     8
 71
     3
 72
    15
 73
    11
 74
     9
 42
0.0000000001
 43
0.0000000001
 44
0.0000000001
 40
0.0
 40
0.0
 40
0.0
 40
0.0
 40
1.298110151231367
 40
2.515479524599249
 40
3.684957712891804
 40
4.832042810382996
 40
5.979098983996085
 40
7.148506811705193
 40
8.365513114100398
 40
9.663389628557678
 40
9.663389628557678
 40
9.663389628557678
 40
9.663389628557678
 10
119.0811854944
 20
80.64639371449999
 30
0.0
 10
119.2681780924451
 20
81.03696939729991
 30
0.0
 10
119.6305325900107
 20
81.79382745896564
 30
0.0
 10
120.0209759453162
 20
82.96197514857181
 30
0.0
 10
120.2641965815964
 20
84.11753984241064
 30
0.0
 10
120.3456343603252
 20
85.2730850866167
 30
0.0
 10
120.2641019030683
 20
86.42859953419566
 30
0.0
 10
120.0208332037726
 20
87.58399547322523
 30
0.0
 10
119.6304177748927
 20
88.75191475141762
 30
0.0
 10
119.26814606964
 20
89.50859153475632
 30
0.0
 10
119.0811854944
 20
89.8990960225
 30
0.0
 11
119.0811854944
 21
80.64639371449999
 31
0.0
 11
119.6166446517
 21
81.8289221309
 31
0.0
 11
120.0029953541
 21
82.98335763190001
 31
0.0
 11
120.2389859405
 21
84.1287779373
 31
0.0
 11
120.3186480997
 21
85.2730935237
 31
0.0
 11
120.2388940609
 21
86.4173737161
 31
0.0
 11
120.0028385448
 21
87.5627088028
 31
0.0
 11
119.6165586457
 21
88.7167851346
 31
0.0
 11
119.0811854944
 21
89.8990960225
 31
0.0
  0
SPLINE
  5
44B
330
25
100
AcDbEntity
  8
0
  6
Continuous
100
AcDbSpline
210
0.0
220
0.0
230
1.0
 70
     8
 71
     3
 72
    10
 73
     6
 74
     4
 42
0.0000000001
 43
0.0000000001
 44
0.0000000001
 40
0.0
 40
0.0
 40
0.0
 40
0.0
 40
0.0770646973969054
 40
0.1258346677535451
 40
0.1465996011967894
 40
0.1465996011967894
 40
0.1465996011967894
 40
0.1465996011967894
 10
119.0811854944
 20
80.64639371449999
 30
0.0
 10
119.0698016411324
 20
80.62338744461751
 30
0.0
 10
119.0512135788668
 20
80.58582178323562
 30
0.0
 10
119.0290386924913
 20
80.5421113281829
 30
0.0
 10
119.0217781796486
 20
80.52007987728814
 30
0.0
 10
119.0196100014
 20
80.51350071219999
 30
0.0
 11
119.0811854944
 21
80.64639371449999
 31
0.0
 11
119.0468666963
 21
80.57739235450001
 31
0.0
 11
119.0264050271
 21
80.5331223861
 31
0.0
 11
119.0196100014
 21
80.51350071219999
 31
0.0
  0
SPLINE
  5
44C
330
25
100
AcDbEntity
  8
0
  6
Continuous
100
AcDbSpline
210
0.0
220
0.0
230
1.0
 70
     8
 71
     3
 72
    10
 73
     6
 74
     4
 42
0.0000000001
 43
0.0000000001
 44
0.0000000001
 40
0.0
 40
0.0
 40
0.0
 40
0.0
 40
0.0207649334432309
 40
0.0695349037998706
 40
0.146599601196776
 40
0.146599601196776
 40
0.146599601196776
 40
0.146599601196776
 10
119.0196100014
 20
122.7677492878
 30
0.0
 10
119.0217781796487
 20
122.7611701227119
 30
0.0
 10
119.0290386924913
 20
122.7391386718171
 30
0.0
 10
119.0512135788668
 20
122.6954282167644
 30
0.0
 10
119.0698016411323
 20
122.6578625553825
 30
0.0
 10
119.0811854944
 20
122.6348562855
 30
0.0
 11
119.0196100014
 21
122.7677492878
 31
0.0
 11
119.0264050271
 21
122.7481276139
 31
0.0
 11
119.0468666963
 21
122.7038576455
 31
0.0
 11
119.0811854944
 21
122.6348562855
 31
0.0
  0
SPLINE
  5
44D
330
25
100
AcDbEntity
  8
0
  6
Continuous
100
AcDbSpline
210
0.0
220
0.0
230
1.0
 70
     8
 71
     3
 72
    10
 73
     6
 74
     4
 42
0.0000000001
 43
0.0000000001
 44
0.0000000001
 40
0.0
 40
0.0
 40
0.0
 40
0.0
 40
0.0976673363491746
 40
0.2091888285031197
 40
0.334603717812356
 40
0.334603717812356
 40
0.334603717812356
 40
0.334603717812356
 10
119.0811854944
 20
113.3821539775
 30
0.0
 10
119.068631139811
 20
113.3520240723256
 30
0.0
 10
119.0417415897601
 20
113.2874903213096
 30
0.0
 10
119.023270776976
 20
113.1765656318473
 30
0.0
 10
119.0208770474978
 20
113.097635175479
 30
0.0
 10
119.0196100014
 20
113.0558557983
 30
0.0
 11
119.0811854944
 21
113.3821539775
 31
0.0
 11
119.0468666963
 21
113.2907147699
 31
0.0
 11
119.0264050271
 21
113.1810864738
 31
0.0
 11
119.0196100014
 21
113.0558557983
 31
0.0
  0
SPLINE
  5
44E
330
25
100
AcDbEntity
  8
0
  6
Continuous
100
AcDbSpline
210
0.0
220
0.0
230
1.0
 70
     8
 71
     3
 72
    10
 73
     6
 74
     4
 42
0.0000000001
 43
0.0000000001
 44
0.0000000001
 40
0.0
 40
0.0
 40
0.0
 40
0.0
 40
0.1450116391913509
 40
0.3002641938323694
 40
0.4643341655969818
 40
0.4643341655969818
 40
0.4643341655969818
 40
0.4643341655969818
 10
119.0196100014
 20
111.3525184895
 30
0.0
 10
119.0210513950607
 20
111.3041799739191
 30
0.0
 10
119.0240359755256
 20
111.2040892122886
 30
0.0
 10
119.0450336503974
 20
111.0503890219575
 30
0.0
 10
119.0689150680959
 20
110.9466361844759
 30
0.0
 10
119.0811854944
 20
110.893327308
 30
0.0
 11
119.0196100014
 21
111.3525184895
 31
0.0
 11
119.0264050271
 21
111.2076661401
 31
0.0
 11
119.0468666963
 21
111.0537678756
 31
0.0
 11
119.0811854944
 21
110.893327308
 31
0.0
  0
SPLINE
  5
44F
330
25
100
AcDbEntity
  8
0
  6
Continuous
100
AcDbSpline
210
0.0
220
0.0
230
1.0
 70
     8
 71
     3
 72
    10
 73
     6
 74
     4
 42
0.0000000001
 43
0.0000000001
 44
0.0000000001
 40
0.0
 40
0.0
 40
0.0
 40
0.0
 40
0.1640699717646124
 40
0.319322526405631
 40
0.464334165596996
 40
0.464334165596996
 40
0.464334165596996
 40
0.464334165596996
 10
119.0811854944
 20
92.387922692
 30
0.0
 10
119.0689150680959
 20
92.33461381552415
 30
0.0
 10
119.0450336503974
 20
92.2308609780425
 30
0.0
 10
119.0240359755257
 20
92.07716078771134
 30
0.0
 10
119.0210513950607
 20
91.97707002608087
 30
0.0
 10
119.0196100014
 20
91.92873151049999
 30
0.0
 11
119.0811854944
 21
92.387922692
 31
0.0
 11
119.0468666963
 21
92.2274821244
 31
0.0
 11
119.0264050271
 21
92.0735838599
 31
0.0
 11
119.0196100014
 21
91.92873151049999
 31
0.0
  0
SPLINE
  5
450
330
25
100
AcDbEntity
  8
0
  6
Continuous
100
AcDbSpline
210
0.0
220
0.0
230
1.0
 70
     8
 71
     3
 72
    10
 73
     6
 74
     4
 42
0.0000000001
 43
0.0000000001
 44
0.0000000001
 40
0.0
 40
0.0
 40
0.0
 40
0.0
 40
0.1254148893092363
 40
0.2369363814631814
 40
0.334603717812356
 40
0.334603717812356
 40
0.334603717812356
 40
0.334603717812356
 10
119.0196100014
 20
90.2253942017
 30
0.0
 10
119.0208770474978
 20
90.18361482452106
 30
0.0
 10
119.0232707769761
 20
90.10468436815273
 30
0.0
 10
119.0417415897601
 20
89.99375967869045
 30
0.0
 10
119.068631139811
 20
89.92922592767445
 30
0.0
 10
119.0811854944
 20
89.8990960225
 30
0.0
 11
119.0196100014
 21
90.2253942017
 31
0.0
 11
119.0264050271
 21
90.10016352620001
 31
0.0
 11
119.0468666963
 21
89.99053523009999
 31
0.0
 11
119.0811854944
 21
89.8990960225
 31
0.0
  0
SPLINE
  5
452
330
25
100
AcDbEntity
  8
0
  6
Continuous
100
AcDbSpline
210
0.0
220
0.0
230
1.0
 70
     8
 71
     3
 72
    10
 73
     6
 74
     4
 42
0.0000000001
 43
0.0000000001
 44
0.0000000001
 40
0.0
 40
0.0
 40
0.0
 40
0.0
 40
1.365325906850038
 40
2.766695753127229
 40
4.198048695183584
 40
4.198048695183584
 40
4.198048695183584
 40
4.198048695183584
 10
107.1939257821
 20
96.264563051
 30
0.0
 10
107.2698524330601
 20
95.81579972085039
 30
0.0
 10
107.4237101616118
 20
94.90642592705154
 30
0.0
 10
107.7141845705152
 20
93.53704855720217
 30
0.0
 10
107.9438852214358
 20
92.62113229234515
 30
0.0
 10
108.0599511859
 20
92.1583268792
 30
0.0
 11
107.1939257821
 21
96.264563051
 31
0.0
 11
107.4308569228
 21
94.91995215320002
 31
0.0
 11
107.7203567832
 21
93.54881128629999
 31
0.0
 11
108.0599511859
 21
92.1583268792
 31
0.0
  0
SPLINE
  5
454
330
25
100
AcDbEntity
  8
0
  6
Continuous
100
AcDbSpline
210
0.0
220
0.0
230
1.0
 70
     8
 71
     3
 72
    10
 73
     6
 74
     4
 42
0.0000000001
 43
0.0000000001
 44
0.0000000001
 40
0.0
 40
0.0
 40
0.0
 40
0.0
 40
0.7418851771923651
 40
1.499364198864044
 40
2.259236774694675
 40
2.259236774694675
 40
2.259236774694675
 40
2.259236774694675
 10
108.0599511859
 20
90.49526220949998
 30
0.0
 10
107.9503707662454
 20
90.27355043524139
 30
0.0
 10
107.7289066324715
 20
89.82546667914312
 30
0.0
 10
107.4353385728925
 20
89.13108195328553
 30
0.0
 10
107.2744812940808
 20
88.65141415211667
 30
0.0
 10
107.1939257821
 20
88.4112019243
 30
0.0
 11
108.0599511859
 21
90.49526220949998
 31
0.0
 11
107.7377308592
 21
89.82700501559999
 31
0.0
 11
107.4446983014
 21
89.1285020533
 31
0.0
 11
107.1939257821
 21
88.4112019243
 31
0.0
  0
SPLINE
  5
455
330
25
100
AcDbEntity
  8
0
  6
Continuous
100
AcDbSpline
210
0.0
220
0.0
230
1.0
 70
     8
 71
     3
 72
    11
 73
     7
 74
     5
 42
0.0000000001
 43
0.0000000001
 44
0.0000000001
 40
0.0
 40
0.0
 40
0.0
 40
0.0
 40
0.2735908881288517
 40
0.5503377529782743
 40
0.8239841362001867
 40
1.08902261613266
 40
1.08902261613266
 40
1.08902261613266
 40
1.08902261613266
 10
108.9259765896
 20
89.8990960225
 30
0.0
 10
108.8361777391016
 20
89.91754461589406
 30
0.0
 10
108.6555441736298
 20
89.95465461434299
 30
0.0
 10
108.4121329783317
 20
90.0885827973656
 30
0.0
 10
108.201629594964
 20
90.26607209647187
 30
0.0
 10
108.1066715287228
 20
90.41968077033397
 30
0.0
 10
108.0599511858
 20
90.49525781399998
 30
0.0
 11
108.9259765896
 21
89.8990960225
 31
0.0
 11
108.6610433036
 21
89.96737726470001
 31
0.0
 11
108.4164016336
 21
90.09675763609999
 31
0.0
 11
108.2107884621
 21
90.27732775200001
 31
0.0
 11
108.0599511858
 21
90.49525781399998
 31
0.0
  0
SPLINE
  5
457
330
25
100
AcDbEntity
  8
0
  6
Continuous
100
AcDbSpline
210
0.0
220
0.0
230
1.0
 70
     8
 71
     3
 72
    13
 73
     9
 74
     7
 42
0.0000000001
 43
0.0000000001
 44
0.0000000001
 40
0.0
 40
0.0
 40
0.0
 40
0.0
 40
1.269135437474459
 40
2.340745887345904
 40
3.239558102658696
 40
4.01055730638201
 40
4.731339751592645
 40
5.437753710966049
 40
5.437753710966049
 40
5.437753710966049
 40
5.437753710966049
 10
107.1939257821
 20
88.4112019243
 30
0.0
 10
107.1315916907488
 20
87.99277565770771
 30
0.0
 10
107.0166250263068
 20
87.22104591652862
 30
0.0
 10
106.8433676521022
 20
86.15508895028586
 30
0.0
 10
106.7904290910013
 20
85.23922118679703
 30
0.0
 10
106.8792299654805
 20
84.44449426484979
 30
0.0
 10
107.0330002502442
 20
83.7278757770643
 30
0.0
 10
107.1406451812729
 20
83.26449686669433
 30
0.0
 10
107.1939257821
 20
83.0351399753
 30
0.0
 11
107.1939257821
 21
88.4112019243
 31
0.0
 11
107.0039189216
 21
87.15637040110001
 31
0.0
 11
106.8540408191
 21
86.0952928777
 31
0.0
 11
106.8152749225
 21
85.19731704079999
 31
0.0
 11
106.8941681337
 21
84.43036486930001
 31
0.0
 11
107.0359969521
 21
83.72367404610002
 31
0.0
 11
107.1939257821
 21
83.0351399753
 31
0.0
  0
SPLINE
  5
45D
330
25
100
AcDbEntity
  8
0
  6
Continuous
100
AcDbSpline
210
0.0
220
0.0
230
1.0
 70
     8
 71
     3
 72
    11
 73
     7
 74
     5
 42
0.0000000001
 43
0.0000000001
 44
0.0000000001
 40
0.0
 40
0.0
 40
0.0
 40
0.0
 40
1.238660363517383
 40
2.587769198020133
 40
4.006234134599326
 40
5.391318812318704
 40
5.391318812318704
 40
5.391318812318704
 40
5.391318812318704
 10
106.8120232966
 20
101.640625
 30
0.0
 10
106.8192364649377
 20
101.2277125060624
 30
0.0
 10
106.8343059830994
 20
100.3650690690389
 30
0.0
 10
106.9393155647449
 20
99.03319895904096
 30
0.0
 10
107.0711691356943
 20
97.65539868138569
 30
0.0
 10
107.15333299262
 20
96.72448029050324
 30
0.0
 10
107.1939257821
 20
96.264563051
 30
0.0
 11
106.8120232966
 21
101.640625
 31
0.0
 11
106.8457508845
 21
100.4024239073
 31
0.0
 11
106.941141055
 21
99.0566916298
 31
0.0
 11
107.0704746344
 21
97.6441352233
 31
0.0
 11
107.1939257821
 21
96.264563051
 31
0.0
  0
SPLINE
  5
45F
330
25
100
AcDbEntity
  8
0
  6
Continuous
100
AcDbSpline
210
0.0
220
0.0
230
1.0
 70
     8
 71
     3
 72
    11
 73
     7
 74
     5
 42
0.0000000001
 43
0.0000000001
 44
0.0000000001
 40
0.0
 40
0.0
 40
0.0
 40
0.0
 40
1.402926086594777
 40
2.831101379946216
 40
4.172130725959163
 40
5.391323113109651
 40
5.391323113109651
 40
5.391323113109651
 40
5.391323113109651
 10
107.1939257821
 20
107.016686949
 30
0.0
 10
107.152775327779
 20
106.5508487166916
 30
0.0
 10
107.0697338125297
 20
105.6107883137083
 30
0.0
 10
106.9373414666764
 20
104.2265177348012
 30
0.0
 10
106.8336906745411
 20
102.9005079428814
 30
0.0
 10
106.8190129255198
 20
102.0470477003878
 30
0.0
 10
106.8120232966
 20
101.640625
 30
0.0
 11
107.1939257821
 21
107.016686949
 31
0.0
 11
107.068805454
 21
105.619351446
 31
0.0
 11
106.9388072467
 21
104.1971049362
 31
0.0
 11
106.8447520107
 21
102.8593780136
 31
0.0
 11
106.8120232966
 21
101.640625
 31
0.0
  0
SPLINE
  5
465
330
25
100
AcDbEntity
  8
0
  6
Continuous
100
AcDbSpline
210
0.0
220
0.0
230
1.0
 70
     8
 71
     3
 72
    13
 73
     9
 74
     7
 42
0.0000000001
 43
0.0000000001
 44
0.0000000001
 40
0.0
 40
0.0
 40
0.0
 40
0.0
 40
0.7194471497986825
 40
1.445875314694968
 40
2.220144418438355
 40
3.12002345702552
 40
4.186893386240707
 40
5.437761383860749
 40
5.437761383860749
 40
5.437761383860749
 40
5.437761383860749
 10
107.1939257821
 20
120.2461100247
 30
0.0
 10
107.1396066037735
 20
120.0125352574405
 30
0.0
 10
107.0304411715681
 20
119.5431192757237
 30
0.0
 10
106.8760665494642
 20
118.8191176744971
 30
0.0
 10
106.7897287571892
 20
118.0206860519601
 30
0.0
 10
106.8464026215886
 20
117.1052526346024
 30
0.0
 10
107.0189380494263
 20
116.0466569751571
 30
0.0
 10
107.1325890698344
 20
115.2824731092291
 30
0.0
 10
107.1939257821
 20
114.8700480757
 30
0.0
 11
107.1939257821
 21
120.2461100247
 31
0.0
 11
107.0331045982
 21
119.5448677355
 31
0.0
 11
106.891196843
 21
118.832435235
 31
0.0
 11
106.8145290803
 21
118.0619712844
 31
0.0
 11
106.8565149139
 21
117.1630722501
 31
0.0
 11
107.0068191672
 21
116.1068430717
 31
0.0
 11
107.1939257821
 21
114.8700480757
 31
0.0
  0
SPLINE
  5
468
330
25
100
AcDbEntity
  8
0
  6
Continuous
100
AcDbSpline
210
0.0
220
0.0
230
1.0
 70
     8
 71
     3
 72
    11
 73
     7
 74
     5
 42
0.0000000001
 43
0.0000000001
 44
0.0000000001
 40
0.0
 40
0.0
 40
0.0
 40
0.0
 40
0.2735737145103989
 40
0.5503954367793453
 40
0.8241035663751481
 40
1.089022569544838
 40
1.089022569544838
 40
1.089022569544838
 40
1.089022569544838
 10
108.9259765896
 20
113.3821539775
 30
0.0
 10
108.8361834216828
 20
113.3637067526254
 30
0.0
 10
108.6555310152043
 20
113.3265932879403
 30
0.0
 10
108.4120855074517
 20
113.1926404982554
 30
0.0
 10
108.2015906278774
 20
113.0151306042162
 30
0.0
 10
108.1066479193497
 20
112.861536225884
 30
0.0
 10
108.0599511858
 20
112.785992186
 30
0.0
 11
108.9259765896
 21
113.3821539775
 31
0.0
 11
108.6610594603
 21
113.3138788585
 31
0.0
 11
108.416353854
 21
113.1844592612
 31
0.0
 11
108.210708342
 21
113.0038323983
 31
0.0
 11
108.0599511858
 21
112.785992186
 31
0.0
  0
SPLINE
  5
469
330
25
100
AcDbEntity
  8
0
  6
Continuous
100
AcDbSpline
210
0.0
220
0.0
230
1.0
 70
     8
 71
     3
 72
    10
 73
     6
 74
     4
 42
0.0000000001
 43
0.0000000001
 44
0.0000000001
 40
0.0
 40
0.0
 40
0.0
 40
0.0
 40
0.7601197981054008
 40
1.517606081618568
 40
2.259236709604546
 40
2.259236709604546
 40
2.259236709604546
 40
2.259236709604546
 10
107.1939257821
 20
114.8700480757
 30
0.0
 10
107.2745089762654
 20
114.6297581318204
 30
0.0
 10
107.4353961756863
 20
114.1500107537198
 30
0.0
 10
107.7289780779656
 20
113.455631918119
 30
0.0
 10
107.9504074780264
 20
113.0076230368718
 30
0.0
 10
108.0599511859
 20
112.7859878159
 30
0.0
 11
107.1939257821
 21
114.8700480757
 31
0.0
 11
107.4447873422
 21
114.1525171808
 31
0.0
 11
107.7378357846
 21
113.4540130075
 31
0.0
 11
108.0599511859
 21
112.7859878159
 31
0.0
  0
SPLINE
  5
46C
330
25
100
AcDbEntity
  8
0
  6
Continuous
100
AcDbSpline
210
0.0
220
0.0
230
1.0
 70
     8
 71
     3
 72
    10
 73
     6
 74
     4
 42
0.0000000001
 43
0.0000000001
 44
0.0000000001
 40
0.0
 40
0.0
 40
0.0
 40
0.0
 40
1.431390348581052
 40
2.832631702622523
 40
4.198048675886096
 40
4.198048675886096
 40
4.198048675886096
 40
4.198048675886096
 10
108.0599511859
 20
111.1229231013
 30
0.0
 10
107.9438822655034
 20
110.6601055705885
 30
0.0
 10
107.7141891535367
 20
109.7442187118273
 30
0.0
 10
107.423713950851
 20
108.3748415874303
 30
0.0
 10
107.2698577637424
 20
107.4654801729217
 30
0.0
 10
107.1939257821
 20
107.016686949
 30
0.0
 11
108.0599511859
 21
111.1229231013
 31
0.0
 11
107.7203484657
 21
109.7324022196
 31
0.0
 11
107.4308742556
 21
108.361387262
 31
0.0
 11
107.1939257821
 21
107.016686949
 31
0.0
  0
SPLINE
  5
46E
330
25
100
AcDbEntity
  8
0
  6
Continuous
100
AcDbSpline
210
0.0
220
0.0
230
1.0
 70
     8
 71
     3
 72
    22
 73
    18
 74
    16
 42
0.0000000001
 43
0.0000000001
 44
0.0000000001
 40
0.0
 40
0.0
 40
0.0
 40
0.0
 40
0.1805242509010296
 40
0.375829389697576
 40
0.5716978972795702
 40
0.7681222109450041
 40
0.9650856482439181
 40
1.162583489198017
 40
1.360566862242447
 40
1.558983540664845
 40
1.757758627543655
 40
1.956787781230051
 40
2.155967623042558
 40
2.355189967204874
 40
2.554342287985263
 40
2.753307299046657
 40
2.938112582955094
 40
2.938112582955094
 40
2.938112582955094
 40
2.938112582955094
 10
137.2707480514
 20
143.4654160726
 30
0.0
 10
137.2619282547806
 20
143.5249822149337
 30
0.0
 10
137.2435665179823
 20
143.6489916308885
 30
0.0
 10
137.193367535212
 20
143.8332989039778
 30
0.0
 10
137.1247867946507
 20
144.0170289120537
 30
0.0
 10
137.0379711505517
 20
144.1935984732754
 30
0.0
 10
136.9341302355142
 20
144.361322869732
 30
0.0
 10
136.8140774810955
 20
144.5185223131483
 30
0.0
 10
136.6789499026195
 20
144.6636266892215
 30
0.0
 10
136.5300129730472
 20
144.7951644713817
 30
0.0
 10
136.368701465723
 20
144.9117882896679
 30
0.0
 10
136.1965936158553
 20
145.0123082155115
 30
0.0
 10
136.0153956107507
 20
145.095660116338
 30
0.0
 10
135.8269146496241
 20
145.1611207768461
 30
0.0
 10
135.6330434478678
 20
145.2075798967716
 30
0.0
 10
135.4403095896598
 20
145.2356344271146
 30
0.0
 10
135.3123443515003
 20
145.2390027434427
 30
0.0
 10
135.2507224582
 20
145.2406247623
 30
0.0
 11
137.2707480514
 21
143.4654160726
 31
0.0
 11
137.2409111976
 21
143.643457549
 31
0.0
 11
137.1905982372
 21
143.8321708322
 31
0.0
 11
137.1218574437
 21
144.015580689
 31
0.0
 11
137.035264502
 21
144.1918877321
 31
0.0
 11
136.9315783998
 21
144.3593505275
 31
0.0
 11
136.8117213214
 21
144.5163208366
 31
0.0
 11
136.6768024625
 21
144.6612149963
 31
0.0
 11
136.528088954
 21
144.7925674636
 31
0.0
 11
136.3670083017
 21
144.9090344487
 31
0.0
 11
136.1951449476
 21
145.0094116948
 31
0.0
 11
136.0142010606
 21
145.0926698424
 31
0.0
 11
135.8259822372
 21
145.157963157
 31
0.0
 11
135.6323773479
 21
145.2046407074
 31
0.0
 11
135.4353381937
 21
145.2322567777
 31
0.0
 11
135.2507224582
 21
145.2406247623
 31
0.0
  0
SPLINE
  5
46F
330
25
100
AcDbEntity
  8
0
  6
Continuous
100
AcDbSpline
210
0.0
220
0.0
230
1.0
 70
     8
 71
     3
 72
    10
 73
     6
 74
     4
 42
0.0000000001
 43
0.0000000001
 44
0.0000000001
 40
0.0
 40
0.0
 40
0.0
 40
0.0
 40
0.4445301533033684
 40
1.123242865380375
 40
1.798603012493715
 40
1.798603012493715
 40
1.798603012493715
 40
1.798603012493715
 10
137.4879724518
 20
141.6799787092
 30
0.0
 10
137.4700116885867
 20
141.8270628713367
 30
0.0
 10
137.4246282674934
 20
142.1987164802151
 30
0.0
 10
137.352179314155
 20
142.7938573088127
 30
0.0
 10
137.2978470541572
 20
143.2419328715945
 30
0.0
 10
137.2707481851
 20
143.4654159552
 30
0.0
 11
137.4879724518
 21
141.6799787092
 31
0.0
 11
137.4341118441
 21
142.1212338419
 31
0.0
 11
137.3520972108
 21
142.7949730685
 31
0.0
 11
137.2707481851
 21
143.4654159552
 31
0.0
  0
SPLINE
  5
472
330
25
100
AcDbEntity
  8
0
  6
Continuous
100
AcDbSpline
210
0.0
220
0.0
230
1.0
 70
     8
 71
     3
 72
    19
 73
    15
 74
    13
 42
0.0000000001
 43
0.0000000001
 44
0.0000000001
 40
0.0
 40
0.0
 40
0.0
 40
0.0
 40
0.0007909191714385
 40
0.0023269666422087
 40
0.0046901923564384
 40
0.0079987123797108
 40
0.0122897557799504
 40
0.0175770603190989
 40
0.0238640419226979
 40
0.0311489105795576
 40
0.0394364488792546
 40
0.0487079611712495
 40
0.0588539339920877
 40
0.0697266013650367
 40
0.0697266013650367
 40
0.0697266013650367
 40
0.0697266013650367
 10
137.4879477947
 20
141.6799769343
 30
0.0
 10
137.4879293349523
 20
141.6797053638329
 30
0.0
 10
137.4878750244506
 20
141.6789063752122
 30
0.0
 10
137.4864634257479
 20
141.6778987605655
 30
0.0
 10
137.4843221128434
 20
141.6769616579184
 30
0.0
 10
137.4810855852945
 20
141.6760588115622
 30
0.0
 10
137.4768849596826
 20
141.6752154767969
 30
0.0
 10
137.4716489962657
 20
141.6744282531745
 30
0.0
 10
137.465405312203
 20
141.6737044246623
 30
0.0
 10
137.4581476087298
 20
141.673045056822
 30
0.0
 10
137.4498873418256
 20
141.6724522208059
 30
0.0
 10
137.4406667725212
 20
141.6719305457069
 30
0.0
 10
137.4305800212492
 20
141.6714765358802
 30
0.0
 10
137.4235775641655
 20
141.6712455750918
 30
0.0
 10
137.4199552848
 20
141.6711261021
 30
0.0
 11
137.4879477947
 21
141.6799769343
 31
0.0
 11
137.4878177812
 21
141.6791967743
 31
0.0
 11
137.486714731
 21
141.6781277925
 31
0.0
 11
137.4845755908
 21
141.6771233449
 31
0.0
 11
137.4814031848
 21
141.6761841192
 31
0.0
 11
137.4772018906
 21
141.6753110897
 31
0.0
 11
137.4719763945
 21
141.6745050005
 31
0.0
 11
137.4657329193
 21
141.6737666543
 31
0.0
 11
137.4584789152
 21
141.6730967768
 31
0.0
 11
137.4502132258
 21
141.6724953869
 31
0.0
 11
137.4409569531
 21
141.6719640152
 31
0.0
 11
137.4308212775
 21
141.67150702
 31
0.0
 11
137.4199552848
 21
141.6711261021
 31
0.0
  0
SPLINE
  5
49E
330
25
100
AcDbEntity
  8
0
  6
Continuous
100
AcDbSpline
210
0.0
220
0.0
230
1.0
 70
     8
 71
     3
 72
    59
 73
    55
 74
    53
 42
0.0000000001
 43
0.0000000001
 44
0.0000000001
 40
0.0
 40
0.0
 40
0.0
 40
0.0
 40
0.0236216053880589
 40
0.0474503397088802
 40
0.0715201023757833
 40
0.0958635057288293
 40
0.1205117565540252
 40
0.1454967040311618
 40
0.1708700396928312
 40
0.196700631370285
 40
0.2230509843277559
 40
0.2499743649257656
 40
0.2775235631677665
 40
0.30576028367486
 40
0.3347483033127946
 40
0.3645539717784825
 40
0.3952420916784496
 40
0.4268864124766531
 40
0.4595615695991199
 40
0.493311833758415
 40
0.5281661442335945
 40
0.5641850657776194
 40
0.6014267868500975
 40
0.6399687670600696
 40
0.67994333233685
 40
0.7213503356213683
 40
0.7636635035083975
 40
0.8065790151805028
 40
0.8498276266734612
 40
0.8931107044005675
 40
0.9362291013960442
 40
0.97927472564664
 40
1.022336131763492
 40
1.065419847640615
 40
1.108566051265519
 40
1.151807785541067
 40
1.195175081398832
 40
1.238698398362939
 40
1.282407065853569
 40
1.326326977766839
 40
1.370462530363162
 40
1.414838857013323
 40
1.459473720301338
 40
1.504373870294328
 40
1.549541406188685
 40
1.594978470973602
 40
1.640688015572795
 40
1.686653352882904
 40
1.732864802089759
 40
1.779307635032879
 40
1.825966991231074
 40
1.87281428181138
 40
1.919815149507025
 40
1.966967297027287
 40
1.966967297027287
 40
1.966967297027287
 40
1.966967297027287
 10
136.1870585517
 20
129.1869253189
 30
0.0
 10
136.1877539664787
 20
129.1790814477584
 30
0.0
 10
136.1891508938656
 20
129.1633249255328
 30
0.0
 10
136.1922889758733
 20
129.1396851113444
 30
0.0
 10
136.1962214960026
 20
129.1159240025595
 30
0.0
 10
136.2010417776762
 20
129.0920466231753
 30
0.0
 10
136.206752337856
 20
129.0680531777049
 30
0.0
 10
136.2133827762342
 20
129.0439409629174
 30
0.0
 10
136.2209629212097
 20
129.0196969704566
 30
0.0
 10
136.2295313004915
 20
128.9953013051902
 30
0.0
 10
136.2391313573484
 20
128.9707371625362
 30
0.0
 10
136.2498088451547
 20
128.9459964662404
 30
0.0
 10
136.2616128650558
 20
128.9210752602413
 30
0.0
 10
136.2745973355873
 20
128.8959706210407
 30
0.0
 10
136.2888217500034
 20
128.8706803354551
 30
0.0
 10
136.3043495716342
 20
128.8452064694289
 30
0.0
 10
136.3212491924669
 20
128.8195537746815
 30
0.0
 10
136.3395936440346
 20
128.7937306790887
 30
0.0
 10
136.3594547113534
 20
128.7677574416095
 30
0.0
 10
136.3808960901895
 20
128.7416716576997
 30
0.0
 10
136.4039775140602
 20
128.7155187048833
 30
0.0
 10
136.4287606398315
 20
128.689344555023
 30
0.0
 10
136.4553177978526
 20
128.663188321158
 30
0.0
 10
136.4837391648568
 20
128.6370787562498
 30
0.0
 10
136.5141024450413
 20
128.6110658644677
 30
0.0
 10
136.5463274969212
 20
128.5853314259247
 30
0.0
 10
136.5801969782509
 20
128.5601246994721
 30
0.0
 10
136.6153910547848
 20
128.5357098804863
 30
0.0
 10
136.6516268415376
 20
128.5122697961387
 30
0.0
 10
136.6886332915334
 20
128.4899362346831
 30
0.0
 10
136.7262323299875
 20
128.4687540615472
 30
0.0
 10
136.7643589057753
 20
128.4486960543021
 30
0.0
 10
136.8030155339271
 20
128.4297067252524
 30
0.0
 10
136.8421961338833
 20
128.4117437405122
 30
0.0
 10
136.8818829960487
 20
128.3947761195454
 30
0.0
 10
136.9220699913146
 20
128.3787730463669
 30
0.0
 10
136.9627518851042
 20
128.3637082872995
 30
0.0
 10
137.0039256229209
 20
128.3495591742524
 30
0.0
 10
137.0455897334459
 20
128.3363064843462
 30
0.0
 10
137.0877368917701
 20
128.3239362832455
 30
0.0
 10
137.1303603521195
 20
128.3124369883784
 30
0.0
 10
137.1734524181595
 20
128.3017995540163
 30
0.0
 10
137.2170076160604
 20
128.2920166135439
 30
0.0
 10
137.2610141793474
 20
128.2830840315508
 30
0.0
 10
137.3054561703886
 20
128.2749996966234
 30
0.0
 10
137.3503171731284
 20
128.2677624709915
 30
0.0
 10
137.3955752371733
 20
128.2613727910745
 30
0.0
 10
137.441205002381
 20
128.2558319175705
 30
0.0
 10
137.487175659589
 20
128.2511411527063
 30
0.0
 10
137.5334573482869
 20
128.2473032473465
 30
0.0
 10
137.5800142328054
 20
128.244314180028
 30
0.0
 10
137.6268041955167
 20
128.2421954281231
 30
0.0
 10
137.6737895425103
 20
128.2408699085242
 30
0.0
 10
137.705174316001
 20
128.2407067235736
 30
0.0
 10
137.7208919164
 20
128.240625
 30
0.0
 11
136.1870585517
 21
129.1869253189
 31
0.0
 11
136.189314566
 21
129.1634116922
 31
0.0
 11
136.1924035654
 21
129.1397840249
 31
0.0
 11
136.1963447014
 21
129.1160391113
 31
0.0
 11
136.2011573624
 21
129.0921761781
 31
0.0
 11
136.2068634897
 21
129.068197513
 31
0.0
 11
136.213485958
 21
129.0441062176
 31
0.0
 11
136.2210556203
 21
129.0198883239
 31
0.0
 11
136.2296129576
 21
128.9955163842
 31
0.0
 11
136.2392019272
 21
128.9709726933
 31
0.0
 11
136.2498673207
 21
128.9462518963
 31
0.0
 11
136.2616568991
 21
128.9213528167
 31
0.0
 11
136.2746254386
 21
128.8962703653
 31
0.0
 11
136.2888323026
 21
128.8710023955
 31
0.0
 11
136.3043416153
 21
128.8455497121
 31
0.0
 11
136.3212198783
 21
128.8199199454
 31
0.0
 11
136.3395415077
 21
128.7941191521
 31
0.0
 11
136.3593846081
 21
128.7681592357
 31
0.0
 11
136.3808102899
 21
128.7420820332
 31
0.0
 11
136.4038682565
 21
128.7159448349
 31
0.0
 11
136.4286274403
 21
128.6897848363
 31
0.0
 11
136.4551551187
 21
128.6636462046
 31
0.0
 11
136.4835324526
 21
128.6375653465
 31
0.0
 11
136.5138837385
 21
128.6115506331
 31
0.0
 11
136.5462334523
 21
128.5857042419
 31
0.0
 11
136.5801719239
 21
128.5604340159
 31
0.0
 11
136.6154279474
 21
128.5359645666
 31
0.0
 11
136.6517362123
 21
128.5124666455
 31
0.0
 11
136.6887892623
 21
128.4900948708
 31
0.0
 11
136.7263523039
 21
128.4689238041
 31
0.0
 11
136.7644442429
 21
128.4488756134
 31
0.0
 11
136.8030910816
 21
128.4298833372
 31
0.0
 11
136.8422522841
 21
128.4119220791
 31
0.0
 11
136.881922337
 21
128.3949549995
 31
0.0
 11
136.9220938318
 21
128.3789519189
 31
0.0
 11
136.9627604325
 21
128.3638870612
 31
0.0
 11
137.0039195344
 21
128.349737593
 31
0.0
 11
137.0455703697
 21
128.3364840828
 31
0.0
 11
137.0877113761
 21
128.324110957
 31
0.0
 11
137.1303222795
 21
128.3126106129
 31
0.0
 11
137.1734043765
 21
128.3019714736
 31
0.0
 11
137.2169533806
 21
128.2921860118
 31
0.0
 11
137.2609554613
 21
128.2832506683
 31
0.0
 11
137.3053931359
 21
128.2751636803
 31
0.0
 11
137.3502497199
 21
128.2679239477
 31
0.0
 11
137.3955099934
 21
128.2615309742
 31
0.0
 11
137.441139801
 21
128.2559872487
 31
0.0
 11
137.487112305
 21
128.2512939648
 31
0.0
 11
137.5333960049
 21
128.2474526297
 31
0.0
 11
137.5799595734
 21
128.2444643845
 31
0.0
 11
137.6267582414
 21
128.2423305363
 31
0.0
 11
137.6737416954
 21
128.241051234
 31
0.0
 11
137.7208919164
 21
128.240625
 31
0.0
  0
SPLINE
  5
4A1
330
25
100
AcDbEntity
  8
0
  6
Continuous
100
AcDbSpline
210
0.0
220
0.0
230
1.0
 70
     8
 71
     3
 72
    10
 73
     6
 74
     4
 42
0.0000000001
 43
0.0000000001
 44
0.0000000001
 40
0.0
 40
0.0
 40
0.0
 40
0.0
 40
0.0062763641675166
 40
0.0125562537545741
 40
0.0188401956136166
 40
0.0188401956136166
 40
0.0188401956136166
 40
0.0188401956136166
 10
136.1858394501
 20
129.2057255033
 30
0.0
 10
136.185951882206
 20
129.203636395819
 30
0.0
 10
136.186176809571
 20
129.1994570074101
 30
0.0
 10
136.1865831863995
 20
129.1931899283464
 30
0.0
 10
136.186900062532
 20
129.1890139710125
 30
0.0
 10
136.1870585517
 20
129.1869253189
 30
0.0
 11
136.1858394501
 21
129.2057255033
 31
0.0
 11
136.1861882167
 21
129.1994588368
 31
0.0
 11
136.1865945612
 21
129.1931921074
 31
0.0
 11
136.1870585517
 21
129.1869253189
 31
0.0
  0
SPLINE
  5
4A4
330
25
100
AcDbEntity
  8
0
  6
Continuous
100
AcDbSpline
210
0.0
220
0.0
230
1.0
 70
     8
 71
     3
 72
    10
 73
     6
 74
     4
 42
0.0000000001
 43
0.0000000001
 44
0.0000000001
 40
0.0
 40
0.0
 40
0.0
 40
0.0
 40
0.0004306707963373
 40
0.0008612141653496
 40
0.0012916461729028
 40
0.0012916461729028
 40
0.0012916461729028
 40
0.0012916461729028
 10
135.9034625523
 20
140.2406170425
 30
0.0
 10
135.9033190040632
 20
140.2406186342026
 30
0.0
 10
135.9030319500627
 20
140.2406218171367
 30
0.0
 10
135.9026014070885
 20
140.2406244695603
 30
0.0
 10
135.902314415256
 20
140.240624823202
 30
0.0
 10
135.9021709379
 20
140.240625
 30
0.0
 11
135.9034625523
 21
140.2406170425
 31
0.0
 11
135.9030319042
 21
140.2406214639
 31
0.0
 11
135.902601369
 21
140.2406241161
 31
0.0
 11
135.9021709379
 21
140.240625
 31
0.0
  0
SPLINE
  5
4A5
330
25
100
AcDbEntity
  8
0
  6
Continuous
100
AcDbSpline
210
0.0
220
0.0
230
1.0
 70
     8
 71
     3
 72
    10
 73
     6
 74
     4
 42
0.0000000001
 43
0.0000000001
 44
0.0000000001
 40
0.0
 40
0.0
 40
0.0
 40
0.0
 40
3.706759933964698
 40
7.386234313209968
 40
11.03854503335171
 40
11.03854503335171
 40
11.03854503335171
 40
11.03854503335171
 10
135.9021709379
 20
140.240625
 30
0.0
 10
135.9337083756944
 20
139.0054409044961
 30
0.0
 10
135.9965511033968
 20
136.5441649352201
 30
0.0
 10
136.0911052324169
 20
132.865864998353
 30
0.0
 10
136.1543394700841
 20
130.4227548277556
 30
0.0
 10
136.1858394501
 20
129.2057255033
 30
0.0
 11
135.9021709379
 21
140.240625
 31
0.0
 11
135.9968906366
 21
136.5350754609
 31
0.0
 11
136.0914465938
 21
132.8568162424
 31
0.0
 11
136.1858394501
 21
129.2057255033
 31
0.0
  0
SPLINE
  5
4A8
330
25
100
AcDbEntity
  8
0
  6
Continuous
100
AcDbSpline
210
0.0
220
0.0
230
1.0
 70
     8
 71
     3
 72
    11
 73
     7
 74
     5
 42
0.0000000001
 43
0.0000000001
 44
0.0000000001
 40
0.0
 40
0.0
 40
0.0
 40
0.0
 40
0.0174619459119113
 40
0.03492515586079
 40
0.0523896084286983
 40
0.069855281782943
 40
0.069855281782943
 40
0.069855281782943
 40
0.069855281782943
 10
135.9070240874
 20
140.3103814737
 30
0.0
 10
135.9067272977617
 20
140.3045683965055
 30
0.0
 10
135.906133697001
 20
140.2929418213188
 30
0.0
 10
135.9052433246941
 20
140.2755013313738
 30
0.0
 10
135.9043529291668
 20
140.2580595985153
 30
0.0
 10
135.903759351504
 20
140.246431363305
 30
0.0
 10
135.9034625523
 20
140.2406170425
 30
0.0
 11
135.9070240874
 21
140.3103814737
 31
0.0
 11
135.9061337286
 21
140.2929422416
 31
0.0
 11
135.9052433525
 21
140.2755017447
 31
0.0
 11
135.90435296
 21
140.2580600044
 31
0.0
 11
135.9034625523
 21
140.2406170425
 31
0.0
  0
SPLINE
  5
4AA
330
25
100
AcDbEntity
  8
0
  6
Continuous
100
AcDbSpline
210
0.0
220
0.0
230
1.0
 70
     8
 71
     3
 72
     9
 73
     5
 74
     3
 42
0.0000000001
 43
0.0000000001
 44
0.0000000001
 40
0.0
 40
0.0
 40
0.0
 40
0.0
 40
0.024066017996484
 40
0.0481392421098114
 40
0.0481392421098114
 40
0.0481392421098114
 40
0.0481392421098114
 10
135.9100942703
 20
140.3584217226
 30
0.0
 10
135.9095057213029
 20
140.3504211294595
 30
0.0
 10
135.9083284470789
 20
140.3344175475513
 30
0.0
 10
135.9074589173472
 20
140.3183942978409
 30
0.0
 10
135.9070240874
 20
140.3103814737
 30
0.0
 11
135.9100942703
 21
140.3584217226
 31
0.0
 11
135.9084055364
 21
140.3344150277
 31
0.0
 11
135.9070240874
 21
140.3103814737
 31
0.0
  0
SPLINE
  5
4AB
330
25
100
AcDbEntity
  8
0
  6
Continuous
100
AcDbSpline
210
0.0
220
0.0
230
1.0
 70
     8
 71
     3
 72
    10
 73
     6
 74
     4
 42
0.0000000001
 43
0.0000000001
 44
0.0000000001
 40
0.0
 40
0.0
 40
0.0
 40
0.0
 40
0.0148557478047321
 40
0.0297232100954027
 40
0.0445870171106675
 40
0.0445870171106675
 40
0.0445870171106675
 40
0.0445870171106675
 10
135.9140354008
 20
140.402833281
 30
0.0
 10
135.9135508340249
 20
140.3979051139696
 30
0.0
 10
135.9125813183701
 20
140.3880448938074
 30
0.0
 10
135.9112675359269
 20
140.3732404238126
 30
0.0
 10
135.9104853267864
 20
140.3633608847948
 30
0.0
 10
135.9100942703
 20
140.3584217226
 30
0.0
 11
135.9140354008
 21
140.402833281
 31
0.0
 11
135.912605108
 21
140.3880465469
 31
0.0
 11
135.911290894
 21
140.3732372837
 31
0.0
 11
135.9100942703
 21
140.3584217226
 31
0.0
  0
SPLINE
  5
4B0
330
25
100
AcDbEntity
  8
0
  6
Continuous
100
AcDbSpline
210
0.0
220
0.0
230
1.0
 70
     8
 71
     3
 72
    32
 73
    28
 74
    26
 42
0.0000000001
 43
0.0000000001
 44
0.0000000001
 40
0.0
 40
0.0
 40
0.0
 40
0.0
 40
0.0538112722978609
 40
0.1066834740971523
 40
0.1586814645920392
 40
0.2104052217294918
 40
0.2618490303515403
 40
0.3126032838541202
 40
0.3627336999681735
 40
0.4126132949538937
 40
0.4622579926720501
 40
0.511401119888946
 40
0.560033953668576
 40
0.6083874146474012
 40
0.6565433286593426
 40
0.704296513046684
 40
0.7515465384981266
 40
0.7983833811013246
 40
0.8449192787175689
 40
0.8910258324475813
 40
0.9365637794352049
 40
0.9815497877247823
 40
1.025977620510413
 40
1.069823269509509
 40
1.113059335161827
 40
1.155678596629896
 40
1.197668424778009
 40
1.197668424778009
 40
1.197668424778009
 40
1.197668424778009
 10
136.4993217769
 20
141.4108889412
 30
0.0
 10
136.4852679011099
 20
141.3997408502887
 30
0.0
 10
136.4574054063241
 20
141.3776392158693
 30
0.0
 10
136.4172825540843
 20
141.3431532635818
 30
0.0
 10
136.3787002278602
 20
141.3079859371932
 30
0.0
 10
136.3416110360549
 20
141.2719235471778
 30
0.0
 10
136.3059501706076
 20
141.235023922142
 30
0.0
 10
136.2718328216039
 20
141.1974061622621
 30
0.0
 10
136.2392631380403
 20
141.1591228986972
 30
0.0
 10
136.2081656715996
 20
141.1201063102562
 30
0.0
 10
136.1785181303718
 20
141.0803869032916
 30
0.0
 10
136.1503941818843
 20
141.040080190209
 30
0.0
 10
136.1238117216608
 20
140.9992532682247
 30
0.0
 10
136.0987324208747
 20
140.9578704906992
 30
0.0
 10
136.0751388417316
 20
140.9159592649916
 30
0.0
 10
136.0530801975758
 20
140.873634541627
 30
0.0
 10
136.0325952816198
 20
140.8310134860734
 30
0.0
 10
136.0136723261711
 20
140.7881194852423
 30
0.0
 10
135.9962999173642
 20
140.7449851234313
 30
0.0
 10
135.9804918729108
 20
140.701713883395
 30
0.0
 10
135.966274354664
 20
140.6584378072277
 30
0.0
 10
135.9536466482728
 20
140.6152540347355
 30
0.0
 10
135.9425974326926
 20
140.5722222200498
 30
0.0
 10
135.9331022977511
 20
140.5294173436871
 30
0.0
 10
135.9251813505752
 20
140.4869092049783
 30
0.0
 10
135.9186792177819
 20
140.4447806543878
 30
0.0
 10
135.915575643643
 20
140.4167462198381
 30
0.0
 10
135.9140354008
 20
140.402833281
 30
0.0
 11
136.4993217769
 21
141.4108889412
 31
0.0
 11
136.457385926
 21
141.3771689555
 31
0.0
 11
136.4172338961
 21
141.342770057
 31
0.0
 11
136.3788243821
 21
141.3077200891
 31
0.0
 11
136.3417346719
 21
141.2716687306
 31
0.0
 11
136.305990053
 21
141.2346716001
 31
0.0
 11
136.2718958832
 21
141.1970739694
 31
0.0
 11
136.2394159016
 21
141.1588887705
 31
0.0
 11
136.2083261715
 21
141.1198836083
 31
0.0
 11
136.1786338712
 21
141.0800971368
 31
0.0
 11
136.1505157474
 21
141.0397930667
 31
0.0
 11
136.1239832849
 21
140.999035479
 31
0.0
 11
136.098922261
 21
140.9576833053
 31
0.0
 11
136.0753017424
 21
140.9157182823
 31
0.0
 11
136.0532345894
 21
140.8733696415
 31
0.0
 11
136.0327695095
 21
140.8307815515
 31
0.0
 11
136.0138670854
 21
140.7879284514
 31
0.0
 11
135.996483715
 21
140.7447612393
 31
0.0
 11
135.9806667509
 21
140.7014526034
 31
0.0
 11
135.966457136
 21
140.6581883981
 31
0.0
 11
135.9538356218
 21
140.6150092559
 31
0.0
 11
135.9427887289
 21
140.5719767277
 31
0.0
 11
135.9333040002
 21
140.5291692417
 31
0.0
 11
135.9253660181
 21
140.4866681145
 31
0.0
 11
135.918951583
 21
140.444534322
 31
0.0
 11
135.9140354008
 21
140.402833281
 31
0.0
  0
SPLINE
  5
4B1
330
25
100
AcDbEntity
  8
0
  6
Continuous
100
AcDbSpline
210
0.0
220
0.0
230
1.0
 70
     8
 71
     3
 72
    19
 73
    15
 74
    13
 42
0.0000000001
 43
0.0000000001
 44
0.0000000001
 40
0.0
 40
0.0
 40
0.0
 40
0.0
 40
0.0098871955618746
 40
0.0206395576341926
 40
0.0323332535485134
 40
0.0450407216131768
 40
0.0588251065976419
 40
0.0737536357017516
 40
0.089908251500877
 40
0.1073629872106242
 40
0.1261715909782697
 40
0.1464013505499544
 40
0.1681322439611802
 40
0.1914004037904649
 40
0.1914004037904649
 40
0.1914004037904649
 40
0.1914004037904649
 10
137.4199552848
 20
141.6711261021
 30
0.0
 10
137.4166585193619
 20
141.6710973668476
 30
0.0
 10
137.4097765092063
 20
141.671037381901
 30
0.0
 10
137.3990171746847
 20
141.6718233293801
 30
0.0
 10
137.3873802334393
 20
141.6732176841703
 30
0.0
 10
137.3748198943221
 20
141.6753061318252
 30
0.0
 10
137.3612900730269
 20
141.6780696707079
 30
0.0
 10
137.3467366515695
 20
141.6815251355811
 30
0.0
 10
137.331097932303
 20
141.6856784270594
 30
0.0
 10
137.3143129008559
 20
141.6905361186123
 30
0.0
 10
137.2963213757847
 20
141.6960989502999
 30
0.0
 10
137.2770601241447
 20
141.7023718161321
 30
0.0
 10
137.2564620569899
 20
141.7093355775683
 30
0.0
 10
137.2423011291216
 20
141.7142813479987
 30
0.0
 10
137.234978781
 20
141.7168387124
 30
0.0
 11
137.4199552848
 21
141.6711261021
 31
0.0
 11
137.4100681814
 21
141.6711687921
 31
0.0
 11
137.3993393363
 21
141.6718795473
 31
0.0
 11
137.3877276087
 21
141.6732616856
 31
0.0
 11
137.3751880375
 21
141.6753205442
 31
0.0
 11
137.3616789065
 21
141.6780614654
 31
0.0
 11
137.3471498948
 21
141.6814920339
 31
0.0
 11
137.3315322071
 21
141.6856223417
 31
0.0
 11
137.3147610684
 21
141.6904593557999
 31
0.0
 11
137.2967877116
 21
141.6960021007
 31
0.0
 11
137.2775473834
 21
141.7022513361
 31
0.0
 11
137.2569589135
 21
141.7092045106
 31
0.0
 11
137.234978781
 21
141.7168387124
 31
0.0
  0
SPLINE
  5
4B2
330
25
100
AcDbEntity
  8
0
  6
Continuous
100
AcDbSpline
210
0.0
220
0.0
230
1.0
 70
     8
 71
     3
 72
    42
 73
    38
 74
    36
 42
0.0000000001
 43
0.0000000001
 44
0.0000000001
 40
0.0
 40
0.0
 40
0.0
 40
0.0
 40
0.0234697066630057
 40
0.0465615814238544
 40
0.0692826348738008
 40
0.0916332721849247
 40
0.1136480361227034
 40
0.1353763278572413
 40
0.156863029625954
 40
0.1781518936663205
 40
0.1992968476000671
 40
0.2203351860762985
 40
0.2412896355608667
 40
0.2622099969502451
 40
0.2831531522447768
 40
0.3041629261023257
 40
0.3252922210290092
 40
0.3465833464986277
 40
0.3680603552105158
 40
0.3897969370786131
 40
0.4118748373955057
 40
0.4343492325959458
 40
0.4572705011495807
 40
0.4807031165132721
 40
0.5046799053264912
 40
0.5292145145494784
 40
0.554390068597109
 40
0.5802849413973673
 40
0.6069678169811013
 40
0.6344955190220778
 40
0.6629711478950831
 40
0.6925331323335761
 40
0.7232146542154557
 40
0.7550644684367553
 40
0.7881590148317924
 40
0.8225969393348948
 40
0.8584780032847063
 40
0.8584780032847063
 40
0.8584780032847063
 40
0.8584780032847063
 10
137.234978781
 20
141.7168387124
 30
0.0
 10
137.2275660317206
 20
141.7193430731176
 30
0.0
 10
137.2128598688315
 20
141.7243114775864
 30
0.0
 10
137.1906126359831
 20
141.7305459292853
 30
0.0
 10
137.1685078947866
 20
141.7358248689081
 30
0.0
 10
137.1465493019586
 20
141.7400910803794
 30
0.0
 10
137.1247605072227
 20
141.7433920700609
 30
0.0
 10
137.1031394755795
 20
141.7457527674458
 30
0.0
 10
137.0816810914072
 20
141.747202954383
 30
0.0
 10
137.0603758244598
 20
141.747767777309
 30
0.0
 10
137.0392147910699
 20
141.7474693593646
 30
0.0
 10
137.0181942811301
 20
141.7463272384644
 30
0.0
 10
136.9973104525776
 20
141.7443573362975
 30
0.0
 10
136.9765520832889
 20
141.7415698709949
 30
0.0
 10
136.955900036624
 20
141.7379725593469
 30
0.0
 10
136.9353339471528
 20
141.7335675356442
 30
0.0
 10
136.9148382743815
 20
141.7283536525453
 30
0.0
 10
136.894404179806
 20
141.7223276255213
 30
0.0
 10
136.8740165707073
 20
141.7154811109386
 30
0.0
 10
136.8536503926036
 20
141.7077937457611
 30
0.0
 10
136.8332711029696
 20
141.699241333507
 30
0.0
 10
136.8128543960339
 20
141.6897953075413
 30
0.0
 10
136.792383657669
 20
141.6794252298024
 30
0.0
 10
136.7718518043803
 20
141.6680997177327
 30
0.0
 10
136.7512642558026
 20
141.6557917149333
 30
0.0
 10
136.7306252247973
 20
141.6424659726666
 30
0.0
 10
136.709929739464
 20
141.6280761299289
 30
0.0
 10
136.6891607340895
 20
141.6125637158981
 30
0.0
 10
136.6683140636979
 20
141.595870272969
 30
0.0
 10
136.6473840230514
 20
141.577929183066
 30
0.0
 10
136.626354728919
 20
141.5586533611501
 30
0.0
 10
136.6052216721854
 20
141.5379585330928
 30
0.0
 10
136.583999866937
 20
141.5157703828075
 30
0.0
 10
136.5627226837136
 20
141.4920279790584
 30
0.0
 10
136.5414373061229
 20
141.4666377918952
 30
0.0
 10
136.5200918371984
 20
141.4395592087258
 30
0.0
 10
136.5063392120565
 20
141.4205755631511
 30
0.0
 10
136.4993217786
 20
141.410888942
 30
0.0
 11
137.234978781
 21
141.7168387124
 31
0.0
 11
137.212678247
 21
141.7241539919
 31
0.0
 11
137.1904565334
 21
141.730433333
 31
0.0
 11
137.1683530886
 21
141.7356948915
 31
0.0
 11
137.1464129327
 21
141.7399587568
 31
0.0
 11
137.1246461866
 21
141.7432539951
 31
0.0
 11
137.1030461945
 21
141.7456117489
 31
0.0
 11
137.0816083642
 21
141.7470601221
 31
0.0
 11
137.0603269813
 21
141.7476244571
 31
0.0
 11
137.0391841203
 21
141.7473269582
 31
0.0
 11
137.0181767236
 21
141.7461863576
 31
0.0
 11
136.9973148051
 21
141.7442193015
 31
0.0
 11
136.9765803347
 21
141.7414366305
 31
0.0
 11
136.9559475392
 21
141.7378444858
 31
0.0
 11
136.9354032771
 21
141.7334463166
 31
0.0
 11
136.9149255741
 21
141.7282395149
 31
0.0
 11
136.8945031746
 21
141.7222197456
 31
0.0
 11
136.8741427693
 21
141.7153848499
 31
0.0
 11
136.8538053366
 21
141.707712313
 31
0.0
 11
136.8334459868
 21
141.699172374
 31
0.0
 11
136.8130471467
 21
141.6897391475
 31
0.0
 11
136.7925979028
 21
141.6793847776
 31
0.0
 11
136.772077522
 21
141.6680710057
 31
0.0
 11
136.7514958146
 21
141.6557714235
 31
0.0
 11
136.7308817512
 21
141.6424670092
 31
0.0
 11
136.7102087654
 21
141.6280991221
 31
0.0
 11
136.6894588847
 21
141.6126076119
 31
0.0
 11
136.6686273562
 21
141.5959335821
 31
0.0
 11
136.647723518
 21
141.5780225819
 31
0.0
 11
136.6267274439
 21
141.5587865139
 31
0.0
 11
136.6056009712
 21
141.5381084319
 31
0.0
 11
136.5843885197
 21
141.5159411658
 31
0.0
 11
136.5631297176
 21
141.4922246315
 31
0.0
 11
136.5418510076
 21
141.4668777283
 31
0.0
 11
136.5205724358
 21
141.439800191
 31
0.0
 11
136.4993217786
 21
141.410888942
 31
0.0
  0
SPLINE
  5
4B4
330
25
100
AcDbEntity
  8
0
  6
Continuous
100
AcDbSpline
210
0.0
220
0.0
230
1.0
 70
     8
 71
     3
 72
    10
 73
     6
 74
     4
 42
0.0000000001
 43
0.0000000001
 44
0.0000000001
 40
0.0
 40
0.0
 40
0.0
 40
0.0
 40
0.0469870332110027
 40
0.0901013981406681
 40
0.1031159650043554
 40
0.1031159650043554
 40
0.1031159650043554
 40
0.1031159650043554
 10
134.1957634732
 20
78.73770766159998
 30
0.0
 10
134.1946911927639
 20
78.72202258386579
 30
0.0
 10
134.192635009177
 20
78.69194519150416
 30
0.0
 10
134.1810075736865
 20
78.65913055094049
 30
0.0
 10
134.172528624024
 20
78.64246121500457
 30
0.0
 10
134.1705626173
 20
78.6385961105
 30
0.0
 11
134.1957634732
 21
78.73770766159998
 31
0.0
 11
134.1903428055
 21
78.69103435389999
 31
0.0
 11
134.1763450567
 21
78.65025554209998
 31
0.0
 11
134.1705626173
 21
78.6385961105
 31
0.0
  0
SPLINE
  5
4B5
330
25
100
AcDbEntity
  8
0
  6
Continuous
100
AcDbSpline
210
0.0
220
0.0
230
1.0
 70
     8
 71
     3
 72
     9
 73
     5
 74
     3
 42
0.0000000001
 43
0.0000000001
 44
0.0000000001
 40
0.0
 40
0.0
 40
0.0
 40
0.0
 40
0.0243598621922054
 40
0.0576321648733678
 40
0.0576321648733678
 40
0.0576321648733678
 40
0.0576321648733678
 10
134.1705626173
 20
78.6385961105
 30
0.0
 10
134.1665346149347
 20
78.63152593330477
 30
0.0
 10
134.1570049018931
 20
78.6147988428728
 30
0.0
 10
134.1444392523002
 20
78.60018987937417
 30
0.0
 10
134.1371848294
 20
78.5917558069
 30
0.0
 11
134.1705626173
 21
78.6385961105
 31
0.0
 11
134.1579362192
 21
78.6177639969
 31
0.0
 11
134.1371848294
 21
78.5917558069
 31
0.0
  0
SPLINE
  5
4B6
330
25
100
AcDbEntity
  8
0
  6
Continuous
100
AcDbSpline
210
0.0
220
0.0
230
1.0
 70
     8
 71
     3
 72
    10
 73
     6
 74
     4
 42
0.0000000001
 43
0.0000000001
 44
0.0000000001
 40
0.0
 40
0.0
 40
0.0
 40
0.0
 40
0.0734422244179125
 40
0.1182213535225899
 40
0.134728124615113
 40
0.134728124615113
 40
0.134728124615113
 40
0.134728124615113
 10
134.1371848294
 20
78.5917558069
 30
0.0
 10
134.1206127045571
 20
78.57373944447228
 30
0.0
 10
134.093936238189
 20
78.54473816123718
 30
0.0
 10
134.0633612504031
 20
78.51182738705377
 30
0.0
 10
134.0501374805426
 20
78.49625455206805
 30
0.0
 10
134.0465757846
 20
78.4920601579
 30
0.0
 11
134.1371848294
 21
78.5917558069
 31
0.0
 11
134.0874096014
 21
78.5377540754
 31
0.0
 11
134.0573105185
 21
78.5045996547
 31
0.0
 11
134.0465757846
 21
78.4920601579
 31
0.0
  0
SPLINE
  5
4B7
330
25
100
AcDbEntity
  8
0
  6
Continuous
100
AcDbSpline
210
0.0
220
0.0
230
1.0
 70
     8
 71
     3
 72
    14
 73
    10
 74
     8
 42
0.0000000001
 43
0.0000000001
 44
0.0000000001
 40
0.0
 40
0.0
 40
0.0
 40
0.0
 40
0.3495818397542881
 40
0.8391998437875612
 40
1.328818413659803
 40
1.818437428334798
 40
2.308056758436832
 40
2.797676258120736
 40
3.134608959058566
 40
3.134608959058566
 40
3.134608959058566
 40
3.134608959058566
 10
142.5457513667
 20
123.5406252504
 30
0.0
 10
142.5397245518112
 20
123.4239799408837
 30
0.0
 10
142.5252566889591
 20
123.1439633199017
 30
0.0
 10
142.3888059600625
 20
122.7159891297391
 30
0.0
 10
142.1347478621738
 20
122.2927790782881
 30
0.0
 10
141.7835004131943
 20
121.943763401663
 30
0.0
 10
141.3586825565461
 20
121.692368312877
 30
0.0
 10
140.9339440190404
 20
121.5600143154918
 30
0.0
 10
140.6581761243592
 20
121.5462578777266
 30
0.0
 10
140.5457631134
 20
121.540650254
 30
0.0
 11
142.5457513667
 21
123.5406252504
 31
0.0
 11
142.5152279965
 21
123.1923785181
 31
0.0
 11
142.3716014556999
 21
122.7243003124
 31
0.0
 11
142.1185497728
 21
122.3051449835
 31
0.0
 11
141.7712388017
 21
121.9600335973
 31
0.0
 11
141.3504836541
 21
121.709649504
 31
0.0
 11
140.8815011183
 21
121.5689987465
 31
0.0
 11
140.5457631134
 21
121.540650254
 31
0.0
  0
SPLINE
  5
4B9
330
25
100
AcDbEntity
  8
0
  6
Continuous
100
AcDbSpline
210
0.0
220
0.0
230
1.0
 70
     8
 71
     3
 72
    13
 73
     9
 74
     7
 42
0.0000000001
 43
0.0000000001
 44
0.0000000001
 40
0.0
 40
0.0
 40
0.0
 40
0.0
 40
0.3442859198418442
 40
0.8580655731489663
 40
1.371845522643644
 40
1.885625729390313
 40
2.399406087591333
 40
2.913186452557524
 40
2.913186452557524
 40
2.913186452557524
 40
2.913186452557524
 10
169.129388805
 20
86.9518657396
 30
0.0
 10
169.0550533341506
 20
86.86408866417347
 30
0.0
 10
168.8697866568812
 20
86.64532140651215
 30
0.0
 10
168.6715060063581
 20
86.22563669812637
 30
0.0
 10
168.5693482349766
 20
85.71681077427999
 30
0.0
 10
168.603745273702
 20
85.19933546960934
 30
0.0
 10
168.7614847911275
 20
84.70143992492865
 30
0.0
 10
168.9649843323292
 20
84.4235491079194
 30
0.0
 10
169.0667341036
 20
84.28460369850001
 30
0.0
 11
169.129388805
 21
86.9518657396
 31
0.0
 11
168.9162422866
 21
86.6814931147
 31
0.0
 11
168.691609508
 21
86.2194220737
 31
0.0
 11
168.5921073793
 21
85.7153693355
 31
0.0
 11
168.6243023414
 21
85.20259883590001
 31
0.0
 11
168.7860697532
 21
84.71494982180001
 31
0.0
 11
169.0667341036
 21
84.28460369850001
 31
0.0
  0
SPLINE
  5
4BA
330
25
100
AcDbEntity
  8
0
  6
Continuous
100
AcDbSpline
210
0.0
220
0.0
230
1.0
 70
     8
 71
     3
 72
    16
 73
    12
 74
    10
 42
0.0000000001
 43
0.0000000001
 44
0.0000000001
 40
0.0
 40
0.0
 40
0.0
 40
0.0
 40
1.379779262749855
 40
2.72166816101498
 40
4.027294007338717
 40
5.321077030176293
 40
6.621458185630427
 40
7.951529962977569
 40
9.325240782142126
 40
10.6778212981694
 40
11.8986588498761
 40
11.8986588498761
 40
11.8986588498761
 40
11.8986588498761
 10
147.0765945852
 20
120.1668567057
 30
0.0
 10
147.510863379862
 20
120.0144285326732
 30
0.0
 10
148.3674754363427
 20
119.713758043872
 30
0.0
 10
149.680443016998
 20
119.4194811895834
 30
0.0
 10
150.9863479187187
 20
119.2580360970008
 30
0.0
 10
152.2889246794281
 20
119.2411421558371
 30
0.0
 10
153.593435422758
 20
119.3664433590652
 30
0.0
 10
154.9037565780761
 20
119.6327362404799
 30
0.0
 10
156.197710524597
 20
120.0308374574973
 30
0.0
 10
157.4218742990195
 20
120.5176417058718
 30
0.0
 10
158.1908967468136
 20
120.8982265522424
 30
0.0
 10
158.5557233928
 20
121.0787771895
 30
0.0
 11
147.0765945852
 21
120.1668567057
 31
0.0
 11
148.3872908704
 21
119.7357348414
 31
0.0
 11
149.6958847295
 21
119.4386693146
 31
0.0
 11
150.992024967
 21
119.281572735
 31
0.0
 11
152.2856962443
 21
119.2645687216
 31
0.0
 11
153.5802326901
 21
119.3877212285
 31
0.0
 11
154.8840807547
 21
119.65053515
 31
0.0
 11
156.1983228826
 21
120.0503464104
 31
0.0
 11
157.4546946566
 21
120.5513494222
 31
0.0
 11
158.5557233928
 21
121.0787771895
 31
0.0
  0
SPLINE
  5
4BE
330
25
100
AcDbEntity
  8
0
  6
Continuous
100
AcDbSpline
210
0.0
220
0.0
230
1.0
 70
     8
 71
     3
 72
    15
 73
    11
 74
     9
 42
0.0000000001
 43
0.0000000001
 44
0.0000000001
 40
0.0
 40
0.0
 40
0.0
 40
0.0
 40
0.0234461082893566
 40
0.04687631441693
 40
0.0707655386980056
 40
0.0953169235641391
 40
0.1206892847292305
 40
0.1470938438889698
 40
0.1746548799864217
 40
0.2034413379057076
 40
0.2034413379057076
 40
0.2034413379057076
 40
0.2034413379057076
 10
134.1371848294
 20
81.1327932362
 30
0.0
 10
134.14172966056
 20
81.12642766669354
 30
0.0
 10
134.1508162403793
 20
81.11370084508434
 30
0.0
 10
134.1621433526668
 20
81.09295309303933
 30
0.0
 10
134.1719764514724
 20
81.071087049543
 30
0.0
 10
134.1802138757398
 20
81.04787364398345
 30
0.0
 10
134.1868926784947
 20
81.02329719275741
 30
0.0
 10
134.1918572168913
 20
80.99730148672109
 30
0.0
 10
134.195135600876
 20
80.96987284500573
 30
0.0
 10
134.1955511698848
 20
80.95108550064762
 30
0.0
 10
134.1957634732
 20
80.9414875388
 30
0.0
 11
134.1371848294
 21
81.1327932362
 31
0.0
 11
134.150423228
 21
81.11344214330001
 31
0.0
 11
134.1618001565
 21
81.0929594663
 31
0.0
 11
134.171588759
 21
81.07116776380001
 31
0.0
 11
134.1798313057
 21
81.048041352
 31
0.0
 11
134.186492443
 21
81.0235589918
 31
0.0
 11
134.1914882532
 21
80.9976313497
 31
0.0
 11
134.1946524068
 21
80.97025254690001
 31
0.0
 11
134.1957634732
 21
80.9414875388
 31
0.0
  0
SPLINE
  5
4C1
330
25
100
AcDbEntity
  8
0
  6
Continuous
100
AcDbSpline
210
0.0
220
0.0
230
1.0
 70
     8
 71
     3
 72
     9
 73
     5
 74
     3
 42
0.0000000001
 43
0.0000000001
 44
0.0000000001
 40
0.0
 40
0.0
 40
0.0
 40
0.0
 40
0.507308969693773
 40
0.9940249531963055
 40
0.9940249531963055
 40
0.9940249531963055
 40
0.9940249531963055
 10
142.1712090863
 20
82.9859447715
 30
0.0
 10
142.0239168771171
 20
83.06910940488373
 30
0.0
 10
141.7353114313516
 20
83.2320628035921
 30
0.0
 10
141.43720262514
 20
83.3768908422461
 30
0.0
 10
141.2912361478
 20
83.44780467699999
 30
0.0
 11
142.1712090863
 21
82.9859447715
 31
0.0
 11
141.7268571595
 21
83.23071763740001
 31
0.0
 11
141.2912361478
 21
83.44780467699999
 31
0.0
  0
SPLINE
  5
4C2
330
25
100
AcDbEntity
  8
0
  6
Continuous
100
AcDbSpline
210
0.0
220
0.0
230
1.0
 70
     8
 71
     3
 72
     9
 73
     5
 74
     3
 42
0.0000000001
 43
0.0000000001
 44
0.0000000001
 40
0.0
 40
0.0
 40
0.0
 40
0.0
 40
0.4437768558133759
 40
0.8713268357477023
 40
0.8713268357477023
 40
0.8713268357477023
 40
0.8713268357477023
 10
141.2912361478
 20
83.44780467699999
 30
0.0
 10
141.1581819580616
 20
83.51247308786776
 30
0.0
 10
140.8969387575452
 20
83.63944528363706
 30
0.0
 10
140.6400596590128
 20
83.77502735709972
 30
0.0
 10
140.5140120625
 20
83.8415559092
 30
0.0
 11
141.2912361478
 21
83.44780467699999
 31
0.0
 11
140.8932056192
 21
83.64404329720001
 31
0.0
 11
140.5140120625
 21
83.8415559092
 31
0.0
  0
SPLINE
  5
4C4
330
25
100
AcDbEntity
  8
0
  6
Continuous
100
AcDbSpline
210
0.0
220
0.0
230
1.0
 70
     8
 71
     3
 72
    10
 73
     6
 74
     4
 42
0.0000000001
 43
0.0000000001
 44
0.0000000001
 40
0.0
 40
0.0
 40
0.0
 40
0.0
 40
0.1241494713358356
 40
0.1993630968008743
 40
0.2257632962992557
 40
0.2257632962992557
 40
0.2257632962992557
 40
0.2257632962992557
 10
169.3440579135
 20
64.2366863812
 30
0.0
 10
169.3807658835845
 20
64.25578748830068
 30
0.0
 10
169.4397126879048
 20
64.28646064238615
 30
0.0
 10
169.5063389252126
 20
64.32149299166751
 30
0.0
 10
169.5369882002942
 20
64.33591590192772
 30
0.0
 10
169.5449511618
 20
64.33966310569998
 30
0.0
 11
169.3440579135
 21
64.2366863812
 31
0.0
 11
169.4541385174
 21
64.2940915367
 31
0.0
 11
169.5211069267
 21
64.3283307191
 31
0.0
 11
169.5449511618
 21
64.33966310569998
 31
0.0
  0
SPLINE
  5
4C5
330
25
100
AcDbEntity
  8
0
  6
Continuous
100
AcDbSpline
210
0.0
220
0.0
230
1.0
 70
     8
 71
     3
 72
    10
 73
     6
 74
     4
 42
0.0000000001
 43
0.0000000001
 44
0.0000000001
 40
0.0
 40
0.0
 40
0.0
 40
0.0
 40
0.1598465065059087
 40
0.3438413660778528
 40
0.5508324478971614
 40
0.5508324478971614
 40
0.5508324478971614
 40
0.5508324478971614
 10
161.3540641713
 20
64.2366863812
 30
0.0
 10
161.3049377314504
 20
64.25770005224976
 30
0.0
 10
161.199263215581
 20
64.30290197450626
 30
0.0
 10
161.0166034331394
 20
64.3335388342029
 30
0.0
 10
160.8863674865604
 20
64.33754317544626
 30
0.0
 10
160.8174195357
 20
64.33966310569998
 30
0.0
 11
161.3540641713
 21
64.2366863812
 31
0.0
 11
161.2048812173
 21
64.2940915367
 31
0.0
 11
161.0241001709
 21
64.3283307191
 31
0.0
 11
160.8174195357
 21
64.33966310569998
 31
0.0
  0
SPLINE
  5
4C6
330
25
100
AcDbEntity
  8
0
  6
Continuous
100
AcDbSpline
210
0.0
220
0.0
230
1.0
 70
     8
 71
     3
 72
    10
 73
     6
 74
     4
 42
0.0000000001
 43
0.0000000001
 44
0.0000000001
 40
0.0
 40
0.0
 40
0.0
 40
0.0
 40
0.2655427354173795
 40
0.5156469426203351
 40
0.7464501894925831
 40
0.7464501894925831
 40
0.7464501894925831
 40
0.7464501894925831
 10
159.7857572153
 20
64.2366863812
 30
0.0
 10
159.8718841433421
 20
64.25719458121395
 30
0.0
 10
160.0391306208341
 20
64.2970186442568
 30
0.0
 10
160.2860552603326
 20
64.33218136928431
 30
0.0
 10
160.4463597306224
 20
64.33723682623743
 30
0.0
 10
160.5232950992
 20
64.33966310569998
 30
0.0
 11
159.7857572153
 21
64.2366863812
 31
0.0
 11
160.0450207732
 21
64.2940915367
 31
0.0
 11
160.292770229
 21
64.3283307191
 31
0.0
 11
160.5232950992
 21
64.33966310569998
 31
0.0
  0
SPLINE
  5
4C7
330
25
100
AcDbEntity
  8
0
  6
Continuous
100
AcDbSpline
210
0.0
220
0.0
230
1.0
 70
     8
 71
     3
 72
    10
 73
     6
 74
     4
 42
0.0000000001
 43
0.0000000001
 44
0.0000000001
 40
0.0
 40
0.0
 40
0.0
 40
0.0
 40
0.2655427354173795
 40
0.5156469426203351
 40
0.7464501894925831
 40
0.7464501894925831
 40
0.7464501894925831
 40
0.7464501894925831
 10
143.805769731
 20
64.2366863812
 30
0.0
 10
143.719642802958
 20
64.25719458121395
 30
0.0
 10
143.5523963254659
 20
64.2970186442568
 30
0.0
 10
143.3054716859674
 20
64.33218136928431
 30
0.0
 10
143.1451672156776
 20
64.33723682623743
 30
0.0
 10
143.0682318471
 20
64.33966310569998
 30
0.0
 11
143.805769731
 21
64.2366863812
 31
0.0
 11
143.5465061731
 21
64.2940915367
 31
0.0
 11
143.2987567173
 21
64.3283307191
 31
0.0
 11
143.0682318471
 21
64.33966310569998
 31
0.0
  0
SPLINE
  5
4C8
330
25
100
AcDbEntity
  8
0
  6
Continuous
100
AcDbSpline
210
0.0
220
0.0
230
1.0
 70
     8
 71
     3
 72
    10
 73
     6
 74
     4
 42
0.0000000001
 43
0.0000000001
 44
0.0000000001
 40
0.0
 40
0.0
 40
0.0
 40
0.0
 40
0.1598465065059087
 40
0.343841366176094
 40
0.5508324478955649
 40
0.5508324478955649
 40
0.5508324478955649
 40
0.5508324478955649
 10
142.237462775
 20
64.2366863812
 30
0.0
 10
142.2865892148494
 20
64.2577000522508
 30
0.0
 10
142.3922637307487
 20
64.30290197452247
 30
0.0
 10
142.5749235131965
 20
64.33353883418739
 30
0.0
 10
142.7051594597736
 20
64.33754317544155
 30
0.0
 10
142.7741074106
 20
64.33966310569998
 30
0.0
 11
142.237462775
 21
64.2366863812
 31
0.0
 11
142.386645729
 21
64.2940915367
 31
0.0
 11
142.5674267755
 21
64.3283307191
 31
0.0
 11
142.7741074106
 21
64.33966310569998
 31
0.0
  0
SPLINE
  5
4C9
330
25
100
AcDbEntity
  8
0
  6
Continuous
100
AcDbSpline
210
0.0
220
0.0
230
1.0
 70
     8
 71
     3
 72
    10
 73
     6
 74
     4
 42
0.0000000001
 43
0.0000000001
 44
0.0000000001
 40
0.0
 40
0.0
 40
0.0
 40
0.0
 40
0.1241494713358356
 40
0.1993630968008743
 40
0.2257632962089485
 40
0.2257632962089485
 40
0.2257632962089485
 40
0.2257632962089485
 10
134.2474690328
 20
64.2366863812
 30
0.0
 10
134.2107610627191
 20
64.2557874883081
 30
0.0
 10
134.1518142584044
 20
64.28646064240546
 30
0.0
 10
134.0851880210989
 20
64.32149299162138
 30
0.0
 10
134.0545387460715
 20
64.33591590192573
 30
0.0
 10
134.0465757846
 20
64.33966310569998
 30
0.0
 11
134.2474690328
 21
64.2366863812
 31
0.0
 11
134.1373884289
 21
64.2940915367
 31
0.0
 11
134.0704200196
 21
64.3283307191
 31
0.0
 11
134.0465757846
 21
64.33966310569998
 31
0.0
  0
SPLINE
  5
4CA
330
25
100
AcDbEntity
  8
0
  6
Continuous
100
AcDbSpline
210
0.0
220
0.0
230
1.0
 70
     8
 71
     3
 72
     9
 73
     5
 74
     3
 42
0.0000000001
 43
0.0000000001
 44
0.0000000001
 40
0.0
 40
0.0
 40
0.0
 40
0.0
 40
0.0121565498995521
 40
0.0476164381433324
 40
0.0476164381433324
 40
0.0476164381433324
 40
0.0476164381433324
 10
169.0667411907
 20
84.2846097497
 30
0.0
 10
169.0632484558339
 20
84.28255524168748
 30
0.0
 10
169.0495676339663
 20
84.2745078635661
 30
0.0
 10
169.0359123387464
 20
84.26641722046944
 30
0.0
 10
169.0257432614
 20
84.260392131
 30
0.0
 11
169.0667411907
 21
84.2846097497
 31
0.0
 11
169.0562646499
 21
84.2784434057
 31
0.0
 11
169.0257432614
 21
84.260392131
 31
0.0
  0
SPLINE
  5
4CC
330
25
100
AcDbEntity
  8
0
  6
Continuous
100
AcDbSpline
210
0.0
220
0.0
230
1.0
 70
     8
 71
     3
 72
    10
 73
     6
 74
     4
 42
0.0000000001
 43
0.0000000001
 44
0.0000000001
 40
0.0
 40
0.0
 40
0.0
 40
0.0
 40
0.2302520902606159
 40
0.4779176851433973
 40
0.7403703692908883
 40
0.7403703692908883
 40
0.7403703692908883
 40
0.7403703692908883
 10
169.0257915508
 20
84.2603741189
 30
0.0
 10
168.9503383847633
 20
84.27444936724533
 30
0.0
 10
168.7937256807995
 20
84.30366434678973
 30
0.0
 10
168.5498822964573
 20
84.34181811873516
 30
0.0
 10
168.3818984522274
 20
84.36815930802324
 30
0.0
 10
168.2954718084
 20
84.38171168620001
 30
0.0
 11
169.0257915508
 21
84.2603741189
 31
0.0
 11
168.7992484421
 21
84.30153532600001
 31
0.0
 11
168.5547584281
 21
84.3410686024
 31
0.0
 11
168.2954718084
 21
84.38171168620001
 31
0.0
  0
SPLINE
  5
4CF
330
25
100
AcDbEntity
  8
0
  6
Continuous
100
AcDbSpline
210
0.0
220
0.0
230
1.0
 70
     8
 71
     3
 72
    16
 73
    12
 74
    10
 42
0.0000000001
 43
0.0000000001
 44
0.0000000001
 40
0.0
 40
0.0
 40
0.0
 40
0.0
 40
0.539632870994777
 40
1.067839967276281
 40
1.572891068345261
 40
2.050189083133265
 40
2.49630837220326
 40
2.910397721349929
 40
3.296425625683676
 40
3.660180014064516
 40
4.008028058167729
 40
4.008028058167729
 40
4.008028058167729
 40
4.008028058167729
 10
168.2954721382
 20
84.38171049300001
 30
0.0
 10
168.119224698646
 20
84.41814753359297
 30
0.0
 10
167.7704615483603
 20
84.49025012467996
 30
0.0
 10
167.268908659782
 20
84.64502319287396
 30
0.0
 10
166.7938302097294
 20
84.81178060488287
 30
0.0
 10
166.3484116233016
 20
84.9801848160748
 30
0.0
 10
165.931332160545
 20
85.13769149978879
 30
0.0
 10
165.5407253964453
 20
85.2791692271737
 30
0.0
 10
165.1732591190846
 20
85.40365887347423
 30
0.0
 10
164.8248761930828
 20
85.51548151611844
 30
0.0
 10
164.5981473416964
 20
85.5851872930248
 30
0.0
 10
164.4873169343
 20
85.61926112
 30
0.0
 11
168.2954721382
 21
84.38171049300001
 31
0.0
 11
167.7688386204
 21
84.4994422788
 31
0.0
 11
167.2627041843
 21
84.6505404891
 31
0.0
 11
166.7858002298
 21
84.81679100149999
 31
0.0
 11
166.338685157
 21
84.98382844219999
 31
0.0
 11
165.9209750043
 21
85.1404829934
 31
0.0
 11
165.5314375581
 21
85.2809485304
 31
0.0
 11
165.165895246
 21
85.405030604
 31
0.0
 11
164.8196004042
 21
85.51637303799998
 31
0.0
 11
164.4873169343
 21
85.61926112
 31
0.0
  0
SPLINE
  5
4D3
330
25
100
AcDbEntity
  8
0
  6
Continuous
100
AcDbSpline
210
0.0
220
0.0
230
1.0
 70
     8
 71
     3
 72
     9
 73
     5
 74
     3
 42
0.0000000001
 43
0.0000000001
 44
0.0000000001
 40
0.0
 40
0.0
 40
0.0
 40
0.0
 40
0.1874117467968353
 40
0.3720122520457297
 40
0.3720122520457297
 40
0.3720122520457297
 40
0.3720122520457297
 10
164.4873149427
 20
85.6192596755
 30
0.0
 10
164.427456179339
 20
85.63715214838689
 30
0.0
 10
164.3086365549385
 20
85.67266870082864
 30
0.0
 10
164.1886732368309
 20
85.70410571295935
 30
0.0
 10
164.1291448503
 20
85.7197054366
 30
0.0
 11
164.4873149427
 21
85.6192596755
 31
0.0
 11
164.3074483915
 21
85.67190173660001
 31
0.0
 11
164.1291448503
 21
85.7197054366
 31
0.0
  0
SPLINE
  5
4DE
330
25
100
AcDbEntity
  8
0
  6
Continuous
100
AcDbSpline
210
0.0
220
0.0
230
1.0
 70
     8
 71
     3
 72
     9
 73
     5
 74
     3
 42
0.0000000001
 43
0.0000000001
 44
0.0000000001
 40
0.0
 40
0.0
 40
0.0
 40
0.0
 40
0.2007727021042996
 40
0.4063701157749851
 40
0.4063701157749851
 40
0.4063701157749851
 40
0.4063701157749851
 10
162.3780969955
 20
85.4126638133
 30
0.0
 10
162.3151377825257
 20
85.38997038780332
 30
0.0
 10
162.1877064016791
 20
85.34403819757151
 30
0.0
 10
162.0602177101367
 20
85.29826531732331
 30
0.0
 10
161.9957165467
 20
85.2751071533
 30
0.0
 11
162.3780969955
 21
85.4126638133
 31
0.0
 11
162.1892053671
 21
85.3446224242
 31
0.0
 11
161.9957165467
 21
85.2751071533
 31
0.0
  0
SPLINE
  5
4E1
330
25
100
AcDbEntity
  8
0
  6
Continuous
100
AcDbSpline
210
0.0
220
0.0
230
1.0
 70
     8
 71
     3
 72
    11
 73
     7
 74
     5
 42
0.0000000001
 43
0.0000000001
 44
0.0000000001
 40
0.0
 40
0.0
 40
0.0
 40
0.0
 40
0.1542612092586486
 40
0.3241486062045159
 40
0.5106700579544115
 40
0.7153826548867903
 40
0.7153826548867903
 40
0.7153826548867903
 40
0.7153826548867903
 10
161.9957190025
 20
85.2751115973
 30
0.0
 10
161.9471152173339
 20
85.25830688041157
 30
0.0
 10
161.8449842325349
 20
85.22299518032041
 30
0.0
 10
161.6815353326415
 20
85.17525210573064
 30
0.0
 10
161.5002552313981
 20
85.12893179661454
 30
0.0
 10
161.3723850924031
 20
85.10320627794103
 30
0.0
 10
161.3054772445
 20
85.08974544100001
 30
0.0
 11
161.9957190025
 21
85.2751115973
 31
0.0
 11
161.849541103
 21
85.22583135399999
 31
0.0
 11
161.6866164175
 21
85.1776932766
 31
0.0
 11
161.5057969129
 21
85.1319269274
 31
0.0
 11
161.3054772445
 21
85.08974544100001
 31
0.0
  0
SPLINE
  5
4E4
330
25
100
AcDbEntity
  8
0
  6
Continuous
100
AcDbSpline
210
0.0
220
0.0
230
1.0
 70
     8
 71
     3
 72
     9
 73
     5
 74
     3
 42
0.0000000001
 43
0.0000000001
 44
0.0000000001
 40
0.0
 40
0.0
 40
0.0
 40
0.0
 40
0.2602446511293409
 40
0.5163600937054291
 40
0.5163600937054291
 40
0.5163600937054291
 40
0.5163600937054291
 10
161.3054761543
 20
85.0897223895
 30
0.0
 10
161.219802744256
 20
85.07605051325716
 30
0.0
 10
161.0498152734417
 20
85.04892368752894
 30
0.0
 10
160.878900947309
 20
85.02843519624977
 30
0.0
 10
160.7941271648
 20
85.01827287140002
 30
0.0
 11
161.3054761543
 21
85.0897223895
 31
0.0
 11
161.0482204896
 21
85.0503929931
 31
0.0
 11
160.7941271648
 21
85.01827287140002
 31
0.0
  0
SPLINE
  5
4E7
330
25
100
AcDbEntity
  8
0
  6
Continuous
100
AcDbSpline
210
0.0
220
0.0
230
1.0
 70
     8
 71
     3
 72
     9
 73
     5
 74
     3
 42
0.0000000001
 43
0.0000000001
 44
0.0000000001
 40
0.0
 40
0.0
 40
0.0
 40
0.0
 40
0.6360315372624384
 40
1.272585595325494
 40
1.272585595325494
 40
1.272585595325494
 40
1.272585595325494
 10
160.7941351465
 20
85.0183032173
 30
0.0
 10
160.5825404869882
 20
85.03392701517419
 30
0.0
 10
160.1591773360013
 20
85.06518744638571
 30
0.0
 10
159.7413705815069
 20
85.14036294936405
 30
0.0
 10
159.532381429
 20
85.17796613429998
 30
0.0
 11
160.7941351465
 21
85.0183032173
 31
0.0
 11
160.1607391266
 21
85.07614436500001
 31
0.0
 11
159.532381429
 21
85.17796613429998
 31
0.0
  0
SPLINE
  5
4EA
330
25
100
AcDbEntity
  8
0
  6
Continuous
100
AcDbSpline
210
0.0
220
0.0
230
1.0
 70
     8
 71
     3
 72
     9
 73
     5
 74
     3
 42
0.0000000001
 43
0.0000000001
 44
0.0000000001
 40
0.0
 40
0.0
 40
0.0
 40
0.0
 40
0.0978264722856519
 40
0.1819278531803646
 40
0.1819278531803646
 40
0.1819278531803646
 40
0.1819278531803646
 10
159.5051840764
 20
85.3578209387
 30
0.0
 10
159.5108918402476
 20
85.32570848777839
 30
0.0
 10
159.5215065664968
 20
85.26598897505313
 30
0.0
 10
159.5289434765179
 20
85.20579324989345
 30
0.0
 10
159.532381402
 20
85.17796604519999
 30
0.0
 11
159.5051840764
 21
85.3578209387
 31
0.0
 11
159.521388521
 21
85.26134589190001
 31
0.0
 11
159.532381402
 21
85.17796604519999
 31
0.0
  0
SPLINE
  5
4EB
330
25
100
AcDbEntity
  8
0
  6
Continuous
100
AcDbSpline
210
0.0
220
0.0
230
1.0
 70
     8
 71
     3
 72
     9
 73
     5
 74
     3
 42
0.0000000001
 43
0.0000000001
 44
0.0000000001
 40
0.0
 40
0.0
 40
0.0
 40
0.0
 40
0.0964546904178355
 40
0.1789815863209086
 40
0.1789815863209086
 40
0.1789815863209086
 40
0.1789815863209086
 10
159.5051841643
 20
85.3578212108
 30
0.0
 10
159.5102674768376
 20
85.32603618475237
 30
0.0
 10
159.5197000854313
 20
85.26705580382316
 30
0.0
 10
159.5217857680719
 20
85.20737417770715
 30
0.0
 10
159.5227474587
 20
85.1798554846
 30
0.0
 11
159.5051841643
 21
85.3578212108
 31
0.0
 11
159.5183003906
 21
85.26226247539999
 31
0.0
 11
159.5227474587
 21
85.1798554846
 31
0.0
  0
SPLINE
  5
4F0
330
25
100
AcDbEntity
  8
0
  6
Continuous
100
AcDbSpline
210
0.0
220
0.0
230
1.0
 70
     8
 71
     3
 72
    16
 73
    12
 74
    10
 42
0.0000000001
 43
0.0000000001
 44
0.0000000001
 40
0.0
 40
0.0
 40
0.0
 40
0.0
 40
1.771457804063345
 40
3.41198026300902
 40
4.906904042217
 40
6.267509438006075
 40
7.539874398665075
 40
8.813916529543935
 40
10.16538256358111
 40
11.59323191775257
 40
13.02635603304791
 40
13.02635603304791
 40
13.02635603304791
 40
13.02635603304791
 10
159.038297052
 20
86.9119062921
 30
0.0
 10
158.5332338698469
 20
87.21838254284246
 30
0.0
 10
157.5604386922672
 20
87.80868219108459
 30
0.0
 10
156.0803339277251
 20
88.5122039564355
 30
0.0
 10
154.6664413944521
 20
89.01789795454428
 30
0.0
 10
153.3203107219042
 20
89.32072728520957
 30
0.0
 10
152.0196567667373
 20
89.439169956713
 30
0.0
 10
150.7175100097531
 20
89.38226170350092
 30
0.0
 10
149.3847271106636
 20
89.14011335480276
 30
0.0
 10
148.0390055768925
 20
88.72478420688452
 30
0.0
 10
147.1697180911571
 20
88.33092139772987
 30
0.0
 10
146.734272998
 20
88.13362691179999
 30
0.0
 11
159.038297052
 21
86.9119062921
 31
0.0
 11
157.5079086116
 21
87.8040800269
 31
0.0
 11
156.0253972353
 21
88.50655704250001
 31
0.0
 11
154.6150985501
 21
89.00239443940001
 31
0.0
 11
153.286756346
 21
89.2969348133
 31
0.0
 11
152.0194753668
 21
89.4105636515
 31
0.0
 11
150.7466243706
 21
89.35548468339999
 31
0.0
 11
149.4159844524
 21
89.1191420312
 31
0.0
 11
148.0518219377
 21
88.69746156959999
 31
0.0
 11
146.734272998
 21
88.13362691179999
 31
0.0
  0
SPLINE
  5
4F4
330
25
100
AcDbEntity
  8
0
  6
Continuous
100
AcDbSpline
210
0.0
220
0.0
230
1.0
 70
     8
 71
     3
 72
    10
 73
     6
 74
     4
 42
0.0000000001
 43
0.0000000001
 44
0.0000000001
 40
0.0
 40
0.0
 40
0.0
 40
0.0
 40
0.5167801743665109
 40
0.9934286925382374
 40
1.430959691864218
 40
1.430959691864218
 40
1.430959691864218
 40
1.430959691864218
 10
146.734272998
 20
88.13362691179999
 30
0.0
 10
146.6554321071264
 20
87.98042963339162
 30
0.0
 10
146.5038728813199
 20
87.6859319348756
 30
0.0
 10
146.2550767724785
 20
87.27827852146405
 30
0.0
 10
146.0775979170302
 20
87.03049618664016
 30
0.0
 10
145.9926556278
 20
86.9119062921
 30
0.0
 11
146.734272998
 21
88.13362691179999
 31
0.0
 11
146.492022978
 21
87.67714396969998
 31
0.0
 11
146.2432371445
 21
87.27057365730001
 31
0.0
 11
145.9926556278
 21
86.9119062921
 31
0.0
  0
SPLINE
  5
4F7
330
25
100
AcDbEntity
  8
0
  6
Continuous
100
AcDbSpline
210
0.0
220
0.0
230
1.0
 70
     8
 71
     3
 72
     9
 73
     5
 74
     3
 42
0.0000000001
 43
0.0000000001
 44
0.0000000001
 40
0.0
 40
0.0
 40
0.0
 40
0.0
 40
0.1681632705040798
 40
0.3424121832934166
 40
0.3424121832934166
 40
0.3424121832934166
 40
0.3424121832934166
 10
145.6313781388
 20
85.22176690809999
 30
0.0
 10
145.5780432093991
 20
85.20451350027716
 30
0.0
 10
145.4694432186447
 20
85.16938230293445
 30
0.0
 10
145.3601148123405
 20
85.13658757655678
 30
0.0
 10
145.3044790702
 20
85.1198987854
 30
0.0
 11
145.6313781388
 21
85.22176690809999
 31
0.0
 11
145.4711976622
 21
85.17057022400002
 31
0.0
 11
145.3044790702
 21
85.1198987854
 31
0.0
  0
SPLINE
  5
4FA
330
25
100
AcDbEntity
  8
0
  6
Continuous
100
AcDbSpline
210
0.0
220
0.0
230
1.0
 70
     8
 71
     3
 72
    10
 73
     6
 74
     4
 42
0.0000000001
 43
0.0000000001
 44
0.0000000001
 40
0.0
 40
0.0
 40
0.0
 40
0.0
 40
0.4727046207700791
 40
0.9692680904376756
 40
1.484454242847082
 40
1.484454242847082
 40
1.484454242847082
 40
1.484454242847082
 10
145.3044794403
 20
85.1198982552
 30
0.0
 10
145.1533281007512
 20
85.07537295185686
 30
0.0
 10
144.8433963509559
 20
84.98407501684355
 30
0.0
 10
144.3646984880173
 20
84.85838311464059
 30
0.0
 10
144.0359894873591
 20
84.78290775983096
 30
0.0
 10
143.86860981
 20
84.74447546710002
 30
0.0
 11
145.3044794403
 21
85.1198982552
 31
0.0
 11
144.8503994201
 21
84.98851715399998
 31
0.0
 11
144.370114604
 21
84.86241491440001
 31
0.0
 11
143.86860981
 21
84.74447546710002
 31
0.0
  0
SPLINE
  5
4FD
330
25
100
AcDbEntity
  8
0
  6
Continuous
100
AcDbSpline
210
0.0
220
0.0
230
1.0
 70
     8
 71
     3
 72
     9
 73
     5
 74
     3
 42
0.0000000001
 43
0.0000000001
 44
0.0000000001
 40
0.0
 40
0.0
 40
0.0
 40
0.0
 40
0.2103094792348842
 40
0.4204749915577327
 40
0.4204749915577327
 40
0.4204749915577327
 40
0.4204749915577327
 10
143.8686156789
 20
84.7444542991
 30
0.0
 10
143.8001939387505
 20
84.72919148437478
 30
0.0
 10
143.6633972964101
 20
84.6986763030521
 30
0.0
 10
143.5268227305629
 20
84.66718208937078
 30
0.0
 10
143.4585588286
 20
84.65144037420001
 30
0.0
 11
143.8686156789
 21
84.7444542991
 31
0.0
 11
143.6634060156
 21
84.6984209292
 31
0.0
 11
143.4585588286
 21
84.65144037420001
 31
0.0
  0
SPLINE
  5
500
330
25
100
AcDbEntity
  8
0
  6
Continuous
100
AcDbSpline
210
0.0
220
0.0
230
1.0
 70
     8
 71
     3
 72
     9
 73
     5
 74
     3
 42
0.0000000001
 43
0.0000000001
 44
0.0000000001
 40
0.0
 40
0.0
 40
0.0
 40
0.0
 40
0.043551964549487
 40
0.0868484772539647
 40
0.0868484772539647
 40
0.0868484772539647
 40
0.0868484772539647
 10
143.4585594108
 20
84.6514377773
 30
0.0
 10
143.4442857448324
 20
84.64878573043896
 30
0.0
 10
143.4158221343628
 20
84.64349719216355
 30
0.0
 10
143.3874992544116
 20
84.63750054991152
 30
0.0
 10
143.3733794682
 20
84.63451104790001
 30
0.0
 11
143.4585594108
 21
84.6514377773
 31
0.0
 11
143.4157738028
 21
84.6433035678
 31
0.0
 11
143.3733794682
 21
84.63451104790001
 31
0.0
  0
SPLINE
  5
503
330
25
100
AcDbEntity
  8
0
  6
Continuous
100
AcDbSpline
210
0.0
220
0.0
230
1.0
 70
     8
 71
     3
 72
     9
 73
     5
 74
     3
 42
0.0000000001
 43
0.0000000001
 44
0.0000000001
 40
0.0
 40
0.0
 40
0.0
 40
0.0
 40
0.0208152989753303
 40
0.0416178142471753
 40
0.0416178142471753
 40
0.0416178142471753
 40
0.0416178142471753
 10
143.3733794829
 20
84.63451105110001
 30
0.0
 10
143.3664942845225
 20
84.63365320314503
 30
0.0
 10
143.3527281163078
 20
84.63193803408188
 30
0.0
 10
143.3389637635084
 20
84.63020835659287
 30
0.0
 10
143.3320837011
 20
84.62934378350001
 30
0.0
 11
143.3733794829
 21
84.63451105110001
 31
0.0
 11
143.3527243419
 21
84.6319338779
 31
0.0
 11
143.3320837011
 21
84.62934378350001
 31
0.0
  0
SPLINE
  5
506
330
25
100
AcDbEntity
  8
0
  6
Continuous
100
AcDbSpline
210
0.0
220
0.0
230
1.0
 70
     8
 71
     3
 72
     9
 73
     5
 74
     3
 42
0.0000000001
 43
0.0000000001
 44
0.0000000001
 40
0.0
 40
0.0
 40
0.0
 40
0.0
 40
0.0769651619841775
 40
0.152945662347808
 40
0.152945662347808
 40
0.152945662347808
 40
0.152945662347808
 10
143.3320837339
 20
84.62934379070001
 30
0.0
 10
143.3070572388556
 20
84.62368321597782
 30
0.0
 10
143.2573244277742
 20
84.61243448567137
 30
0.0
 10
143.2081467878498
 20
84.59896470782215
 30
0.0
 10
143.1837162703
 20
84.59227317799999
 30
0.0
 11
143.3320837339
 21
84.62934379070001
 31
0.0
 11
143.2571448344
 21
84.6117996321
 31
0.0
 11
143.1837162703
 21
84.59227317799999
 31
0.0
  0
SPLINE
  5
509
330
25
100
AcDbEntity
  8
0
  6
Continuous
100
AcDbSpline
210
0.0
220
0.0
230
1.0
 70
     8
 71
     3
 72
    10
 73
     6
 74
     4
 42
0.0000000001
 43
0.0000000001
 44
0.0000000001
 40
0.0
 40
0.0
 40
0.0
 40
0.0
 40
0.5663006942406414
 40
1.135927752833067
 40
1.695660842964318
 40
1.695660842964318
 40
1.695660842964318
 40
1.695660842964318
 10
143.1837171936
 20
84.59227182940001
 30
0.0
 10
142.9961999182842
 20
84.56991556596481
 30
0.0
 10
142.6200639196298
 20
84.52507172179517
 30
0.0
 10
142.0671384214831
 20
84.4022774227972
 30
0.0
 10
141.7082278323618
 20
84.28839987215093
 30
0.0
 10
141.5303446891
 20
84.23195991950001
 30
0.0
 11
143.1837171936
 21
84.59227182940001
 31
0.0
 11
142.6225894213
 21
84.5159036459
 31
0.0
 11
142.0662918506
 21
84.3933965085
 31
0.0
 11
141.5303446891
 21
84.23195991950001
 31
0.0
  0
SPLINE
  5
50D
330
25
100
AcDbEntity
  8
0
  6
Continuous
100
AcDbSpline
210
0.0
220
0.0
230
1.0
 70
     8
 71
     3
 72
    10
 73
     6
 74
     4
 42
0.0000000001
 43
0.0000000001
 44
0.0000000001
 40
0.0
 40
0.0
 40
0.0
 40
0.0
 40
0.4007213579228824
 40
0.7644002063345964
 40
1.089416981715756
 40
1.089416981715756
 40
1.089416981715756
 40
1.089416981715756
 10
141.5303133762
 20
84.23205838280001
 30
0.0
 10
141.4034075578507
 20
84.19034303719467
 30
0.0
 10
141.1613270402709
 20
84.11076849454157
 30
0.0
 10
140.8223489662663
 20
83.9798844102752
 30
0.0
 10
140.6128747248487
 20
83.88590679270752
 30
0.0
 10
140.5140173485
 20
83.841555847
 30
0.0
 11
141.5303133762
 21
84.23205838280001
 31
0.0
 11
141.1507592752
 21
84.1035426596
 31
0.0
 11
140.8116623547
 21
83.97210604639999
 31
0.0
 11
140.5140173485
 21
83.841555847
 31
0.0
  0
SPLINE
  5
511
330
25
100
AcDbEntity
  8
0
  6
Continuous
100
AcDbSpline
210
0.0
220
0.0
230
1.0
 70
     8
 71
     3
 72
     9
 73
     5
 74
     3
 42
0.0000000001
 43
0.0000000001
 44
0.0000000001
 40
0.0
 40
0.0
 40
0.0
 40
0.0
 40
0.8398900298583506
 40
1.657975144191606
 40
1.657975144191606
 40
1.657975144191606
 40
1.657975144191606
 10
140.5140120625
 20
83.8415559092
 30
0.0
 10
140.3355271626593
 20
83.62567756071229
 30
0.0
 10
139.9831911221907
 20
83.199525417887
 30
0.0
 10
139.5957616879456
 20
82.80501942491146
 30
0.0
 10
139.4045946164
 20
82.6103606078
 30
0.0
 11
140.5140120625
 21
83.8415559092
 31
0.0
 11
139.9695517311
 21
83.2020418673
 31
0.0
 11
139.4045946164
 21
82.6103606078
 31
0.0
  0
SPLINE
  5
517
330
25
100
AcDbEntity
  8
0
  6
Continuous
100
AcDbSpline
210
0.0
220
0.0
230
1.0
 70
     8
 71
     3
 72
    10
 73
     6
 74
     4
 42
0.0000000001
 43
0.0000000001
 44
0.0000000001
 40
0.0
 40
0.0
 40
0.0
 40
0.0
 40
1.187372840145496
 40
2.236134783122446
 40
3.14139889586153
 40
3.14139889586153
 40
3.14139889586153
 40
3.14139889586153
 10
139.4045946164
 20
82.6103606078
 30
0.0
 10
139.1917232797581
 20
82.27658430584094
 30
0.0
 10
138.7908306670078
 20
81.64799590179658
 30
0.0
 10
138.0858520790541
 20
80.85985594668303
 30
0.0
 10
137.5470643642885
 20
80.4907468532125
 30
0.0
 10
137.2974539862
 20
80.31974544049999
 30
0.0
 11
139.4045946164
 21
82.6103606078
 31
0.0
 11
138.7375227967
 21
81.62808292360001
 31
0.0
 11
138.0247633396
 21
80.8587484259
 31
0.0
 11
137.2974539862
 21
80.31974544049999
 31
0.0
  0
SPLINE
  5
519
330
25
100
AcDbEntity
  8
0
  6
Continuous
100
AcDbSpline
210
0.0
220
0.0
230
1.0
 70
     8
 71
     3
 72
     9
 73
     5
 74
     3
 42
0.0000000001
 43
0.0000000001
 44
0.0000000001
 40
0.0
 40
0.0
 40
0.0
 40
0.0
 40
0.5073635665966499
 40
0.9940251744840546
 40
0.9940251744840546
 40
0.9940251744840546
 40
0.9940251744840546
 10
169.2778041357
 20
82.9859441541
 30
0.0
 10
169.1304961079798
 20
83.06911781475708
 30
0.0
 10
168.841890662895
 20
83.23207140068706
 30
0.0
 10
168.5437815661189
 20
83.37689899703094
 30
0.0
 10
168.3978312863
 20
83.44780467699999
 30
0.0
 11
169.2778041357
 21
82.9859441541
 31
0.0
 11
168.8334041457
 21
83.23074292370001
 31
0.0
 11
168.3978312863
 21
83.44780467699999
 31
0.0
  0
SPLINE
  5
51B
330
25
100
AcDbEntity
  8
0
  6
Continuous
100
AcDbSpline
210
0.0
220
0.0
230
1.0
 70
     8
 71
     3
 72
    11
 73
     7
 74
     5
 42
0.0000000001
 43
0.0000000001
 44
0.0000000001
 40
0.0
 40
0.0
 40
0.0
 40
0.0
 40
0.6678003307613887
 40
1.271831251014686
 40
1.81777374935683
 40
2.309953009077109
 40
2.309953009077109
 40
2.309953009077109
 40
2.309953009077109
 10
137.2974539862
 20
80.31974544049999
 30
0.0
 10
137.1030278416065
 20
80.21113775389635
 30
0.0
 10
136.7327416417983
 20
80.00429351683911
 30
0.0
 10
136.1792976610867
 20
79.75615933287523
 30
0.0
 10
135.6674813090391
 20
79.56071806072052
 30
0.0
 10
135.3353022211227
 20
79.46334302595034
 30
0.0
 10
135.1778142807
 20
79.4171769841
 30
0.0
 11
137.2974539862
 21
80.31974544049999
 31
0.0
 11
136.7095055656
 21
80.0030848391
 31
0.0
 11
136.1593239088
 21
79.75377880800001
 31
0.0
 11
135.6483397479
 21
79.56155914510001
 31
0.0
 11
135.1778142807
 21
79.4171769841
 31
0.0
  0
SPLINE
  5
51F
330
25
100
AcDbEntity
  8
0
  6
Continuous
100
AcDbSpline
210
0.0
220
0.0
230
1.0
 70
     8
 71
     3
 72
    14
 73
    10
 74
     8
 42
0.0000000001
 43
0.0000000001
 44
0.0000000001
 40
0.0
 40
0.0
 40
0.0
 40
0.0
 40
0.5393332103059454
 40
1.118088950479818
 40
1.739402023327968
 40
2.39770310636467
 40
3.083451829709307
 40
3.827502000132196
 40
4.697701223060519
 40
4.697701223060519
 40
4.697701223060519
 40
4.697701223060519
 10
168.3978312863
 20
83.44780467699999
 30
0.0
 10
168.2363192813673
 20
83.52679771246693
 30
0.0
 10
167.9014895608266
 20
83.69055777476743
 30
0.0
 10
167.3904841582547
 20
83.9646230200286
 30
0.0
 10
166.8401973660674
 20
84.24919457347201
 30
0.0
 10
166.2387668370564
 20
84.51157782551647
 30
0.0
 10
165.5565026130735
 20
84.67928593262496
 30
0.0
 10
164.7757084552838
 20
84.62802716010449
 30
0.0
 10
164.2758043999336
 20
84.4215687914238
 30
0.0
 10
164.0063193239
 20
84.31027253649999
 30
0.0
 11
168.3978312863
 21
83.44780467699999
 31
0.0
 11
167.9147739749
 21
83.68767119330001
 31
0.0
 11
167.4023362951
 21
83.95668017289999
 31
0.0
 11
166.8481626654
 21
84.23760991970001
 31
0.0
 11
166.2404841332
 21
84.4907642549
 31
0.0
 11
165.5713629532
 21
84.6408580857
 31
0.0
 11
164.8287509375
 21
84.5946190303
 31
0.0
 11
164.0063193239
 21
84.31027253649999
 31
0.0
  0
SPLINE
  5
521
330
25
100
AcDbEntity
  8
0
  6
Continuous
100
AcDbSpline
210
0.0
220
0.0
230
1.0
 70
     8
 71
     3
 72
    10
 73
     6
 74
     4
 42
0.0000000001
 43
0.0000000001
 44
0.0000000001
 40
0.0
 40
0.0
 40
0.0
 40
0.0
 40
0.3328769245176906
 40
0.6440004546124437
 40
0.9451026909615964
 40
0.9451026909615964
 40
0.9451026909615964
 40
0.9451026909615964
 10
135.1778142807
 20
79.4171769841
 30
0.0
 10
135.0690391340571
 20
79.39394174685505
 30
0.0
 10
134.8585972598115
 20
79.34898968725987
 30
0.0
 10
134.5391999521291
 20
79.3620572621287
 30
0.0
 10
134.3436456877953
 20
79.42225026821643
 30
0.0
 10
134.2474690328
 20
79.4518541329
 30
0.0
 11
135.1778142807
 21
79.4171769841
 31
0.0
 11
134.8495657241
 21
79.3618603323
 31
0.0
 11
134.5387437223
 21
79.37555464410001
 31
0.0
 11
134.2474690328
 21
79.4518541329
 31
0.0
  0
SPLINE
  5
522
330
25
100
AcDbEntity
  8
0
  6
Continuous
100
AcDbSpline
210
0.0
220
0.0
230
1.0
 70
     8
 71
     3
 72
     9
 73
     5
 74
     3
 42
0.0000000001
 43
0.0000000001
 44
0.0000000001
 40
0.0
 40
0.0
 40
0.0
 40
0.0
 40
0.3477020282611829
 40
0.7189003307678122
 40
0.7189003307678122
 40
0.7189003307678122
 40
0.7189003307678122
 10
164.1291318577
 20
85.71965875799999
 30
0.0
 10
164.0142400354244
 20
85.70431807822907
 30
0.0
 10
163.7766924736528
 20
85.67260005858829
 30
0.0
 10
163.5404929448199
 20
85.63203490129443
 30
0.0
 10
163.4185332511
 20
85.6110894143
 30
0.0
 11
164.1291318577
 21
85.71965875799999
 31
0.0
 11
163.7847717298
 21
85.6715671499
 31
0.0
 11
163.4185332511
 21
85.6110894143
 31
0.0
  0
SPLINE
  5
523
330
25
100
AcDbEntity
  8
0
  6
Continuous
100
AcDbSpline
210
0.0
220
0.0
230
1.0
 70
     8
 71
     3
 72
    11
 73
     7
 74
     5
 42
0.0000000001
 43
0.0000000001
 44
0.0000000001
 40
0.0
 40
0.0
 40
0.0
 40
0.0
 40
0.4580022487610409
 40
0.996774331854683
 40
1.547828763797294
 40
2.100749604471734
 40
2.100749604471734
 40
2.100749604471734
 40
2.100749604471734
 10
134.1312779055459
 20
81.14062500000001
 30
0.0
 10
134.2638062972556
 20
81.06212570375939
 30
0.0
 10
134.5522347917784
 20
80.89128356537907
 30
0.0
 10
134.8630275667151
 20
80.46617417658841
 30
0.0
 10
135.1016839630731
 20
79.96767938032933
 30
0.0
 10
135.1522293561145
 20
79.60088450936212
 30
0.0
 10
135.1775447793
 20
79.4171770175
 30
0.0
 11
134.1312779055459
 21
81.14062500000001
 31
0.0
 11
134.5102241577
 21
80.8833978672
 31
0.0
 11
134.8457752248
 21
80.46187581690001
 31
0.0
 11
135.0740458753
 21
79.96032472570001
 31
0.0
 11
135.1775447793
 21
79.4171770175
 31
0.0
  0
SPLINE
  5
525
330
25
100
AcDbEntity
  8
0
  6
Continuous
100
AcDbSpline
210
0.0
220
0.0
230
1.0
 70
     8
 71
     3
 72
     9
 73
     5
 74
     3
 42
0.0000000001
 43
0.0000000001
 44
0.0000000001
 40
0.0
 40
0.0
 40
0.0
 40
0.0
 40
0.5218967028366398
 40
1.059204231006351
 40
1.059204231006351
 40
1.059204231006351
 40
1.059204231006351
 10
163.4185332511
 20
85.6110894143
 30
0.0
 10
163.2473834563741
 20
85.57989868219423
 30
0.0
 10
162.9000300706863
 20
85.51659620253676
 30
0.0
 10
162.5537533346918
 20
85.44764577892931
 30
0.0
 10
162.3780959009
 20
85.4126689722
 30
0.0
 11
163.4185332511
 21
85.6110894143
 31
0.0
 11
162.905345254
 21
85.51614602029999
 31
0.0
 11
162.3780959009
 21
85.4126689722
 31
0.0
  0
SPLINE
  5
528
330
25
100
AcDbEntity
  8
0
  6
Continuous
100
AcDbSpline
210
0.0
220
0.0
230
1.0
 70
     8
 71
     3
 72
    10
 73
     6
 74
     4
 42
0.0000000001
 43
0.0000000001
 44
0.0000000001
 40
0.0
 40
0.0
 40
0.0
 40
0.0
 40
0.624197315871077
 40
1.26707524908205
 40
1.911770515567516
 40
1.911770515567516
 40
1.911770515567516
 40
1.911770515567516
 10
164.0063193239
 20
84.31027253649999
 30
0.0
 10
163.8187502897949
 20
84.22014636635001
 30
0.0
 10
163.4379987636897
 20
84.03719678199904
 30
0.0
 10
162.8784094328131
 20
83.73188903962873
 30
0.0
 10
162.4931782535984
 20
83.54258852669516
 30
0.0
 10
162.3002907985
 20
83.44780467699999
 30
0.0
 11
164.0063193239
 21
84.31027253649999
 31
0.0
 11
163.4460073199
 21
84.0351857369
 31
0.0
 11
162.8768600159
 21
83.73624864759999
 31
0.0
 11
162.3002907985
 21
83.44780467699999
 31
0.0
  0
SPLINE
  5
52A
330
25
100
AcDbEntity
  8
0
  6
Continuous
100
AcDbSpline
210
0.0
220
0.0
230
1.0
 70
     8
 71
     3
 72
     9
 73
     5
 74
     3
 42
0.0000000001
 43
0.0000000001
 44
0.0000000001
 40
0.0
 40
0.0
 40
0.0
 40
0.0
 40
0.0370919265487103
 40
0.0723514536562797
 40
0.0723514536562797
 40
0.0723514536562797
 40
0.0723514536562797
 10
134.2474690328
 20
79.4518541329
 30
0.0
 10
134.2383472713048
 20
79.4602063492305
 30
0.0
 10
134.220554377662
 20
79.47649816928387
 30
0.0
 10
134.2038919660388
 20
79.49394387003235
 30
0.0
 10
134.1957717594
 20
79.5024458023
 30
0.0
 11
134.2474690328
 21
79.4518541329
 31
0.0
 11
134.2204008656
 21
79.4772140489
 31
0.0
 11
134.1957717594
 21
79.5024458023
 31
0.0
  0
SPLINE
  5
52B
330
25
100
AcDbEntity
  8
0
  6
Continuous
100
AcDbSpline
210
0.0
220
0.0
230
1.0
 70
     8
 71
     3
 72
     9
 73
     5
 74
     3
 42
0.0000000001
 43
0.0000000001
 44
0.0000000001
 40
0.0
 40
0.0
 40
0.0
 40
0.0
 40
0.4866616086893333
 40
0.9940251746320334
 40
0.9940251746320334
 40
0.9940251746320334
 40
0.9940251746320334
 10
162.3002907985
 20
83.44780467699999
 30
0.0
 10
162.1543405189301
 20
83.37689899594483
 30
0.0
 10
161.8562314231094
 20
83.23207139759967
 30
0.0
 10
161.5676259770869
 20
83.06911781330356
 30
0.0
 10
161.4203179491
 20
82.9859441536
 30
0.0
 11
162.3002907985
 21
83.44780467699999
 31
0.0
 11
161.8647179394
 21
83.23074292130001
 31
0.0
 11
161.4203179491
 21
82.9859441536
 31
0.0
  0
SPLINE
  5
52D
330
25
100
AcDbEntity
  8
0
  6
Continuous
100
AcDbSpline
210
0.0
220
0.0
230
1.0
 70
     8
 71
     3
 72
     9
 73
     5
 74
     3
 42
0.0000000001
 43
0.0000000001
 44
0.0000000001
 40
0.0
 40
0.0
 40
0.0
 40
0.0
 40
0.3336172064799788
 40
0.6752810627691327
 40
0.6752810627691327
 40
0.6752810627691327
 40
0.6752810627691327
 10
160.7941351465
 20
85.0183032173
 30
0.0
 10
160.6936533554466
 20
84.9706346307335
 30
0.0
 10
160.4902662119373
 20
84.87414771947083
 30
0.0
 10
160.2904613378712
 20
84.77044466120509
 30
0.0
 10
160.1893684633
 20
84.7179752692
 30
0.0
 11
160.7941351465
 21
85.0183032173
 31
0.0
 11
160.4935641247
 21
84.8735361585
 31
0.0
 11
160.1893684633
 21
84.7179752692
 31
0.0
  0
SPLINE
  5
530
330
25
100
AcDbEntity
  8
0
  6
Continuous
100
AcDbSpline
210
0.0
220
0.0
230
1.0
 70
     8
 71
     3
 72
     9
 73
     5
 74
     3
 42
0.0000000001
 43
0.0000000001
 44
0.0000000001
 40
0.0
 40
0.0
 40
0.0
 40
0.0
 40
0.9218957870732707
 40
1.819676755978951
 40
1.819676755978951
 40
1.819676755978951
 40
1.819676755978951
 10
159.6532496598
 20
82.9859441541
 30
0.0
 10
159.3574681045465
 20
83.069393489636
 30
0.0
 10
158.7736420056652
 20
83.2341093049223
 30
0.0
 10
158.1841459252685
 20
83.37720499979517
 30
0.0
 10
157.8933039609
 20
83.44780467699999
 30
0.0
 11
159.6532496598
 21
82.9859441541
 31
0.0
 11
158.7644496797
 21
83.23074292370001
 31
0.0
 11
157.8933039609
 21
83.44780467699999
 31
0.0
  0
SPLINE
  5
531
330
25
100
AcDbEntity
  8
0
  6
Continuous
100
AcDbSpline
210
0.0
220
0.0
230
1.0
 70
     8
 71
     3
 72
     9
 73
     5
 74
     3
 42
0.0000000001
 43
0.0000000001
 44
0.0000000001
 40
0.0
 40
0.0
 40
0.0
 40
0.0
 40
0.9646310225226019
 40
1.907877748425035
 40
1.907877748425035
 40
1.907877748425035
 40
1.907877748425035
 10
160.1521446938
 20
84.7179752692
 30
0.0
 10
159.8416104624533
 20
84.80151184432413
 30
0.0
 10
159.2274260372402
 20
84.96673312493579
 30
0.0
 10
158.6076037366266
 20
85.10934752538222
 30
0.0
 10
158.3011662009
 20
85.1798554845
 30
0.0
 11
160.1521446938
 21
84.7179752692
 31
0.0
 11
159.219100758
 21
84.9628058708
 31
0.0
 11
158.3011662009
 21
85.1798554845
 31
0.0
  0
SPLINE
  5
532
330
25
100
AcDbEntity
  8
0
  6
Continuous
100
AcDbSpline
210
0.0
220
0.0
230
1.0
 70
     8
 71
     3
 72
    10
 73
     6
 74
     4
 42
0.0000000001
 43
0.0000000001
 44
0.0000000001
 40
0.0
 40
0.0
 40
0.0
 40
0.0
 40
1.153103118456391
 40
2.328378588302199
 40
3.519452339572636
 40
3.519452339572636
 40
3.519452339572636
 40
3.519452339572636
 10
157.8933039609
 20
83.44780467699999
 30
0.0
 10
157.5199945120957
 20
83.53939155653821
 30
0.0
 10
156.7661974635104
 20
83.72432638662666
 30
0.0
 10
155.6342179262251
 20
84.03287626220065
 30
0.0
 10
154.8672773382897
 20
84.21739647886423
 30
0.0
 10
154.4812469101
 20
84.31027253649999
 30
0.0
 11
157.8933039609
 21
83.44780467699999
 31
0.0
 11
156.7745795242
 21
83.7272728085
 31
0.0
 11
155.6378587539
 21
84.02583322179999
 31
0.0
 11
154.4812469101
 21
84.31027253649999
 31
0.0
  0
SPLINE
  5
533
330
25
100
AcDbEntity
  8
0
  6
Continuous
100
AcDbSpline
210
0.0
220
0.0
230
1.0
 70
     8
 71
     3
 72
    10
 73
     6
 74
     4
 42
0.0000000001
 43
0.0000000001
 44
0.0000000001
 40
0.0
 40
0.0
 40
0.0
 40
0.0
 40
1.120800647158129
 40
2.306353701247261
 40
3.552981182900886
 40
3.552981182900886
 40
3.552981182900886
 40
3.552981182900886
 10
158.3011662009
 20
85.1798554845
 30
0.0
 10
157.9304330746156
 20
85.22604303468199
 30
0.0
 10
157.1675483277616
 20
85.32108654450144
 30
0.0
 10
155.9932620256778
 20
85.47527548582592
 30
0.0
 10
155.1875016668258
 20
85.56506652459589
 30
0.0
 10
154.7745047728
 20
85.6110894143
 30
0.0
 11
158.3011662009
 21
85.1798554845
 31
0.0
 11
157.1891127584
 21
85.31960966760001
 31
0.0
 11
156.0129944927
 21
85.46888079389998
 31
0.0
 11
154.7745047728
 21
85.6110894143
 31
0.0
  0
SPLINE
  5
534
330
25
100
AcDbEntity
  8
0
  6
Continuous
100
AcDbSpline
210
0.0
220
0.0
230
1.0
 70
     8
 71
     3
 72
    13
 73
     9
 74
     7
 42
0.0000000001
 43
0.0000000001
 44
0.0000000001
 40
0.0
 40
0.0
 40
0.0
 40
0.0
 40
2.009190696550123
 40
3.826897296122257
 40
5.444513908155429
 40
6.859114921701321
 40
8.090416264444963
 40
9.178340695963666
 40
9.178340695963666
 40
9.178340695963666
 40
9.178340695963666
 10
154.7745047728
 20
85.6110894143
 30
0.0
 10
154.107253082215
 20
85.67190042139535
 30
0.0
 10
152.8363415182119
 20
85.78772689771103
 30
0.0
 10
151.0190100771989
 20
85.7881521672636
 30
0.0
 10
149.4054072248546
 20
85.67872974520056
 30
0.0
 10
147.992601808998
 20
85.52287267526646
 30
0.0
 10
146.758039613901
 20
85.36509741739181
 30
0.0
 10
145.9911423345767
 20
85.26755260453952
 30
0.0
 10
145.6313988823
 20
85.22179535819998
 30
0.0
 11
154.7745047728
 21
85.6110894143
 31
0.0
 11
152.7709653174
 21
85.76167794559999
 31
0.0
 11
150.9532648334
 21
85.76639309079999
 31
0.0
 11
149.3390155368
 21
85.66207285329999
 31
0.0
 11
147.9324123515
 21
85.5118613137
 31
0.0
 11
146.7106154994
 21
85.35916734249999
 31
0.0
 11
145.6313988823
 21
85.22179535819998
 31
0.0
  0
SPLINE
  5
535
330
25
100
AcDbEntity
  8
0
  6
Continuous
100
AcDbSpline
210
0.0
220
0.0
230
1.0
 70
     8
 71
     3
 72
    13
 73
     9
 74
     7
 42
0.0000000001
 43
0.0000000001
 44
0.0000000001
 40
0.0
 40
0.0
 40
0.0
 40
0.0
 40
1.938095358436233
 40
3.638824943140317
 40
5.173564796946096
 40
6.557023964879023
 40
7.802737585997272
 40
8.940359646586966
 40
8.940359646586966
 40
8.940359646586966
 40
8.940359646586966
 10
154.4812469101
 20
84.31027253649999
 30
0.0
 10
153.8463206756967
 20
84.43757401006971
 30
0.0
 10
152.654229993087
 20
84.67658587050659
 30
0.0
 10
150.9170604412437
 20
84.65370893649472
 30
0.0
 10
149.3972848999559
 20
84.39089931312412
 30
0.0
 10
148.0501665925189
 20
84.05539758843888
 30
0.0
 10
146.837991309433
 20
83.72797295802963
 30
0.0
 10
146.0664823296701
 20
83.53832709746189
 30
0.0
 10
145.6982229854
 20
83.44780467699999
 30
0.0
 11
154.4812469101
 21
84.31027253649999
 31
0.0
 11
152.5680296216
 21
84.6198096512
 31
0.0
 11
150.8673556063
 21
84.60606141600002
 31
0.0
 11
149.3519559592
 21
84.36318216940001
 31
0.0
 11
148.006852578
 21
84.0396761212
 31
0.0
 11
146.801966986
 21
83.7233643509
 31
0.0
 11
145.6982229854
 21
83.44780467699999
 31
0.0
  0
SPLINE
  5
536
330
25
100
AcDbEntity
  8
0
  6
Continuous
100
AcDbSpline
210
0.0
220
0.0
230
1.0
 70
     8
 71
     3
 72
     9
 73
     5
 74
     3
 42
0.0000000001
 43
0.0000000001
 44
0.0000000001
 40
0.0
 40
0.0
 40
0.0
 40
0.0
 40
0.8976568188900006
 40
1.819676747215711
 40
1.819676747215711
 40
1.819676747215711
 40
1.819676747215711
 10
145.6982229854
 20
83.44780467699999
 30
0.0
 10
145.4074211622441
 20
83.37721509407109
 30
0.0
 10
144.8179249265902
 20
83.23412007162114
 30
0.0
 10
144.2340988723214
 20
83.06940405720945
 30
0.0
 10
143.9382775087
 20
82.9859433832
 30
0.0
 11
145.6982229854
 21
83.44780467699999
 31
0.0
 11
144.8271973572
 21
83.2307744498
 31
0.0
 11
143.9382775087
 21
82.9859433832
 31
0.0
  0
SPLINE
  5
539
330
25
100
AcDbEntity
  8
0
  6
Continuous
100
AcDbSpline
210
0.0
220
0.0
230
1.0
 70
     8
 71
     3
 72
    15
 73
    11
 74
     9
 42
0.0000000001
 43
0.0000000001
 44
0.0000000001
 40
0.0
 40
0.0
 40
0.0
 40
0.0
 40
2.109685752198226
 40
4.132015949085707
 40
6.116673098763218
 40
8.089108325989534
 40
10.06144036966656
 40
12.04590531649381
 40
14.06716051848314
 40
16.17590985591037
 40
16.17590985591037
 40
16.17590985591037
 40
16.17590985591037
 10
159.7857572153
 20
64.2366863812
 30
0.0
 10
159.1029152412738
 20
64.0678253027649
 30
0.0
 10
157.7655056652545
 20
63.73709516035075
 30
0.0
 10
155.7544109564806
 20
63.39082080429502
 30
0.0
 10
153.7716133228609
 20
63.17511819958584
 30
0.0
 10
151.7946427935732
 20
63.10331550322213
 30
0.0
 10
149.8177427601205
 20
63.17528042965785
 30
0.0
 10
147.8354155911709
 20
63.39107754422207
 30
0.0
 10
145.8250634976863
 20
63.73731832100635
 30
0.0
 10
144.4883073782016
 20
64.06789593252177
 30
0.0
 10
143.805769731
 20
64.2366863812
 30
0.0
 11
159.7857572153
 21
64.2366863812
 31
0.0
 11
157.7317174106
 21
63.7553398805
 31
0.0
 11
155.7391517414
 21
63.40965002069999
 31
0.0
 11
153.7657554367
 21
63.1985315081
 31
0.0
 11
151.794609457
 21
63.1272275649
 31
0.0
 11
149.8235724741
 21
63.1986901604
 31
0.0
 11
147.8503825806
 21
63.4099311824
 31
0.0
 11
145.8588917905
 21
63.7555278035
 31
0.0
 11
143.805769731
 21
64.2366863812
 31
0.0
  0
SPLINE
  5
53A
330
25
100
AcDbEntity
  8
0
  6
Continuous
100
AcDbSpline
210
0.0
220
0.0
230
1.0
 70
    24
 71
     3
 72
     8
 73
     4
 74
     2
 42
0.0000000001
 43
0.0000000001
 44
0.0000000001
 40
0.0
 40
0.0
 40
0.0
 40
0.0
 40
0.2089532200210629
 40
0.2089532200210629
 40
0.2089532200210629
 40
0.2089532200210629
 10
143.938278637
 20
82.98593997279998
 30
0.0
 10
143.8941078807667
 20
82.93208631636665
 30
0.0
 10
143.8499371245333
 20
82.87823265993333
 30
0.0
 10
143.8057663683
 20
82.8243790035
 30
0.0
 11
143.938278637
 21
82.98593997279998
 31
0.0
 11
143.8057663683
 21
82.8243790035
 31
0.0
  0
SPLINE
  5
53B
330
25
100
AcDbEntity
  8
0
  6
Continuous
100
AcDbSpline
210
0.0
220
0.0
230
1.0
 70
    24
 71
     3
 72
     8
 73
     4
 74
     2
 42
0.0000000001
 43
0.0000000001
 44
0.0000000001
 40
0.0
 40
0.0
 40
0.0
 40
0.0
 40
0.208953572476681
 40
0.208953572476681
 40
0.208953572476681
 40
0.208953572476681
 10
159.6532485358
 20
82.98594060640001
 30
0.0
 10
159.6974192693333
 20
82.93208677940001
 30
0.0
 10
159.7415900028666
 20
82.8782329524
 30
0.0
 10
159.7857607364
 20
82.8243791254
 30
0.0
 11
159.6532485358
 21
82.98594060640001
 31
0.0
 11
159.7857607364
 21
82.8243791254
 31
0.0
  0
SPLINE
  5
53C
330
25
100
AcDbEntity
  8
0
  6
Continuous
100
AcDbSpline
210
0.0
220
0.0
230
1.0
 70
     8
 71
     3
 72
    11
 73
     7
 74
     5
 42
0.0000000001
 43
0.0000000001
 44
0.0000000001
 40
0.0
 40
0.0
 40
0.0
 40
0.0
 40
1.134163671803622
 40
2.188668637417948
 40
3.197737257646945
 40
4.18593717838473
 40
4.18593717838473
 40
4.18593717838473
 40
4.18593717838473
 10
169.3440579135
 20
64.2366863812
 30
0.0
 10
169.0050475617767
 20
64.06851819751873
 30
0.0
 10
168.3508374658061
 20
63.74399322939885
 30
0.0
 10
167.340965201379
 20
63.39597413191501
 30
0.0
 10
166.3445868033698
 20
63.16946383012804
 30
0.0
 10
165.6782105373221
 20
63.14120790711108
 30
0.0
 10
165.3485037604
 20
63.1272275633
 30
0.0
 11
169.3440579135
 21
64.2366863812
 31
0.0
 11
168.317094011
 21
63.7553628129
 31
0.0
 11
167.3208592543
 21
63.4096793854
 31
0.0
 11
166.334127111
 21
63.1985416159
 31
0.0
 11
165.3485037604
 21
63.1272275633
 31
0.0
  0
SPLINE
  5
53D
330
25
100
AcDbEntity
  8
0
  6
Continuous
100
AcDbSpline
210
0.0
220
0.0
230
1.0
 70
     8
 71
     3
 72
    11
 73
     7
 74
     5
 42
0.0000000001
 43
0.0000000001
 44
0.0000000001
 40
0.0
 40
0.0
 40
0.0
 40
0.0
 40
0.9881227070070935
 40
1.997108106862679
 40
3.0511594071276
 40
4.184824840732988
 40
4.184824840732988
 40
4.184824840732988
 40
4.184824840732988
 10
165.3485037604
 20
63.1272275633
 30
0.0
 10
165.0188252007904
 20
63.14125985628119
 30
0.0
 10
164.3525074252892
 20
63.16962071255122
 30
0.0
 10
163.3563605584702
 20
63.39621484947305
 30
0.0
 10
162.3468453716459
 20
63.7441987441094
 30
0.0
 10
161.6929236199316
 20
64.0685888294895
 30
0.0
 10
161.3540641713
 20
64.2366863812
 30
0.0
 11
165.3485037604
 21
63.1272275633
 31
0.0
 11
164.3629685538
 21
63.1986897257
 31
0.0
 11
163.3763452415
 21
63.40993833929999
 31
0.0
 11
162.3805664358
 21
63.75555187159999
 31
0.0
 11
161.3540641713
 21
64.2366863812
 31
0.0
  0
SPLINE
  5
53E
330
25
100
AcDbEntity
  8
0
  6
Continuous
100
AcDbSpline
210
0.0
220
0.0
230
1.0
 70
     8
 71
     3
 72
    10
 73
     6
 74
     4
 42
0.0000000001
 43
0.0000000001
 44
0.0000000001
 40
0.0
 40
0.0
 40
0.0
 40
0.0
 40
0.0351598610997257
 40
0.0782822574736551
 40
0.1795207061919327
 40
0.1795207061919327
 40
0.1795207061919327
 40
0.1795207061919327
 10
161.4203197612
 20
82.985941415
 30
0.0
 10
161.4115209075937
 20
82.97809743568479
 30
0.0
 10
161.3919305536521
 20
82.96063307748865
 30
0.0
 10
161.3634399138455
 20
82.90648150465441
 30
0.0
 10
161.3579279162382
 20
82.85822253499782
 30
0.0
 10
161.3540624215
 20
82.82437912529998
 30
0.0
 11
161.4203197612
 21
82.985941415
 31
0.0
 11
161.3953689197
 21
82.96116902430001
 31
0.0
 11
161.3742156252
 21
82.923591382
 31
0.0
 11
161.3540624215
 21
82.82437912529998
 31
0.0
  0
SPLINE
  5
53F
330
25
100
AcDbEntity
  8
0
  6
Continuous
100
AcDbSpline
210
0.0
220
0.0
230
1.0
 70
     8
 71
     3
 72
    10
 73
     6
 74
     4
 42
0.0000000001
 43
0.0000000001
 44
0.0000000001
 40
0.0
 40
0.0
 40
0.0
 40
0.0
 40
0.0349425634754505
 40
0.0780976013176487
 40
0.1796482995518417
 40
0.1796482995518417
 40
0.1796482995518417
 40
0.1796482995518417
 10
169.2778023707
 20
82.98594136869998
 30
0.0
 10
169.2866344185777
 20
82.97823463831114
 30
0.0
 10
169.3063742912534
 20
82.96100988152436
 30
0.0
 10
169.3347131736631
 20
82.90666112789019
 30
0.0
 10
169.3402053843124
 20
82.85831040038943
 30
0.0
 10
169.344059674
 20
82.82437912529998
 30
0.0
 11
169.2778023707
 21
82.98594136869998
 31
0.0
 11
169.3028130821
 21
82.96153958479999
 31
0.0
 11
169.3239597453
 21
82.92392076069999
 31
0.0
 11
169.344059674
 21
82.82437912529998
 31
0.0
  0
SPLINE
  5
540
330
25
100
AcDbEntity
  8
0
  6
Continuous
100
AcDbSpline
210
0.0
220
0.0
230
1.0
 70
     8
 71
     3
 72
    11
 73
     7
 74
     5
 42
0.0000000001
 43
0.0000000001
 44
0.0000000001
 40
0.0
 40
0.0
 40
0.0
 40
0.0
 40
1.134170118829591
 40
2.188746817882326
 40
3.197798854621405
 40
4.1859503947142
 40
4.1859503947142
 40
4.1859503947142
 40
4.1859503947142
 10
142.237462775
 20
64.2366863812
 30
0.0
 10
141.8984504668185
 20
64.06851732270197
 30
0.0
 10
141.2442169453774
 20
63.7439809189095
 30
0.0
 10
140.234323262607
 20
63.39595938764303
 30
0.0
 10
139.2379406453919
 20
63.16945826677235
 30
0.0
 10
138.5715860498061
 20
63.14120591268822
 30
0.0
 10
138.2418954126
 20
63.1272275644
 30
0.0
 11
142.237462775
 21
64.2366863812
 31
0.0
 11
141.210492899
 21
63.7553603667
 31
0.0
 11
140.2141887434
 21
63.4096581195
 31
0.0
 11
139.2274708935
 21
63.1985328071
 31
0.0
 11
138.2418954126
 21
63.1272275644
 31
0.0
  0
SPLINE
  5
541
330
25
100
AcDbEntity
  8
0
  6
Continuous
100
AcDbSpline
210
0.0
220
0.0
230
1.0
 70
     8
 71
     3
 72
    11
 73
     7
 74
     5
 42
0.0000000001
 43
0.0000000001
 44
0.0000000001
 40
0.0
 40
0.0
 40
0.0
 40
0.0
 40
0.988144622393402
 40
1.997129743388674
 40
3.051097986959072
 40
4.184811659064311
 40
4.184811659064311
 40
4.184811659064311
 40
4.184811659064311
 10
138.2418954126
 20
63.1272275644
 30
0.0
 10
137.9122095572982
 20
63.14126110271119
 30
0.0
 10
137.2458845956718
 20
63.16962415416248
 30
0.0
 10
136.249758837518
 20
63.39621851904412
 30
0.0
 10
135.2402547656116
 20
63.74419747083714
 30
0.0
 10
134.5863430780659
 20
64.06858192140825
 30
0.0
 10
134.2474690328
 20
64.2366863812
 30
0.0
 11
138.2418954126
 21
63.1272275644
 31
0.0
 11
137.2563385975
 21
63.1986947525
 31
0.0
 11
136.2697165236
 21
63.409947818
 31
0.0
 11
135.2740159918
 21
63.7555335663
 31
0.0
 11
134.2474690328
 21
64.2366863812
 31
0.0
  0
SPLINE
  5
542
330
25
100
AcDbEntity
  8
0
  6
Continuous
100
AcDbSpline
210
0.0
220
0.0
230
1.0
 70
     8
 71
     3
 72
    10
 73
     6
 74
     4
 42
0.0000000001
 43
0.0000000001
 44
0.0000000001
 40
0.0
 40
0.0
 40
0.0
 40
0.0
 40
0.0351599580578878
 40
0.0782824564621136
 40
0.1795211348016487
 40
0.1795211348016487
 40
0.1795211348016487
 40
0.1795211348016487
 10
142.1712072173
 20
82.9859419469
 30
0.0
 10
142.180006101163
 20
82.97809794994123
 30
0.0
 10
142.1995965182444
 20
82.96063355622944
 30
0.0
 10
142.2280870853386
 20
82.90648177123202
 30
0.0
 10
142.2335990842561
 20
82.85822270172884
 30
0.0
 10
142.2374645798
 20
82.82437922299999
 30
0.0
 11
142.1712072173
 21
82.9859419469
 31
0.0
 11
142.1961581302
 21
82.9611694905
 31
0.0
 11
142.2173114046
 21
82.92359171980002
 31
0.0
 11
142.2374645798
 21
82.82437922299999
 31
0.0
  0
SPLINE
  5
543
330
25
100
AcDbEntity
  8
0
  6
Continuous
100
AcDbSpline
210
0.0
220
0.0
230
1.0
 70
     8
 71
     3
 72
    11
 73
     7
 74
     5
 42
0.0000000001
 43
0.0000000001
 44
0.0000000001
 40
0.0
 40
0.0
 40
0.0
 40
0.0
 40
0.4444691735809341
 40
0.927961467662397
 40
1.449753193932654
 40
2.013902048683939
 40
2.013902048683939
 40
2.013902048683939
 40
2.013902048683939
 10
143.4115629522
 20
120.336887778
 30
0.0
 10
143.5281412400282
 20
120.2452487231067
 30
0.0
 10
143.7715330554808
 20
120.0539249667505
 30
0.0
 10
144.111752012243
 20
119.7093042530337
 30
0.0
 10
144.4463438731077
 20
119.3054451327529
 30
0.0
 10
144.6359419377277
 20
118.9965784227207
 30
0.0
 10
144.7344386077
 20
118.8361213924
 30
0.0
 11
143.4115629522
 21
120.336887778
 31
0.0
 11
143.7554193427
 21
120.0552574725
 31
0.0
 11
144.0977690673
 21
119.7138464819
 31
0.0
 11
144.4276359996
 21
119.3095515245
 31
0.0
 11
144.7344386077
 21
118.8361213924
 31
0.0
  0
SPLINE
  5
545
330
25
100
AcDbEntity
  8
0
  6
Continuous
100
AcDbSpline
210
0.0
220
0.0
230
1.0
 70
     8
 71
     3
 72
    11
 73
     7
 74
     5
 42
0.0000000001
 43
0.0000000001
 44
0.0000000001
 40
0.0
 40
0.0
 40
0.0
 40
0.0
 40
0.6571258822428525
 40
1.37683347102189
 40
2.1630772526578
 40
3.022287633513654
 40
3.022287633513654
 40
3.022287633513654
 40
3.022287633513654
 10
144.9020874892999
 20
122.2159091627
 30
0.0
 10
145.0940779238672
 20
122.1096359513054
 30
0.0
 10
145.4963430964489
 20
121.8869685469695
 30
0.0
 10
146.0556110450572
 20
121.4267890896743
 30
0.0
 10
146.6053116068399
 20
120.8577950783461
 30
0.0
 10
146.9149237425304
 20
120.4038790342533
 30
0.0
 10
147.0765945852
 20
120.1668567057
 30
0.0
 11
144.9020874892999
 21
122.2159091627
 31
0.0
 11
145.4675161958
 21
121.8810886093
 31
0.0
 11
146.0294182534
 21
121.4313719307
 31
0.0
 11
146.5717274625
 21
120.8620916782
 31
0.0
 11
147.0765945852
 21
120.1668567057
 31
0.0
  0
SPLINE
  5
547
330
25
100
AcDbEntity
  8
0
  6
Continuous
100
AcDbSpline
210
0.0
220
0.0
230
1.0
 70
     8
 71
     3
 72
    12
 73
     8
 74
     6
 42
0.0000000001
 43
0.0000000001
 44
0.0000000001
 40
0.0
 40
0.0
 40
0.0
 40
0.0
 40
0.1133111272944487
 40
0.4346515121989531
 40
0.9691366246367954
 40
1.729120676017894
 40
2.704162354593201
 40
2.704162354593201
 40
2.704162354593201
 40
2.704162354593201
 10
142.5457634732
 20
123.540625
 30
0.0
 10
142.5778178067109
 20
123.520647002177
 30
0.0
 10
142.7007754090725
 20
123.4440131607191
 30
0.0
 10
142.9762111257457
 20
123.2751955665849
 30
0.0
 10
143.4393074814337
 20
123.0001630756872
 30
0.0
 10
144.0974078370593
 20
122.6267026728954
 30
0.0
 10
144.6125757980534
 20
122.3637065172853
 30
0.0
 10
144.9020874892999
 20
122.2159091627
 30
0.0
 11
142.5457634732
 21
123.540625
 31
0.0
 11
142.6419654521
 21
123.4807535475
 31
0.0
 11
142.9159229236
 21
123.3128043088
 31
0.0
 11
143.3754227324
 21
123.0397946732
 31
0.0
 11
144.0373594793
 21
122.6664108205
 31
0.0
 11
144.9020874892999
 21
122.2159091627
 31
0.0
  0
SPLINE
  5
548
330
25
100
AcDbEntity
  8
0
  6
Continuous
100
AcDbSpline
210
0.0
220
0.0
230
1.0
 70
     8
 71
     3
 72
    12
 73
     8
 74
     6
 42
0.0000000001
 43
0.0000000001
 44
0.0000000001
 40
0.0
 40
0.0
 40
0.0
 40
0.0
 40
0.1288835229322419
 40
0.4953876533455532
 40
1.107011205810889
 40
1.981006290073187
 40
3.109138499023774
 40
3.109138499023774
 40
3.109138499023774
 40
3.109138499023774
 10
140.5457634732
 20
121.540625
 30
0.0
 10
140.5847085531076
 20
121.5224882155205
 30
0.0
 10
140.7344011694007
 20
121.4527761305456
 30
0.0
 10
141.0699140500475
 20
121.2991523471366
 30
0.0
 10
141.6342390866502
 20
121.0487598692368
 30
0.0
 10
142.4365400303306
 20
120.7087029329618
 30
0.0
 10
143.0601688387517
 20
120.4708883782054
 30
0.0
 10
143.4115629522
 20
120.336887778
 30
0.0
 11
140.5457634732
 21
121.540625
 31
0.0
 11
140.6626291341
 21
121.486279993
 31
0.0
 11
140.9958445112
 21
121.3336602365
 31
0.0
 11
141.5548666687
 21
121.0855118991
 31
0.0
 11
142.360259681
 21
120.7460866451
 31
0.0
 11
143.4115629522
 21
120.336887778
 31
0.0
  0
SPLINE
  5
549
330
25
100
AcDbEntity
  8
0
  6
Continuous
100
AcDbSpline
210
0.0
220
0.0
230
1.0
 70
     8
 71
     3
 72
    11
 73
     7
 74
     5
 42
0.0000000001
 43
0.0000000001
 44
0.0000000001
 40
0.0
 40
0.0
 40
0.0
 40
0.0
 40
0.0838761885336317
 40
0.1541290521598614
 40
0.2028943899790249
 40
0.2213169127136619
 40
0.2213169127136619
 40
0.2213169127136619
 40
0.2213169127136619
 10
161.4315499108
 20
119.8496041577
 30
0.0
 10
161.4567529077569
 20
119.8375003164688
 30
0.0
 10
161.5030653845213
 20
119.8152585621752
 30
0.0
 10
161.5642060776776
 20
119.7863470691978
 30
0.0
 10
161.6056841628183
 20
119.7668931042447
 30
0.0
 10
161.6259838531334
 20
119.7574325826889
 30
0.0
 10
161.6315499108
 20
119.7548385624
 30
0.0
 11
161.4315499108
 21
119.8496041577
 31
0.0
 11
161.5071983337
 21
119.8133752864
 31
0.0
 11
161.5706996948
 21
119.7833246294
 31
0.0
 11
161.6148534775
 21
119.7626243481
 31
0.0
 11
161.6315499108
 21
119.7548385624
 31
0.0
  0
SPLINE
  5
54B
330
25
100
AcDbEntity
  8
0
  6
Continuous
100
AcDbSpline
210
0.0
220
0.0
230
1.0
 70
     8
 71
     3
 72
    11
 73
     7
 74
     5
 42
0.0000000001
 43
0.0000000001
 44
0.0000000001
 40
0.0
 40
0.0
 40
0.0
 40
0.0
 40
0.0705012485087188
 40
0.1294903420845116
 40
0.1704095719360671
 40
0.1858740931378796
 40
0.1858740931378796
 40
0.1858740931378796
 40
0.1858740931378796
 10
160.8813190287
 20
121.2556915769
 30
0.0
 10
160.9020342921585
 20
121.2445942044854
 30
0.0
 10
160.9400822219237
 20
121.2242115505524
 30
0.0
 10
160.9903646353469
 20
121.1977855183947
 30
0.0
 10
161.0244815141501
 20
121.1800363614503
 30
0.0
 10
161.0411827742268
 20
121.1714163563896
 30
0.0
 10
161.0457634732
 20
121.1690521247
 30
0.0
 11
160.8813190287
 21
121.2556915769
 31
0.0
 11
160.943512404
 21
121.2224890151
 31
0.0
 11
160.9957188264
 21
121.1950262654
 31
0.0
 11
161.0320234851
 21
121.1761488946
 31
0.0
 11
161.0457634732
 21
121.1690521247
 31
0.0
  0
SPLINE
  5
54C
330
25
100
AcDbEntity
  8
0
  6
Continuous
100
AcDbSpline
210
0.0
220
0.0
230
1.0
 70
     8
 71
     3
 72
    14
 73
    10
 74
     8
 42
0.0000000001
 43
0.0000000001
 44
0.0000000001
 40
0.0
 40
0.0
 40
0.0
 40
0.0
 40
0.4540953107302324
 40
0.8137796874637475
 40
1.073335985090889
 40
1.26250464605894
 40
1.400545859265788
 40
1.499769699222432
 40
1.569644154028432
 40
1.569644154028432
 40
1.569644154028432
 40
1.569644154028432
 10
160.0173363484
 20
119.2186669322
 30
0.0
 10
160.1402404469019
 20
119.3072766334722
 30
0.0
 10
160.360495658756
 20
119.4660731973292
 30
0.0
 10
160.6763634554053
 20
119.6360874729651
 30
0.0
 10
160.9247718359164
 20
119.7413304255967
 30
0.0
 10
161.1115192531853
 20
119.8004948839049
 30
0.0
 10
161.2504573306064
 20
119.8311360178504
 30
0.0
 10
161.3519694748688
 20
119.8455525409934
 30
0.0
 10
161.408280983343
 20
119.848419484933
 30
0.0
 10
161.4315499108
 20
119.8496041577
 30
0.0
 11
160.0173363484
 21
119.2186669322
 31
0.0
 11
160.3920359615
 21
119.4751874015
 31
0.0
 11
160.7085445653
 21
119.646053298
 31
0.0
 11
160.9480498221
 21
119.7460868104
 31
0.0
 11
161.1286168875
 21
119.8024811114
 31
0.0
 11
161.2634815822
 21
119.8319241185
 31
0.0
 11
161.3618153767
 21
119.8451844079
 31
0.0
 11
161.4315499108
 21
119.8496041577
 31
0.0
  0
SPLINE
  5
54E
330
25
100
AcDbEntity
  8
0
  6
Continuous
100
AcDbSpline
210
0.0
220
0.0
230
1.0
 70
     8
 71
     3
 72
    14
 73
    10
 74
     8
 42
0.0000000001
 43
0.0000000001
 44
0.0000000001
 40
0.0
 40
0.0
 40
0.0
 40
0.0
 40
0.6656047189197162
 40
1.198772483305374
 40
1.593134492398853
 40
1.891995559019387
 40
2.120839325620479
 40
2.293842978315139
 40
2.421452741978791
 40
2.421452741978791
 40
2.421452741978791
 40
2.421452741978791
 10
158.5557233928
 20
121.0787771895
 30
0.0
 10
158.7578450037813
 20
121.1717142933572
 30
0.0
 10
159.1218716079179
 20
121.3390965844006
 30
0.0
 10
159.6447576480855
 20
121.452478696619
 30
0.0
 10
160.0545247044154
 20
121.4730744484602
 30
0.0
 10
160.3613132699111
 20
121.4397072087115
 30
0.0
 10
160.5882464797363
 20
121.3822499783037
 30
0.0
 10
160.753995976854
 20
121.3203752013146
 30
0.0
 10
160.8433769804574
 20
121.274967184596
 30
0.0
 10
160.8813190287
 20
121.2556915769
 30
0.0
 11
158.5557233928
 21
121.0787771895
 31
0.0
 11
159.1711596697
 21
121.332288197
 31
0.0
 11
159.6921273547
 21
121.445692501
 31
0.0
 11
160.0861184654
 21
121.4627921766
 31
0.0
 11
160.3831103936
 21
121.4294195572
 31
0.0
 11
160.6049226138
 21
121.3731273865
 31
0.0
 11
160.7666409619
 21
121.3116665068
 31
0.0
 11
160.8813190287
 21
121.2556915769
 31
0.0
  0
SPLINE
  5
54F
330
25
100
AcDbEntity
  8
0
  6
Continuous
100
AcDbSpline
210
0.0
220
0.0
230
1.0
 70
     8
 71
     3
 72
    16
 73
    12
 74
    10
 42
0.0000000001
 43
0.0000000001
 44
0.0000000001
 40
0.0
 40
0.0
 40
0.0
 40
0.0
 40
1.649208426249161
 40
3.259186721076677
 40
4.839733703496699
 40
6.413939295728429
 40
7.990536984388765
 40
9.592215219144572
 40
11.23599119070549
 40
12.82608090248277
 40
14.24594090635109
 40
14.24594090635109
 40
14.24594090635109
 40
14.24594090635109
 10
146.0573142633
 20
118.3929296778
 30
0.0
 10
146.5895807930583
 20
118.2545457026381
 30
0.0
 10
147.6414526961185
 20
117.9810695263835
 30
0.0
 10
149.2351014879471
 20
117.7167538927438
 30
0.0
 10
150.8181129393661
 20
117.5718939145353
 30
0.0
 10
152.3970121657972
 20
117.5570180072657
 30
0.0
 10
153.9787750508816
 20
117.6699325830307
 30
0.0
 10
155.5697881515806
 20
117.9098287893469
 30
0.0
 10
157.1423032768803
 20
118.2691507057516
 30
0.0
 10
158.6312641044746
 20
118.7088048681681
 30
0.0
 10
159.5730670307017
 20
119.0552439415872
 30
0.0
 10
160.0173363484
 20
119.2186669322
 30
0.0
 11
146.0573142633
 21
118.3929296778
 31
0.0
 11
147.6595748393
 21
118.0022258516
 31
0.0
 11
149.24719006
 21
117.7348160148
 31
0.0
 11
150.821387643
 21
117.5932860416
 31
0.0
 11
152.3955208032
 21
117.5781850293
 31
0.0
 11
153.9681723304
 21
117.6896634841
 31
0.0
 11
155.5521467035999
 21
117.9271468577
 31
0.0
 11
157.1553763434
 21
118.2899886507
 31
0.0
 11
158.6798039632
 21
118.7422117411
 31
0.0
 11
160.0173363484
 21
119.2186669322
 31
0.0
  0
SPLINE
  5
9CB
330
25
100
AcDbEntity
  8
0
  6
Continuous
100
AcDbSpline
210
0.0
220
0.0
230
1.0
 70
     8
 71
     3
 72
    10
 73
     6
 74
     4
 42
0.0000000001
 43
0.0000000001
 44
0.0000000001
 40
0.0
 40
0.0
 40
0.0
 40
0.0
 40
3.706759933964698
 40
7.386234313209968
 40
11.03854503335171
 40
11.03854503335171
 40
11.03854503335171
 40
11.03854503335171
 10
167.6893560085
 20
140.240625
 30
0.0
 10
167.6578185707055
 20
139.0054409044961
 30
0.0
 10
167.5949758430032
 20
136.5441649352201
 30
0.0
 10
167.500421713983
 20
132.865864998353
 30
0.0
 10
167.4371874763159
 20
130.4227548277556
 30
0.0
 10
167.4056874963
 20
129.2057255033
 30
0.0
 11
167.6893560085
 21
140.240625
 31
0.0
 11
167.5946363098
 21
136.5350754609
 31
0.0
 11
167.5000803526
 21
132.8568162424
 31
0.0
 11
167.4056874963
 21
129.2057255033
 31
0.0
  0
LINE
  5
9CC
330
25
100
AcDbEntity
  8
0
  6
Continuous
100
AcDbLine
 10
188.2957634732
 20
140.240625
 30
0.0
 11
188.0046068068
 21
131.9029889539
 31
0.0
  0
LINE
  5
9CD
330
25
100
AcDbEntity
  8
0
  6
Continuous
100
AcDbLine
 10
187.1788641574
 20
130.9530806976
 30
0.0
 11
173.1743156995
 21
128.4837009518
 31
0.0
  0
ARC
  5
9CE
330
25
100
AcDbEntity
  8
0
  6
Continuous
100
AcDbCircle
 10
187.0052159798
 20
131.9378884506
 30
0.0
 40
1.0
100
AcDbArc
 50
279.9999999999994
 51
357.9999999999996
  0
LWPOLYLINE
  5
9CF
330
25
100
AcDbEntity
  8
0
  6
Continuous
100
AcDbPolyline
 90
       11
 70
     0
 43
0.0
 10
187.1717690662
 20
131.0292194748
 10
187.1736707131
 20
131.0150045151
 10
187.1753122912999
 20
131.0022143488
 10
187.1766912666
 20
130.9908687218
 10
187.1778055099
 20
130.9809851502
 10
187.1786533011
 20
130.9725788927
 10
187.1792333312
 20
130.9656629273
 10
187.1795447049
 20
130.9602479312
 10
187.1795869413
 20
130.9563422642
 10
187.1793599753999
 20
130.9539519563
 10
187.1788641574
 20
130.9530806976
  0
SPLINE
  5
9D0
330
25
100
AcDbEntity
  8
0
  6
Continuous
100
AcDbSpline
210
0.0
220
0.0
230
1.0
 70
     8
 71
     3
 72
    59
 73
    55
 74
    53
 42
0.0000000001
 43
0.0000000001
 44
0.0000000001
 40
0.0
 40
0.0
 40
0.0
 40
0.0
 40
0.0236216053880589
 40
0.0474503397088913
 40
0.0715201023757804
 40
0.0958635057288208
 40
0.1205117565540233
 40
0.1454967040311599
 40
0.1708700396928292
 40
0.1967006313702737
 40
0.2230509843277445
 40
0.2499743649257656
 40
0.2775235631677664
 40
0.3057602836748599
 40
0.3347483033127806
 40
0.3645539717784833
 40
0.3952420916784972
 40
0.4268864124766514
 40
0.4595615695991182
 40
0.4933118337583952
 40
0.5281661442335937
 40
0.5641850657776185
 40
0.6014267868500967
 40
0.6399687670600687
 40
0.6799433323368491
 40
0.7213503356213674
 40
0.7636635035083966
 40
0.8065790151805019
 40
0.8498276266734604
 40
0.8931107044005666
 40
0.9362291013960433
 40
0.9792747256466391
 40
1.022336131763491
 40
1.065419847640614
 40
1.108566051265518
 40
1.151807785541066
 40
1.195175081398831
 40
1.238698398362911
 40
1.282407065853568
 40
1.326326977766838
 40
1.370462530363162
 40
1.414838857013322
 40
1.459473720301337
 40
1.504373870294327
 40
1.549541406188685
 40
1.594978470973601
 40
1.640688015572795
 40
1.686653352882903
 40
1.73286480208973
 40
1.779307635032878
 40
1.825966991231074
 40
1.872814281811352
 40
1.919815149507025
 40
1.966967297027286
 40
1.966967297027286
 40
1.966967297027286
 40
1.966967297027286
 10
167.4044683947
 20
129.1869253189
 30
0.0
 10
167.4037729799213
 20
129.1790814477584
 30
0.0
 10
167.4023760525344
 20
129.1633249255328
 30
0.0
 10
167.3992379705265
 20
129.1396851113444
 30
0.0
 10
167.3953054503975
 20
129.1159240025595
 30
0.0
 10
167.3904851687238
 20
129.0920466231752
 30
0.0
 10
167.384774608544
 20
129.0680531777049
 30
0.0
 10
167.3781441701658
 20
129.0439409629173
 30
0.0
 10
167.3705640251903
 20
129.0196969704566
 30
0.0
 10
167.3619956459085
 20
128.9953013051902
 30
0.0
 10
167.3523955890516
 20
128.9707371625361
 30
0.0
 10
167.3417181012453
 20
128.9459964662403
 30
0.0
 10
167.3299140813442
 20
128.9210752602413
 30
0.0
 10
167.3169296108128
 20
128.8959706210408
 30
0.0
 10
167.3027051963966
 20
128.8706803354551
 30
0.0
 10
167.2871773747658
 20
128.8452064694288
 30
0.0
 10
167.2702777539329
 20
128.8195537746816
 30
0.0
 10
167.2519333023654
 20
128.7937306790888
 30
0.0
 10
167.2320722350466
 20
128.7677574416095
 30
0.0
 10
167.2106308562105
 20
128.7416716576997
 30
0.0
 10
167.1875494323397
 20
128.7155187048832
 30
0.0
 10
167.1627663065686
 20
128.689344555023
 30
0.0
 10
167.1362091485474
 20
128.663188321158
 30
0.0
 10
167.1077877815432
 20
128.6370787562498
 30
0.0
 10
167.0774245013586
 20
128.6110658644677
 30
0.0
 10
167.0451994494789
 20
128.5853314259247
 30
0.0
 10
167.011329968149
 20
128.5601246994721
 30
0.0
 10
166.9761358916153
 20
128.5357098804863
 30
0.0
 10
166.9399001048624
 20
128.5122697961387
 30
0.0
 10
166.9028936548666
 20
128.4899362346831
 30
0.0
 10
166.8652946164125
 20
128.4687540615472
 30
0.0
 10
166.8271680406247
 20
128.4486960543021
 30
0.0
 10
166.788511412473
 20
128.4297067252524
 30
0.0
 10
166.7493308125166
 20
128.4117437405122
 30
0.0
 10
166.7096439503514
 20
128.3947761195454
 30
0.0
 10
166.6694569550854
 20
128.3787730463669
 30
0.0
 10
166.6287750612957
 20
128.3637082872995
 30
0.0
 10
166.5876013234791
 20
128.3495591742524
 30
0.0
 10
166.5459372129541
 20
128.3363064843462
 30
0.0
 10
166.5037900546298
 20
128.3239362832455
 30
0.0
 10
166.4611665942806
 20
128.3124369883784
 30
0.0
 10
166.4180745282404
 20
128.3017995540163
 30
0.0
 10
166.3745193303396
 20
128.2920166135439
 30
0.0
 10
166.3305127670526
 20
128.2830840315508
 30
0.0
 10
166.2860707760114
 20
128.2749996966234
 30
0.0
 10
166.2412097732716
 20
128.2677624709915
 30
0.0
 10
166.1959517092267
 20
128.2613727910745
 30
0.0
 10
166.150321944019
 20
128.2558319175705
 30
0.0
 10
166.1043512868111
 20
128.2511411527063
 30
0.0
 10
166.058069598113
 20
128.2473032473465
 30
0.0
 10
166.0115127135946
 20
128.244314180028
 30
0.0
 10
165.9647227508833
 20
128.2421954281231
 30
0.0
 10
165.9177374038898
 20
128.2408699085243
 30
0.0
 10
165.886352630399
 20
128.2407067235736
 30
0.0
 10
165.87063503
 20
128.240625
 30
0.0
 11
167.4044683947
 21
129.1869253189
 31
0.0
 11
167.4022123804
 21
129.1634116922
 31
0.0
 11
167.3991233809999
 21
129.1397840249
 31
0.0
 11
167.395182245
 21
129.1160391113
 31
0.0
 11
167.390369584
 21
129.0921761781
 31
0.0
 11
167.3846634567
 21
129.068197513
 31
0.0
 11
167.3780409884
 21
129.0441062176
 31
0.0
 11
167.3704713261
 21
129.0198883239
 31
0.0
 11
167.3619139888
 21
128.9955163842
 31
0.0
 11
167.3523250192
 21
128.9709726933
 31
0.0
 11
167.3416596257
 21
128.9462518963
 31
0.0
 11
167.3298700473
 21
128.9213528167
 31
0.0
 11
167.3169015078
 21
128.8962703653
 31
0.0
 11
167.3026946438
 21
128.8710023955
 31
0.0
 11
167.2871853311
 21
128.8455497121
 31
0.0
 11
167.2703070680999
 21
128.8199199454
 31
0.0
 11
167.2519854387
 21
128.7941191521
 31
0.0
 11
167.2321423383
 21
128.7681592357
 31
0.0
 11
167.2107166565
 21
128.7420820332
 31
0.0
 11
167.1876586899
 21
128.7159448349
 31
0.0
 11
167.1628995061
 21
128.6897848363
 31
0.0
 11
167.1363718277
 21
128.6636462046
 31
0.0
 11
167.1079944938
 21
128.6375653465
 31
0.0
 11
167.0776432079
 21
128.6115506331
 31
0.0
 11
167.0452934941
 21
128.5857042419
 31
0.0
 11
167.0113550225
 21
128.5604340159
 31
0.0
 11
166.976098999
 21
128.5359645666
 31
0.0
 11
166.9397907341
 21
128.5124666455
 31
0.0
 11
166.9027376841
 21
128.4900948708
 31
0.0
 11
166.8651746425
 21
128.4689238041
 31
0.0
 11
166.8270827035
 21
128.4488756134
 31
0.0
 11
166.7884358648
 21
128.4298833372
 31
0.0
 11
166.7492746623
 21
128.4119220791
 31
0.0
 11
166.7096046094
 21
128.3949549995
 31
0.0
 11
166.6694331146
 21
128.3789519189
 31
0.0
 11
166.6287665139
 21
128.3638870612
 31
0.0
 11
166.587607412
 21
128.349737593
 31
0.0
 11
166.5459565767
 21
128.3364840828
 31
0.0
 11
166.5038155703
 21
128.324110957
 31
0.0
 11
166.4612046669
 21
128.3126106129
 31
0.0
 11
166.4181225699
 21
128.3019714736
 31
0.0
 11
166.3745735658
 21
128.2921860118
 31
0.0
 11
166.3305714851
 21
128.2832506683
 31
0.0
 11
166.2861338105
 21
128.2751636803
 31
0.0
 11
166.2412772265
 21
128.2679239477
 31
0.0
 11
166.196016953
 21
128.2615309742
 31
0.0
 11
166.1503871454
 21
128.2559872487
 31
0.0
 11
166.1044146414
 21
128.2512939648
 31
0.0
 11
166.0581309415
 21
128.2474526297
 31
0.0
 11
166.011567373
 21
128.2444643845
 31
0.0
 11
165.964768705
 21
128.2423305363
 31
0.0
 11
165.917785251
 21
128.241051234
 31
0.0
 11
165.87063503
 21
128.240625
 31
0.0
  0
ARC
  5
9D1
330
25
100
AcDbEntity
  8
0
  6
Continuous
100
AcDbCircle
 10
170.3959448568
 20
144.240625
 30
0.0
 40
16.0
100
AcDbArc
 50
269.9999999999994
 51
279.9999999999994
  0
SPLINE
  5
9D2
330
25
100
AcDbEntity
  8
0
  6
Continuous
100
AcDbSpline
210
0.0
220
0.0
230
1.0
 70
     8
 71
     3
 72
    10
 73
     6
 74
     4
 42
0.0000000001
 43
0.0000000001
 44
0.0000000001
 40
0.0
 40
0.0
 40
0.0
 40
0.0
 40
0.0062763641675166
 40
0.0125562537545741
 40
0.0188401956136166
 40
0.0188401956136166
 40
0.0188401956136166
 40
0.0188401956136166
 10
167.4056874963
 20
129.2057255033
 30
0.0
 10
167.405575064194
 20
129.203636395819
 30
0.0
 10
167.4053501368291
 20
129.1994570074101
 30
0.0
 10
167.4049437600005
 20
129.1931899283464
 30
0.0
 10
167.404626883868
 20
129.1890139710125
 30
0.0
 10
167.4044683947
 20
129.1869253189
 30
0.0
 11
167.4056874963
 21
129.2057255033
 31
0.0
 11
167.4053387297
 21
129.1994588368
 31
0.0
 11
167.4049323852
 21
129.1931921074
 31
0.0
 11
167.4044683947
 21
129.1869253189
 31
0.0
  0
LINE
  5
9D3
330
25
100
AcDbEntity
  8
0
  6
Continuous
100
AcDbLine
 10
168.3408122345
 20
145.240625
 30
0.0
 11
187.0136143274
 21
145.240625
 31
0.0
  0
LINE
  5
9D4
330
25
100
AcDbEntity
  8
0
  6
Continuous
100
AcDbLine
 10
188.0111783776
 20
144.3103814737
 30
0.0
 11
188.2957624121999
 21
140.2406401732
 31
0.0
  0
ARC
  5
9D5
330
25
100
AcDbEntity
  8
0
  6
Continuous
100
AcDbCircle
 10
187.0136143274
 20
144.240625
 30
0.0
 40
1.0
100
AcDbArc
 50
3.99999999999958
 51
89.99999999999982
  0
SPLINE
  5
9D6
330
25
100
AcDbEntity
  8
0
  6
Continuous
100
AcDbSpline
210
0.0
220
0.0
230
1.0
 70
     8
 71
     3
 72
    42
 73
    38
 74
    36
 42
0.0000000001
 43
0.0000000001
 44
0.0000000001
 40
0.0
 40
0.0
 40
0.0
 40
0.0
 40
0.0234697066630327
 40
0.0465615814238814
 40
0.0692826348738278
 40
0.0916332721849238
 40
0.1136480361227025
 40
0.1353763278572404
 40
0.1568630296259531
 40
0.1781518936663196
 40
0.1992968476000662
 40
0.2203351860762975
 40
0.2412896355608658
 40
0.2622099969502441
 40
0.2831531522447758
 40
0.3041629261023247
 40
0.3252922210290358
 40
0.346583346498627
 40
0.3680603552105151
 40
0.3897969370786125
 40
0.4118748373955051
 40
0.4343492325959451
 40
0.45727050114958
 40
0.4807031165132714
 40
0.5046799053264905
 40
0.5292145145494778
 40
0.5543900685971317
 40
0.5802849413973672
 40
0.6069678169811011
 40
0.6344955190220777
 40
0.6629711478950829
 40
0.6925331323335759
 40
0.7232146542154753
 40
0.7550644684367559
 40
0.788159014831793
 40
0.8225969393348953
 40
0.8584780032847068
 40
0.8584780032847068
 40
0.8584780032847068
 40
0.8584780032847068
 10
166.3565481654
 20
141.7168387124
 30
0.0
 10
166.3639609146794
 20
141.7193430731176
 30
0.0
 10
166.3786670775685
 20
141.7243114775863
 30
0.0
 10
166.4009143104168
 20
141.7305459292853
 30
0.0
 10
166.4230190516135
 20
141.735824868908
 30
0.0
 10
166.4449776444413
 20
141.7400910803794
 30
0.0
 10
166.4667664391773
 20
141.7433920700609
 30
0.0
 10
166.4883874708206
 20
141.7457527674458
 30
0.0
 10
166.5098458549928
 20
141.747202954383
 30
0.0
 10
166.5311511219401
 20
141.747767777309
 30
0.0
 10
166.5523121553302
 20
141.7474693593646
 30
0.0
 10
166.5733326652699
 20
141.7463272384644
 30
0.0
 10
166.5942164938224
 20
141.7443573362975
 30
0.0
 10
166.6149748631111
 20
141.7415698709949
 30
0.0
 10
166.635626909776
 20
141.7379725593469
 30
0.0
 10
166.6561929992472
 20
141.7335675356443
 30
0.0
 10
166.6766886720186
 20
141.7283536525453
 30
0.0
 10
166.697122766594
 20
141.7223276255213
 30
0.0
 10
166.7175103756928
 20
141.7154811109385
 30
0.0
 10
166.7378765537963
 20
141.7077937457611
 30
0.0
 10
166.7582558434304
 20
141.699241333507
 30
0.0
 10
166.778672550366
 20
141.6897953075414
 30
0.0
 10
166.7991432887311
 20
141.6794252298024
 30
0.0
 10
166.8196751420197
 20
141.6680997177327
 30
0.0
 10
166.8402626905974
 20
141.6557917149332
 30
0.0
 10
166.8609017216027
 20
141.6424659726666
 30
0.0
 10
166.881597206936
 20
141.6280761299289
 30
0.0
 10
166.9023662123105
 20
141.6125637158981
 30
0.0
 10
166.9232128827021
 20
141.5958702729691
 30
0.0
 10
166.9441429233485
 20
141.577929183066
 30
0.0
 10
166.9651722174811
 20
141.5586533611501
 30
0.0
 10
166.9863052742146
 20
141.5379585330927
 30
0.0
 10
167.007527079463
 20
141.5157703828076
 30
0.0
 10
167.0288042626864
 20
141.4920279790584
 30
0.0
 10
167.0500896402771
 20
141.4666377918952
 30
0.0
 10
167.0714351092016
 20
141.4395592087258
 30
0.0
 10
167.0851877343435
 20
141.4205755631511
 30
0.0
 10
167.0922051678
 20
141.410888942
 30
0.0
 11
166.3565481654
 21
141.7168387124
 31
0.0
 11
166.3788486994
 21
141.7241539919
 31
0.0
 11
166.401070413
 21
141.730433333
 31
0.0
 11
166.4231738578
 21
141.7356948915
 31
0.0
 11
166.4451140137
 21
141.7399587568
 31
0.0
 11
166.4668807598
 21
141.7432539951
 31
0.0
 11
166.4884807519
 21
141.7456117489
 31
0.0
 11
166.5099185822
 21
141.7470601221
 31
0.0
 11
166.5311999651
 21
141.7476244571
 31
0.0
 11
166.5523428261
 21
141.7473269582
 31
0.0
 11
166.5733502228
 21
141.7461863576
 31
0.0
 11
166.5942121413
 21
141.7442193015
 31
0.0
 11
166.6149466117
 21
141.7414366305
 31
0.0
 11
166.6355794072
 21
141.7378444858
 31
0.0
 11
166.6561236693
 21
141.7334463166
 31
0.0
 11
166.6766013723
 21
141.7282395149
 31
0.0
 11
166.6970237718
 21
141.7222197456
 31
0.0
 11
166.7173841771
 21
141.7153848499
 31
0.0
 11
166.7377216098
 21
141.707712313
 31
0.0
 11
166.7580809596
 21
141.699172374
 31
0.0
 11
166.7784797997
 21
141.6897391475
 31
0.0
 11
166.7989290436
 21
141.6793847776
 31
0.0
 11
166.8194494244
 21
141.6680710057
 31
0.0
 11
166.8400311318
 21
141.6557714235
 31
0.0
 11
166.8606451952
 21
141.6424670092
 31
0.0
 11
166.881318181
 21
141.6280991221
 31
0.0
 11
166.9020680617
 21
141.6126076119
 31
0.0
 11
166.9228995902
 21
141.5959335821
 31
0.0
 11
166.9438034284
 21
141.5780225819
 31
0.0
 11
166.9647995025
 21
141.5587865139
 31
0.0
 11
166.9859259752
 21
141.5381084319
 31
0.0
 11
167.0071384267
 21
141.5159411658
 31
0.0
 11
167.0283972288
 21
141.4922246315
 31
0.0
 11
167.0496759388
 21
141.4668777283
 31
0.0
 11
167.0709545106
 21
141.439800191
 31
0.0
 11
167.0922051678
 21
141.410888942
 31
0.0
  0
SPLINE
  5
9D7
330
25
100
AcDbEntity
  8
0
  6
Continuous
100
AcDbSpline
210
0.0
220
0.0
230
1.0
 70
     8
 71
     3
 72
    22
 73
    18
 74
    16
 42
0.0000000001
 43
0.0000000001
 44
0.0000000001
 40
0.0
 40
0.0
 40
0.0
 40
0.0
 40
0.1805242509010343
 40
0.3758293896975733
 40
0.5716978972795676
 40
0.7681222109450014
 40
0.9650856482439154
 40
1.162583489198015
 40
1.360566862242445
 40
1.558983540664843
 40
1.757758627543652
 40
1.956787781230048
 40
2.155967623042555
 40
2.355189967204871
 40
2.55434228798526
 40
2.753307299046654
 40
2.938112582955092
 40
2.938112582955092
 40
2.938112582955092
 40
2.938112582955092
 10
166.320778895
 20
143.4654160726
 30
0.0
 10
166.3295986916194
 20
143.5249822149337
 30
0.0
 10
166.3479604284177
 20
143.6489916308884
 30
0.0
 10
166.398159411188
 20
143.8332989039778
 30
0.0
 10
166.4667401517493
 20
144.0170289120537
 30
0.0
 10
166.5535557958482
 20
144.1935984732754
 30
0.0
 10
166.6573967108858
 20
144.361322869732
 30
0.0
 10
166.7774494653045
 20
144.5185223131483
 30
0.0
 10
166.9125770437805
 20
144.6636266892215
 30
0.0
 10
167.0615139733528
 20
144.7951644713817
 30
0.0
 10
167.222825480677
 20
144.9117882896679
 30
0.0
 10
167.3949333305447
 20
145.0123082155115
 30
0.0
 10
167.5761313356494
 20
145.095660116338
 30
0.0
 10
167.7646122967759
 20
145.1611207768461
 30
0.0
 10
167.9584834985322
 20
145.2075798967716
 30
0.0
 10
168.1512173567402
 20
145.2356344271146
 30
0.0
 10
168.2791825948997
 20
145.2390027434427
 30
0.0
 10
168.3408044882
 20
145.2406247623
 30
0.0
 11
166.320778895
 21
143.4654160726
 31
0.0
 11
166.3506157488
 21
143.643457549
 31
0.0
 11
166.4009287092
 21
143.8321708322
 31
0.0
 11
166.4696695027
 21
144.015580689
 31
0.0
 11
166.5562624444
 21
144.1918877321
 31
0.0
 11
166.6599485466
 21
144.3593505275
 31
0.0
 11
166.779805625
 21
144.5163208366
 31
0.0
 11
166.9147244839
 21
144.6612149963
 31
0.0
 11
167.0634379924
 21
144.7925674636
 31
0.0
 11
167.2245186447
 21
144.9090344487
 31
0.0
 11
167.3963819988
 21
145.0094116948
 31
0.0
 11
167.5773258858
 21
145.0926698424
 31
0.0
 11
167.7655447092
 21
145.157963157
 31
0.0
 11
167.9591495985
 21
145.2046407074
 31
0.0
 11
168.1561887527
 21
145.2322567777
 31
0.0
 11
168.3408044882
 21
145.2406247623
 31
0.0
  0
SPLINE
  5
9D8
330
25
100
AcDbEntity
  8
0
  6
Continuous
100
AcDbSpline
210
0.0
220
0.0
230
1.0
 70
     8
 71
     3
 72
    32
 73
    28
 74
    26
 42
0.0000000001
 43
0.0000000001
 44
0.0000000001
 40
0.0
 40
0.0
 40
0.0
 40
0.0
 40
0.0538112722978609
 40
0.1066834740971523
 40
0.1586814645920392
 40
0.2104052217295122
 40
0.261849030351541
 40
0.3126032838541209
 40
0.3627336999681926
 40
0.412613294953895
 40
0.4622579926720515
 40
0.5114011198889473
 40
0.5600339536685773
 40
0.6083874146474173
 40
0.6565433286593447
 40
0.7042965130466861
 40
0.7515465384981409
 40
0.7983833811013275
 40
0.8449192787175823
 40
0.8910258324475556
 40
0.9365637794352058
 40
0.9815497877247911
 40
1.025977620510421
 40
1.069823269509512
 40
1.11305933516183
 40
1.155678596629899
 40
1.197668424778012
 40
1.197668424778012
 40
1.197668424778012
 40
1.197668424778012
 10
167.0922051695
 20
141.4108889412
 30
0.0
 10
167.1062590452901
 20
141.3997408502887
 30
0.0
 10
167.1341215400758
 20
141.3776392158693
 30
0.0
 10
167.1742443923157
 20
141.3431532635818
 30
0.0
 10
167.2128267185398
 20
141.3079859371932
 30
0.0
 10
167.2499159103452
 20
141.2719235471778
 30
0.0
 10
167.2855767757924
 20
141.235023922142
 30
0.0
 10
167.3196941247961
 20
141.1974061622621
 30
0.0
 10
167.3522638083597
 20
141.1591228986973
 30
0.0
 10
167.3833612748005
 20
141.1201063102562
 30
0.0
 10
167.4130088160282
 20
141.0803869032916
 30
0.0
 10
167.4411327645158
 20
141.040080190209
 30
0.0
 10
167.4677152247392
 20
140.9992532682248
 30
0.0
 10
167.4927945255254
 20
140.9578704906992
 30
0.0
 10
167.5163881046683
 20
140.9159592649916
 30
0.0
 10
167.5384467488242
 20
140.873634541627
 30
0.0
 10
167.5589316647803
 20
140.8310134860734
 30
0.0
 10
167.5778546202288
 20
140.7881194852423
 30
0.0
 10
167.5952270290359
 20
140.7449851234313
 30
0.0
 10
167.611035073489
 20
140.7017138833949
 30
0.0
 10
167.6252525917361
 20
140.6584378072277
 30
0.0
 10
167.6378802981272
 20
140.6152540347355
 30
0.0
 10
167.6489295137075
 20
140.5722222200498
 30
0.0
 10
167.6584246486488
 20
140.529417343687
 30
0.0
 10
167.6663455958247
 20
140.4869092049783
 30
0.0
 10
167.6728477286181
 20
140.4447806543878
 30
0.0
 10
167.675951302757
 20
140.4167462198381
 30
0.0
 10
167.6774915456
 20
140.402833281
 30
0.0
 11
167.0922051695
 21
141.4108889412
 31
0.0
 11
167.1341410204
 21
141.3771689555
 31
0.0
 11
167.1742930503
 21
141.342770057
 31
0.0
 11
167.2127025643
 21
141.3077200891
 31
0.0
 11
167.2497922745
 21
141.2716687306
 31
0.0
 11
167.2855368934
 21
141.2346716001
 31
0.0
 11
167.3196310632
 21
141.1970739694
 31
0.0
 11
167.3521110448
 21
141.1588887705
 31
0.0
 11
167.3832007749
 21
141.1198836083
 31
0.0
 11
167.4128930752
 21
141.0800971368
 31
0.0
 11
167.441011199
 21
141.0397930667
 31
0.0
 11
167.4675436615
 21
140.999035479
 31
0.0
 11
167.4926046854
 21
140.9576833053
 31
0.0
 11
167.516225204
 21
140.9157182823
 31
0.0
 11
167.538292357
 21
140.8733696415
 31
0.0
 11
167.5587574369
 21
140.8307815515
 31
0.0
 11
167.577659861
 21
140.7879284514
 31
0.0
 11
167.5950432314
 21
140.7447612393
 31
0.0
 11
167.6108601954999
 21
140.7014526034
 31
0.0
 11
167.6250698104
 21
140.6581883981
 31
0.0
 11
167.6376913246
 21
140.6150092559
 31
0.0
 11
167.6487382175
 21
140.5719767277
 31
0.0
 11
167.6582229462
 21
140.5291692417
 31
0.0
 11
167.6661609283
 21
140.4866681145
 31
0.0
 11
167.6725753634
 21
140.444534322
 31
0.0
 11
167.6774915456
 21
140.402833281
 31
0.0
  0
SPLINE
  5
9D9
330
25
100
AcDbEntity
  8
0
  6
Continuous
100
AcDbSpline
210
0.0
220
0.0
230
1.0
 70
     8
 71
     3
 72
    10
 73
     6
 74
     4
 42
0.0000000001
 43
0.0000000001
 44
0.0000000001
 40
0.0
 40
0.0
 40
0.0
 40
0.0
 40
0.0148557478047321
 40
0.0297232100954027
 40
0.0445870171106675
 40
0.0445870171106675
 40
0.0445870171106675
 40
0.0445870171106675
 10
167.6774915456
 20
140.402833281
 30
0.0
 10
167.6779761123751
 20
140.3979051139696
 30
0.0
 10
167.6789456280299
 20
140.3880448938074
 30
0.0
 10
167.6802594104731
 20
140.3732404238126
 30
0.0
 10
167.6810416196136
 20
140.3633608847948
 30
0.0
 10
167.6814326761
 20
140.3584217226
 30
0.0
 11
167.6774915456
 21
140.402833281
 31
0.0
 11
167.6789218384
 21
140.3880465469
 31
0.0
 11
167.6802360524
 21
140.3732372837
 31
0.0
 11
167.6814326761
 21
140.3584217226
 31
0.0
  0
SPLINE
  5
9DA
330
25
100
AcDbEntity
  8
0
  6
Continuous
100
AcDbSpline
210
0.0
220
0.0
230
1.0
 70
     8
 71
     3
 72
     9
 73
     5
 74
     3
 42
0.0000000001
 43
0.0000000001
 44
0.0000000001
 40
0.0
 40
0.0
 40
0.0
 40
0.0
 40
0.024066017996486
 40
0.0481392421098117
 40
0.0481392421098117
 40
0.0481392421098117
 40
0.0481392421098117
 10
167.6814326761
 20
140.3584217226
 30
0.0
 10
167.6820212250971
 20
140.3504211294596
 30
0.0
 10
167.6831984993211
 20
140.3344175475513
 30
0.0
 10
167.6840680290528
 20
140.3183942978409
 30
0.0
 10
167.684502859
 20
140.3103814737
 30
0.0
 11
167.6814326761
 21
140.3584217226
 31
0.0
 11
167.68312141
 21
140.3344150277
 31
0.0
 11
167.684502859
 21
140.3103814737
 31
0.0
  0
SPLINE
  5
9DB
330
25
100
AcDbEntity
  8
0
  6
Continuous
100
AcDbSpline
210
0.0
220
0.0
230
1.0
 70
     8
 71
     3
 72
    11
 73
     7
 74
     5
 42
0.0000000001
 43
0.0000000001
 44
0.0000000001
 40
0.0
 40
0.0
 40
0.0
 40
0.0
 40
0.0174619459119113
 40
0.03492515586079
 40
0.0523896084286998
 40
0.069855281782943
 40
0.069855281782943
 40
0.069855281782943
 40
0.069855281782943
 10
167.684502859
 20
140.3103814737
 30
0.0
 10
167.6847996486383
 20
140.3045683965055
 30
0.0
 10
167.6853932493989
 20
140.2929418213188
 30
0.0
 10
167.6862836217059
 20
140.2755013313738
 30
0.0
 10
167.6871740172333
 20
140.2580595985153
 30
0.0
 10
167.687767594896
 20
140.246431363305
 30
0.0
 10
167.6880643941
 20
140.2406170425
 30
0.0
 11
167.684502859
 21
140.3103814737
 31
0.0
 11
167.6853932178
 21
140.2929422416
 31
0.0
 11
167.6862835939
 21
140.2755017447
 31
0.0
 11
167.6871739864
 21
140.2580600044
 31
0.0
 11
167.6880643941
 21
140.2406170425
 31
0.0
  0
SPLINE
  5
9DC
330
25
100
AcDbEntity
  8
0
  6
Continuous
100
AcDbSpline
210
0.0
220
0.0
230
1.0
 70
     8
 71
     3
 72
    10
 73
     6
 74
     4
 42
0.0000000001
 43
0.0000000001
 44
0.0000000001
 40
0.0
 40
0.0
 40
0.0
 40
0.0
 40
0.0004306707963373
 40
0.0008612141653496
 40
0.0012916461729028
 40
0.0012916461729028
 40
0.0012916461729028
 40
0.0012916461729028
 10
167.6880643941
 20
140.2406170425
 30
0.0
 10
167.6882079423368
 20
140.2406186342026
 30
0.0
 10
167.6884949963373
 20
140.2406218171367
 30
0.0
 10
167.6889255393114
 20
140.2406244695603
 30
0.0
 10
167.689212531144
 20
140.240624823202
 30
0.0
 10
167.6893560085
 20
140.240625
 30
0.0
 11
167.6880643941
 21
140.2406170425
 31
0.0
 11
167.6884950422
 21
140.2406214639
 31
0.0
 11
167.6889255774
 21
140.2406241161
 31
0.0
 11
167.6893560085
 21
140.240625
 31
0.0
  0
SPLINE
  5
9DD
330
25
100
AcDbEntity
  8
0
  6
Continuous
100
AcDbSpline
210
0.0
220
0.0
230
1.0
 70
     8
 71
     3
 72
    10
 73
     6
 74
     4
 42
0.0000000001
 43
0.0000000001
 44
0.0000000001
 40
0.0
 40
0.0
 40
0.0
 40
0.0
 40
0.4445301533033684
 40
1.123242865380375
 40
1.798603012493715
 40
1.798603012493715
 40
1.798603012493715
 40
1.798603012493715
 10
166.1035544946
 20
141.6799787092
 30
0.0
 10
166.1215152578133
 20
141.8270628713367
 30
0.0
 10
166.1668986789067
 20
142.1987164802151
 30
0.0
 10
166.2393476322449
 20
142.7938573088127
 30
0.0
 10
166.2936798922428
 20
143.2419328715945
 30
0.0
 10
166.3207787613
 20
143.4654159552
 30
0.0
 11
166.1035544946
 21
141.6799787092
 31
0.0
 11
166.1574151023
 21
142.1212338419
 31
0.0
 11
166.2394297356
 21
142.7949730685
 31
0.0
 11
166.3207787613
 21
143.4654159552
 31
0.0
  0
SPLINE
  5
9DE
330
25
100
AcDbEntity
  8
0
  6
Continuous
100
AcDbSpline
210
0.0
220
0.0
230
1.0
 70
     8
 71
     3
 72
    19
 73
    15
 74
    13
 42
0.0000000001
 43
0.0000000001
 44
0.0000000001
 40
0.0
 40
0.0
 40
0.0
 40
0.0
 40
0.0098871955618462
 40
0.0206395576341642
 40
0.032333253548485
 40
0.0450407216131764
 40
0.0588251065976137
 40
0.0737536357017234
 40
0.0899082515008488
 40
0.1073629872105959
 40
0.1261715909782415
 40
0.1464013505499262
 40
0.168132243961152
 40
0.1914004037904367
 40
0.1914004037904367
 40
0.1914004037904367
 40
0.1914004037904367
 10
166.1715716616
 20
141.6711261021
 30
0.0
 10
166.1748684270381
 20
141.6710973668476
 30
0.0
 10
166.1817504371937
 20
141.671037381901
 30
0.0
 10
166.1925097717154
 20
141.6718233293801
 30
0.0
 10
166.2041467129608
 20
141.6732176841703
 30
0.0
 10
166.2167070520778
 20
141.6753061318251
 30
0.0
 10
166.2302368733731
 20
141.6780696707079
 30
0.0
 10
166.2447902948305
 20
141.6815251355811
 30
0.0
 10
166.260429014097
 20
141.6856784270595
 30
0.0
 10
166.2772140455441
 20
141.6905361186123
 30
0.0
 10
166.2952055706153
 20
141.6960989502999
 30
0.0
 10
166.3144668222553
 20
141.7023718161321
 30
0.0
 10
166.3350648894101
 20
141.7093355775683
 30
0.0
 10
166.3492258172784
 20
141.7142813479987
 30
0.0
 10
166.3565481654
 20
141.7168387124
 30
0.0
 11
166.1715716616
 21
141.6711261021
 31
0.0
 11
166.181458765
 21
141.6711687921
 31
0.0
 11
166.1921876101
 21
141.6718795473
 31
0.0
 11
166.2037993377
 21
141.6732616856
 31
0.0
 11
166.2163389089
 21
141.6753205442
 31
0.0
 11
166.2298480399
 21
141.6780614654
 31
0.0
 11
166.2443770516
 21
141.6814920339
 31
0.0
 11
166.2599947393
 21
141.6856223417
 31
0.0
 11
166.276765878
 21
141.6904593557999
 31
0.0
 11
166.2947392348
 21
141.6960021007
 31
0.0
 11
166.313979563
 21
141.7022513361
 31
0.0
 11
166.3345680329
 21
141.7092045106
 31
0.0
 11
166.3565481654
 21
141.7168387124
 31
0.0
  0
SPLINE
  5
9DF
330
25
100
AcDbEntity
  8
0
  6
Continuous
100
AcDbSpline
210
0.0
220
0.0
230
1.0
 70
     8
 71
     3
 72
    19
 73
    15
 74
    13
 42
0.0000000001
 43
0.0000000001
 44
0.0000000001
 40
0.0
 40
0.0
 40
0.0
 40
0.0
 40
0.0007909191714385
 40
0.0023269666422087
 40
0.0046901923564384
 40
0.0079987123797108
 40
0.0122897557799782
 40
0.0175770603190986
 40
0.0238640419226977
 40
0.0311489105795573
 40
0.0394364488792827
 40
0.0487079611712492
 40
0.0588539339920874
 40
0.0697266013650648
 40
0.0697266013650648
 40
0.0697266013650648
 40
0.0697266013650648
 10
166.1035791517
 20
141.6799769343
 30
0.0
 10
166.1035976114476
 20
141.6797053638329
 30
0.0
 10
166.1036519219494
 20
141.6789063752122
 30
0.0
 10
166.1050635206522
 20
141.6778987605655
 30
0.0
 10
166.1072048335565
 20
141.6769616579184
 30
0.0
 10
166.1104413611055
 20
141.6760588115622
 30
0.0
 10
166.1146419867173
 20
141.6752154767969
 30
0.0
 10
166.1198779501344
 20
141.6744282531745
 30
0.0
 10
166.1261216341969
 20
141.6737044246624
 30
0.0
 10
166.1333793376703
 20
141.673045056822
 30
0.0
 10
166.1416396045744
 20
141.6724522208059
 30
0.0
 10
166.1508601738789
 20
141.6719305457069
 30
0.0
 10
166.1609469251508
 20
141.6714765358802
 30
0.0
 10
166.1679493822345
 20
141.6712455750919
 30
0.0
 10
166.1715716616
 20
141.6711261021
 30
0.0
 11
166.1035791517
 21
141.6799769343
 31
0.0
 11
166.1037091652
 21
141.6791967743
 31
0.0
 11
166.1048122154
 21
141.6781277925
 31
0.0
 11
166.1069513556
 21
141.6771233449
 31
0.0
 11
166.1101237616
 21
141.6761841192
 31
0.0
 11
166.1143250558
 21
141.6753110897
 31
0.0
 11
166.1195505519
 21
141.6745050005
 31
0.0
 11
166.1257940271
 21
141.6737666543
 31
0.0
 11
166.1330480312
 21
141.6730967768
 31
0.0
 11
166.1413137206
 21
141.6724953869
 31
0.0
 11
166.1505699933
 21
141.6719640152
 31
0.0
 11
166.1607056689
 21
141.67150702
 31
0.0
 11
166.1715716616
 21
141.6711261021
 31
0.0
  0
ARC
  5
9E0
330
25
100
AcDbEntity
  8
0
  6
Continuous
100
AcDbCircle
 10
165.6072460978
 20
141.740625
 30
0.0
 40
0.5
100
AcDbArc
 50
269.9999999999994
 51
353.0332946840996
  0
ARC
  5
9E1
330
25
100
AcDbEntity
  8
0
  6
Continuous
100
AcDbCircle
 10
156.3245824845
 20
140.633334114
 30
0.0
 40
0.8
100
AcDbArc
 50
49.34700358219972
 51
74.73383327349977
  0
LINE
  5
9E2
330
25
100
AcDbEntity
  8
0
  6
Continuous
100
AcDbLine
 10
170.3959448568
 20
128.240625
 30
0.0
 11
133.1955820897
 21
128.240625
 31
0.0
  0
ENDSEC
  0
SECTION
  2
OBJECTS
  0
DICTIONARY
  5
5D6
330
0
100
AcDbDictionary
281
     1
  3
ACAD_COLOR
350
9E6
  3
ACAD_GROUP
350
5D7
  3
ACAD_LAYOUT
350
7AD
  3
ACAD_MATERIAL
350
9E5
  3
ACAD_MLINESTYLE
350
5D8
  3
ACAD_PLOTSETTINGS
350
7AE
  3
ACAD_PLOTSTYLENAME
350
7AB
  3
ACDBHEADERROUNDTRIPXREC
350
9F0
  3
AcDbVariableDictionary
350
9C8
  0
DICTIONARY
  5
9E6
102
{ACAD_REACTORS
330
5D6
102
}
330
5D6
100
AcDbDictionary
281
     1
  0
DICTIONARY
  5
5D7
102
{ACAD_REACTORS
330
5D6
102
}
330
5D6
100
AcDbDictionary
281
     1
  0
DICTIONARY
  5
7AD
102
{ACAD_REACTORS
330
5D6
102
}
330
5D6
100
AcDbDictionary
281
     1
  3
Layout1
350
7B0
  3
Model
350
7AF
  0
DICTIONARY
  5
9E5
102
{ACAD_REACTORS
330
5D6
102
}
330
5D6
100
AcDbDictionary
281
     1
  0
DICTIONARY
  5
5D8
102
{ACAD_REACTORS
330
5D6
102
}
330
5D6
100
AcDbDictionary
281
     1
  3
STANDARD
350
5D9
  0
DICTIONARY
  5
7AE
102
{ACAD_REACTORS
330
5D6
102
}
330
5D6
100
AcDbDictionary
281
     1
  0
ACDBDICTIONARYWDFLT
  5
7AB
102
{ACAD_REACTORS
330
5D6
102
}
330
5D6
100
AcDbDictionary
281
     1
  3
Normal
350
7AC
100
AcDbDictionaryWithDefault
340
7AC
  0
DICTIONARY
  5
9F0
102
{ACAD_REACTORS
330
5D6
102
}
330
5D6
100
AcDbDictionary
281
     1
  3
COLORDICT
350
9F1
  3
MATERIALDICT
350
9F2
  0
DICTIONARY
  5
9C8
102
{ACAD_REACTORS
330
5D6
102
}
330
5D6
100
AcDbDictionary
281
     1
  0
LAYOUT
  5
7B0
102
{ACAD_REACTORS
330
7AD
102
}
330
7AD
100
AcDbPlotSettings
  1

  2
\\alderaan\HP LaserJet 5Si/5Si MX PS Tecnico
  4

  6

 40
0.0
 41
0.0
 42
0.0
 43
0.0
 44
0.0
 45
0.0
 46
0.0
 47
0.0
 48
0.0
 49
0.0
140
0.0
141
0.0
142
1.0
143
1.0
 70
   688
 72
     0
 73
     0
 74
     5
  7

 75
    16
147
1.0
148
0.0
149
0.0
100
AcDbLayout
  1
Layout1
 70
     0
 71
     1
 10
0.0
 20
0.0
 11
12.0
 21
9.0
 12
0.0
 22
0.0
 32
0.0
 14
1.000000000000000E+20
 24
1.000000000000000E+20
 34
1.000000000000000E+20
 15
-1.000000000000000E+20
 25
-1.000000000000000E+20
 35
-1.000000000000000E+20
146
0.0
 13
0.0
 23
0.0
 33
0.0
 16
1.0
 26
0.0
 36
0.0
 17
0.0
 27
1.0
 37
0.0
 76
     0
330
26
  0
LAYOUT
  5
7AF
102
{ACAD_REACTORS
330
7AD
102
}
330
7AD
100
AcDbPlotSettings
  1

  2
\\alderaan\HP LaserJet 5Si/5Si MX PS Tecnico
  4

  6

 40
0.0
 41
0.0
 42
0.0
 43
0.0
 44
0.0
 45
0.0
 46
0.0
 47
0.0
 48
0.0
 49
0.0
140
0.0
141
0.0
142
1.0
143
1.0
 70
  1712
 72
     0
 73
     0
 74
     0
  7

 75
     0
147
1.0
148
0.0
149
0.0
100
AcDbLayout
  1
Model
 70
     1
 71
     0
 10
0.0
 20
0.0
 11
12.0
 21
9.0
 12
0.0
 22
0.0
 32
0.0
 14
0.0
 24
0.0
 34
0.0
 15
0.0
 25
0.0
 35
0.0
146
0.0
 13
0.0
 23
0.0
 33
0.0
 16
1.0
 26
0.0
 36
0.0
 17
0.0
 27
1.0
 37
0.0
 76
     0
330
25
  0
MLINESTYLE
  5
5D9
102
{ACAD_REACTORS
330
5D8
102
}
330
5D8
100
AcDbMlineStyle
  2
STANDARD
 70
     0
  3

 62
     0
 51
90.00000000000019
 52
90.00000000000019
 71
     2
 49
0.5
 62
   256
  6
BYLAYER
 49
-0.5
 62
   256
  6
BYLAYER
  0
ACDBPLACEHOLDER
  5
7AC
102
{ACAD_REACTORS
330
7AB
102
}
330
7AB
  0
XRECORD
  5
9F1
102
{ACAD_REACTORS
330
9F0
102
}
330
9F0
100
AcDbXrecord
280
     1
340
9E6
  0
XRECORD
  5
9F2
102
{ACAD_REACTORS
330
9F0
102
}
330
9F0
100
AcDbXrecord
280
     1
340
9E5
  0
ENDSEC
  0
EOF
