  0
SECTION
  2
HEADER
  9
$ACADVER
  1
AC1015
  9
$ACADMAINTVER
 70
     6
  9
$DWGCODEPAGE
  3
ANSI_1252
  9
$INSBASE
 10
0.0
 20
0.0
 30
0.0
  9
$EXTMIN
 10
52.63374948257135
 20
102.87771623905
 30
0.0
  9
$EXTMAX
 10
396.6947610361867
 20
237.2453872794242
 30
0.0
  9
$LIMMIN
 10
0.0
 20
0.0
  9
$LIMMAX
 10
420.0
 20
297.0
  9
$ORTHOMODE
 70
     1
  9
$REGENMODE
 70
     1
  9
$FILLMODE
 70
     1
  9
$QTEXTMODE
 70
     0
  9
$MIRRTEXT
 70
     1
  9
$LTSCALE
 40
23.1
  9
$ATTMODE
 70
     1
  9
$TEXTSIZE
 40
0.2
  9
$TRACEWID
 40
0.05
  9
$TEXTSTYLE
  7
STANDARD
  9
$CLAYER
  8
ellissi
  9
$CELTYPE
  6
BYLAYER
  9
$CECOLOR
 62
   256
  9
$CELTSCALE
 40
1.0
  9
$DISPSILH
 70
     0
  9
$DIMSCALE
 40
1.0
  9
$DIMASZ
 40
3.0
  9
$DIMEXO
 40
2.625
  9
$DIMDLI
 40
15.96
  9
$DIMRND
 40
0.0
  9
$DIMDLE
 40
0.0
  9
$DIMEXE
 40
7.559999999999999
  9
$DIMTP
 40
0.0
  9
$DIMTM
 40
0.0
  9
$DIMTXT
 40
0.18
  9
$DIMCEN
 40
3.779999999999999
  9
$DIMTSZ
 40
0.0
  9
$DIMTOL
 70
     0
  9
$DIMLIM
 70
     0
  9
$DIMTIH
 70
     1
  9
$DIMTOH
 70
     1
  9
$DIMSE1
 70
     0
  9
$DIMSE2
 70
     0
  9
$DIMTAD
 70
     0
  9
$DIMZIN
 70
     0
  9
$DIMBLK
  1

  9
$DIMASO
 70
     1
  9
$DIMSHO
 70
     1
  9
$DIMPOST
  1

  9
$DIMAPOST
  1

  9
$DIMALT
 70
     0
  9
$DIMALTD
 70
     2
  9
$DIMALTF
 40
25.4
  9
$DIMLFAC
 40
1.0
  9
$DIMTOFL
 70
     0
  9
$DIMTVP
 40
0.0
  9
$DIMTIX
 70
     0
  9
$DIMSOXD
 70
     0
  9
$DIMSAH
 70
     0
  9
$DIMBLK1
  1

  9
$DIMBLK2
  1

  9
$DIMSTYLE
  2
STANDARD
  9
$DIMCLRD
 70
     0
  9
$DIMCLRE
 70
     0
  9
$DIMCLRT
 70
     0
  9
$DIMTFAC
 40
1.0
  9
$DIMGAP
 40
0.09
  9
$DIMJUST
 70
     0
  9
$DIMSD1
 70
     0
  9
$DIMSD2
 70
     0
  9
$DIMTOLJ
 70
     1
  9
$DIMTZIN
 70
     0
  9
$DIMALTZ
 70
     0
  9
$DIMALTTZ
 70
     0
  9
$DIMUPT
 70
     0
  9
$DIMDEC
 70
     4
  9
$DIMTDEC
 70
     4
  9
$DIMALTU
 70
     2
  9
$DIMALTTD
 70
     2
  9
$DIMTXSTY
  7
STANDARD
  9
$DIMAUNIT
 70
     0
  9
$DIMADEC
 70
     0
  9
$DIMALTRND
 40
0.0
  9
$DIMAZIN
 70
     0
  9
$DIMDSEP
 70
    46
  9
$DIMATFIT
 70
     3
  9
$DIMFRAC
 70
     0
  9
$DIMLDRBLK
  1

  9
$DIMLUNIT
 70
     2
  9
$DIMLWD
 70
    -2
  9
$DIMLWE
 70
    -2
  9
$DIMTMOVE
 70
     0
  9
$LUNITS
 70
     2
  9
$LUPREC
 70
     4
  9
$SKETCHINC
 40
0.1
  9
$FILLETRAD
 40
0.0
  9
$AUNITS
 70
     0
  9
$AUPREC
 70
     0
  9
$MENU
  1
acad
  9
$ELEVATION
 40
0.0
  9
$PELEVATION
 40
0.0
  9
$THICKNESS
 40
0.0
  9
$LIMCHECK
 70
     0
  9
$CHAMFERA
 40
0.0
  9
$CHAMFERB
 40
0.0
  9
$CHAMFERC
 40
0.0
  9
$CHAMFERD
 40
0.0
  9
$SKPOLY
 70
     0
  9
$TDCREATE
 40
2444972.041666667
  9
$TDUCREATE
 40
2444972.0
  9
$TDUPDATE
 40
2453409.731472986
  9
$TDUUPDATE
 40
2453409.689806319
  9
$TDINDWG
 40
0.0475775
  9
$TDUSRTIMER
 40
0.0475775
  9
$USRTIMER
 70
     1
  9
$ANGBASE
 50
0.0
  9
$ANGDIR
 70
     0
  9
$PDMODE
 70
     0
  9
$PDSIZE
 40
0.0
  9
$PLINEWID
 40
0.0
  9
$SPLFRAME
 70
     0
  9
$SPLINETYPE
 70
     6
  9
$SPLINESEGS
 70
     8
  9
$HANDSEED
  5
C67
  9
$SURFTAB1
 70
     6
  9
$SURFTAB2
 70
     6
  9
$SURFTYPE
 70
     6
  9
$SURFU
 70
     6
  9
$SURFV
 70
     6
  9
$UCSBASE
  2

  9
$UCSNAME
  2

  9
$UCSORG
 10
0.0
 20
0.0
 30
0.0
  9
$UCSXDIR
 10
1.0
 20
0.0
 30
0.0
  9
$UCSYDIR
 10
0.0
 20
1.0
 30
0.0
  9
$UCSORTHOREF
  2

  9
$UCSORTHOVIEW
 70
     0
  9
$UCSORGTOP
 10
0.0
 20
0.0
 30
0.0
  9
$UCSORGBOTTOM
 10
0.0
 20
0.0
 30
0.0
  9
$UCSORGLEFT
 10
0.0
 20
0.0
 30
0.0
  9
$UCSORGRIGHT
 10
0.0
 20
0.0
 30
0.0
  9
$UCSORGFRONT
 10
0.0
 20
0.0
 30
0.0
  9
$UCSORGBACK
 10
0.0
 20
0.0
 30
0.0
  9
$PUCSBASE
  2

  9
$PUCSNAME
  2

  9
$PUCSORG
 10
0.0
 20
0.0
 30
0.0
  9
$PUCSXDIR
 10
1.0
 20
0.0
 30
0.0
  9
$PUCSYDIR
 10
0.0
 20
1.0
 30
0.0
  9
$PUCSORTHOREF
  2

  9
$PUCSORTHOVIEW
 70
     0
  9
$PUCSORGTOP
 10
0.0
 20
0.0
 30
0.0
  9
$PUCSORGBOTTOM
 10
0.0
 20
0.0
 30
0.0
  9
$PUCSORGLEFT
 10
0.0
 20
0.0
 30
0.0
  9
$PUCSORGRIGHT
 10
0.0
 20
0.0
 30
0.0
  9
$PUCSORGFRONT
 10
0.0
 20
0.0
 30
0.0
  9
$PUCSORGBACK
 10
0.0
 20
0.0
 30
0.0
  9
$USERI1
 70
     0
  9
$USERI2
 70
     0
  9
$USERI3
 70
     0
  9
$USERI4
 70
     0
  9
$USERI5
 70
     0
  9
$USERR1
 40
0.0
  9
$USERR2
 40
0.0
  9
$USERR3
 40
0.0
  9
$USERR4
 40
0.0
  9
$USERR5
 40
0.0
  9
$WORLDVIEW
 70
     1
  9
$SHADEDGE
 70
     3
  9
$SHADEDIF
 70
    70
  9
$TILEMODE
 70
     1
  9
$MAXACTVP
 70
    16
  9
$PINSBASE
 10
0.0
 20
0.0
 30
0.0
  9
$PLIMCHECK
 70
     0
  9
$PEXTMIN
 10
1.000000000000000E+20
 20
1.000000000000000E+20
 30
1.000000000000000E+20
  9
$PEXTMAX
 10
-1.000000000000000E+20
 20
-1.000000000000000E+20
 30
-1.000000000000000E+20
  9
$PLIMMIN
 10
0.0
 20
0.0
  9
$PLIMMAX
 10
12.0
 20
9.0
  9
$UNITMODE
 70
     0
  9
$VISRETAIN
 70
     0
  9
$PLINEGEN
 70
     1
  9
$PSLTSCALE
 70
     0
  9
$TREEDEPTH
 70
  3020
  9
$CMLSTYLE
  2
STANDARD
  9
$CMLJUST
 70
     0
  9
$CMLSCALE
 40
1.0
  9
$PROXYGRAPHICS
 70
     1
  9
$MEASUREMENT
 70
     0
  9
$CELWEIGHT
370
    -1
  9
$ENDCAPS
280
     0
  9
$JOINSTYLE
280
     0
  9
$LWDISPLAY
290
     0
  9
$INSUNITS
 70
     0
  9
$HYPERLINKBASE
  1

  9
$STYLESHEET
  1

  9
$XEDIT
290
     1
  9
$CEPSNTYPE
380
     0
  9
$PSTYLEMODE
290
     1
  9
$FINGERPRINTGUID
  2
{AC4BF4A4-90E6-4925-B945-441779B87880}
  9
$VERSIONGUID
  2
{16D5E33C-0432-4B90-B74E-0E9D260EC824}
  9
$EXTNAMES
290
     1
  9
$PSVPSCALE
 40
0.0
  9
$OLESTARTUP
290
     0
  0
ENDSEC
  0
SECTION
  2
CLASSES
  0
CLASS
  1
IMAGE
  2
AcDbRasterImage
  3
ISM
 90
      127
280
     0
281
     1
  0
CLASS
  1
DICTIONARYVAR
  2
AcDbDictionaryVar
  3
ObjectDBX Classes
 90
        0
280
     0
281
     0
  0
CLASS
  1
RASTERVARIABLES
  2
AcDbRasterVariables
  3
ISM
 90
        0
280
     0
281
     0
  0
CLASS
  1
IMAGEDEF
  2
AcDbRasterImageDef
  3
ISM
 90
        0
280
     0
281
     0
  0
CLASS
  1
IMAGEDEF_REACTOR
  2
AcDbRasterImageDefReactor
  3
ISM
 90
        1
280
     0
281
     0
  0
CLASS
  1
IDBUFFER
  2
AcDbIdBuffer
  3
ObjectDBX Classes
 90
        0
280
     0
281
     0
  0
CLASS
  1
SPATIAL_FILTER
  2
AcDbSpatialFilter
  3
ObjectDBX Classes
 90
        0
280
     0
281
     0
  0
CLASS
  1
SORTENTSTABLE
  2
AcDbSortentsTable
  3
ObjectDBX Classes
 90
        0
280
     0
281
     0
  0
CLASS
  1
LAYER_INDEX
  2
AcDbLayerIndex
  3
ObjectDBX Classes
 90
        0
280
     0
281
     0
  0
CLASS
  1
SPATIAL_INDEX
  2
AcDbSpatialIndex
  3
AutoCAD 2000
 90
        0
280
     0
281
     0
  0
CLASS
  1
OBJECT_PTR
  2
CAseDLPNTableRecord
  3
ASE-LPNTableRecord
 90
        1
280
     0
281
     0
  0
CLASS
  1
PLOTSETTINGS
  2
AcDbPlotSettings
  3
ObjectDBX Classes
 90
        0
280
     0
281
     0
  0
CLASS
  1
ACDBDICTIONARYWDFLT
  2
AcDbDictionaryWithDefault
  3
ObjectDBX Classes
 90
        0
280
     0
281
     0
  0
CLASS
  1
WIPEOUT
  2
AcDbWipeout
  3
WipeOut|AutoCAD Express Tool|expresstools@autodesk.com
 90
      127
280
     0
281
     1
  0
CLASS
  1
WIPEOUTVARIABLES
  2
AcDbWipeoutVariables
  3
WipeOut|AutoCAD Express Tool|expresstools@autodesk.com
 90
        0
280
     0
281
     0
  0
CLASS
  1
RTEXT
  2
RText
  3
RText|AutoCAD Express Tool|expresstools@autodesk.com
 90
        0
280
     0
281
     1
  0
CLASS
  1
ARCALIGNEDTEXT
  2
AcDbArcAlignedText
  3
ATEXT|AutoCAD Express Tool|expresstools@autodesk.com
 90
        0
280
     0
281
     1
  0
CLASS
  1
ACDBPLACEHOLDER
  2
AcDbPlaceHolder
  3
ObjectDBX Classes
 90
        0
280
     0
281
     0
  0
CLASS
  1
LAYOUT
  2
AcDbLayout
  3
ObjectDBX Classes
 90
        0
280
     0
281
     0
  0
ENDSEC
  0
SECTION
  2
TABLES
  0
TABLE
  2
VPORT
  5
6
330
0
100
AcDbSymbolTable
 70
     1
  0
VPORT
  5
C5D
330
6
100
AcDbSymbolTableRecord
100
AcDbViewportTableRecord
  2
*Active
 70
     0
 10
0.0
 20
0.0
 11
1.0
 21
1.0
 12
375.2661092610114
 22
173.5772787696911
 13
0.0
 23
0.0
 14
1.0
 24
1.0
 15
0.0
 25
0.0
 16
0.0
 26
0.0
 36
1.0
 17
0.0
 27
0.0
 37
0.0
 40
250.4940712682521
 41
1.888667992047713
 42
50.0
 43
0.0
 44
0.0
 50
0.0
 51
0.0
 71
     0
 72
   100
 73
     1
 74
     1
 75
     0
 76
     0
 77
     0
 78
     0
281
     0
 65
     1
110
0.0
120
0.0
130
0.0
111
1.0
121
0.0
131
0.0
112
0.0
122
1.0
132
0.0
 79
     0
146
0.0
  0
ENDTAB
  0
TABLE
  2
LTYPE
  5
3
330
0
100
AcDbSymbolTable
 70
     3
  0
LTYPE
  5
C
330
3
100
AcDbSymbolTableRecord
100
AcDbLinetypeTableRecord
  2
BYBLOCK
 70
     0
  3

 72
    65
 73
     0
 40
0.0
  0
LTYPE
  5
D
330
3
100
AcDbSymbolTableRecord
100
AcDbLinetypeTableRecord
  2
BYLAYER
 70
     0
  3

 72
    65
 73
     0
 40
0.0
  0
LTYPE
  5
E
330
3
100
AcDbSymbolTableRecord
100
AcDbLinetypeTableRecord
  2
CONTINUOUS
 70
     0
  3
Solid line
 72
    65
 73
     0
 40
0.0
  0
LTYPE
  5
656
330
3
100
AcDbSymbolTableRecord
100
AcDbLinetypeTableRecord
  2
CENTRO2
 70
     0
  3
Centro (.5x) ___ _ ___ _ ___ _ ___ _ ___ _ ___
 72
    65
 73
     4
 40
1.125
 49
0.75
 74
     0
 49
-0.125
 74
     0
 49
0.125
 74
     0
 49
-0.125
 74
     0
  0
LTYPE
  5
72C
330
3
100
AcDbSymbolTableRecord
100
AcDbLinetypeTableRecord
  2
CENTER
 70
     0
  3
____ _ ____ _ ____ _ ____ _ ____ _ ____ _ ____
 72
    65
 73
     4
 40
0.6
 49
0.375
 74
     0
 49
-0.075
 74
     0
 49
0.075
 74
     0
 49
-0.075
 74
     0
  0
ENDTAB
  0
TABLE
  2
LAYER
  5
1
330
0
100
AcDbSymbolTable
 70
     4
  0
LAYER
  5
14
330
1
100
AcDbSymbolTableRecord
100
AcDbLayerTableRecord
  2
0
 70
     0
 62
     7
  6
CONTINUOUS
370
    -3
390
426
  0
LAYER
  5
436
330
1
100
AcDbSymbolTableRecord
100
AcDbLayerTableRecord
  2
ellissi
 70
     0
 62
     1
  6
CONTINUOUS
370
    -3
390
426
  0
LAYER
  5
46A
330
1
100
AcDbSymbolTableRecord
100
AcDbLayerTableRecord
  2
Defpoints
 70
     0
 62
     7
  6
CONTINUOUS
290
     0
370
    -3
390
426
  0
LAYER
  5
72D
330
1
100
AcDbSymbolTableRecord
100
AcDbLayerTableRecord
  2
DEFAULT_1
 70
     0
 62
     7
  6
CENTER
370
    -3
390
426
  0
ENDTAB
  0
TABLE
  2
STYLE
  5
2
330
0
100
AcDbSymbolTable
 70
     2
  0
STYLE
  5
1F
330
2
100
AcDbSymbolTableRecord
100
AcDbTextStyleTableRecord
  2
STANDARD
 70
     0
 40
0.0
 41
1.0
 50
0.0
 71
     0
 42
0.2
  3
txt
  4

  0
STYLE
  5
1D
330
2
100
AcDbSymbolTableRecord
100
AcDbTextStyleTableRecord
  2
TEXTSTYLE_1
 70
     0
 40
0.0
 41
0.8
 50
0.0
 71
     0
 42
0.2
  3
txt
  4

  0
ENDTAB
  0
TABLE
  2
VIEW
  5
4
330
0
100
AcDbSymbolTable
 70
     0
  0
ENDTAB
  0
TABLE
  2
UCS
  5
5
330
0
100
AcDbSymbolTable
 70
     0
  0
ENDTAB
  0
TABLE
  2
APPID
  5
7
330
0
100
AcDbSymbolTable
 70
     1
  0
APPID
  5
1B
330
7
100
AcDbSymbolTableRecord
100
AcDbRegAppTableRecord
  2
ACAD
 70
     0
  0
ENDTAB
  0
TABLE
  2
DIMSTYLE
  5
8
330
0
100
AcDbSymbolTable
 70
     1
100
AcDbDimStyleTable
  0
DIMSTYLE
105
27
330
8
100
AcDbSymbolTableRecord
100
AcDbDimStyleTableRecord
  2
STANDARD
 70
     0
 47
0.003
 48
0.003
 71
     1
140
1.5
146
0.6
289
     0
340
1F
  0
ENDTAB
  0
TABLE
  2
BLOCK_RECORD
  5
22
330
0
100
AcDbSymbolTable
 70
     0
  0
BLOCK_RECORD
  5
20
330
22
100
AcDbSymbolTableRecord
100
AcDbBlockTableRecord
  2
*MODEL_SPACE
340
429
  0
BLOCK_RECORD
  5
21
330
22
100
AcDbSymbolTableRecord
100
AcDbBlockTableRecord
  2
*PAPER_SPACE
340
42A
  0
ENDTAB
  0
ENDSEC
  0
SECTION
  2
BLOCKS
  0
BLOCK
  5
23
330
20
100
AcDbEntity
  8
0
100
AcDbBlockBegin
  2
*MODEL_SPACE
 70
     0
 71
     0
 10
0.0
 20
0.0
 30
0.0
  3
*MODEL_SPACE
  1

  0
ENDBLK
  5
24
330
20
100
AcDbEntity
  8
0
100
AcDbBlockEnd
  0
BLOCK
  5
25
330
21
100
AcDbEntity
 67
     1
  8
0
100
AcDbBlockBegin
  2
*PAPER_SPACE
 70
     0
 71
     0
 10
0.0
 20
0.0
 30
0.0
  3
*PAPER_SPACE
  1

  0
ENDBLK
  5
26
330
21
100
AcDbEntity
 67
     1
  8
0
100
AcDbBlockEnd
  0
ENDSEC
  0
SECTION
  2
ENTITIES
  0
TEXT
  5
6C
330
20
100
AcDbEntity
  8
0
  6
Continuous
 62
     1
100
AcDbText
 10
329.0263371197
 20
31.790927071
 30
0.0
 40
1.5
  1
 
  7
TEXTSTYLE_1
 72
     5
 11
330.9549085483
 21
31.790927071
 31
0.0
100
AcDbText
  0
TEXT
  5
6E
330
20
100
AcDbEntity
  8
0
  6
Continuous
 62
     1
100
AcDbText
 10
352.7763371197
 20
31.790927071
 30
0.0
 40
1.5
  1
 
  7
TEXTSTYLE_1
 72
     5
 11
354.7049085483
 21
31.790927071
 31
0.0
100
AcDbText
  0
TEXT
  5
78
330
20
100
AcDbEntity
  8
0
  6
Continuous
 62
     1
100
AcDbText
 10
401.7191942625999
 20
20.9052127852
 30
0.0
 40
1.5
  1
 
  7
TEXTSTYLE_1
 72
     5
 11
403.2620514054999
 21
20.9052127852
 31
0.0
100
AcDbText
  0
LINE
  5
863
330
20
100
AcDbEntity
  8
0
  6
Continuous
100
AcDbLine
 10
340.913106854715
 20
192.8491615281
 30
0.0
 11
303.712744087615
 21
192.8491615281
 31
0.0
  0
ARC
  5
86B
330
20
100
AcDbEntity
  8
0
  6
Continuous
100
AcDbCircle
 10
322.3129254711151
 20
188.6488058751
 30
0.0
 40
18.0
100
AcDbArc
 50
74.73383327350068
 51
105.2661667264993
  0
LINE
  5
86C
330
20
100
AcDbEntity
  8
0
  6
Continuous
100
AcDbLine
 10
336.4640776837152
 20
205.8491615281
 30
0.0
 11
308.5014428465151
 21
205.8491615281
 31
0.0
  0
LINE
  5
86D
330
20
100
AcDbEntity
  8
0
  6
Continuous
100
AcDbLine
 10
303.7127440875151
 20
192.8491615281
 30
0.0
 11
340.913106854615
 21
192.8491615281
 31
0.0
  0
LINE
  5
86E
330
20
100
AcDbEntity
  8
0
  6
Continuous
100
AcDbLine
 10
334.2129254711152
 20
191.2491615280999
 30
0.0
 11
310.412925471115
 21
191.2491615280999
 31
0.0
  0
LINE
  5
86F
330
20
100
AcDbEntity
  8
0
  6
Continuous
100
AcDbLine
 10
332.5629254711151
 20
190.2965335839001
 30
0.0
 11
312.0629254711151
 21
190.2965335839001
 31
0.0
  0
LINE
  5
870
330
20
100
AcDbEntity
  8
0
  6
Continuous
100
AcDbLine
 10
331.5629254711151
 20
188.5644827764
 30
0.0
 11
313.0629254711152
 21
188.5644827764
 31
0.0
  0
SPLINE
  5
8E7
330
20
100
AcDbEntity
  8
0
  6
Continuous
100
AcDbSpline
210
0.0
220
0.0
230
1.0
 70
     8
 71
     3
 72
    10
 73
     6
 74
     4
 42
0.0000000001
 43
0.0000000001
 44
0.0000000001
 40
0.0
 40
0.0
 40
0.0
 40
0.0
 40
3.706759933964702
 40
7.386234313210053
 40
11.03854503335179
 40
11.03854503335179
 40
11.03854503335179
 40
11.03854503335179
 10
306.4193329358151
 20
204.8491615281001
 30
0.0
 10
306.4508703736096
 20
203.6139774325962
 30
0.0
 10
306.5137131013122
 20
201.1527014633203
 30
0.0
 10
306.6082672303319
 20
197.474401526453
 30
0.0
 10
306.6715014679991
 20
195.0312913558556
 30
0.0
 10
306.7030014480151
 20
193.8142620314
 30
0.0
 11
306.4193329358151
 21
204.8491615281001
 31
0.0
 11
306.5140526345152
 21
201.1436119890001
 31
0.0
 11
306.6086085917151
 21
197.4653527705
 31
0.0
 11
306.7030014480151
 21
193.8142620314
 31
0.0
  0
LINE
  5
8E8
330
20
100
AcDbEntity
  8
0
  6
Continuous
100
AcDbLine
 10
285.8129254711151
 20
204.8491615281001
 30
0.0
 11
286.1040821375151
 21
196.511525482
 31
0.0
  0
LINE
  5
8E9
330
20
100
AcDbEntity
  8
0
  6
Continuous
100
AcDbLine
 10
286.9298247869151
 20
195.5616172257001
 30
0.0
 11
300.934373244815
 21
193.0922374798999
 31
0.0
  0
ARC
  5
905
330
20
100
AcDbEntity
  8
0
  6
Continuous
100
AcDbCircle
 10
287.103472964515
 20
196.5464249787
 30
0.0
 40
1.0
100
AcDbArc
 50
182.0000000000004
 51
260.0000000000014
  0
LWPOLYLINE
  5
906
330
20
100
AcDbEntity
  8
0
  6
Continuous
100
AcDbPolyline
 90
       11
 70
     0
 43
0.0
 10
286.9369198781151
 20
195.6377560029
 10
286.9350182312151
 20
195.6235410432
 10
286.9333766530152
 20
195.6107508769
 10
286.9319976777151
 20
195.5994052499001
 10
286.930883434415
 20
195.5895216783001
 10
286.930035643215
 20
195.5811154208
 10
286.9294556131151
 20
195.5741994554001
 10
286.9291442394152
 20
195.5687844593001
 10
286.9291020030151
 20
195.5648787923001
 10
286.9293289689152
 20
195.5624884844
 10
286.9298247869151
 20
195.5616172257001
  0
SPLINE
  5
90E
330
20
100
AcDbEntity
  8
0
  6
Continuous
100
AcDbSpline
210
0.0
220
0.0
230
1.0
 70
     8
 71
     3
 72
    59
 73
    55
 74
    53
 42
0.0000000001
 43
0.0000000001
 44
0.0000000001
 40
0.0
 40
0.0
 40
0.0
 40
0.0
 40
0.023621605388164
 40
0.0474503397088725
 40
0.0715201023758036
 40
0.0958635057287607
 40
0.1205117565539105
 40
0.1454967040311595
 40
0.1708700396927644
 40
0.1967006313702705
 40
0.2230509843277782
 40
0.2499743649256498
 40
0.2775235631678304
 40
0.3057602836748115
 40
0.3347483033128948
 40
0.3645539717784265
 40
0.395242091678551
 40
0.4268864124767112
 40
0.4595615695990797
 40
0.4933118337584133
 40
0.5281661442335177
 40
0.5641850657775459
 40
0.601426786850044
 40
0.6399687670601626
 40
0.6799433323367951
 40
0.721350335621349
 40
0.7636635035082642
 40
0.8065790151805042
 40
0.8498276266734866
 40
0.8931107044004808
 40
0.9362291013961448
 40
0.9792747256466519
 40
1.022336131763517
 40
1.065419847640695
 40
1.10856605126545
 40
1.151807785541156
 40
1.195175081398775
 40
1.238698398362951
 40
1.282407065853592
 40
1.326326977766855
 40
1.370462530363206
 40
1.41483885701345
 40
1.45947372030128
 40
1.504373870294253
 40
1.549541406188689
 40
1.594978470973666
 40
1.640688015572804
 40
1.686653352882919
 40
1.732864802089777
 40
1.779307635032859
 40
1.825966991231181
 40
1.872814281811487
 40
1.919815149507012
 40
1.966967297027303
 40
1.966967297027303
 40
1.966967297027303
 40
1.966967297027303
 10
306.7042205496152
 20
193.795461847
 30
0.0
 10
306.7049159643939
 20
193.7876179758584
 30
0.0
 10
306.7063128917806
 20
193.7718614536327
 30
0.0
 10
306.7094509737885
 20
193.7482216394444
 30
0.0
 10
306.7133834939176
 20
193.7244605306594
 30
0.0
 10
306.7182037755915
 20
193.7005831512753
 30
0.0
 10
306.723914335771
 20
193.676589705805
 30
0.0
 10
306.7305447741493
 20
193.6524774910175
 30
0.0
 10
306.738124919125
 20
193.6282334985567
 30
0.0
 10
306.7466932984066
 20
193.6038378332902
 30
0.0
 10
306.7562933552634
 20
193.5792736906361
 30
0.0
 10
306.7669708430698
 20
193.5545329943404
 30
0.0
 10
306.7787748629707
 20
193.5296117883413
 30
0.0
 10
306.7917593335025
 20
193.5045071491408
 30
0.0
 10
306.8059837479184
 20
193.4792168635551
 30
0.0
 10
306.8215115695492
 20
193.4537429975288
 30
0.0
 10
306.8384111903819
 20
193.4280903027814
 30
0.0
 10
306.8567556419499
 20
193.4022672071889
 30
0.0
 10
306.8766167092683
 20
193.3762939697093
 30
0.0
 10
306.8980580881048
 20
193.3502081857999
 30
0.0
 10
306.9211395119752
 20
193.3240552329833
 30
0.0
 10
306.9459226377464
 20
193.297881083123
 30
0.0
 10
306.9724797957676
 20
193.2717248492579
 30
0.0
 10
307.000901162772
 20
193.24561528435
 30
0.0
 10
307.0312644429563
 20
193.2196023925676
 30
0.0
 10
307.0634894948364
 20
193.1938679540249
 30
0.0
 10
307.0973589761659
 20
193.1686612275721
 30
0.0
 10
307.1325530526997
 20
193.1442464085862
 30
0.0
 10
307.1687888394528
 20
193.1208063242389
 30
0.0
 10
307.2057952894485
 20
193.098472762783
 30
0.0
 10
307.2433943279026
 20
193.0772905896473
 30
0.0
 10
307.2815209036905
 20
193.0572325824021
 30
0.0
 10
307.320177531842
 20
193.0382432533523
 30
0.0
 10
307.3593581317986
 20
193.0202802686125
 30
0.0
 10
307.3990449939637
 20
193.0033126476453
 30
0.0
 10
307.4392319892298
 20
192.9873095744671
 30
0.0
 10
307.4799138830192
 20
192.9722448153992
 30
0.0
 10
307.521087620836
 20
192.9580957023525
 30
0.0
 10
307.5627517313611
 20
192.9448430124463
 30
0.0
 10
307.6048988896853
 20
192.9324728113453
 30
0.0
 10
307.6475223500346
 20
192.9209735164783
 30
0.0
 10
307.6906144160747
 20
192.9103360821163
 30
0.0
 10
307.7341696139754
 20
192.9005531416438
 30
0.0
 10
307.7781761772624
 20
192.8916205596509
 30
0.0
 10
307.8226181683037
 20
192.8835362247235
 30
0.0
 10
307.8674791710434
 20
192.8762989990916
 30
0.0
 10
307.9127372350884
 20
192.8699093191746
 30
0.0
 10
307.9583670002961
 20
192.8643684456705
 30
0.0
 10
308.004337657504
 20
192.8596776808062
 30
0.0
 10
308.0506193462022
 20
192.8558397754468
 30
0.0
 10
308.0971762307206
 20
192.8528507081277
 30
0.0
 10
308.1439661934319
 20
192.850731956223
 30
0.0
 10
308.1909515404254
 20
192.8494064366244
 30
0.0
 10
308.2223363139161
 20
192.8492432516737
 30
0.0
 10
308.2380539143151
 20
192.8491615281
 30
0.0
 11
306.7042205496152
 21
193.795461847
 31
0.0
 11
306.7064765639151
 21
193.7719482202999
 31
0.0
 11
306.7095655633151
 21
193.748320553
 31
0.0
 11
306.7135066993151
 21
193.7245756394
 31
0.0
 11
306.7183193603152
 21
193.7007127062001
 31
0.0
 11
306.724025487615
 21
193.6767340411001
 31
0.0
 11
306.7306479559151
 21
193.6526427457
 31
0.0
 11
306.7382176182152
 21
193.6284248520001
 31
0.0
 11
306.7467749555151
 21
193.6040529123
 31
0.0
 11
306.7563639251151
 21
193.5795092214
 31
0.0
 11
306.767029318615
 21
193.5547884244001
 31
0.0
 11
306.778818897015
 21
193.5298893447999
 31
0.0
 11
306.7917874365151
 21
193.5048068934001
 31
0.0
 11
306.8059943005151
 21
193.4795389235999
 31
0.0
 11
306.821503613215
 21
193.4540862402
 31
0.0
 11
306.8383818762151
 21
193.4284564734999
 31
0.0
 11
306.8567035056152
 21
193.4026556802
 31
0.0
 11
306.876546606015
 21
193.3766957638
 31
0.0
 11
306.8979722878152
 21
193.3506185613001
 31
0.0
 11
306.9210302544151
 21
193.3244813630001
 31
0.0
 11
306.945789438215
 21
193.2983213644
 31
0.0
 11
306.972317116615
 21
193.2721827327
 31
0.0
 11
307.0006944505152
 21
193.2461018746
 31
0.0
 11
307.031045736415
 21
193.2200871612
 31
0.0
 11
307.0633954502151
 21
193.1942407700001
 31
0.0
 11
307.097333921815
 21
193.1689705440001
 31
0.0
 11
307.1325899453151
 21
193.1445010947
 31
0.0
 11
307.1688982102151
 21
193.1210031736
 31
0.0
 11
307.205951260215
 21
193.0986313989
 31
0.0
 11
307.2435143018152
 21
193.0774603322
 31
0.0
 11
307.2816062408151
 21
193.0574121415
 31
0.0
 11
307.3202530795151
 21
193.0384198653
 31
0.0
 11
307.3594142820152
 21
193.0204586072001
 31
0.0
 11
307.399084334915
 21
193.0034915276
 31
0.0
 11
307.4392558297152
 21
192.987488447
 31
0.0
 11
307.479922430415
 21
192.9724235892999
 31
0.0
 11
307.5210815323151
 21
192.9582741211
 31
0.0
 11
307.5627323676151
 21
192.9450206109001
 31
0.0
 11
307.6048733740151
 21
192.9326474850999
 31
0.0
 11
307.6474842774151
 21
192.9211471409999
 31
0.0
 11
307.6905663744152
 21
192.9105080016999
 31
0.0
 11
307.734115378515
 21
192.9007225399
 31
0.0
 11
307.778117459215
 21
192.8917871964001
 31
0.0
 11
307.8225551338151
 21
192.8837002084001
 31
0.0
 11
307.8674117178152
 21
192.8764604758001
 31
0.0
 11
307.9126719913151
 21
192.8700675023001
 31
0.0
 11
307.9583017989151
 21
192.8645237768
 31
0.0
 11
308.0042743029151
 21
192.8598304929
 31
0.0
 11
308.0505580028151
 21
192.8559891578001
 31
0.0
 11
308.0971215713152
 21
192.8530009125999
 31
0.0
 11
308.1439202393152
 21
192.8508670643999
 31
0.0
 11
308.1909036933151
 21
192.8495877621001
 31
0.0
 11
308.2380539143151
 21
192.8491615281
 31
0.0
  0
ARC
  5
910
330
20
100
AcDbEntity
  8
0
  6
Continuous
100
AcDbCircle
 10
303.7127440875151
 20
208.8491615281
 30
0.0
 40
16.0
100
AcDbArc
 50
260.0000000000014
 51
270.0
  0
SPLINE
  5
915
330
20
100
AcDbEntity
  8
0
  6
Continuous
100
AcDbSpline
210
0.0
220
0.0
230
1.0
 70
     8
 71
     3
 72
    10
 73
     6
 74
     4
 42
0.0000000001
 43
0.0000000001
 44
0.0000000001
 40
0.0
 40
0.0
 40
0.0
 40
0.0
 40
0.0062763641675466
 40
0.0125562537545683
 40
0.0188401956136234
 40
0.0188401956136234
 40
0.0188401956136234
 40
0.0188401956136234
 10
306.7030014480151
 20
193.8142620314
 30
0.0
 10
306.7031138801211
 20
193.812172923919
 30
0.0
 10
306.7033388074861
 20
193.8079935355101
 30
0.0
 10
306.7037451843145
 20
193.8017264564464
 30
0.0
 10
306.7040620604471
 20
193.7975504991126
 30
0.0
 10
306.7042205496152
 20
193.795461847
 30
0.0
 11
306.7030014480151
 21
193.8142620314
 31
0.0
 11
306.7033502146151
 21
193.8079953649
 31
0.0
 11
306.703756559115
 21
193.8017286355
 31
0.0
 11
306.7042205496152
 21
193.795461847
 31
0.0
  0
ARC
  5
917
330
20
100
AcDbEntity
  8
0
  6
Continuous
100
AcDbCircle
 10
311.0629254711152
 20
188.5644827764
 30
0.0
 40
2.0
100
AcDbArc
 50
0.0
 51
60.00000000030082
  0
SPLINE
  5
919
330
20
100
AcDbEntity
  8
0
  6
Continuous
100
AcDbSpline
210
0.0
220
0.0
230
1.0
 70
     8
 71
     3
 72
    14
 73
    10
 74
     8
 42
0.0000000001
 43
0.0000000001
 44
0.0000000001
 40
0.0
 40
0.0
 40
0.0
 40
0.0
 40
0.3495818397542981
 40
0.8391998437874426
 40
1.328818413659725
 40
1.81843742833473
 40
2.308056758436706
 40
2.797676258120692
 40
3.134608959058522
 40
3.134608959058522
 40
3.134608959058522
 40
3.134608959058522
 10
313.0629133646151
 20
188.1491617785
 30
0.0
 10
313.0568865497263
 20
188.0325164689837
 30
0.0
 10
313.042418686874
 20
187.7524998480018
 30
0.0
 10
312.9059679579777
 20
187.3245256578393
 30
0.0
 10
312.6519098600891
 20
186.9013156063881
 30
0.0
 10
312.3006624111095
 20
186.5522999297629
 30
0.0
 10
311.8758445544613
 20
186.3009048409772
 30
0.0
 10
311.4511060169556
 20
186.1685508435919
 30
0.0
 10
311.1753381222744
 20
186.1547944058267
 30
0.0
 10
311.0629251113151
 20
186.1491867821001
 30
0.0
 11
313.0629133646151
 21
188.1491617785
 31
0.0
 11
313.032389994415
 21
187.8009150462
 31
0.0
 11
312.888763453615
 21
187.3328368405001
 31
0.0
 11
312.6357117707152
 21
186.9136815116
 31
0.0
 11
312.2884007996152
 21
186.5685701254
 31
0.0
 11
311.8676456520152
 21
186.3181860321001
 31
0.0
 11
311.3986631162151
 21
186.1775352746001
 31
0.0
 11
311.0629251113151
 21
186.1491867821001
 31
0.0
  0
LINE
  5
91A
330
20
100
AcDbEntity
  8
0
  6
Continuous
100
AcDbLine
 10
313.0629254711152
 20
188.5644827764
 30
0.0
 11
313.0629254711152
 21
188.1491615281001
 31
0.0
  0
LINE
  5
91B
330
20
100
AcDbEntity
  8
0
  6
Continuous
100
AcDbLine
 10
310.412925471115
 20
191.2491615280999
 30
0.0
 11
312.0629254711151
 21
190.2965335839001
 31
0.0
  0
LINE
  5
91C
330
20
100
AcDbEntity
  8
0
  6
Continuous
100
AcDbLine
 10
310.412925471115
 20
192.8491615281
 30
0.0
 11
310.412925471115
 21
191.2491615280999
 31
0.0
  0
LINE
  5
91D
330
20
100
AcDbEntity
  8
0
  6
Continuous
100
AcDbLine
 10
305.7678767098151
 20
209.8491615281
 30
0.0
 11
287.0950746169151
 21
209.8491615281
 31
0.0
  0
LINE
  5
91E
330
20
100
AcDbEntity
  8
0
  6
Continuous
100
AcDbLine
 10
286.0975105667151
 20
208.9189180018001
 30
0.0
 11
285.8129265321151
 21
204.8491767013001
 31
0.0
  0
ARC
  5
91F
330
20
100
AcDbEntity
  8
0
  6
Continuous
100
AcDbCircle
 10
287.0950746169151
 20
208.8491615281
 30
0.0
 40
1.0
100
AcDbArc
 50
90.0
 51
176.0000000000002
  0
SPLINE
  5
920
330
20
100
AcDbEntity
  8
0
  6
Continuous
100
AcDbSpline
210
0.0
220
0.0
230
1.0
 70
     8
 71
     3
 72
    42
 73
    38
 74
    36
 42
0.0000000001
 43
0.0000000001
 44
0.0000000001
 40
0.0
 40
0.0
 40
0.0
 40
0.0
 40
0.0234697066629247
 40
0.0465615814236877
 40
0.0692826348736342
 40
0.0916332721848634
 40
0.1136480361226856
 40
0.1353763278571669
 40
0.156863029625772
 40
0.1781518936662215
 40
0.1992968475999669
 40
0.2203351860762266
 40
0.2412896355606533
 40
0.2622099969501443
 40
0.2831531522447601
 40
0.3041629261023368
 40
0.325292221028883
 40
0.3465833464984743
 40
0.3680603552105148
 40
0.3897969370785058
 40
0.4118748373953375
 40
0.4343492325959104
 40
0.4572705011494191
 40
0.4807031165130556
 40
0.5046799053263967
 40
0.5292145145494457
 40
0.5543900685969829
 40
0.5802849413972643
 40
0.606967816980976
 40
0.6344955190221129
 40
0.6629711478950203
 40
0.6925331323334316
 40
0.72321465421533
 40
0.755064468436769
 40
0.7881590148315946
 40
0.8225969393348341
 40
0.8584780032845493
 40
0.8584780032845493
 40
0.8584780032845493
 40
0.8584780032845493
 10
307.752140778915
 20
206.3253752405001
 30
0.0
 10
307.7447280296357
 20
206.3278796012177
 30
0.0
 10
307.7300218667466
 20
206.3328480056865
 30
0.0
 10
307.7077746338983
 20
206.3390824573852
 30
0.0
 10
307.6856698927016
 20
206.344361397008
 30
0.0
 10
307.6637112998737
 20
206.3486276084796
 30
0.0
 10
307.6419225051378
 20
206.3519285981609
 30
0.0
 10
307.6203014734945
 20
206.3542892955458
 30
0.0
 10
307.5988430893224
 20
206.3557394824832
 30
0.0
 10
307.577537822375
 20
206.356304305409
 30
0.0
 10
307.556376788985
 20
206.3560058874647
 30
0.0
 10
307.5353562790453
 20
206.3548637665646
 30
0.0
 10
307.5144724504926
 20
206.3528938643975
 30
0.0
 10
307.493714081204
 20
206.350106399095
 30
0.0
 10
307.4730620345389
 20
206.3465090874469
 30
0.0
 10
307.4524959450678
 20
206.3421040637445
 30
0.0
 10
307.4320002722966
 20
206.3368901806452
 30
0.0
 10
307.4115661777213
 20
206.3308641536213
 30
0.0
 10
307.3911785686223
 20
206.3240176390387
 30
0.0
 10
307.3708123905188
 20
206.3163302738612
 30
0.0
 10
307.3504331008848
 20
206.3077778616068
 30
0.0
 10
307.330016393949
 20
206.2983318356417
 30
0.0
 10
307.3095456555842
 20
206.2879617579022
 30
0.0
 10
307.2890138022955
 20
206.2766362458328
 30
0.0
 10
307.2684262537177
 20
206.2643282430335
 30
0.0
 10
307.2477872227123
 20
206.2510025007667
 30
0.0
 10
307.2270917373793
 20
206.2366126580288
 30
0.0
 10
307.2063227320045
 20
206.2211002439983
 30
0.0
 10
307.185476061613
 20
206.2044068010691
 30
0.0
 10
307.1645460209666
 20
206.1864657111661
 30
0.0
 10
307.1435167268339
 20
206.1671898892502
 30
0.0
 10
307.1223836701005
 20
206.1464950611927
 30
0.0
 10
307.101161864852
 20
206.1243069109076
 30
0.0
 10
307.0798846816288
 20
206.1005645071586
 30
0.0
 10
307.0585993040381
 20
206.0751743199951
 30
0.0
 10
307.0372538351135
 20
206.0480957368259
 30
0.0
 10
307.0235012099716
 20
206.0291120912511
 30
0.0
 10
307.0164837765152
 20
206.0194254701001
 30
0.0
 11
307.752140778915
 21
206.3253752405001
 31
0.0
 11
307.7298402449151
 21
206.3326905200001
 31
0.0
 11
307.7076185313152
 21
206.3389698611
 31
0.0
 11
307.6855150865152
 21
206.3442314196
 31
0.0
 11
307.6635749306151
 21
206.3484952849001
 31
0.0
 11
307.641808184515
 21
206.3517905232
 31
0.0
 11
307.6202081924151
 21
206.354148277
 31
0.0
 11
307.5987703621152
 21
206.3555966502001
 31
0.0
 11
307.5774889792151
 21
206.3561609852
 31
0.0
 11
307.5563461182151
 21
206.3558634863001
 31
0.0
 11
307.5353387215151
 21
206.3547228857001
 31
0.0
 11
307.5144768030152
 21
206.3527558296001
 31
0.0
 11
307.4937423326151
 21
206.3499731586001
 31
0.0
 11
307.473109537115
 21
206.3463810139001
 31
0.0
 11
307.452565275015
 21
206.3419828447001
 31
0.0
 11
307.4320875720152
 21
206.336776043
 31
0.0
 11
307.4116651725152
 21
206.3307562737
 31
0.0
 11
307.391304767215
 21
206.3239213780001
 31
0.0
 11
307.3709673345151
 21
206.3162488411001
 31
0.0
 11
307.3506079847152
 21
206.3077089021
 31
0.0
 11
307.330209144615
 21
206.2982756756001
 31
0.0
 11
307.3097599007152
 21
206.2879213057
 31
0.0
 11
307.2892395199152
 21
206.2766075338001
 31
0.0
 11
307.2686578125151
 21
206.2643079516001
 31
0.0
 11
307.2480437491151
 21
206.2510035373
 31
0.0
 11
307.2273707633152
 21
206.2366356502
 31
0.0
 11
307.2066208826151
 21
206.2211441400001
 31
0.0
 11
307.1857893541151
 21
206.2044701102001
 31
0.0
 11
307.164885515915
 21
206.18655911
 31
0.0
 11
307.143889441815
 21
206.1673230420001
 31
0.0
 11
307.1227629691152
 21
206.1466449600001
 31
0.0
 11
307.1015505176151
 21
206.1244776939001
 31
0.0
 11
307.080291715515
 21
206.1007611596
 31
0.0
 11
307.0590130055152
 21
206.0754142564001
 31
0.0
 11
307.0377344337151
 21
206.0483367191
 31
0.0
 11
307.0164837765152
 21
206.0194254701001
 31
0.0
  0
SPLINE
  5
921
330
20
100
AcDbEntity
  8
0
  6
Continuous
100
AcDbSpline
210
0.0
220
0.0
230
1.0
 70
     8
 71
     3
 72
    22
 73
    18
 74
    16
 42
0.0000000001
 43
0.0000000001
 44
0.0000000001
 40
0.0
 40
0.0
 40
0.0
 40
0.0
 40
0.180524250901109
 40
0.3758293896976773
 40
0.5716978972796217
 40
0.7681222109450288
 40
0.9650856482438379
 40
1.16258348919796
 40
1.36056686224253
 40
1.558983540664871
 40
1.757758627543549
 40
1.956787781230125
 40
2.15596762304258
 40
2.355189967204914
 40
2.554342287985282
 40
2.753307299046704
 40
2.938112582955028
 40
2.938112582955028
 40
2.938112582955028
 40
2.938112582955028
 10
307.7879100493151
 20
208.0739526007
 30
0.0
 10
307.7790902526956
 20
208.1335187430337
 30
0.0
 10
307.7607285158974
 20
208.2575281589886
 30
0.0
 10
307.710529533127
 20
208.4418354320779
 30
0.0
 10
307.6419487925659
 20
208.6255654401538
 30
0.0
 10
307.5551331484667
 20
208.8021350013752
 30
0.0
 10
307.4512922334293
 20
208.969859397832
 30
0.0
 10
307.3312394790107
 20
209.1270588412484
 30
0.0
 10
307.1961119005346
 20
209.2721632173216
 30
0.0
 10
307.0471749709623
 20
209.4037009994816
 30
0.0
 10
306.8858634636382
 20
209.5203248177679
 30
0.0
 10
306.7137556137705
 20
209.6208447436116
 30
0.0
 10
306.5325576086658
 20
209.7041966444381
 30
0.0
 10
306.3440766475392
 20
209.7696573049462
 30
0.0
 10
306.1502054457829
 20
209.8161164248716
 30
0.0
 10
305.957471587575
 20
209.8441709552147
 30
0.0
 10
305.8295063494156
 20
209.8475392715428
 30
0.0
 10
305.7678844561152
 20
209.8491612904001
 30
0.0
 11
307.7879100493151
 21
208.0739526007
 31
0.0
 11
307.7580731955151
 21
208.2519940771001
 31
0.0
 11
307.707760235115
 21
208.4407073603001
 31
0.0
 11
307.6390194416152
 21
208.6241172171001
 31
0.0
 11
307.552426499915
 21
208.8004242602
 31
0.0
 11
307.4487403977152
 21
208.9678870556
 31
0.0
 11
307.3288833193152
 21
209.1248573647
 31
0.0
 11
307.1939644604151
 21
209.2697515244001
 31
0.0
 11
307.0452509519151
 21
209.4011039917
 31
0.0
 11
306.8841702996152
 21
209.5175709768
 31
0.0
 11
306.7123069455151
 21
209.6179482229001
 31
0.0
 11
306.5313630585151
 21
209.7012063705001
 31
0.0
 11
306.3431442351151
 21
209.7664996851001
 31
0.0
 11
306.1495393458151
 21
209.8131772355001
 31
0.0
 11
305.9525001916151
 21
209.8407933058001
 31
0.0
 11
305.7678844561152
 21
209.8491612904001
 31
0.0
  0
SPLINE
  5
922
330
20
100
AcDbEntity
  8
0
  6
Continuous
100
AcDbSpline
210
0.0
220
0.0
230
1.0
 70
     8
 71
     3
 72
    32
 73
    28
 74
    26
 42
0.0000000001
 43
0.0000000001
 44
0.0000000001
 40
0.0
 40
0.0
 40
0.0
 40
0.0
 40
0.0538112722976789
 40
0.1066834740971984
 40
0.1586814645919649
 40
0.2104052217294764
 40
0.2618490303516038
 40
0.3126032838540042
 40
0.3627336999680206
 40
0.4126132949537408
 40
0.4622579926720846
 40
0.511401119888885
 40
0.560033953668633
 40
0.608387414647302
 40
0.6565433286592619
 40
0.7042965130465932
 40
0.7515465384981004
 40
0.7983833811012203
 40
0.8449192787175383
 40
0.8910258324475096
 40
0.9365637794352407
 40
0.981549787724735
 40
1.025977620510387
 40
1.069823269509406
 40
1.113059335161803
 40
1.155678596629787
 40
1.197668424777903
 40
1.197668424777903
 40
1.197668424777903
 40
1.197668424777903
 10
307.0164837748151
 20
206.0194254693
 30
0.0
 10
307.0024298990251
 20
206.0082773783887
 30
0.0
 10
306.9745674042392
 20
205.9861757439692
 30
0.0
 10
306.9344445519994
 20
205.951689791682
 30
0.0
 10
306.8958622257753
 20
205.9165224652933
 30
0.0
 10
306.8587730339699
 20
205.8804600752777
 30
0.0
 10
306.8231121685226
 20
205.8435604502421
 30
0.0
 10
306.7889948195191
 20
205.8059426903622
 30
0.0
 10
306.7564251359555
 20
205.7676594267974
 30
0.0
 10
306.7253276695148
 20
205.7286428383562
 30
0.0
 10
306.6956801282868
 20
205.6889234313918
 30
0.0
 10
306.6675561797994
 20
205.6486167183091
 30
0.0
 10
306.6409737195759
 20
205.6077897963249
 30
0.0
 10
306.6158944187897
 20
205.5664070187993
 30
0.0
 10
306.592300839647
 20
205.5244957930915
 30
0.0
 10
306.5702421954909
 20
205.4821710697272
 30
0.0
 10
306.5497572795349
 20
205.4395500141734
 30
0.0
 10
306.5308343240861
 20
205.3966560133424
 30
0.0
 10
306.5134619152794
 20
205.3535216515312
 30
0.0
 10
306.4976538708258
 20
205.310250411495
 30
0.0
 10
306.4834363525789
 20
205.2669743353278
 30
0.0
 10
306.4708086461881
 20
205.2237905628355
 30
0.0
 10
306.4597594306077
 20
205.1807587481499
 30
0.0
 10
306.4502642956662
 20
205.1379538717871
 30
0.0
 10
306.4423433484903
 20
205.0954457330784
 30
0.0
 10
306.435841215697
 20
205.0533171824879
 30
0.0
 10
306.4327376415581
 20
205.0252827479382
 30
0.0
 10
306.4311973987151
 20
205.0113698091001
 30
0.0
 11
307.0164837748151
 21
206.0194254693
 31
0.0
 11
306.9745479239152
 21
205.9857054836001
 31
0.0
 11
306.934395894015
 21
205.9513065851
 31
0.0
 11
306.8959863800151
 21
205.9162566172001
 31
0.0
 11
306.8588966698151
 21
205.8802052587
 31
0.0
 11
306.823152050915
 21
205.8432081282
 31
0.0
 11
306.7890578811151
 21
205.8056104975001
 31
0.0
 11
306.7565778995152
 21
205.7674252986001
 31
0.0
 11
306.7254881694152
 21
205.7284201364001
 31
0.0
 11
306.695795869115
 21
205.6886336649
 31
0.0
 11
306.6676777453151
 21
205.6483295948001
 31
0.0
 11
306.641145282815
 21
205.6075720071
 31
0.0
 11
306.6160842589151
 21
205.5662198334001
 31
0.0
 11
306.5924637403152
 21
205.5242548104
 31
0.0
 11
306.5703965873151
 21
205.4819061696001
 31
0.0
 11
306.5499315074151
 21
205.4393180796
 31
0.0
 11
306.5310290833151
 21
205.3964649795001
 31
0.0
 11
306.5136457129152
 21
205.3532977674
 31
0.0
 11
306.4978287488151
 21
205.3099891315001
 31
0.0
 11
306.483619133915
 21
205.2667249262
 31
0.0
 11
306.4709976197152
 21
205.223545784
 31
0.0
 11
306.4599507268151
 21
205.1805132558
 31
0.0
 11
306.4504659981151
 21
205.1377057698001
 31
0.0
 11
306.4425280160151
 21
205.0952046426
 31
0.0
 11
306.4361135809151
 21
205.0530708501001
 31
0.0
 11
306.4311973987151
 21
205.0113698091001
 31
0.0
  0
SPLINE
  5
923
330
20
100
AcDbEntity
  8
0
  6
Continuous
100
AcDbSpline
210
0.0
220
0.0
230
1.0
 70
     8
 71
     3
 72
    10
 73
     6
 74
     4
 42
0.0000000001
 43
0.0000000001
 44
0.0000000001
 40
0.0
 40
0.0
 40
0.0
 40
0.0
 40
0.0148557478047294
 40
0.0297232100954024
 40
0.0445870171107025
 40
0.0445870171107025
 40
0.0445870171107025
 40
0.0445870171107025
 10
306.4311973987151
 20
205.0113698091001
 30
0.0
 10
306.43071283194
 20
205.0064416420697
 30
0.0
 10
306.4297433162852
 20
204.9965814219075
 30
0.0
 10
306.428429533842
 20
204.9817769519126
 30
0.0
 10
306.4276473247014
 20
204.9718974128949
 30
0.0
 10
306.427256268215
 20
204.9669582507001
 30
0.0
 11
306.4311973987151
 21
205.0113698091001
 31
0.0
 11
306.4297671059151
 21
204.9965830750001
 31
0.0
 11
306.4284528919151
 21
204.9817738118001
 31
0.0
 11
306.427256268215
 21
204.9669582507001
 31
0.0
  0
SPLINE
  5
924
330
20
100
AcDbEntity
  8
0
  6
Continuous
100
AcDbSpline
210
0.0
220
0.0
230
1.0
 70
     8
 71
     3
 72
     9
 73
     5
 74
     3
 42
0.0000000001
 43
0.0000000001
 44
0.0000000001
 40
0.0
 40
0.0
 40
0.0
 40
0.0
 40
0.0240660179964477
 40
0.0481392421097685
 40
0.0481392421097685
 40
0.0481392421097685
 40
0.0481392421097685
 10
306.427256268215
 20
204.9669582507001
 30
0.0
 10
306.426667719218
 20
204.9589576575597
 30
0.0
 10
306.425490444994
 20
204.9429540756514
 30
0.0
 10
306.4246209152624
 20
204.926930825941
 30
0.0
 10
306.4241860853152
 20
204.9189180018001
 30
0.0
 11
306.427256268215
 21
204.9669582507001
 31
0.0
 11
306.4255675343151
 21
204.9429515558001
 31
0.0
 11
306.4241860853152
 21
204.9189180018001
 31
0.0
  0
SPLINE
  5
925
330
20
100
AcDbEntity
  8
0
  6
Continuous
100
AcDbSpline
210
0.0
220
0.0
230
1.0
 70
     8
 71
     3
 72
    11
 73
     7
 74
     5
 42
0.0000000001
 43
0.0000000001
 44
0.0000000001
 40
0.0
 40
0.0
 40
0.0
 40
0.0
 40
0.0174619459119113
 40
0.0349251558607915
 40
0.0523896084287893
 40
0.0698552817830339
 40
0.0698552817830339
 40
0.0698552817830339
 40
0.0698552817830339
 10
306.4241860853152
 20
204.9189180018001
 30
0.0
 10
306.4238892956769
 20
204.9131049246055
 30
0.0
 10
306.4232956949163
 20
204.9014783494189
 30
0.0
 10
306.4224053226093
 20
204.8840378594739
 30
0.0
 10
306.4215149270819
 20
204.8665961266154
 30
0.0
 10
306.4209213494191
 20
204.854967891405
 30
0.0
 10
306.4206245502151
 20
204.8491535706
 30
0.0
 11
306.4241860853152
 21
204.9189180018001
 31
0.0
 11
306.4232957265152
 21
204.9014787697001
 31
0.0
 11
306.4224053504152
 21
204.8840382728001
 31
0.0
 11
306.4215149579151
 21
204.8665965325
 31
0.0
 11
306.4206245502151
 21
204.8491535706
 31
0.0
  0
SPLINE
  5
926
330
20
100
AcDbEntity
  8
0
  6
Continuous
100
AcDbSpline
210
0.0
220
0.0
230
1.0
 70
     8
 71
     3
 72
    10
 73
     6
 74
     4
 42
0.0000000001
 43
0.0000000001
 44
0.0000000001
 40
0.0
 40
0.0
 40
0.0
 40
0.0
 40
0.0004306707964498
 40
0.0008612141653497
 40
0.0012916461729313
 40
0.0012916461729313
 40
0.0012916461729313
 40
0.0012916461729313
 10
306.4206245502151
 20
204.8491535706
 30
0.0
 10
306.4204810019783
 20
204.8491551623025
 30
0.0
 10
306.4201939479779
 20
204.8491583452366
 30
0.0
 10
306.4197634050036
 20
204.8491609976605
 30
0.0
 10
306.4194764131711
 20
204.8491613513021
 30
0.0
 10
306.4193329358151
 20
204.8491615281001
 30
0.0
 11
306.4206245502151
 21
204.8491535706
 31
0.0
 11
306.420193902115
 21
204.8491579919999
 31
0.0
 11
306.4197633669151
 21
204.8491606442001
 31
0.0
 11
306.4193329358151
 21
204.8491615281001
 31
0.0
  0
SPLINE
  5
927
330
20
100
AcDbEntity
  8
0
  6
Continuous
100
AcDbSpline
210
0.0
220
0.0
230
1.0
 70
     8
 71
     3
 72
    10
 73
     6
 74
     4
 42
0.0000000001
 43
0.0000000001
 44
0.0000000001
 40
0.0
 40
0.0
 40
0.0
 40
0.0
 40
0.4445301533033753
 40
1.123242865380438
 40
1.798603012493697
 40
1.798603012493697
 40
1.798603012493697
 40
1.798603012493697
 10
308.0051344497152
 20
206.2885152373
 30
0.0
 10
307.9871736865019
 20
206.4355993994367
 30
0.0
 10
307.9417902654084
 20
206.807253008315
 30
0.0
 10
307.8693413120703
 20
207.4023938369128
 30
0.0
 10
307.8150090520724
 20
207.8504693996946
 30
0.0
 10
307.7879101830151
 20
208.0739524833
 30
0.0
 11
308.0051344497152
 21
206.2885152373
 31
0.0
 11
307.9512738420151
 21
206.72977037
 31
0.0
 11
307.8692592087151
 21
207.4035095966001
 31
0.0
 11
307.7879101830151
 21
208.0739524833
 31
0.0
  0
SPLINE
  5
928
330
20
100
AcDbEntity
  8
0
  6
Continuous
100
AcDbSpline
210
0.0
220
0.0
230
1.0
 70
     8
 71
     3
 72
    19
 73
    15
 74
    13
 42
0.0000000001
 43
0.0000000001
 44
0.0000000001
 40
0.0
 40
0.0
 40
0.0
 40
0.0
 40
0.0098871955619031
 40
0.02063955763417
 40
0.0323332535485339
 40
0.0450407216131315
 40
0.0588251065977747
 40
0.0737536357017672
 40
0.0899082515008926
 40
0.1073629872106713
 40
0.1261715909782561
 40
0.146401350549976
 40
0.1681322439612014
 40
0.1914004037905678
 40
0.1914004037905678
 40
0.1914004037905678
 40
0.1914004037905678
 10
307.9371172827151
 20
206.2796626302
 30
0.0
 10
307.933820517277
 20
206.2796338949476
 30
0.0
 10
307.9269385071215
 20
206.279573910001
 30
0.0
 10
307.9161791725998
 20
206.2803598574803
 30
0.0
 10
307.9045422313544
 20
206.2817542122701
 30
0.0
 10
307.8919818922371
 20
206.2838426599254
 30
0.0
 10
307.8784520709421
 20
206.2866061988079
 30
0.0
 10
307.8638986494846
 20
206.2900616636812
 30
0.0
 10
307.8482599302181
 20
206.2942149551594
 30
0.0
 10
307.831474898771
 20
206.2990726467125
 30
0.0
 10
307.8134833736997
 20
206.3046354783998
 30
0.0
 10
307.7942221220599
 20
206.3109083442323
 30
0.0
 10
307.7736240549049
 20
206.3178721056682
 30
0.0
 10
307.7594631270366
 20
206.3228178760987
 30
0.0
 10
307.752140778915
 20
206.3253752405001
 30
0.0
 11
307.9371172827151
 21
206.2796626302
 31
0.0
 11
307.9272301793151
 21
206.2797053202
 31
0.0
 11
307.9165013342151
 21
206.2804160754001
 31
0.0
 11
307.9048896066151
 21
206.2817982137
 31
0.0
 11
307.8923500354152
 21
206.2838570723001
 31
0.0
 11
307.878840904415
 21
206.2865979935
 31
0.0
 11
307.8643118927151
 21
206.290028562
 31
0.0
 11
307.8486942050151
 21
206.2941588698
 31
0.0
 11
307.8319230663151
 21
206.2989958839
 31
0.0
 11
307.8139497095151
 21
206.3045386288
 31
0.0
 11
307.7947093813151
 21
206.3107878642001
 31
0.0
 11
307.7741209114151
 21
206.3177410387
 31
0.0
 11
307.752140778915
 21
206.3253752405001
 31
0.0
  0
SPLINE
  5
929
330
20
100
AcDbEntity
  8
0
  6
Continuous
100
AcDbSpline
210
0.0
220
0.0
230
1.0
 70
     8
 71
     3
 72
    19
 73
    15
 74
    13
 42
0.0000000001
 43
0.0000000001
 44
0.0000000001
 40
0.0
 40
0.0
 40
0.0
 40
0.0
 40
0.0007909191713497
 40
0.0023269666422813
 40
0.0046901923564974
 40
0.0079987123798515
 40
0.0122897557800018
 40
0.0175770603191373
 40
0.0238640419227497
 40
0.0311489105797122
 40
0.0394364488792958
 40
0.0487079611713807
 40
0.0588539339921582
 40
0.0697266013650829
 40
0.0697266013650829
 40
0.0697266013650829
 40
0.0697266013650829
 10
308.0051097926152
 20
206.2885134624
 30
0.0
 10
308.0050913328676
 20
206.288241891933
 30
0.0
 10
308.0050370223659
 20
206.2874429033122
 30
0.0
 10
308.0036254236629
 20
206.2864352886655
 30
0.0
 10
308.0014841107586
 20
206.2854981860183
 30
0.0
 10
307.9982475832096
 20
206.2845953396623
 30
0.0
 10
307.9940469575977
 20
206.2837520048969
 30
0.0
 10
307.9888109941807
 20
206.2829647812747
 30
0.0
 10
307.9825673101182
 20
206.2822409527623
 30
0.0
 10
307.9753096066449
 20
206.2815815849222
 30
0.0
 10
307.9670493397407
 20
206.280988748906
 30
0.0
 10
307.9578287704362
 20
206.2804670738069
 30
0.0
 10
307.9477420191643
 20
206.2800130639803
 30
0.0
 10
307.9407395620806
 20
206.2797821031919
 30
0.0
 10
307.9371172827151
 20
206.2796626302
 30
0.0
 11
308.0051097926152
 21
206.2885134624
 31
0.0
 11
308.0049797791152
 21
206.2877333024001
 31
0.0
 11
308.0038767289151
 21
206.2866643206
 31
0.0
 11
308.0017375887151
 21
206.285659873
 31
0.0
 11
307.998565182715
 21
206.2847206473
 31
0.0
 11
307.9943638885151
 21
206.2838476178
 31
0.0
 11
307.9891383924151
 21
206.2830415286001
 31
0.0
 11
307.9828949172151
 21
206.2823031824
 31
0.0
 11
307.975640913115
 21
206.2816333049001
 31
0.0
 11
307.9673752237151
 21
206.2810319150001
 31
0.0
 11
307.958118951015
 21
206.2805005433
 31
0.0
 11
307.9479832754151
 21
206.2800435481001
 31
0.0
 11
307.9371172827151
 21
206.2796626302
 31
0.0
  0
ARC
  5
92A
330
20
100
AcDbEntity
  8
0
  6
Continuous
100
AcDbCircle
 10
308.5014428465151
 20
206.3491615281
 30
0.0
 40
0.5
100
AcDbArc
 50
186.9667053159009
 51
270.0
  0
ARC
  5
92B
330
20
100
AcDbEntity
  8
0
  6
Continuous
100
AcDbCircle
 10
317.7841064598152
 20
205.2418706421001
 30
0.0
 40
0.8
100
AcDbArc
 50
105.2661667264993
 51
130.6529964177994
  0
LINE
  5
930
330
20
100
AcDbEntity
  8
DEFAULT_1
  6
CENTER
100
AcDbLine
 10
322.3129254711151
 20
162.2491615281
 30
0.0
 11
322.3129254711151
 21
214.8491615281
 31
0.0
  0
LINE
  5
96E
330
20
100
AcDbEntity
  8
0
  6
Continuous
100
AcDbLine
 10
358.8129254711151
 20
204.8491615281001
 30
0.0
 11
358.521768804715
 21
196.511525482
 31
0.0
  0
SPLINE
  5
96F
330
20
100
AcDbEntity
  8
0
  6
Continuous
100
AcDbSpline
210
0.0
220
0.0
230
1.0
 70
     8
 71
     3
 72
    10
 73
     6
 74
     4
 42
0.0000000001
 43
0.0000000001
 44
0.0000000001
 40
0.0
 40
0.0
 40
0.0
 40
0.0
 40
3.706759933964698
 40
7.386234313210052
 40
11.03854503335179
 40
11.03854503335179
 40
11.03854503335179
 40
11.03854503335179
 10
338.2065180064151
 20
204.8491615281001
 30
0.0
 10
338.1749805686207
 20
203.6139774325962
 30
0.0
 10
338.1121378409183
 20
201.1527014633201
 30
0.0
 10
338.0175837118982
 20
197.4744015264531
 30
0.0
 10
337.954349474231
 20
195.0312913558556
 30
0.0
 10
337.9228494942152
 20
193.8142620314
 30
0.0
 11
338.2065180064151
 21
204.8491615281001
 31
0.0
 11
338.1117983077151
 21
201.1436119890001
 31
0.0
 11
338.0172423505151
 21
197.4653527705
 31
0.0
 11
337.9228494942152
 21
193.8142620314
 31
0.0
  0
ARC
  5
970
330
20
100
AcDbEntity
  8
0
  6
Continuous
100
AcDbCircle
 10
340.913106854715
 20
208.8491615281
 30
0.0
 40
16.0
100
AcDbArc
 50
270.0
 51
279.9999999999986
  0
LINE
  5
972
330
20
100
AcDbEntity
  8
0
  6
Continuous
100
AcDbLine
 10
331.5629254711151
 20
188.5644827764
 30
0.0
 11
331.5629254711151
 21
185.7775886527999
 31
0.0
  0
SPLINE
  5
97B
330
20
100
AcDbEntity
  8
0
  6
Continuous
100
AcDbSpline
210
0.0
220
0.0
230
1.0
 70
     8
 71
     3
 72
    59
 73
    55
 74
    53
 42
0.0000000001
 43
0.0000000001
 44
0.0000000001
 40
0.0
 40
0.0
 40
0.0
 40
0.0
 40
0.0236216053881694
 40
0.047450339708878
 40
0.0715201023757998
 40
0.0958635057287231
 40
0.1205117565539256
 40
0.1454967040311444
 40
0.1708700396927324
 40
0.1967006313702572
 40
0.2230509843278063
 40
0.2499743649257229
 40
0.2775235631678063
 40
0.3057602836747352
 40
0.3347483033129299
 40
0.3645539717784616
 40
0.3952420916785862
 40
0.4268864124766805
 40
0.4595615695990836
 40
0.4933118337583089
 40
0.5281661442335637
 40
0.5641850657775919
 40
0.6014267868500089
 40
0.6399687670600857
 40
0.6799433323368908
 40
0.7213503356213115
 40
0.7636635035083179
 40
0.806579015180558
 40
0.8498276266733493
 40
0.8931107044006356
 40
0.936229101396052
 40
0.9792747256466093
 40
1.022336131763576
 40
1.065419847640548
 40
1.108566051265408
 40
1.151807785540955
 40
1.19517508139884
 40
1.238698398363017
 40
1.282407065853441
 40
1.326326977766868
 40
1.370462530363054
 40
1.414838857013353
 40
1.459473720301349
 40
1.504373870294377
 40
1.549541406188646
 40
1.594978470973679
 40
1.64068801557276
 40
1.686653352882763
 40
1.732864802089847
 40
1.779307635032873
 40
1.825966991230967
 40
1.872814281811444
 40
1.919815149506913
 40
1.966967297027374
 40
1.966967297027374
 40
1.966967297027374
 40
1.966967297027374
 10
337.921630392615
 20
193.795461847
 30
0.0
 10
337.9209349778363
 20
193.7876179758584
 30
0.0
 10
337.9195380504494
 20
193.7718614536327
 30
0.0
 10
337.9163999684416
 20
193.7482216394444
 30
0.0
 10
337.9124674483125
 20
193.7244605306595
 30
0.0
 10
337.907647166639
 20
193.7005831512753
 30
0.0
 10
337.9019366064591
 20
193.676589705805
 30
0.0
 10
337.8953061680809
 20
193.6524774910174
 30
0.0
 10
337.8877260231053
 20
193.6282334985566
 30
0.0
 10
337.8791576438237
 20
193.6038378332902
 30
0.0
 10
337.8695575869666
 20
193.5792736906362
 30
0.0
 10
337.8588800991602
 20
193.5545329943405
 30
0.0
 10
337.8470760792594
 20
193.5296117883412
 30
0.0
 10
337.8340916087279
 20
193.5045071491407
 30
0.0
 10
337.8198671943117
 20
193.4792168635552
 30
0.0
 10
337.8043393726809
 20
193.4537429975287
 30
0.0
 10
337.7874397518481
 20
193.4280903027816
 30
0.0
 10
337.7690953002805
 20
193.4022672071888
 30
0.0
 10
337.7492342329618
 20
193.3762939697095
 30
0.0
 10
337.7277928541255
 20
193.3502081857998
 30
0.0
 10
337.7047114302548
 20
193.3240552329834
 30
0.0
 10
337.6799283044836
 20
193.297881083123
 30
0.0
 10
337.6533711464628
 20
193.2717248492579
 30
0.0
 10
337.6249497794582
 20
193.2456152843498
 30
0.0
 10
337.5945864992738
 20
193.2196023925678
 30
0.0
 10
337.5623614473938
 20
193.1938679540247
 30
0.0
 10
337.5284919660643
 20
193.1686612275722
 30
0.0
 10
337.4932978895303
 20
193.1442464085863
 30
0.0
 10
337.4570621027777
 20
193.1208063242386
 30
0.0
 10
337.4200556527816
 20
193.0984727627832
 30
0.0
 10
337.3824566143277
 20
193.0772905896472
 30
0.0
 10
337.3443300385397
 20
193.057232582402
 30
0.0
 10
337.3056734103881
 20
193.0382432533524
 30
0.0
 10
337.2664928104316
 20
193.0202802686123
 30
0.0
 10
337.2268059482665
 20
193.0033126476453
 30
0.0
 10
337.1866189530006
 20
192.9873095744669
 30
0.0
 10
337.145937059211
 20
192.9722448153993
 30
0.0
 10
337.1047633213942
 20
192.9580957023525
 30
0.0
 10
337.0630992108692
 20
192.9448430124461
 30
0.0
 10
337.0209520525451
 20
192.9324728113455
 30
0.0
 10
336.9783285921957
 20
192.9209735164783
 30
0.0
 10
336.9352365261556
 20
192.9103360821163
 30
0.0
 10
336.8916813282547
 20
192.9005531416439
 30
0.0
 10
336.8476747649677
 20
192.8916205596509
 30
0.0
 10
336.8032327739264
 20
192.8835362247234
 30
0.0
 10
336.7583717711867
 20
192.8762989990916
 30
0.0
 10
336.7131137071418
 20
192.8699093191746
 30
0.0
 10
336.6674839419341
 20
192.8643684456705
 30
0.0
 10
336.6215132847261
 20
192.8596776808062
 30
0.0
 10
336.5752315960281
 20
192.8558397754467
 30
0.0
 10
336.5286747115097
 20
192.8528507081278
 30
0.0
 10
336.4818847487984
 20
192.8507319562229
 30
0.0
 10
336.4348994018048
 20
192.8494064366245
 30
0.0
 10
336.403514628314
 20
192.8492432516737
 30
0.0
 10
336.387797027915
 20
192.8491615281
 30
0.0
 11
337.921630392615
 21
193.795461847
 31
0.0
 11
337.919374378315
 21
193.7719482202999
 31
0.0
 11
337.916285378915
 21
193.748320553
 31
0.0
 11
337.9123442429151
 21
193.7245756394
 31
0.0
 11
337.9075315819151
 21
193.7007127062001
 31
0.0
 11
337.9018254546151
 21
193.6767340411001
 31
0.0
 11
337.8952029863151
 21
193.6526427457
 31
0.0
 11
337.8876333240151
 21
193.6284248520001
 31
0.0
 11
337.8790759867151
 21
193.6040529123
 31
0.0
 11
337.869487017115
 21
193.5795092214
 31
0.0
 11
337.858821623615
 21
193.5547884244001
 31
0.0
 11
337.8470320452152
 21
193.5298893447999
 31
0.0
 11
337.8340635057152
 21
193.5048068934001
 31
0.0
 11
337.819856641715
 21
193.4795389235999
 31
0.0
 11
337.8043473290151
 21
193.4540862402
 31
0.0
 11
337.787469066015
 21
193.4284564734999
 31
0.0
 11
337.769147436615
 21
193.4026556802
 31
0.0
 11
337.7493043362152
 21
193.3766957638
 31
0.0
 11
337.7278786544151
 21
193.3506185613001
 31
0.0
 11
337.704820687815
 21
193.3244813630001
 31
0.0
 11
337.6800615040151
 21
193.2983213644
 31
0.0
 11
337.6535338256152
 21
193.2721827327
 31
0.0
 11
337.6251564917151
 21
193.2461018746
 31
0.0
 11
337.594805205815
 21
193.2200871612
 31
0.0
 11
337.5624554920151
 21
193.1942407700001
 31
0.0
 11
337.5285170204151
 21
193.1689705440001
 31
0.0
 11
337.493260996915
 21
193.1445010947
 31
0.0
 11
337.4569527320152
 21
193.1210031736
 31
0.0
 11
337.419899682015
 21
193.0986313989
 31
0.0
 11
337.3823366404151
 21
193.0774603322
 31
0.0
 11
337.3442447014151
 21
193.0574121415
 31
0.0
 11
337.305597862715
 21
193.0384198653
 31
0.0
 11
337.2664366602151
 21
193.0204586072001
 31
0.0
 11
337.2267666073152
 21
193.0034915276
 31
0.0
 11
337.1865951125152
 21
192.987488447
 31
0.0
 11
337.1459285118151
 21
192.9724235892999
 31
0.0
 11
337.104769409915
 21
192.9582741211
 31
0.0
 11
337.0631185746152
 21
192.9450206109001
 31
0.0
 11
337.0209775682151
 21
192.9326474850999
 31
0.0
 11
336.9783666648152
 21
192.9211471409999
 31
0.0
 11
336.9352845678151
 21
192.9105080016999
 31
0.0
 11
336.8917355637151
 21
192.9007225399
 31
0.0
 11
336.847733483015
 21
192.8917871964001
 31
0.0
 11
336.8032958084151
 21
192.8837002084001
 31
0.0
 11
336.758439224415
 21
192.8764604758001
 31
0.0
 11
336.7131789509151
 21
192.8700675023001
 31
0.0
 11
336.6675491433152
 21
192.8645237768
 31
0.0
 11
336.621576639315
 21
192.8598304929
 31
0.0
 11
336.5752929394151
 21
192.8559891578001
 31
0.0
 11
336.5287293709152
 21
192.8530009125999
 31
0.0
 11
336.481930702915
 21
192.8508670643999
 31
0.0
 11
336.4349472489152
 21
192.8495877621001
 31
0.0
 11
336.387797027915
 21
192.8491615281
 31
0.0
  0
LINE
  5
97E
330
20
100
AcDbEntity
  8
0
  6
Continuous
100
AcDbLine
 10
334.2129254711152
 20
192.8491615281
 30
0.0
 11
334.2129254711152
 21
191.2491615280999
 31
0.0
  0
SPLINE
  5
97F
330
20
100
AcDbEntity
  8
0
  6
Continuous
100
AcDbSpline
210
0.0
220
0.0
230
1.0
 70
     8
 71
     3
 72
    10
 73
     6
 74
     4
 42
0.0000000001
 43
0.0000000001
 44
0.0000000001
 40
0.0
 40
0.0
 40
0.0
 40
0.0
 40
0.0062763641675434
 40
0.0125562537545725
 40
0.0188401956136318
 40
0.0188401956136318
 40
0.0188401956136318
 40
0.0188401956136318
 10
337.9228494942152
 20
193.8142620314
 30
0.0
 10
337.9227370621092
 20
193.812172923919
 30
0.0
 10
337.9225121347442
 20
193.8079935355101
 30
0.0
 10
337.9221057579158
 20
193.8017264564463
 30
0.0
 10
337.9217888817831
 20
193.7975504991125
 30
0.0
 10
337.921630392615
 20
193.795461847
 30
0.0
 11
337.9228494942152
 21
193.8142620314
 31
0.0
 11
337.9225007276152
 21
193.8079953649
 31
0.0
 11
337.9220943831152
 21
193.8017286355
 31
0.0
 11
337.921630392615
 21
193.795461847
 31
0.0
  0
LINE
  5
980
330
20
100
AcDbEntity
  8
0
  6
Continuous
100
AcDbLine
 10
357.696026155315
 20
195.5616172257001
 30
0.0
 11
343.691477697415
 21
193.0922374798999
 31
0.0
  0
LWPOLYLINE
  5
981
330
20
100
AcDbEntity
  8
0
  6
Continuous
100
AcDbPolyline
 90
       11
 70
     0
 43
0.0
 10
357.6889310641151
 20
195.6377560029
 10
357.6908327110152
 20
195.6235410432
 10
357.692474289215
 20
195.6107508769
 10
357.6938532645151
 20
195.5994052499001
 10
357.6949675078151
 20
195.5895216783001
 10
357.695815299015
 20
195.5811154208
 10
357.6963953291151
 20
195.5741994554001
 10
357.696706702815
 20
195.5687844593001
 10
357.6967489392151
 20
195.5648787923001
 10
357.696521973315
 20
195.5624884844
 10
357.696026155315
 20
195.5616172257001
  0
ARC
  5
982
330
20
100
AcDbEntity
  8
0
  6
Continuous
100
AcDbCircle
 10
357.5223779777151
 20
196.5464249787
 30
0.0
 40
1.0
100
AcDbArc
 50
279.9999999999986
 51
357.9999999999996
  0
LINE
  5
983
330
20
100
AcDbEntity
  8
0
  6
Continuous
100
AcDbLine
 10
338.8579742324151
 20
209.8491615281
 30
0.0
 11
357.530776325315
 21
209.8491615281
 31
0.0
  0
ARC
  5
984
330
20
100
AcDbEntity
  8
0
  6
Continuous
100
AcDbCircle
 10
326.841744482415
 20
205.2418706421001
 30
0.0
 40
0.8
100
AcDbArc
 50
49.34700358220059
 51
74.73383327350068
  0
ARC
  5
985
330
20
100
AcDbEntity
  8
0
  6
Continuous
100
AcDbCircle
 10
326.8417444824152
 20
205.2418706421001
 30
0.0
 40
0.8
100
AcDbArc
 50
49.34700358220059
 51
74.73383327350068
  0
ARC
  5
986
330
20
100
AcDbEntity
  8
0
  6
Continuous
100
AcDbCircle
 10
336.1244080957151
 20
206.3491615281
 30
0.0
 40
0.5
100
AcDbArc
 50
270.0
 51
353.0332946840993
  0
SPLINE
  5
987
330
20
100
AcDbEntity
  8
0
  6
Continuous
100
AcDbSpline
210
0.0
220
0.0
230
1.0
 70
     8
 71
     3
 72
    10
 73
     6
 74
     4
 42
0.0000000001
 43
0.0000000001
 44
0.0000000001
 40
0.0
 40
0.0
 40
0.0
 40
0.0
 40
0.4445301533033684
 40
1.123242865380431
 40
1.798603012493697
 40
1.798603012493697
 40
1.798603012493697
 40
1.798603012493697
 10
336.6207164925151
 20
206.2885152373
 30
0.0
 10
336.6386772557284
 20
206.4355993994367
 30
0.0
 10
336.6840606768218
 20
206.8072530083151
 30
0.0
 10
336.75650963016
 20
207.4023938369127
 30
0.0
 10
336.8108418901579
 20
207.8504693996946
 30
0.0
 10
336.8379407592152
 20
208.0739524833
 30
0.0
 11
336.6207164925151
 21
206.2885152373
 31
0.0
 11
336.6745771002151
 21
206.72977037
 31
0.0
 11
336.7565917335151
 21
207.4035095966001
 31
0.0
 11
336.8379407592152
 21
208.0739524833
 31
0.0
  0
SPLINE
  5
988
330
20
100
AcDbEntity
  8
0
  6
Continuous
100
AcDbSpline
210
0.0
220
0.0
230
1.0
 70
     8
 71
     3
 72
    19
 73
    15
 74
    13
 42
0.0000000001
 43
0.0000000001
 44
0.0000000001
 40
0.0
 40
0.0
 40
0.0
 40
0.0
 40
0.0007909191713684
 40
0.002326966642055
 40
0.0046901923562712
 40
0.0079987123795708
 40
0.0122897557797768
 40
0.0175770603190808
 40
0.0238640419225238
 40
0.0311489105794863
 40
0.0394364488791833
 40
0.0487079611712682
 40
0.0588539339919889
 40
0.0697266013649704
 40
0.0697266013649704
 40
0.0697266013649704
 40
0.0697266013649704
 10
336.6207411496151
 20
206.2885134624
 30
0.0
 10
336.6207596093628
 20
206.288241891933
 30
0.0
 10
336.6208139198646
 20
206.2874429033124
 30
0.0
 10
336.6222255185671
 20
206.2864352886653
 30
0.0
 10
336.6243668314717
 20
206.2854981860185
 30
0.0
 10
336.6276033590204
 20
206.2845953396622
 30
0.0
 10
336.6318039846325
 20
206.2837520048969
 30
0.0
 10
336.6370399480495
 20
206.2829647812748
 30
0.0
 10
336.6432836321121
 20
206.2822409527622
 30
0.0
 10
336.6505413355853
 20
206.2815815849223
 30
0.0
 10
336.6588016024895
 20
206.2809887489059
 30
0.0
 10
336.6680221717939
 20
206.2804670738069
 30
0.0
 10
336.6781089230659
 20
206.2800130639804
 30
0.0
 10
336.6851113801496
 20
206.2797821031919
 30
0.0
 10
336.6887336595151
 20
206.2796626302
 30
0.0
 11
336.6207411496151
 21
206.2885134624
 31
0.0
 11
336.6208711631152
 21
206.2877333024001
 31
0.0
 11
336.621974213315
 21
206.2866643206
 31
0.0
 11
336.624113353515
 21
206.285659873
 31
0.0
 11
336.627285759515
 21
206.2847206473
 31
0.0
 11
336.631487053715
 21
206.2838476178
 31
0.0
 11
336.6367125498152
 21
206.2830415286001
 31
0.0
 11
336.642956025015
 21
206.2823031824
 31
0.0
 11
336.6502100291151
 21
206.2816333049001
 31
0.0
 11
336.6584757185151
 21
206.2810319150001
 31
0.0
 11
336.6677319912152
 21
206.2805005433
 31
0.0
 11
336.6778676668151
 21
206.2800435481001
 31
0.0
 11
336.6887336595151
 21
206.2796626302
 31
0.0
  0
SPLINE
  5
989
330
20
100
AcDbEntity
  8
0
  6
Continuous
100
AcDbSpline
210
0.0
220
0.0
230
1.0
 70
     8
 71
     3
 72
    19
 73
    15
 74
    13
 42
0.0000000001
 43
0.0000000001
 44
0.0000000001
 40
0.0
 40
0.0
 40
0.0
 40
0.0
 40
0.0098871955618463
 40
0.0206395576342834
 40
0.0323332535484779
 40
0.0450407216130755
 40
0.0588251065976072
 40
0.0737536357018211
 40
0.0899082515008366
 40
0.1073629872105606
 40
0.1261715909782541
 40
0.1464013505499739
 40
0.1681322439611455
 40
0.1914004037904045
 40
0.1914004037904045
 40
0.1914004037904045
 40
0.1914004037904045
 10
336.6887336595151
 20
206.2796626302
 30
0.0
 10
336.6920304249532
 20
206.2796338949476
 30
0.0
 10
336.6989124351087
 20
206.279573910001
 30
0.0
 10
336.7096717696306
 20
206.2803598574803
 30
0.0
 10
336.7213087108758
 20
206.2817542122701
 30
0.0
 10
336.733869049993
 20
206.2838426599254
 30
0.0
 10
336.7473988712882
 20
206.2866061988079
 30
0.0
 10
336.7619522927456
 20
206.2900616636812
 30
0.0
 10
336.7775910120122
 20
206.2942149551594
 30
0.0
 10
336.794376043459
 20
206.2990726467125
 30
0.0
 10
336.8123675685305
 20
206.3046354783998
 30
0.0
 10
336.8316288201703
 20
206.3109083442323
 30
0.0
 10
336.8522268873253
 20
206.3178721056682
 30
0.0
 10
336.8663878151934
 20
206.3228178760987
 30
0.0
 10
336.873710163315
 20
206.3253752405001
 30
0.0
 11
336.6887336595151
 21
206.2796626302
 31
0.0
 11
336.6986207629151
 21
206.2797053202
 31
0.0
 11
336.7093496080152
 21
206.2804160754001
 31
0.0
 11
336.7209613356151
 21
206.2817982137
 31
0.0
 11
336.733500906815
 21
206.2838570723001
 31
0.0
 11
336.7470100378151
 21
206.2865979935
 31
0.0
 11
336.7615390495152
 21
206.290028562
 31
0.0
 11
336.7771567372151
 21
206.2941588698
 31
0.0
 11
336.793927875915
 21
206.2989958839
 31
0.0
 11
336.8119012327151
 21
206.3045386288
 31
0.0
 11
336.8311415609151
 21
206.3107878642001
 31
0.0
 11
336.8517300308151
 21
206.3177410387
 31
0.0
 11
336.873710163315
 21
206.3253752405001
 31
0.0
  0
SPLINE
  5
98A
330
20
100
AcDbEntity
  8
0
  6
Continuous
100
AcDbSpline
210
0.0
220
0.0
230
1.0
 70
     8
 71
     3
 72
    10
 73
     6
 74
     4
 42
0.0000000001
 43
0.0000000001
 44
0.0000000001
 40
0.0
 40
0.0
 40
0.0
 40
0.0
 40
0.0004306707964498
 40
0.0008612141655771
 40
0.0012916461729881
 40
0.0012916461729881
 40
0.0012916461729881
 40
0.0012916461729881
 10
338.205226392015
 20
204.8491535706
 30
0.0
 10
338.2053699402519
 20
204.8491551623025
 30
0.0
 10
338.2056569942524
 20
204.8491583452365
 30
0.0
 10
338.2060875372266
 20
204.8491609976605
 30
0.0
 10
338.2063745290592
 20
204.8491613513022
 30
0.0
 10
338.2065180064151
 20
204.8491615281001
 30
0.0
 11
338.205226392015
 21
204.8491535706
 31
0.0
 11
338.2056570401151
 21
204.8491579919999
 31
0.0
 11
338.2060875753152
 21
204.8491606442001
 31
0.0
 11
338.2065180064151
 21
204.8491615281001
 31
0.0
  0
SPLINE
  5
98B
330
20
100
AcDbEntity
  8
0
  6
Continuous
100
AcDbSpline
210
0.0
220
0.0
230
1.0
 70
     8
 71
     3
 72
    11
 73
     7
 74
     5
 42
0.0000000001
 43
0.0000000001
 44
0.0000000001
 40
0.0
 40
0.0
 40
0.0
 40
0.0
 40
0.0174619459119171
 40
0.0349251558607973
 40
0.0523896084287835
 40
0.0698552817830281
 40
0.0698552817830281
 40
0.0698552817830281
 40
0.0698552817830281
 10
338.201664856915
 20
204.9189180018001
 30
0.0
 10
338.2019616465532
 20
204.9131049246055
 30
0.0
 10
338.202555247314
 20
204.9014783494189
 30
0.0
 10
338.2034456196211
 20
204.8840378594738
 30
0.0
 10
338.2043360151482
 20
204.8665961266154
 30
0.0
 10
338.204929592811
 20
204.854967891405
 30
0.0
 10
338.205226392015
 20
204.8491535706
 30
0.0
 11
338.201664856915
 21
204.9189180018001
 31
0.0
 11
338.2025552157151
 21
204.9014787697001
 31
0.0
 11
338.2034455918151
 21
204.8840382728001
 31
0.0
 11
338.204335984315
 21
204.8665965325
 31
0.0
 11
338.205226392015
 21
204.8491535706
 31
0.0
  0
SPLINE
  5
98C
330
20
100
AcDbEntity
  8
0
  6
Continuous
100
AcDbSpline
210
0.0
220
0.0
230
1.0
 70
     8
 71
     3
 72
     9
 73
     5
 74
     3
 42
0.0000000001
 43
0.0000000001
 44
0.0000000001
 40
0.0
 40
0.0
 40
0.0
 40
0.0
 40
0.0240660179964477
 40
0.0481392421097685
 40
0.0481392421097685
 40
0.0481392421097685
 40
0.0481392421097685
 10
338.1985946740152
 20
204.9669582507001
 30
0.0
 10
338.1991832230123
 20
204.9589576575597
 30
0.0
 10
338.2003604972362
 20
204.9429540756514
 30
0.0
 10
338.2012300269678
 20
204.926930825941
 30
0.0
 10
338.201664856915
 20
204.9189180018001
 30
0.0
 11
338.1985946740152
 21
204.9669582507001
 31
0.0
 11
338.2002834079151
 21
204.9429515558001
 31
0.0
 11
338.201664856915
 21
204.9189180018001
 31
0.0
  0
SPLINE
  5
98D
330
20
100
AcDbEntity
  8
0
  6
Continuous
100
AcDbSpline
210
0.0
220
0.0
230
1.0
 70
     8
 71
     3
 72
    10
 73
     6
 74
     4
 42
0.0000000001
 43
0.0000000001
 44
0.0000000001
 40
0.0
 40
0.0
 40
0.0
 40
0.0
 40
0.0148557478047294
 40
0.0297232100954075
 40
0.0445870171107121
 40
0.0445870171107121
 40
0.0445870171107121
 40
0.0445870171107121
 10
338.194653543515
 20
205.0113698091001
 30
0.0
 10
338.19513811029
 20
205.0064416420697
 30
0.0
 10
338.1961076259449
 20
204.9965814219074
 30
0.0
 10
338.1974214083881
 20
204.9817769519127
 30
0.0
 10
338.1982036175289
 20
204.9718974128949
 30
0.0
 10
338.1985946740152
 20
204.9669582507001
 30
0.0
 11
338.194653543515
 21
205.0113698091001
 31
0.0
 11
338.196083836315
 21
204.9965830750001
 31
0.0
 11
338.1973980503151
 21
204.9817738118001
 31
0.0
 11
338.1985946740152
 21
204.9669582507001
 31
0.0
  0
SPLINE
  5
98E
330
20
100
AcDbEntity
  8
0
  6
Continuous
100
AcDbSpline
210
0.0
220
0.0
230
1.0
 70
     8
 71
     3
 72
    32
 73
    28
 74
    26
 42
0.0000000001
 43
0.0000000001
 44
0.0000000001
 40
0.0
 40
0.0
 40
0.0
 40
0.0
 40
0.0538112722979004
 40
0.1066834740971609
 40
0.1586814645919694
 40
0.2104052217294401
 40
0.2618490303515675
 40
0.3126032838541206
 40
0.362733699968137
 40
0.4126132949538218
 40
0.4622579926720635
 40
0.5114011198888965
 40
0.5600339536686755
 40
0.6083874146473445
 40
0.6565433286593044
 40
0.7042965130466358
 40
0.7515465384980936
 40
0.7983833811012135
 40
0.8449192787176164
 40
0.8910258324475097
 40
0.9365637794352408
 40
0.981549787724799
 40
1.025977620510422
 40
1.069823269509429
 40
1.113059335161836
 40
1.155678596629838
 40
1.197668424777928
 40
1.197668424777928
 40
1.197668424777928
 40
1.197668424777928
 10
337.6093671674151
 20
206.0194254693
 30
0.0
 10
337.6234210432052
 20
206.0082773783888
 30
0.0
 10
337.6512835379911
 20
205.9861757439695
 30
0.0
 10
337.6914063902309
 20
205.9516897916819
 30
0.0
 10
337.729988716455
 20
205.9165224652934
 30
0.0
 10
337.7670779082601
 20
205.8804600752777
 30
0.0
 10
337.8027387737076
 20
205.8435604502421
 30
0.0
 10
337.8368561227113
 20
205.8059426903622
 30
0.0
 10
337.8694258062749
 20
205.7676594267974
 30
0.0
 10
337.9005232727155
 20
205.7286428383562
 30
0.0
 10
337.9301708139432
 20
205.6889234313917
 30
0.0
 10
337.958294762431
 20
205.648616718309
 30
0.0
 10
337.9848772226543
 20
205.6077897963248
 30
0.0
 10
338.0099565234406
 20
205.5664070187993
 30
0.0
 10
338.0335501025831
 20
205.5244957930915
 30
0.0
 10
338.0556087467396
 20
205.4821710697273
 30
0.0
 10
338.0760936626951
 20
205.4395500141733
 30
0.0
 10
338.0950166181439
 20
205.3966560133424
 30
0.0
 10
338.1123890269509
 20
205.3535216515313
 30
0.0
 10
338.1281970714042
 20
205.310250411495
 30
0.0
 10
338.142414589651
 20
205.2669743353278
 30
0.0
 10
338.1550422960424
 20
205.2237905628355
 30
0.0
 10
338.1660915116224
 20
205.1807587481498
 30
0.0
 10
338.1755866465641
 20
205.1379538717872
 30
0.0
 10
338.1835075937398
 20
205.0954457330784
 30
0.0
 10
338.1900097265336
 20
205.0533171824879
 30
0.0
 10
338.1931133006721
 20
205.0252827479382
 30
0.0
 10
338.194653543515
 20
205.0113698091001
 30
0.0
 11
337.6093671674151
 21
206.0194254693
 31
0.0
 11
337.6513030183152
 21
205.9857054836001
 31
0.0
 11
337.6914550482151
 21
205.9513065851
 31
0.0
 11
337.7298645622151
 21
205.9162566172001
 31
0.0
 11
337.766954272415
 21
205.8802052587
 31
0.0
 11
337.8026988913151
 21
205.8432081282
 31
0.0
 11
337.8367930611152
 21
205.8056104975001
 31
0.0
 11
337.8692730427151
 21
205.7674252986001
 31
0.0
 11
337.9003627728151
 21
205.7284201364001
 31
0.0
 11
337.9300550731151
 21
205.6886336649
 31
0.0
 11
337.9581731969151
 21
205.6483295948001
 31
0.0
 11
337.9847056594152
 21
205.6075720071
 31
0.0
 11
338.0097666833151
 21
205.5662198334001
 31
0.0
 11
338.033387201915
 21
205.5242548104
 31
0.0
 11
338.0554543549151
 21
205.4819061696001
 31
0.0
 11
338.075919434815
 21
205.4393180796
 31
0.0
 11
338.094821858915
 21
205.3964649795001
 31
0.0
 11
338.1122052293151
 21
205.3532977674
 31
0.0
 11
338.128022193415
 21
205.3099891315001
 31
0.0
 11
338.1422318083151
 21
205.2667249262
 31
0.0
 11
338.1548533225151
 21
205.223545784
 31
0.0
 11
338.1659002154151
 21
205.1805132558
 31
0.0
 11
338.1753849441151
 21
205.1377057698001
 31
0.0
 11
338.1833229262151
 21
205.0952046426
 31
0.0
 11
338.1897373613152
 21
205.0530708501001
 31
0.0
 11
338.194653543515
 21
205.0113698091001
 31
0.0
  0
SPLINE
  5
98F
330
20
100
AcDbEntity
  8
0
  6
Continuous
100
AcDbSpline
210
0.0
220
0.0
230
1.0
 70
     8
 71
     3
 72
    42
 73
    38
 74
    36
 42
0.0000000001
 43
0.0000000001
 44
0.0000000001
 40
0.0
 40
0.0
 40
0.0
 40
0.0
 40
0.0234697066629787
 40
0.0465615814237964
 40
0.0692826348738535
 40
0.0916332721849712
 40
0.1136480361227371
 40
0.135376327857275
 40
0.1568630296260501
 40
0.178151893666386
 40
0.1992968476000177
 40
0.2203351860763342
 40
0.2412896355609307
 40
0.262209996950309
 40
0.2831531522447568
 40
0.304162926102389
 40
0.3252922210289904
 40
0.3465833464987997
 40
0.3680603552106786
 40
0.3897969370787759
 40
0.4118748373956077
 40
0.4343492325959742
 40
0.4572705011496859
 40
0.4807031165133224
 40
0.5046799053265171
 40
0.529214514549566
 40
0.5543900685971499
 40
0.5802849413973401
 40
0.6069678169811406
 40
0.634495519022191
 40
0.6629711478951823
 40
0.692533132333553
 40
0.7232146542154121
 40
0.755064468436927
 40
0.7881590148318256
 40
0.8225969393349949
 40
0.85847800328471
 40
0.85847800328471
 40
0.85847800328471
 40
0.85847800328471
 10
336.873710163315
 20
206.3253752405001
 30
0.0
 10
336.8811229125944
 20
206.3278796012177
 30
0.0
 10
336.8958290754835
 20
206.3328480056865
 30
0.0
 10
336.9180763083319
 20
206.3390824573852
 30
0.0
 10
336.9401810495286
 20
206.344361397008
 30
0.0
 10
336.9621396423565
 20
206.3486276084796
 30
0.0
 10
336.9839284370924
 20
206.351928598161
 30
0.0
 10
337.0055494687356
 20
206.3542892955458
 30
0.0
 10
337.0270078529078
 20
206.3557394824832
 30
0.0
 10
337.0483131198553
 20
206.356304305409
 30
0.0
 10
337.0694741532452
 20
206.3560058874647
 30
0.0
 10
337.0904946631849
 20
206.3548637665645
 30
0.0
 10
337.1113784917376
 20
206.3528938643976
 30
0.0
 10
337.1321368610262
 20
206.350106399095
 30
0.0
 10
337.1527889076912
 20
206.346509087447
 30
0.0
 10
337.1733549971623
 20
206.3421040637444
 30
0.0
 10
337.1938506699336
 20
206.3368901806452
 30
0.0
 10
337.214284764509
 20
206.3308641536212
 30
0.0
 10
337.234672373608
 20
206.3240176390387
 30
0.0
 10
337.2550385517116
 20
206.3163302738613
 30
0.0
 10
337.2754178413455
 20
206.3077778616069
 30
0.0
 10
337.2958345482811
 20
206.2983318356414
 30
0.0
 10
337.3163052866461
 20
206.2879617579023
 30
0.0
 10
337.3368371399348
 20
206.2766362458329
 30
0.0
 10
337.3574246885125
 20
206.2643282430333
 30
0.0
 10
337.3780637195179
 20
206.2510025007666
 30
0.0
 10
337.398759204851
 20
206.236612658029
 30
0.0
 10
337.4195282102256
 20
206.2211002439982
 30
0.0
 10
337.4403748806172
 20
206.2044068010692
 30
0.0
 10
337.4613049212636
 20
206.186465711166
 30
0.0
 10
337.4823342153964
 20
206.1671898892503
 30
0.0
 10
337.5034672721295
 20
206.1464950611927
 30
0.0
 10
337.5246890773781
 20
206.1243069109076
 30
0.0
 10
337.5459662606015
 20
206.1005645071585
 30
0.0
 10
337.5672516381923
 20
206.0751743199952
 30
0.0
 10
337.5885971071166
 20
206.0480957368258
 30
0.0
 10
337.6023497322586
 20
206.0291120912511
 30
0.0
 10
337.609367165715
 20
206.0194254701001
 30
0.0
 11
336.873710163315
 21
206.3253752405001
 31
0.0
 11
336.896010697315
 21
206.3326905200001
 31
0.0
 11
336.918232410915
 21
206.3389698611
 31
0.0
 11
336.9403358557151
 21
206.3442314196
 31
0.0
 11
336.9622760116151
 21
206.3484952849001
 31
0.0
 11
336.9840427577151
 21
206.3517905232
 31
0.0
 11
337.0056427498151
 21
206.354148277
 31
0.0
 11
337.0270805801151
 21
206.3555966502001
 31
0.0
 11
337.0483619630151
 21
206.3561609852
 31
0.0
 11
337.069504824015
 21
206.3558634863001
 31
0.0
 11
337.0905122207151
 21
206.3547228857001
 31
0.0
 11
337.1113741392151
 21
206.3527558296001
 31
0.0
 11
337.1321086096151
 21
206.3499731586001
 31
0.0
 11
337.152741405115
 21
206.3463810139001
 31
0.0
 11
337.1732856672151
 21
206.3419828447001
 31
0.0
 11
337.193763370215
 21
206.336776043
 31
0.0
 11
337.2141857697152
 21
206.3307562737
 31
0.0
 11
337.2345461750152
 21
206.3239213780001
 31
0.0
 11
337.2548836077152
 21
206.3162488411001
 31
0.0
 11
337.2752429575151
 21
206.3077089021
 31
0.0
 11
337.2956417976151
 21
206.2982756756001
 31
0.0
 11
337.3160910415151
 21
206.2879213057
 31
0.0
 11
337.3366114223151
 21
206.2766075338001
 31
0.0
 11
337.3571931297151
 21
206.2643079516001
 31
0.0
 11
337.3778071931151
 21
206.2510035373
 31
0.0
 11
337.398480178915
 21
206.2366356502
 31
0.0
 11
337.419230059615
 21
206.2211441400001
 31
0.0
 11
337.4400615881151
 21
206.2044701102001
 31
0.0
 11
337.4609654263151
 21
206.18655911
 31
0.0
 11
337.4819615004152
 21
206.1673230420001
 31
0.0
 11
337.503087973115
 21
206.1466449600001
 31
0.0
 11
337.524300424615
 21
206.1244776939001
 31
0.0
 11
337.5455592267152
 21
206.1007611596
 31
0.0
 11
337.5668379367151
 21
206.0754142564001
 31
0.0
 11
337.5881165085151
 21
206.0483367191
 31
0.0
 11
337.609367165715
 21
206.0194254701001
 31
0.0
  0
SPLINE
  5
990
330
20
100
AcDbEntity
  8
0
  6
Continuous
100
AcDbSpline
210
0.0
220
0.0
230
1.0
 70
     8
 71
     3
 72
    22
 73
    18
 74
    16
 42
0.0000000001
 43
0.0000000001
 44
0.0000000001
 40
0.0
 40
0.0
 40
0.0
 40
0.0
 40
0.1805242509011278
 40
0.3758293896976961
 40
0.5716978972796205
 40
0.7681222109450024
 40
0.9650856482439613
 40
1.162583489197979
 40
1.36056686224255
 40
1.558983540664849
 40
1.757758627543665
 40
1.956787781230093
 40
2.1559676230426
 40
2.355189967204934
 40
2.554342287985413
 40
2.75330729904661
 40
2.938112582955161
 40
2.938112582955161
 40
2.938112582955161
 40
2.938112582955161
 10
336.837940892915
 20
208.0739526007
 30
0.0
 10
336.8467606895346
 20
208.1335187430338
 30
0.0
 10
336.8651224263328
 20
208.2575281589885
 30
0.0
 10
336.9153214091033
 20
208.4418354320778
 30
0.0
 10
336.9839021496642
 20
208.6255654401538
 30
0.0
 10
337.0707177937634
 20
208.8021350013754
 30
0.0
 10
337.174558708801
 20
208.9698593978319
 30
0.0
 10
337.2946114632194
 20
209.1270588412483
 30
0.0
 10
337.4297390416957
 20
209.2721632173216
 30
0.0
 10
337.5786759712679
 20
209.4037009994817
 30
0.0
 10
337.7399874785922
 20
209.5203248177679
 30
0.0
 10
337.9120953284598
 20
209.6208447436117
 30
0.0
 10
338.0932933335644
 20
209.704196644438
 30
0.0
 10
338.2817742946911
 20
209.7696573049463
 30
0.0
 10
338.4756454964473
 20
209.8161164248716
 30
0.0
 10
338.6683793546554
 20
209.8441709552148
 30
0.0
 10
338.7963445928147
 20
209.8475392715428
 30
0.0
 10
338.8579664861151
 20
209.8491612904001
 30
0.0
 11
336.837940892915
 21
208.0739526007
 31
0.0
 11
336.8677777467151
 21
208.2519940771001
 31
0.0
 11
336.9180907071152
 21
208.4407073603001
 31
0.0
 11
336.986831500615
 21
208.6241172171001
 31
0.0
 11
337.0734244423151
 21
208.8004242602
 31
0.0
 11
337.1771105445152
 21
208.9678870556
 31
0.0
 11
337.296967622915
 21
209.1248573647
 31
0.0
 11
337.4318864818151
 21
209.2697515244001
 31
0.0
 11
337.5805999903151
 21
209.4011039917
 31
0.0
 11
337.7416806426151
 21
209.5175709768
 31
0.0
 11
337.9135439967151
 21
209.6179482229001
 31
0.0
 11
338.0944878837151
 21
209.7012063705001
 31
0.0
 11
338.2827067071151
 21
209.7664996851001
 31
0.0
 11
338.4763115964152
 21
209.8131772355001
 31
0.0
 11
338.673350750615
 21
209.8407933058001
 31
0.0
 11
338.8579664861151
 21
209.8491612904001
 31
0.0
  0
LINE
  5
991
330
20
100
AcDbEntity
  8
0
  6
Continuous
100
AcDbLine
 10
358.528340375515
 20
208.9189180018001
 30
0.0
 11
358.812924410115
 21
204.8491767013001
 31
0.0
  0
ARC
  5
992
330
20
100
AcDbEntity
  8
0
  6
Continuous
100
AcDbCircle
 10
357.530776325315
 20
208.8491615281
 30
0.0
 40
1.0
100
AcDbArc
 50
3.999999999999762
 51
90.0
  0
SPLINE
  5
A22
330
20
100
AcDbEntity
  8
0
  6
Continuous
100
AcDbSpline
210
0.0
220
0.0
230
1.0
 70
     8
 71
     3
 72
    12
 73
     8
 74
     6
 42
0.0000000001
 43
0.0000000001
 44
0.0000000001
 40
0.0
 40
0.0
 40
0.0
 40
0.0
 40
0.0202598618065514
 40
0.0671114789440925
 40
0.1465323375504307
 40
0.2635871231849978
 40
0.42232778675522
 40
0.42232778675522
 40
0.42232778675522
 40
0.42232778675522
 10
332.0560857805408
 20
148.3175204305999
 30
0.0
 10
332.0585048839224
 20
148.3238454953258
 30
0.0
 10
332.0665182458696
 20
148.3447974866191
 30
0.0
 10
332.0960549011285
 20
148.3843076663771
 30
0.0
 10
332.1423600778424
 20
148.4505772458499
 30
0.0
 10
332.2127825432764
 20
148.5459328556399
 30
0.0
 10
332.2653264051179
 20
148.6213466154852
 30
0.0
 10
332.2955692808408
 20
148.6647528077
 30
0.0
 11
332.0560857805408
 21
148.3175204305999
 31
0.0
 11
332.0638456350408
 21
148.3362353086
 31
0.0
 11
332.0892939605408
 21
148.3755730354999
 31
0.0
 11
332.1354536446408
 21
148.4402024122999
 31
0.0
 11
332.2041339451408
 21
148.5349908038
 31
0.0
 11
332.2955692808408
 21
148.6647528077
 31
0.0
  0
ARC
  5
A23
330
20
100
AcDbEntity
  8
0
  6
Continuous
100
AcDbCircle
 10
333.5859199421408
 20
146.3299528302
 30
0.0
 40
2.5
100
AcDbArc
 50
90.00000000000019
 51
127.7294512653003
  0
ARC
  5
A24
330
20
100
AcDbEntity
  8
0
  6
Continuous
100
AcDbCircle
 10
301.1058673356408
 20
147.9299528301999
 30
0.0
 40
2.0
100
AcDbArc
 50
10.00000000000002
 51
90.00000000000019
  0
LINE
  5
A25
330
20
100
AcDbEntity
  8
0
  6
Continuous
100
AcDbLine
 10
330.2202847866408
 20
147.6799528301999
 30
0.0
 11
330.2202847866408
 21
182.6282575483
 31
0.0
  0
LINE
  5
A26
330
20
100
AcDbEntity
  8
0
  6
Continuous
100
AcDbLine
 10
315.8742371915408
 20
182.1674964844
 30
0.0
 11
315.8742371915408
 21
147.1299528302
 31
0.0
  0
LINE
  5
A27
330
20
100
AcDbEntity
  8
0
  6
Continuous
100
AcDbLine
 10
314.1429082222408
 20
183.9033206674999
 30
0.0
 11
314.1429082222408
 21
146.5799528301999
 31
0.0
  0
LINE
  5
A28
330
20
100
AcDbEntity
  8
0
  6
Continuous
100
AcDbLine
 10
307.4629254737408
 20
186.5799528301999
 30
0.0
 11
307.4629254737408
 21
145.5799528302
 31
0.0
  0
LINE
  5
A29
330
20
100
AcDbEntity
  8
0
  6
Continuous
100
AcDbLine
 10
305.9629254737408
 20
186.5799528301999
 30
0.0
 11
305.9629254737408
 21
145.5799528302
 31
0.0
  0
LINE
  5
A2A
330
20
100
AcDbEntity
  8
0
  6
Continuous
100
AcDbLine
 10
303.9629254737408
 20
145.5799528302
 30
0.0
 11
303.9629254737408
 21
186.5799528301999
 31
0.0
  0
ARC
  5
A2B
330
20
100
AcDbEntity
  8
0
  6
Continuous
100
AcDbCircle
 10
317.6055661608408
 20
144.6799528301999
 30
0.0
 40
3.0
100
AcDbArc
 50
90.00000000000019
 51
125.2475069921002
  0
ARC
  5
A2C
330
20
100
AcDbEntity
  8
0
  6
Continuous
100
AcDbCircle
 10
309.2913525984408
 20
144.5799528301999
 30
0.0
 40
2.0
100
AcDbArc
 50
90.00000000000019
 51
135.0000000000003
  0
LINE
  5
A2D
330
20
100
AcDbEntity
  8
0
  6
Continuous
100
AcDbLine
 10
306.1629254737407
 20
145.5799528302
 30
0.0
 11
303.9629254737408
 21
145.5799528302
 31
0.0
  0
ARC
  5
A2E
330
20
100
AcDbEntity
  8
0
  6
Continuous
100
AcDbCircle
 10
303.9279538201408
 20
146.3220312648999
 30
0.0
 40
0.5
100
AcDbArc
 50
190.0000000000004
 51
224.9999999999005
  0
LINE
  5
A2F
330
20
100
AcDbEntity
  8
0
  6
Continuous
100
AcDbLine
 10
303.4355499436408
 20
146.2352071760999
 30
0.0
 11
303.0754828416408
 21
148.2772491855
 31
0.0
  0
LINE
  5
A30
330
20
100
AcDbEntity
  8
0
  6
Continuous
100
AcDbLine
 10
303.9629254737408
 20
145.5799528302
 30
0.0
 11
303.5744004296408
 21
145.9684778742999
 31
0.0
  0
LINE
  5
A31
330
20
100
AcDbEntity
  8
0
  6
Continuous
100
AcDbLine
 10
307.4629254737408
 20
145.5799528302
 30
0.0
 11
307.8771390361408
 21
145.9941663925999
 31
0.0
  0
LINE
  5
A32
330
20
100
AcDbEntity
  8
0
  6
Continuous
100
AcDbLine
 10
306.1629254737407
 20
145.5799528302
 30
0.0
 11
307.4629254737408
 21
145.5799528302
 31
0.0
  0
LINE
  5
A33
330
20
100
AcDbEntity
  8
0
  6
Continuous
100
AcDbLine
 10
309.2913525984408
 20
146.5799528301999
 30
0.0
 11
314.1429082222408
 21
146.5799528301999
 31
0.0
  0
ARC
  5
A34
330
20
100
AcDbEntity
  8
0
  6
Continuous
100
AcDbCircle
 10
314.1429082222408
 20
149.5799528302
 30
0.0
 40
3.0
100
AcDbArc
 50
270.0000000000006
 51
305.2475069921007
  0
LINE
  5
A35
330
20
100
AcDbEntity
  8
0
  6
Continuous
100
AcDbLine
 10
317.6055661608408
 20
147.6799528301999
 30
0.0
 11
330.2202847866408
 21
147.6799528301999
 31
0.0
  0
ARC
  5
A36
330
20
100
AcDbEntity
  8
0
  6
Continuous
100
AcDbCircle
 10
330.2202847866408
 20
150.6799528301999
 30
0.0
 40
3.0
100
AcDbArc
 50
270.0000000000006
 51
307.7294511740007
  0
LINE
  5
A37
330
20
100
AcDbEntity
  8
0
  6
Continuous
100
AcDbLine
 10
332.0560857786408
 20
148.3072255559999
 30
0.0
 11
332.0560857805408
 21
148.3175204305999
 31
0.0
  0
LINE
  5
A39
330
20
100
AcDbEntity
  8
0
  6
CENTRO2
 48
0.75
100
AcDbLine
 10
275.4379254737408
 20
166.0799528302
 30
0.0
 11
368.2353323561433
 21
166.0799528302
 31
0.0
  0
LINE
  5
A3B
330
20
100
AcDbEntity
  8
0
  6
Continuous
100
AcDbLine
 10
279.6027158517408
 20
179.0430467836
 30
0.0
 11
295.1691692471408
 21
179.5292508112999
 31
0.0
  0
LINE
  5
A3C
330
20
100
AcDbEntity
  8
0
  6
Continuous
100
AcDbLine
 10
292.5629254737408
 20
178.285280488
 30
0.0
 11
278.3234975383408
 21
177.8405248948
 31
0.0
  0
LINE
  5
A3D
330
20
100
AcDbEntity
  8
0
  6
Continuous
100
AcDbLine
 10
292.5629254737408
 20
153.8746251723999
 30
0.0
 11
278.3234975383408
 21
154.3193807655999
 31
0.0
  0
LINE
  5
A3E
330
20
100
AcDbEntity
  8
0
  6
Continuous
100
AcDbLine
 10
279.6027158517408
 20
153.1168588767999
 30
0.0
 11
295.1691692471408
 21
152.6306548491
 31
0.0
  0
LINE
  5
A3F
330
20
100
AcDbEntity
  8
0
  6
Continuous
100
AcDbLine
 10
279.4675382688408
 20
153.1753400350999
 30
0.0
 11
279.4675382688408
 21
178.9845656253
 31
0.0
  0
LINE
  5
A40
330
20
100
AcDbEntity
  8
0
  6
Continuous
100
AcDbLine
 10
278.0629254737408
 20
177.4971101176999
 30
0.0
 11
278.0629254737408
 21
154.6627955426999
 31
0.0
  0
LINE
  5
A41
330
20
100
AcDbEntity
  8
0
  6
Continuous
100
AcDbLine
 10
278.1215041175408
 20
154.5213741864
 30
0.0
 11
279.4675382688408
 21
153.1753400350999
 31
0.0
  0
ARC
  5
A42
330
20
100
AcDbEntity
  8
0
  6
Continuous
100
AcDbCircle
 10
279.6089596251408
 20
153.3167613912999
 30
0.0
 40
0.2
100
AcDbArc
 50
224.9999999895005
 51
268.2109999993006
  0
ARC
  5
A43
330
20
100
AcDbEntity
  8
0
  6
Continuous
100
AcDbCircle
 10
278.2629254737408
 20
154.6627955426999
 30
0.0
 40
0.2
100
AcDbArc
 50
180.0000000000004
 51
224.9999999762005
  0
ARC
  5
A44
330
20
100
AcDbEntity
  8
0
  6
Continuous
100
AcDbCircle
 10
278.2629254737408
 20
177.4971101176999
 30
0.0
 40
0.2
100
AcDbArc
 50
135.0000000183003
 51
180.0000000000004
  0
ARC
  5
A45
330
20
100
AcDbEntity
  8
0
  6
Continuous
100
AcDbCircle
 10
279.6089596251408
 20
178.8431442690999
 30
0.0
 40
0.2
100
AcDbArc
 50
91.7890000007002
 51
135.0000000095003
  0
LINE
  5
A46
330
20
100
AcDbEntity
  8
0
  6
Continuous
100
AcDbLine
 10
278.1215041175408
 20
177.6385314739999
 30
0.0
 11
279.4675382688408
 21
178.9845656253
 31
0.0
  0
LINE
  5
A4B
330
20
100
AcDbEntity
  8
0
  6
Continuous
100
AcDbLine
 10
343.0566817003408
 20
179.5292508112999
 30
0.0
 11
358.6231350957408
 21
179.0430467836
 31
0.0
  0
LINE
  5
A4C
330
20
100
AcDbEntity
  8
0
  6
Continuous
100
AcDbLine
 10
359.9023534091408
 20
177.8405248948
 30
0.0
 11
345.6629254737408
 21
178.285280488
 31
0.0
  0
LINE
  5
A4D
330
20
100
AcDbEntity
  8
0
  6
Continuous
100
AcDbLine
 10
359.9023534091408
 20
154.3193807655999
 30
0.0
 11
345.6629254737408
 21
153.8746251723999
 31
0.0
  0
LINE
  5
A4E
330
20
100
AcDbEntity
  8
0
  6
Continuous
100
AcDbLine
 10
343.0566817003408
 20
152.6306548491
 30
0.0
 11
358.6231350957408
 21
153.1168588767999
 31
0.0
  0
ARC
  5
A54
330
20
100
AcDbEntity
  8
0
100
AcDbCircle
 10
317.6989355702363
 20
185.4901066917955
 30
0.0
 40
3.790681042148911
100
AcDbArc
 50
241.2254579937295
 51
268.5885787221121
  0
LINE
  5
A57
330
20
100
AcDbEntity
  8
0
  6
Continuous
100
AcDbLine
 10
334.2129254737408
 20
191.2491615280999
 30
0.0
 11
310.4129254737407
 21
191.2491615280999
 31
0.0
  0
LINE
  5
A58
330
20
100
AcDbEntity
  8
0
  6
Continuous
100
AcDbLine
 10
332.8129254737408
 20
190.3016406666999
 30
0.0
 11
312.5284497464408
 21
190.301640018
 31
0.0
  0
ARC
  5
A59
330
20
100
AcDbEntity
  8
0
100
AcDbCircle
 10
358.0722434274359
 20
166.2000433653408
 30
0.0
 40
62.57642527268064
100
AcDbArc
 50
173.1948453039342
 51
187.0266795394701
  0
ARC
  5
A5A
330
20
100
AcDbEntity
  8
0
100
AcDbCircle
 10
392.949316107792
 20
166.0799528301999
 30
0.0
 40
92.15202098770025
100
AcDbArc
 50
175.3098701279859
 51
184.6901298720139
  0
LINE
  5
A5B
330
20
100
AcDbEntity
  8
0
  6
Continuous
100
AcDbLine
 10
295.1691692471408
 20
152.6306548491
 30
0.0
 11
295.1691692471408
 21
179.5292508112999
 31
0.0
  0
LINE
  5
A5C
330
20
100
AcDbEntity
  8
0
  6
Continuous
100
AcDbLine
 10
292.5629258552408
 20
179.4478470028999
 30
0.0
 11
292.5629258552408
 21
152.7120586574999
 31
0.0
  0
LINE
  5
A5D
330
20
100
AcDbEntity
  8
0
  6
Continuous
100
AcDbLine
 10
295.9366783504408
 20
159.0115371660999
 30
0.0
 11
301.0544506321408
 21
159.0115371660999
 31
0.0
  0
LINE
  5
A5E
330
20
100
AcDbEntity
  8
0
  6
Continuous
100
AcDbLine
 10
295.9366783504408
 20
157.1433948476999
 30
0.0
 11
301.0544506321408
 21
157.1433948476999
 31
0.0
  0
LINE
  5
A5F
330
20
100
AcDbEntity
  8
0
  6
Continuous
100
AcDbLine
 10
301.1058673356408
 20
149.9299528301999
 30
0.0
 11
295.9658111567407
 21
149.9299528301999
 31
0.0
  0
ARC
  5
A60
330
20
100
AcDbEntity
  8
0
100
AcDbCircle
 10
310.0409744895815
 20
153.5935777921836
 30
0.0
 40
14.54415245754156
100
AcDbArc
 50
165.873015043799
 51
194.5897814317403
  0
SPLINE
  5
A61
330
20
100
AcDbEntity
  8
0
  6
Continuous
100
AcDbSpline
210
0.0
220
0.0
230
1.0
 70
     8
 71
     3
 72
    10
 73
     6
 74
     4
 42
0.0000000001
 43
0.0000000001
 44
0.0000000001
 40
0.0
 40
0.0
 40
0.0
 40
0.0
 40
0.0194068727625519
 40
0.0651756245992351
 40
0.1364190610972036
 40
0.1364190610972036
 40
0.1364190610972036
 40
0.1364190610972036
 10
295.9658111567407
 20
149.9417340763999
 30
0.0
 10
295.9647651784368
 20
149.9481190167583
 30
0.0
 10
295.9612523873701
 20
149.9695620633007
 30
0.0
 10
295.9508025987116
 20
150.0138477945854
 30
0.0
 10
295.9420235292935
 20
150.0518446280006
 30
0.0
 10
295.9366783504408
 20
150.0749791837
 30
0.0
 11
295.9658111567407
 21
149.9417340763999
 31
0.0
 11
295.9625420273408
 21
149.9608636217
 31
0.0
 11
295.9527821485408
 21
150.0055796524999
 31
0.0
 11
295.9366783504408
 21
150.0749791837
 31
0.0
  0
ARC
  5
A62
330
20
100
AcDbEntity
  8
0
  6
Continuous
100
AcDbCircle
 10
295.1629254737408
 20
152.4307523345999
 30
0.0
 40
0.2
100
AcDbArc
 50
0.0000000004
 51
88.21099999930023
  0
LINE
  5
A63
330
20
100
AcDbEntity
  8
0
  6
Continuous
100
AcDbLine
 10
295.9658111567407
 20
149.9299528301999
 30
0.0
 11
295.9658111567407
 21
149.9417340763999
 31
0.0
  0
LINE
  5
A64
330
20
100
AcDbEntity
  8
0
  6
Continuous
100
AcDbLine
 10
295.3629254737408
 20
152.4307523346013
 30
0.0
 11
295.9628658451407
 21
149.9409448824999
 31
0.0
  0
LINE
  5
A65
330
20
100
AcDbEntity
  8
0
100
AcDbLine
 10
295.9366783504408
 20
157.1433948476999
 30
0.0
 11
295.9658111567407
 21
157.4767118304999
 31
0.0
  0
LINE
  5
A66
330
20
100
AcDbEntity
  8
0
  6
Continuous
100
AcDbLine
 10
295.9658111567407
 20
157.4767118304999
 30
0.0
 11
295.9658111567407
 21
158.5449750760999
 31
0.0
  0
ARC
  5
A67
330
20
100
AcDbEntity
  8
0
100
AcDbCircle
 10
325.211982694415
 20
153.6091870156999
 30
0.0
 40
24.41468779934693
100
AcDbArc
 50
171.6767663642944
 51
188.3232336357052
  0
LINE
  5
A68
330
20
100
AcDbEntity
  8
0
100
AcDbLine
 10
301.0815716371093
 20
150.0088707187734
 30
0.0
 11
301.1058673356408
 21
149.9417340763999
 31
0.0
  0
LINE
  5
A69
330
20
100
AcDbEntity
  8
0
100
AcDbLine
 10
301.0544506321407
 20
150.0749791837
 30
0.0
 11
301.0815716371093
 21
150.0088707187734
 31
0.0
  0
LINE
  5
A6A
330
20
100
AcDbEntity
  8
0
  6
Continuous
100
AcDbLine
 10
301.1058673356408
 20
149.9299528301999
 30
0.0
 11
301.1058673356408
 21
149.9417340763999
 31
0.0
  0
LINE
  5
A6B
330
20
100
AcDbEntity
  8
0
100
AcDbLine
 10
301.0544506321408
 20
157.1433948477
 30
0.0
 11
301.1058673356408
 21
157.4767118304999
 31
0.0
  0
LINE
  5
A6C
330
20
100
AcDbEntity
  8
0
  6
Continuous
100
AcDbLine
 10
301.1058673356408
 20
158.5449750760999
 30
0.0
 11
301.1058673356408
 21
157.4767118304999
 31
0.0
  0
LINE
  5
A6D
330
20
100
AcDbEntity
  8
0
  6
Continuous
100
AcDbLine
 10
301.1058673356408
 20
182.2299528302
 30
0.0
 11
295.9658111567407
 21
182.2299528302
 31
0.0
  0
LINE
  5
A6E
330
20
100
AcDbEntity
  8
0
  6
Continuous
100
AcDbLine
 10
295.9366783504408
 20
175.0165108126999
 30
0.0
 11
301.0544506321408
 21
175.0165108126999
 31
0.0
  0
LINE
  5
A6F
330
20
100
AcDbEntity
  8
0
  6
Continuous
100
AcDbLine
 10
295.9366783504408
 20
173.1483684942999
 30
0.0
 11
301.0544506321408
 21
173.1483684942999
 31
0.0
  0
ARC
  5
A70
330
20
100
AcDbEntity
  8
0
100
AcDbCircle
 10
309.9708237826862
 20
178.5606279355023
 30
0.0
 40
14.47473675731468
100
AcDbArc
 50
165.3635675898184
 51
194.1728788509688
  0
LINE
  5
A71
330
20
100
AcDbEntity
  8
0
100
AcDbLine
 10
295.9366783504408
 20
175.0165108126999
 30
0.0
 11
295.9658111567407
 21
174.6831938299
 31
0.0
  0
LINE
  5
A72
330
20
100
AcDbEntity
  8
0
  6
Continuous
100
AcDbLine
 10
295.9658111567407
 20
173.6149305842999
 30
0.0
 11
295.9658111567407
 21
174.6831938299
 31
0.0
  0
SPLINE
  5
A73
330
20
100
AcDbEntity
  8
0
  6
Continuous
100
AcDbSpline
210
0.0
220
0.0
230
1.0
 70
     8
 71
     3
 72
    10
 73
     6
 74
     4
 42
0.0000000001
 43
0.0000000001
 44
0.0000000001
 40
0.0
 40
0.0
 40
0.0
 40
0.0
 40
0.0712434364979685
 40
0.1170121883346517
 40
0.1364190610972036
 40
0.1364190610972036
 40
0.1364190610972036
 40
0.1364190610972036
 10
295.9366783504408
 20
182.0849264766999
 30
0.0
 10
295.9420235292935
 20
182.1080610323993
 30
0.0
 10
295.9508025987116
 20
182.1460578658144
 30
0.0
 10
295.9612523873701
 20
182.1903435970993
 30
0.0
 10
295.9647651784367
 20
182.2117866436416
 30
0.0
 10
295.9658111567407
 20
182.218171584
 30
0.0
 11
295.9366783504408
 21
182.0849264766999
 31
0.0
 11
295.9527821485408
 21
182.1543260079
 31
0.0
 11
295.9625420273408
 21
182.1990420386999
 31
0.0
 11
295.9658111567407
 21
182.218171584
 31
0.0
  0
ARC
  5
A74
330
20
100
AcDbEntity
  8
0
  6
Continuous
100
AcDbCircle
 10
295.1629254737408
 20
179.7291533258
 30
0.0
 40
0.2
100
AcDbArc
 50
271.7890000017006
 51
0.0000000000007994
  0
LINE
  5
A75
330
20
100
AcDbEntity
  8
0
  6
Continuous
100
AcDbLine
 10
295.3629254737408
 20
179.7291533258
 30
0.0
 11
295.9658111567407
 21
182.2299528302
 31
0.0
  0
LINE
  5
A76
330
20
100
AcDbEntity
  8
0
  6
Continuous
100
AcDbLine
 10
295.9658111567407
 20
182.218171584
 30
0.0
 11
295.9658111567407
 21
182.2299528302
 31
0.0
  0
ARC
  5
A77
330
20
100
AcDbEntity
  8
0
100
AcDbCircle
 10
310.3616161512651
 20
178.400486109565
 30
0.0
 40
6.67677750850114
100
AcDbArc
 50
34.34647053233508
 51
55.50495995173904
  0
ARC
  5
A78
330
20
100
AcDbEntity
  8
0
  6
Continuous
100
AcDbCircle
 10
301.1058673356408
 20
184.2299528302
 30
0.0
 40
2.0
100
AcDbArc
 50
270.0000000000006
 51
350.0000000000008
  0
ARC
  5
A79
330
20
100
AcDbEntity
  8
0
100
AcDbCircle
 10
324.0086002184936
 20
178.45657333005
 30
0.0
 40
23.21149642645766
100
AcDbArc
 50
170.6441840657626
 51
189.3558159342374
  0
LINE
  5
A7A
330
20
100
AcDbEntity
  8
0
  6
Continuous
100
AcDbLine
 10
301.1058673356408
 20
174.6831938299
 30
0.0
 11
301.1058673356408
 21
173.6149305842999
 31
0.0
  0
ARC
  5
A7B
330
20
100
AcDbEntity
  8
0
  6
Continuous
100
AcDbCircle
 10
309.2913525984408
 20
187.5799528301999
 30
0.0
 40
2.0
100
AcDbArc
 50
225.0000000000005
 51
270.0000000000006
  0
LINE
  5
A7C
330
20
100
AcDbEntity
  8
0
  6
Continuous
100
AcDbLine
 10
306.1629254737407
 20
186.5799528301999
 30
0.0
 11
303.9629254737408
 21
186.5799528301999
 31
0.0
  0
ARC
  5
A7D
330
20
100
AcDbEntity
  8
0
  6
Continuous
100
AcDbCircle
 10
303.9279538201408
 20
185.8378743954999
 30
0.0
 40
0.5
100
AcDbArc
 50
135.0000000007003
 51
170.0000000002003
  0
LINE
  5
A7E
330
20
100
AcDbEntity
  8
0
  6
Continuous
100
AcDbLine
 10
303.9629254737408
 20
186.5799528301999
 30
0.0
 11
303.5744004296408
 21
186.191427786
 31
0.0
  0
LINE
  5
A7F
330
20
100
AcDbEntity
  8
0
  6
Continuous
100
AcDbLine
 10
303.4355499436408
 20
185.9246984842999
 30
0.0
 11
303.0754828416408
 21
183.8826564748999
 31
0.0
  0
LINE
  5
A80
330
20
100
AcDbEntity
  8
0
  6
Continuous
100
AcDbLine
 10
306.1629254737407
 20
186.5799528301999
 30
0.0
 11
307.4629254737408
 21
186.5799528301999
 31
0.0
  0
LINE
  5
A81
330
20
100
AcDbEntity
  8
0
  6
Continuous
100
AcDbLine
 10
307.4629254737408
 20
186.5799528301999
 30
0.0
 11
307.8771390361408
 21
186.1657392677999
 31
0.0
  0
LINE
  5
A83
330
20
100
AcDbEntity
  8
0
100
AcDbLine
 10
309.2913525984408
 20
185.5799528301999
 30
0.0
 11
314.1429082222408
 21
183.9033206674999
 31
0.0
  0
ARC
  5
A84
330
20
100
AcDbEntity
  8
0
  6
Continuous
100
AcDbCircle
 10
310.0629276762408
 20
188.5799512702
 30
0.0
 40
2.999999461899999
100
AcDbArc
 50
269.9999577698006
 51
314.4576674240007
  0
LINE
  5
A85
330
20
100
AcDbEntity
  8
0
  6
Continuous
100
AcDbLine
 10
309.2913525984408
 20
185.5799528301999
 30
0.0
 11
310.0629254737408
 21
185.5799528301999
 31
0.0
  0
SPLINE
  5
A86
330
20
100
AcDbEntity
  8
0
  6
Continuous
100
AcDbSpline
210
0.0
220
0.0
230
1.0
 70
     8
 71
     3
 72
    14
 73
    10
 74
     8
 42
0.0000000001
 43
0.0000000001
 44
0.0000000001
 40
0.0
 40
0.0
 40
0.0
 40
0.0
 40
0.1833299758521328
 40
0.3862742184199094
 40
0.5759237317976924
 40
0.717787184380154
 40
0.8083343999158481
 40
0.8562474517918653
 40
0.8704905402405673
 40
0.8704905402405673
 40
0.8704905402405673
 40
0.8704905402405673
 10
312.5284497464408
 20
190.301640018
 30
0.0
 10
312.4673391810874
 20
190.3029051942468
 30
0.0
 10
312.3385799001276
 20
190.3055709065157
 30
0.0
 10
312.1471951796457
 20
190.321945286418
 30
0.0
 10
311.9701887410329
 20
190.3421505094507
 30
0.0
 10
311.8308307750056
 20
190.3615348118323
 30
0.0
 10
311.7384801658751
 20
190.3757763581342
 30
0.0
 10
311.6882357630518
 20
190.3839291183713
 30
0.0
 10
311.6678011168433
 20
190.3873482583782
 30
0.0
 10
311.6631185147408
 20
190.3881317548
 30
0.0
 11
312.5284497464408
 21
190.301640018
 31
0.0
 11
312.3452074379408
 21
190.3073089174999
 31
0.0
 11
312.1428947140408
 21
190.3233066466999
 31
0.0
 11
311.9544714544407
 21
190.3448383248999
 31
0.0
 11
311.8139512018408
 21
190.3643138938999
 31
0.0
 11
311.7244589279408
 21
190.3780954451
 31
0.0
 11
311.6771672010408
 21
190.3857865507999
 31
0.0
 11
311.6631185147408
 21
190.3881317548
 31
0.0
  0
ARC
  5
A87
330
20
100
AcDbEntity
  8
0
  6
Continuous
100
AcDbCircle
 10
311.6129254737408
 20
192.1491615280999
 30
0.0
 40
1.5
100
AcDbArc
 50
216.8698976458005
 51
240.0000000000005
  0
LINE
  5
A88
330
20
100
AcDbEntity
  8
0
  6
Continuous
100
AcDbLine
 10
310.8629254737408
 20
190.8501234223999
 30
0.0
 11
311.6631183562408
 21
190.3881318463
 31
0.0
  0
ARC
  5
A8C
330
20
100
AcDbEntity
  8
0
100
AcDbCircle
 10
281.6078663252325
 20
166.0799528302001
 30
0.0
 40
60.85311449603606
100
AcDbArc
 50
353.0093738584187
 51
6.990626141581053
  0
ARC
  5
A8D
330
20
100
AcDbEntity
  8
0
100
AcDbCircle
 10
316.1485475555802
 20
166.0799528301999
 30
0.0
 40
19.34991182412457
100
AcDbArc
 50
337.4956517373118
 51
22.50434826268839
  0
ELLIPSE
  5
A8E
330
20
100
AcDbEntity
  8
0
100
AcDbEllipse
 10
323.3117217029119
 20
167.1071432416779
 30
0.0
 11
-0.0012036665485056
 21
-5.084611088127988
 31
0.0
210
0.0
220
0.0
230
0.9999999999999998
 40
0.9730638783848397
 41
0.0
 42
6.283185307179586
  0
LINE
  5
A8F
330
20
100
AcDbEntity
  8
0
  6
Continuous
100
AcDbLine
 10
345.6629258552408
 20
179.4478470028999
 30
0.0
 11
345.6629258552408
 21
152.7120586574999
 31
0.0
  0
LINE
  5
A90
330
20
100
AcDbEntity
  8
0
  6
Continuous
100
AcDbLine
 10
342.8561106390408
 20
180.0053861396999
 30
0.0
 11
342.8561106390408
 21
152.1545195207
 31
0.0
  0
LINE
  5
A91
330
20
100
AcDbEntity
  8
0
  6
Continuous
100
AcDbLine
 10
332.3416051301408
 20
155.2631377632999
 30
0.0
 11
332.3416051301408
 21
172.6086673867999
 31
0.0
  0
ARC
  5
A92
330
20
100
AcDbEntity
  8
0
100
AcDbCircle
 10
334.7325065422516
 20
157.7439736428111
 30
0.0
 40
1.168334259541224
100
AcDbArc
 50
127.2714313138534
 51
168.9277388937613
  0
ARC
  5
A93
330
20
100
AcDbEntity
  8
0
100
AcDbCircle
 10
334.2170592527145
 20
157.0565914372153
 30
0.0
 40
0.63982084037527
100
AcDbArc
 50
189.4492831489673
 51
252.529256483862
  0
LINE
  5
A94
330
20
100
AcDbEntity
  8
0
  6
Continuous
100
AcDbLine
 10
332.3416051301408
 20
148.7344232067
 30
0.0
 11
332.3416051301408
 21
155.2631377632999
 31
0.0
  0
SPLINE
  5
A95
330
20
100
AcDbEntity
  8
0
  6
Continuous
100
AcDbSpline
210
0.0
220
0.0
230
1.0
 70
     8
 71
     3
 72
     9
 73
     5
 74
     3
 42
0.0000000001
 43
0.0000000001
 44
0.0000000001
 40
0.0
 40
0.0
 40
0.0
 40
0.0
 40
0.0418553706103985
 40
0.0835096786827075
 40
0.0835096786827075
 40
0.0835096786827075
 40
0.0835096786827075
 10
332.2955692808408
 20
148.6647528077
 30
0.0
 10
332.3034225607781
 20
148.6762853497679
 30
0.0
 10
332.3190913954966
 20
148.6992950345095
 30
0.0
 10
332.3341126072272
 20
148.7227326258519
 30
0.0
 10
332.3416051301408
 20
148.7344232067
 30
0.0
 11
332.2955692808408
 21
148.6647528077
 31
0.0
 11
332.3189664343408
 21
148.6994579262999
 31
0.0
 11
332.3416051301408
 21
148.7344232067
 31
0.0
  0
ELLIPSE
  5
A96
330
20
100
AcDbEntity
  8
0
100
AcDbEllipse
 10
323.3129193520249
 20
167.0799400946045
 30
0.0
 11
-0.002245692096011001
 21
-4.400012163493157
 31
0.0
210
0.0
220
0.0
230
1.0
 40
0.9998112034167075
 41
0.0
 42
6.283185307179586
  0
ELLIPSE
  5
A97
330
20
100
AcDbEntity
  8
0
100
AcDbEllipse
 10
323.3128059866943
 20
167.107115933788
 30
0.0
 11
-0.0021541974233372
 21
-4.51957554121543
 31
0.0
210
0.0
220
0.0
230
1.0
 40
0.9732430547222153
 41
0.0
 42
6.283185307179586
  0
LINE
  5
A98
330
20
100
AcDbEntity
  8
0
  6
Continuous
100
AcDbLine
 10
334.0249730260408
 20
158.6737054672999
 30
0.0
 11
342.0086034388408
 21
158.6737054672999
 31
0.0
  0
LINE
  5
A99
330
20
100
AcDbEntity
  8
0
  6
Continuous
100
AcDbLine
 10
334.0249730260408
 20
156.4462852933
 30
0.0
 11
342.0086034388408
 21
156.4462852933
 31
0.0
  0
LINE
  5
A9A
330
20
100
AcDbEntity
  8
0
  6
Continuous
100
AcDbLine
 10
341.9652956791408
 20
148.8299528301999
 30
0.0
 11
333.5859199421408
 21
148.8299528301999
 31
0.0
  0
ARC
  5
A9B
330
20
100
AcDbEntity
  8
0
100
AcDbCircle
 10
330.1082207153247
 20
152.7431616119
 30
0.0
 40
5.390183082534829
100
AcDbArc
 50
316.6059071667468
 51
43.39409283325319
  0
SPLINE
  5
A9C
330
20
100
AcDbEntity
  8
0
  6
Continuous
100
AcDbSpline
210
0.0
220
0.0
230
1.0
 70
     8
 71
     3
 72
    12
 73
     8
 74
     6
 42
0.0000000001
 43
0.0000000001
 44
0.0000000001
 40
0.0
 40
0.0
 40
0.0
 40
0.0
 40
0.0170645710293169
 40
0.0686181753687904
 40
0.1609431144914012
 40
0.2985238207316994
 40
0.4827373944946158
 40
0.4827373944946158
 40
0.4827373944946158
 40
0.4827373944946158
 10
333.5859199421408
 20
148.8399449129
 30
0.0
 10
333.5906066201901
 20
148.8431839332069
 30
0.0
 10
333.6094521742761
 20
148.8562083252684
 30
0.0
 10
333.6597775669593
 20
148.8759179481105
 30
0.0
 10
333.7449906038225
 20
148.9146651588374
 30
0.0
 10
333.8719417502235
 20
148.9691560134547
 30
0.0
 10
333.9692615622642
 20
149.0142331704417
 30
0.0
 10
334.0249730260408
 20
149.0400379305
 30
0.0
 11
333.5859199421408
 21
148.8399449129
 31
0.0
 11
333.6001414380408
 21
148.8493761715
 31
0.0
 11
333.6468452119408
 21
148.8712057757999
 31
0.0
 11
333.7314302019408
 21
148.9082094762999
 31
0.0
 11
333.8574032823408
 21
148.9635198166
 31
0.0
 11
334.0249730260408
 21
149.0400379305
 31
0.0
  0
SPLINE
  5
A9D
330
20
100
AcDbEntity
  8
0
  6
Continuous
100
AcDbSpline
210
0.0
220
0.0
230
1.0
 70
     8
 71
     3
 72
     9
 73
     5
 74
     3
 42
0.0000000001
 43
0.0000000001
 44
0.0000000001
 40
0.0
 40
0.0
 40
0.0
 40
0.0
 40
0.069489370888896
 40
0.1381910476762545
 40
0.1381910476762545
 40
0.1381910476762545
 40
0.1381910476762545
 10
334.0249730260408
 20
149.0400379305
 30
0.0
 10
334.0393477260657
 20
149.0582023146499
 30
0.0
 10
334.0679341822538
 20
149.0943251812691
 30
0.0
 10
334.0956120377797
 20
149.1311488256029
 30
0.0
 10
334.1093720831408
 20
149.1494556997
 30
0.0
 11
334.0249730260408
 21
149.0400379305
 31
0.0
 11
334.0678673790407
 21
149.0947082803
 31
0.0
 11
334.1093720831408
 21
149.1494556997
 31
0.0
  0
LINE
  5
A9E
330
20
100
AcDbEntity
  8
0
  6
Continuous
100
AcDbLine
 10
333.5859199421408
 20
148.8299528301999
 30
0.0
 11
333.5859199421408
 21
148.8399449129
 31
0.0
  0
SPLINE
  5
A9F
330
20
100
AcDbEntity
  8
0
  6
Continuous
100
AcDbSpline
210
0.0
220
0.0
230
1.0
 70
     8
 71
     3
 72
     9
 73
     5
 74
     3
 42
0.0000000001
 43
0.0000000001
 44
0.0000000001
 40
0.0
 40
0.0
 40
0.0
 40
0.0
 40
0.068701679581372
 40
0.1381910478244362
 40
0.1381910478244362
 40
0.1381910478244362
 40
0.1381910478244362
 10
334.1093720831408
 20
156.3368675240999
 30
0.0
 10
334.0956120407493
 20
156.3551744016323
 30
0.0
 10
334.0679341922922
 20
156.3919980514179
 30
0.0
 10
334.03934772905
 20
156.4281209125968
 30
0.0
 10
334.0249730260408
 20
156.4462852933
 30
0.0
 11
334.1093720831408
 21
156.3368675240999
 31
0.0
 11
334.0678673844408
 21
156.3916149510999
 31
0.0
 11
334.0249730260408
 21
156.4462852933
 31
0.0
  0
SPLINE
  5
AA0
330
20
100
AcDbEntity
  8
0
  6
Continuous
100
AcDbSpline
210
0.0
220
0.0
230
1.0
 70
     8
 71
     3
 72
     9
 73
     5
 74
     3
 42
0.0000000001
 43
0.0000000001
 44
0.0000000001
 40
0.0
 40
0.0
 40
0.0
 40
0.0
 40
0.1174534551649706
 40
0.2345506805218241
 40
0.2345506805218241
 40
0.2345506805218241
 40
0.2345506805218241
 10
334.0249730260408
 20
158.6737054672999
 30
0.0
 10
334.0393765856475
 20
158.7101117021036
 30
0.0
 10
334.0681400196644
 20
158.7828137536222
 30
0.0
 10
334.0956419850851
 20
158.8560023073996
 30
0.0
 10
334.1093720831408
 20
158.8925410058
 30
0.0
 11
334.0249730260408
 21
158.6737054672999
 31
0.0
 11
334.0678673790407
 21
158.783046167
 31
0.0
 11
334.1093720831408
 21
158.8925410058
 31
0.0
  0
LINE
  5
AA1
330
20
100
AcDbEntity
  8
0
  6
Continuous
100
AcDbLine
 10
333.5859199421408
 20
156.9515491674999
 30
0.0
 11
333.5859199421408
 21
157.9683485756
 31
0.0
  0
ARC
  5
AA2
330
20
100
AcDbEntity
  8
0
100
AcDbCircle
 10
326.9594742430774
 20
152.7286761294715
 30
0.0
 40
15.50151306956056
100
AcDbArc
 50
345.4715089627563
 51
13.87605506559298
  0
SPLINE
  5
AA3
330
20
100
AcDbEntity
  8
0
  6
Continuous
100
AcDbSpline
210
0.0
220
0.0
230
1.0
 70
     8
 71
     3
 72
    10
 73
     6
 74
     4
 42
0.0000000001
 43
0.0000000001
 44
0.0000000001
 40
0.0
 40
0.0
 40
0.0
 40
0.0
 40
0.1075232123096705
 40
0.1762477683237574
 40
0.2047583566284982
 40
0.2047583566284982
 40
0.2047583566284982
 40
0.2047583566284982
 10
342.0086034388408
 20
149.0400379305
 30
0.0
 10
342.0006538087042
 20
149.0050945156568
 30
0.0
 10
341.9876230915179
 20
148.9478166614014
 30
0.0
 10
341.9721782118998
 20
148.8812970896449
 30
0.0
 10
341.9668561699335
 20
148.8493207768922
 30
0.0
 10
341.9652956791408
 20
148.8399449129
 30
0.0
 11
342.0086034388408
 21
149.0400379305
 31
0.0
 11
341.9846564353408
 21
148.9352153078999
 31
0.0
 11
341.9701501637407
 21
148.8680391761
 31
0.0
 11
341.9652956791408
 21
148.8399449129
 31
0.0
  0
ARC
  5
AA4
330
20
100
AcDbEntity
  8
0
  6
Continuous
100
AcDbCircle
 10
343.0629254737408
 20
152.4307523345999
 30
0.0
 40
0.2
100
AcDbArc
 50
91.78900000000019
 51
180.0000000000004
  0
LINE
  5
AA5
330
20
100
AcDbEntity
  8
0
  6
Continuous
100
AcDbLine
 10
342.8561106390408
 20
152.1545195207
 30
0.0
 11
341.9677936997408
 21
148.8392755702999
 31
0.0
  0
LINE
  5
AA6
330
20
100
AcDbEntity
  8
0
  6
Continuous
100
AcDbLine
 10
342.8629254737408
 20
152.2062833296999
 30
0.0
 11
342.8561106390408
 21
152.1545195207
 31
0.0
  0
LINE
  5
AA7
330
20
100
AcDbEntity
  8
0
  6
Continuous
100
AcDbLine
 10
341.9652956791408
 20
148.8299528301999
 30
0.0
 11
341.9652956791408
 21
148.8399449129
 31
0.0
  0
ARC
  5
AA8
330
20
100
AcDbEntity
  8
0
100
AcDbCircle
 10
346.493382598719
 20
157.5599953802999
 30
0.0
 40
4.62099494381504
100
AcDbArc
 50
166.0537886400142
 51
193.9462113599853
  0
ARC
  5
AA9
330
20
100
AcDbEntity
  8
0
100
AcDbCircle
 10
334.7324761998596
 20
174.4159131308003
 30
0.0
 40
1.168300854870505
100
AcDbArc
 50
191.0716378777084
 51
232.7291919137489
  0
ARC
  5
AAA
330
20
100
AcDbEntity
  8
0
100
AcDbCircle
 10
334.2170589183409
 20
175.1033145136205
 30
0.0
 40
0.6398204628564632
100
AcDbArc
 50
107.4707227652315
 51
170.5507375907079
  0
ARC
  5
AAB
330
20
100
AcDbEntity
  8
0
100
AcDbCircle
 10
334.0629253745441
 20
185.8299526920032
 30
0.0
 40
2.499999900803278
100
AcDbArc
 50
179.9999968327635
 51
270.0000005532547
  0
LINE
  5
AAC
330
20
100
AcDbEntity
  8
0
  6
Continuous
100
AcDbLine
 10
333.7629254737408
 20
190.8501234223999
 30
0.0
 11
332.8129254737408
 21
190.3016406666999
 31
0.0
  0
ARC
  5
AAD
330
20
100
AcDbEntity
  8
0
100
AcDbCircle
 10
332.8456169939732
 20
181.0475598889552
 30
0.0
 40
3.064469658703642
100
AcDbArc
 50
100.347978325802
 51
148.9480920674751
  0
LINE
  5
AAE
330
20
100
AcDbEntity
  8
0
  6
Continuous
100
AcDbLine
 10
332.3416051301408
 20
172.6086673867999
 30
0.0
 11
332.2951584513953
 21
184.0621858495046
 31
0.0
  0
ARC
  5
AAF
330
20
100
AcDbEntity
  8
0
100
AcDbCircle
 10
322.3730026531667
 20
203.1044525362785
 30
0.0
 40
21.92839250989593
100
AcDbArc
 50
257.4430857902489
 51
290.9687946037642
  0
ARC
  5
AB0
330
20
100
AcDbEntity
  8
0
  6
Continuous
100
AcDbCircle
 10
334.0629254737408
 20
188.1365771571999
 30
0.0
 40
2.5
100
AcDbArc
 50
120.0000000000002
 51
180.0000000000004
  0
LINE
  5
AB1
330
20
100
AcDbEntity
  8
0
  6
Continuous
100
AcDbLine
 10
331.5629254737408
 20
188.1365771571999
 30
0.0
 11
331.5629254737408
 21
185.8299528302
 31
0.0
  0
ARC
  5
AB5
330
20
100
AcDbEntity
  8
0
100
AcDbCircle
 10
326.9195179937431
 20
179.4361106241494
 30
0.0
 40
15.54147461742393
100
AcDbArc
 50
346.1418020984055
 51
14.50977794243232
  0
ARC
  5
AB6
330
20
100
AcDbEntity
  8
0
100
AcDbCircle
 10
329.8359373870616
 20
179.5343444832099
 30
0.0
 40
5.66003877215229
100
AcDbArc
 50
319.0269972837772
 51
41.97699839480204
  0
SPLINE
  5
AB7
330
20
100
AcDbEntity
  8
0
  6
Continuous
100
AcDbSpline
210
0.0
220
0.0
230
1.0
 70
     8
 71
     3
 72
    10
 73
     6
 74
     4
 42
0.0000000001
 43
0.0000000001
 44
0.0000000001
 40
0.0
 40
0.0
 40
0.0
 40
0.0
 40
0.0285403378655976
 40
0.0972616759179756
 40
0.204758345949175
 40
0.204758345949175
 40
0.204758345949175
 40
0.204758345949175
 10
341.9652956791408
 20
183.3199607475
 30
0.0
 10
341.9668580710814
 20
183.3105751459133
 30
0.0
 10
341.9721824950352
 20
183.2785902638803
 30
0.0
 10
341.9876269597564
 20
183.2120706544469
 30
0.0
 10
342.0006556595242
 20
183.1548025010644
 30
0.0
 10
342.0086034388408
 20
183.1198677298999
 30
0.0
 11
341.9652956791408
 21
183.3199607475
 31
0.0
 11
341.9701560841407
 21
183.2918373168999
 31
0.0
 11
341.9846622203408
 21
183.2246644479999
 31
0.0
 11
342.0086034388408
 21
183.1198677298999
 31
0.0
  0
LINE
  5
AB8
330
20
100
AcDbEntity
  8
0
  6
Continuous
100
AcDbLine
 10
342.8561106390408
 20
180.0053861396999
 30
0.0
 11
341.9677936997408
 21
183.3206300900999
 31
0.0
  0
LINE
  5
AB9
330
20
100
AcDbEntity
  8
0
  6
Continuous
100
AcDbLine
 10
334.0249730260408
 20
175.713620367
 30
0.0
 11
342.0086034388408
 21
175.713620367
 31
0.0
  0
LINE
  5
ABA
330
20
100
AcDbEntity
  8
0
  6
Continuous
100
AcDbLine
 10
334.0249730260408
 20
173.4862001930999
 30
0.0
 11
342.0086034388408
 21
173.4862001930999
 31
0.0
  0
SPLINE
  5
ABB
330
20
100
AcDbEntity
  8
0
  6
Continuous
100
AcDbSpline
210
0.0
220
0.0
230
1.0
 70
     8
 71
     3
 72
     9
 73
     5
 74
     3
 42
0.0000000001
 43
0.0000000001
 44
0.0000000001
 40
0.0
 40
0.0
 40
0.0
 40
0.0
 40
0.1170972375624701
 40
0.2345506806424453
 40
0.2345506806424453
 40
0.2345506806424453
 40
0.2345506806424453
 10
334.1093720831408
 20
173.2673646545999
 30
0.0
 10
334.0956419885301
 20
173.3039033586682
 30
0.0
 10
334.068140032863
 20
173.3770919162074
 30
0.0
 10
334.0393765890591
 20
173.4497939639512
 30
0.0
 10
334.0249730260408
 20
173.4862001930999
 30
0.0
 11
334.1093720831408
 21
173.2673646545999
 31
0.0
 11
334.0678673844408
 21
173.3768595084999
 31
0.0
 11
334.0249730260408
 21
173.4862001930999
 31
0.0
  0
SPLINE
  5
ABC
330
20
100
AcDbEntity
  8
0
  6
Continuous
100
AcDbSpline
210
0.0
220
0.0
230
1.0
 70
     8
 71
     3
 72
     9
 73
     5
 74
     3
 42
0.0000000001
 43
0.0000000001
 44
0.0000000001
 40
0.0
 40
0.0
 40
0.0
 40
0.0
 40
0.0694893709674935
 40
0.13819104775492
 40
0.13819104775492
 40
0.13819104775492
 40
0.13819104775492
 10
334.0249730260408
 20
175.713620367
 30
0.0
 10
334.0393477260616
 20
175.7317847511863
 30
0.0
 10
334.0679341822259
 20
175.7679076178575
 30
0.0
 10
334.0956120377758
 20
175.804731262206
 30
0.0
 10
334.1093720831408
 20
175.8230381363
 30
0.0
 11
334.0249730260408
 21
175.713620367
 31
0.0
 11
334.0678673790407
 21
175.7682907168999
 31
0.0
 11
334.1093720831408
 21
175.8230381363
 31
0.0
  0
LINE
  5
ABD
330
20
100
AcDbEntity
  8
0
  6
Continuous
100
AcDbLine
 10
333.5859199421408
 20
174.1915570847999
 30
0.0
 11
333.5859199421408
 21
175.2083564929
 31
0.0
  0
ARC
  5
ABE
330
20
100
AcDbEntity
  8
0
100
AcDbCircle
 10
356.1915731919746
 20
174.5999102800506
 30
0.0
 40
14.22662929776701
100
AcDbArc
 50
175.5100929350701
 51
184.4899070649373
  0
ARC
  5
ABF
330
20
100
AcDbEntity
  8
0
  6
Continuous
100
AcDbCircle
 10
343.0629254737408
 20
179.7291533258
 30
0.0
 40
0.2
100
AcDbArc
 50
180.0000000000004
 51
268.2110000000006
  0
LINE
  5
AC0
330
20
100
AcDbEntity
  8
0
  6
Continuous
100
AcDbLine
 10
342.8629254737408
 20
179.9536223307
 30
0.0
 11
342.8561106390408
 21
180.0053861396999
 31
0.0
  0
LINE
  5
AC1
330
20
100
AcDbEntity
  8
0
  6
Continuous
100
AcDbLine
 10
341.9652956791408
 20
183.3299528301999
 30
0.0
 11
334.0629254737408
 21
183.3299528301999
 31
0.0
  0
ARC
  5
AC2
330
20
100
AcDbEntity
  8
0
  6
Continuous
100
AcDbCircle
 10
333.0129254737408
 20
192.1491615280999
 30
0.0
 40
1.5
100
AcDbArc
 50
300.0000000000007
 51
323.1301023542007
  0
LINE
  5
AC4
330
20
100
AcDbEntity
  8
0
  6
Continuous
100
AcDbLine
 10
341.9652956791408
 20
183.3199607475
 30
0.0
 11
341.9652956791408
 21
183.3299528301999
 31
0.0
  0
LINE
  5
B08
330
20
100
AcDbEntity
  8
0
  6
Continuous
100
AcDbLine
 10
360.1629254737408
 20
177.4971101176999
 30
0.0
 11
360.1629254737408
 21
154.6627955426999
 31
0.0
  0
LINE
  5
B09
330
20
100
AcDbEntity
  8
0
  6
Continuous
100
AcDbLine
 10
358.7583126786408
 20
153.1753400350999
 30
0.0
 11
358.7583126786408
 21
178.9845656253
 31
0.0
  0
LINE
  5
B0A
330
20
100
AcDbEntity
  8
0
  6
Continuous
100
AcDbLine
 10
358.7583126786408
 20
153.1753400350999
 30
0.0
 11
360.1043468299408
 21
154.5213741864
 31
0.0
  0
ARC
  5
B0B
330
20
100
AcDbEntity
  8
0
  6
Continuous
100
AcDbCircle
 10
358.6168913223408
 20
153.3167613912999
 30
0.0
 40
0.2
100
AcDbArc
 50
271.7890000000005
 51
315.0000000007008
  0
ARC
  5
B0C
330
20
100
AcDbEntity
  8
0
  6
Continuous
100
AcDbCircle
 10
359.9629254737408
 20
154.6627955426999
 30
0.0
 40
0.2
100
AcDbArc
 50
315.0000000014007
 51
0.0000000000007994
  0
ARC
  5
B0D
330
20
100
AcDbEntity
  8
0
  6
Continuous
100
AcDbCircle
 10
359.9629254737408
 20
177.4971101176999
 30
0.0
 40
0.2
100
AcDbArc
 50
0.0
 51
44.99999999820011
  0
ARC
  5
B0E
330
20
100
AcDbEntity
  8
0
  6
Continuous
100
AcDbCircle
 10
358.6168913223408
 20
178.8431442690999
 30
0.0
 40
0.2
100
AcDbArc
 50
44.99999999880009
 51
88.2109999999002
  0
LINE
  5
B0F
330
20
100
AcDbEntity
  8
0
  6
Continuous
100
AcDbLine
 10
358.7583126786408
 20
178.9845656253
 30
0.0
 11
360.1043468299408
 21
177.6385314739999
 31
0.0
  0
ENDSEC
  0
SECTION
  2
OBJECTS
  0
DICTIONARY
  5
3CA
330
0
100
AcDbDictionary
281
     1
  3
ACAD_COLOR
350
C59
  3
ACAD_GROUP
350
3CB
  3
ACAD_LAYOUT
350
427
  3
ACAD_MATERIAL
350
C58
  3
ACAD_MLINESTYLE
350
3CC
  3
ACAD_PLOTSETTINGS
350
428
  3
ACAD_PLOTSTYLENAME
350
425
  3
ACDBHEADERROUNDTRIPXREC
350
C64
  3
AcDbVariableDictionary
350
42E
  0
DICTIONARY
  5
C59
102
{ACAD_REACTORS
330
3CA
102
}
330
3CA
100
AcDbDictionary
281
     1
  0
DICTIONARY
  5
3CB
102
{ACAD_REACTORS
330
3CA
102
}
330
3CA
100
AcDbDictionary
281
     1
  0
DICTIONARY
  5
427
102
{ACAD_REACTORS
330
3CA
102
}
330
3CA
100
AcDbDictionary
281
     1
  3
Layout1
350
42A
  3
Model
350
429
  0
DICTIONARY
  5
C58
102
{ACAD_REACTORS
330
3CA
102
}
330
3CA
100
AcDbDictionary
281
     1
  0
DICTIONARY
  5
3CC
102
{ACAD_REACTORS
330
3CA
102
}
330
3CA
100
AcDbDictionary
281
     1
  3
STANDARD
350
3CD
  0
DICTIONARY
  5
428
102
{ACAD_REACTORS
330
3CA
102
}
330
3CA
100
AcDbDictionary
281
     1
  0
ACDBDICTIONARYWDFLT
  5
425
102
{ACAD_REACTORS
330
3CA
102
}
330
3CA
100
AcDbDictionary
281
     1
  3
Normal
350
426
100
AcDbDictionaryWithDefault
340
426
  0
DICTIONARY
  5
C64
102
{ACAD_REACTORS
330
3CA
102
}
330
3CA
100
AcDbDictionary
281
     1
  3
COLORDICT
350
C65
  3
MATERIALDICT
350
C66
  0
DICTIONARY
  5
42E
102
{ACAD_REACTORS
330
3CA
102
}
330
3CA
100
AcDbDictionary
281
     1
  0
LAYOUT
  5
42A
102
{ACAD_REACTORS
330
427
102
}
330
427
100
AcDbPlotSettings
  1

  2
\\alderaan\HP LaserJet 5Si/5Si MX PS Tecnico
  4

  6

 40
0.0
 41
0.0
 42
0.0
 43
0.0
 44
0.0
 45
0.0
 46
0.0
 47
0.0
 48
0.0
 49
0.0
140
0.0
141
0.0
142
1.0
143
1.0
 70
   688
 72
     0
 73
     0
 74
     5
  7

 75
    16
147
1.0
148
0.0
149
0.0
100
AcDbLayout
  1
Layout1
 70
     0
 71
     1
 10
0.0
 20
0.0
 11
12.0
 21
9.0
 12
0.0
 22
0.0
 32
0.0
 14
1.000000000000000E+20
 24
1.000000000000000E+20
 34
1.000000000000000E+20
 15
-1.000000000000000E+20
 25
-1.000000000000000E+20
 35
-1.000000000000000E+20
146
0.0
 13
0.0
 23
0.0
 33
0.0
 16
1.0
 26
0.0
 36
0.0
 17
0.0
 27
1.0
 37
0.0
 76
     0
330
21
  0
LAYOUT
  5
429
102
{ACAD_REACTORS
330
427
102
}
330
427
100
AcDbPlotSettings
  1

  2
\\alderaan\HP LaserJet 4050 Ricerca
  4
A4
  6

 40
5.027083396911621
 41
5.069430828094482
 42
5.365737915039062
 43
5.365753173828125
 44
209.8886566162109
 45
297.0530090332031
 46
33.17
 47
0.0
 48
39.98787435451118
 49
78.25542880296835
140
409.0100005374941
141
249.6863041076424
142
1.0
143
1.287505849096123
 70
 11956
 72
     1
 73
     1
 74
     4
  7

 75
     0
147
0.7766955006084338
148
-39.98787435451118
149
-78.25542880296835
100
AcDbLayout
  1
Model
 70
     1
 71
     0
 10
0.0
 20
0.0
 11
12.0
 21
9.0
 12
0.0
 22
0.0
 32
0.0
 14
0.0
 24
0.0
 34
0.0
 15
0.0
 25
0.0
 35
0.0
146
0.0
 13
0.0
 23
0.0
 33
0.0
 16
1.0
 26
0.0
 36
0.0
 17
0.0
 27
1.0
 37
0.0
 76
     0
330
20
  0
MLINESTYLE
  5
3CD
102
{ACAD_REACTORS
330
3CC
102
}
330
3CC
100
AcDbMlineStyle
  2
STANDARD
 70
     0
  3

 62
     0
 51
90.00000000000019
 52
90.00000000000019
 71
     2
 49
0.5
 62
   256
  6
BYLAYER
 49
-0.5
 62
   256
  6
BYLAYER
  0
ACDBPLACEHOLDER
  5
426
102
{ACAD_REACTORS
330
425
102
}
330
425
  0
XRECORD
  5
C65
102
{ACAD_REACTORS
330
C64
102
}
330
C64
100
AcDbXrecord
280
     1
340
C59
  0
XRECORD
  5
C66
102
{ACAD_REACTORS
330
C64
102
}
330
C64
100
AcDbXrecord
280
     1
340
C58
  0
ENDSEC
  0
EOF
