  0
SECTION
  2
HEADER
  9
$ACADVER
  1
AC1015
  9
$ACADMAINTVER
 70
     6
  9
$DWGCODEPAGE
  3
ANSI_1252
  9
$INSBASE
 10
0.0
 20
0.0
 30
0.0
  9
$EXTMIN
 10
52.63374948257135
 20
102.87771623905
 30
0.0
  9
$EXTMAX
 10
396.6947610361867
 20
237.2453872794242
 30
0.0
  9
$LIMMIN
 10
0.0
 20
0.0
  9
$LIMMAX
 10
420.0
 20
297.0
  9
$ORTHOMODE
 70
     1
  9
$REGENMODE
 70
     1
  9
$FILLMODE
 70
     1
  9
$QTEXTMODE
 70
     0
  9
$MIRRTEXT
 70
     1
  9
$LTSCALE
 40
23.1
  9
$ATTMODE
 70
     1
  9
$TEXTSIZE
 40
0.2
  9
$TRACEWID
 40
0.05
  9
$TEXTSTYLE
  7
STANDARD
  9
$CLAYER
  8
ellissi
  9
$CELTYPE
  6
BYLAYER
  9
$CECOLOR
 62
   256
  9
$CELTSCALE
 40
1.0
  9
$DISPSILH
 70
     0
  9
$DIMSCALE
 40
1.0
  9
$DIMASZ
 40
3.0
  9
$DIMEXO
 40
2.625
  9
$DIMDLI
 40
15.96
  9
$DIMRND
 40
0.0
  9
$DIMDLE
 40
0.0
  9
$DIMEXE
 40
7.559999999999999
  9
$DIMTP
 40
0.0
  9
$DIMTM
 40
0.0
  9
$DIMTXT
 40
0.18
  9
$DIMCEN
 40
3.779999999999999
  9
$DIMTSZ
 40
0.0
  9
$DIMTOL
 70
     0
  9
$DIMLIM
 70
     0
  9
$DIMTIH
 70
     1
  9
$DIMTOH
 70
     1
  9
$DIMSE1
 70
     0
  9
$DIMSE2
 70
     0
  9
$DIMTAD
 70
     0
  9
$DIMZIN
 70
     0
  9
$DIMBLK
  1

  9
$DIMASO
 70
     1
  9
$DIMSHO
 70
     1
  9
$DIMPOST
  1

  9
$DIMAPOST
  1

  9
$DIMALT
 70
     0
  9
$DIMALTD
 70
     2
  9
$DIMALTF
 40
25.4
  9
$DIMLFAC
 40
1.0
  9
$DIMTOFL
 70
     0
  9
$DIMTVP
 40
0.0
  9
$DIMTIX
 70
     0
  9
$DIMSOXD
 70
     0
  9
$DIMSAH
 70
     0
  9
$DIMBLK1
  1

  9
$DIMBLK2
  1

  9
$DIMSTYLE
  2
STANDARD
  9
$DIMCLRD
 70
     0
  9
$DIMCLRE
 70
     0
  9
$DIMCLRT
 70
     0
  9
$DIMTFAC
 40
1.0
  9
$DIMGAP
 40
0.09
  9
$DIMJUST
 70
     0
  9
$DIMSD1
 70
     0
  9
$DIMSD2
 70
     0
  9
$DIMTOLJ
 70
     1
  9
$DIMTZIN
 70
     0
  9
$DIMALTZ
 70
     0
  9
$DIMALTTZ
 70
     0
  9
$DIMUPT
 70
     0
  9
$DIMDEC
 70
     4
  9
$DIMTDEC
 70
     4
  9
$DIMALTU
 70
     2
  9
$DIMALTTD
 70
     2
  9
$DIMTXSTY
  7
STANDARD
  9
$DIMAUNIT
 70
     0
  9
$DIMADEC
 70
     0
  9
$DIMALTRND
 40
0.0
  9
$DIMAZIN
 70
     0
  9
$DIMDSEP
 70
    46
  9
$DIMATFIT
 70
     3
  9
$DIMFRAC
 70
     0
  9
$DIMLDRBLK
  1

  9
$DIMLUNIT
 70
     2
  9
$DIMLWD
 70
    -2
  9
$DIMLWE
 70
    -2
  9
$DIMTMOVE
 70
     0
  9
$LUNITS
 70
     2
  9
$LUPREC
 70
     4
  9
$SKETCHINC
 40
0.1
  9
$FILLETRAD
 40
0.0
  9
$AUNITS
 70
     0
  9
$AUPREC
 70
     0
  9
$MENU
  1
acad
  9
$ELEVATION
 40
0.0
  9
$PELEVATION
 40
0.0
  9
$THICKNESS
 40
0.0
  9
$LIMCHECK
 70
     0
  9
$CHAMFERA
 40
0.0
  9
$CHAMFERB
 40
0.0
  9
$CHAMFERC
 40
0.0
  9
$CHAMFERD
 40
0.0
  9
$SKPOLY
 70
     0
  9
$TDCREATE
 40
2444972.041666667
  9
$TDUCREATE
 40
2444972.0
  9
$TDUPDATE
 40
2453409.730926076
  9
$TDUUPDATE
 40
2453409.68925941
  9
$TDINDWG
 40
0.0484341319
  9
$TDUSRTIMER
 40
0.0484341319
  9
$USRTIMER
 70
     1
  9
$ANGBASE
 50
0.0
  9
$ANGDIR
 70
     0
  9
$PDMODE
 70
     0
  9
$PDSIZE
 40
0.0
  9
$PLINEWID
 40
0.0
  9
$SPLFRAME
 70
     0
  9
$SPLINETYPE
 70
     6
  9
$SPLINESEGS
 70
     8
  9
$HANDSEED
  5
C67
  9
$SURFTAB1
 70
     6
  9
$SURFTAB2
 70
     6
  9
$SURFTYPE
 70
     6
  9
$SURFU
 70
     6
  9
$SURFV
 70
     6
  9
$UCSBASE
  2

  9
$UCSNAME
  2

  9
$UCSORG
 10
0.0
 20
0.0
 30
0.0
  9
$UCSXDIR
 10
1.0
 20
0.0
 30
0.0
  9
$UCSYDIR
 10
0.0
 20
1.0
 30
0.0
  9
$UCSORTHOREF
  2

  9
$UCSORTHOVIEW
 70
     0
  9
$UCSORGTOP
 10
0.0
 20
0.0
 30
0.0
  9
$UCSORGBOTTOM
 10
0.0
 20
0.0
 30
0.0
  9
$UCSORGLEFT
 10
0.0
 20
0.0
 30
0.0
  9
$UCSORGRIGHT
 10
0.0
 20
0.0
 30
0.0
  9
$UCSORGFRONT
 10
0.0
 20
0.0
 30
0.0
  9
$UCSORGBACK
 10
0.0
 20
0.0
 30
0.0
  9
$PUCSBASE
  2

  9
$PUCSNAME
  2

  9
$PUCSORG
 10
0.0
 20
0.0
 30
0.0
  9
$PUCSXDIR
 10
1.0
 20
0.0
 30
0.0
  9
$PUCSYDIR
 10
0.0
 20
1.0
 30
0.0
  9
$PUCSORTHOREF
  2

  9
$PUCSORTHOVIEW
 70
     0
  9
$PUCSORGTOP
 10
0.0
 20
0.0
 30
0.0
  9
$PUCSORGBOTTOM
 10
0.0
 20
0.0
 30
0.0
  9
$PUCSORGLEFT
 10
0.0
 20
0.0
 30
0.0
  9
$PUCSORGRIGHT
 10
0.0
 20
0.0
 30
0.0
  9
$PUCSORGFRONT
 10
0.0
 20
0.0
 30
0.0
  9
$PUCSORGBACK
 10
0.0
 20
0.0
 30
0.0
  9
$USERI1
 70
     0
  9
$USERI2
 70
     0
  9
$USERI3
 70
     0
  9
$USERI4
 70
     0
  9
$USERI5
 70
     0
  9
$USERR1
 40
0.0
  9
$USERR2
 40
0.0
  9
$USERR3
 40
0.0
  9
$USERR4
 40
0.0
  9
$USERR5
 40
0.0
  9
$WORLDVIEW
 70
     1
  9
$SHADEDGE
 70
     3
  9
$SHADEDIF
 70
    70
  9
$TILEMODE
 70
     1
  9
$MAXACTVP
 70
    16
  9
$PINSBASE
 10
0.0
 20
0.0
 30
0.0
  9
$PLIMCHECK
 70
     0
  9
$PEXTMIN
 10
1.000000000000000E+20
 20
1.000000000000000E+20
 30
1.000000000000000E+20
  9
$PEXTMAX
 10
-1.000000000000000E+20
 20
-1.000000000000000E+20
 30
-1.000000000000000E+20
  9
$PLIMMIN
 10
0.0
 20
0.0
  9
$PLIMMAX
 10
12.0
 20
9.0
  9
$UNITMODE
 70
     0
  9
$VISRETAIN
 70
     0
  9
$PLINEGEN
 70
     1
  9
$PSLTSCALE
 70
     0
  9
$TREEDEPTH
 70
  3020
  9
$CMLSTYLE
  2
STANDARD
  9
$CMLJUST
 70
     0
  9
$CMLSCALE
 40
1.0
  9
$PROXYGRAPHICS
 70
     1
  9
$MEASUREMENT
 70
     0
  9
$CELWEIGHT
370
    -1
  9
$ENDCAPS
280
     0
  9
$JOINSTYLE
280
     0
  9
$LWDISPLAY
290
     0
  9
$INSUNITS
 70
     0
  9
$HYPERLINKBASE
  1

  9
$STYLESHEET
  1

  9
$XEDIT
290
     1
  9
$CEPSNTYPE
380
     0
  9
$PSTYLEMODE
290
     1
  9
$FINGERPRINTGUID
  2
{AC4BF4A4-90E6-4925-B945-441779B87880}
  9
$VERSIONGUID
  2
{4447923F-62E6-4E7E-886F-E41A05D0F666}
  9
$EXTNAMES
290
     1
  9
$PSVPSCALE
 40
0.0
  9
$OLESTARTUP
290
     0
  0
ENDSEC
  0
SECTION
  2
CLASSES
  0
CLASS
  1
IMAGE
  2
AcDbRasterImage
  3
ISM
 90
      127
280
     0
281
     1
  0
CLASS
  1
DICTIONARYVAR
  2
AcDbDictionaryVar
  3
ObjectDBX Classes
 90
        0
280
     0
281
     0
  0
CLASS
  1
RASTERVARIABLES
  2
AcDbRasterVariables
  3
ISM
 90
        0
280
     0
281
     0
  0
CLASS
  1
IMAGEDEF
  2
AcDbRasterImageDef
  3
ISM
 90
        0
280
     0
281
     0
  0
CLASS
  1
IMAGEDEF_REACTOR
  2
AcDbRasterImageDefReactor
  3
ISM
 90
        1
280
     0
281
     0
  0
CLASS
  1
IDBUFFER
  2
AcDbIdBuffer
  3
ObjectDBX Classes
 90
        0
280
     0
281
     0
  0
CLASS
  1
SPATIAL_FILTER
  2
AcDbSpatialFilter
  3
ObjectDBX Classes
 90
        0
280
     0
281
     0
  0
CLASS
  1
SORTENTSTABLE
  2
AcDbSortentsTable
  3
ObjectDBX Classes
 90
        0
280
     0
281
     0
  0
CLASS
  1
LAYER_INDEX
  2
AcDbLayerIndex
  3
ObjectDBX Classes
 90
        0
280
     0
281
     0
  0
CLASS
  1
SPATIAL_INDEX
  2
AcDbSpatialIndex
  3
AutoCAD 2000
 90
        0
280
     0
281
     0
  0
CLASS
  1
OBJECT_PTR
  2
CAseDLPNTableRecord
  3
ASE-LPNTableRecord
 90
        1
280
     0
281
     0
  0
CLASS
  1
PLOTSETTINGS
  2
AcDbPlotSettings
  3
ObjectDBX Classes
 90
        0
280
     0
281
     0
  0
CLASS
  1
ACDBDICTIONARYWDFLT
  2
AcDbDictionaryWithDefault
  3
ObjectDBX Classes
 90
        0
280
     0
281
     0
  0
CLASS
  1
WIPEOUT
  2
AcDbWipeout
  3
WipeOut|AutoCAD Express Tool|expresstools@autodesk.com
 90
      127
280
     0
281
     1
  0
CLASS
  1
WIPEOUTVARIABLES
  2
AcDbWipeoutVariables
  3
WipeOut|AutoCAD Express Tool|expresstools@autodesk.com
 90
        0
280
     0
281
     0
  0
CLASS
  1
RTEXT
  2
RText
  3
RText|AutoCAD Express Tool|expresstools@autodesk.com
 90
        0
280
     0
281
     1
  0
CLASS
  1
ARCALIGNEDTEXT
  2
AcDbArcAlignedText
  3
ATEXT|AutoCAD Express Tool|expresstools@autodesk.com
 90
        0
280
     0
281
     1
  0
CLASS
  1
ACDBPLACEHOLDER
  2
AcDbPlaceHolder
  3
ObjectDBX Classes
 90
        0
280
     0
281
     0
  0
CLASS
  1
LAYOUT
  2
AcDbLayout
  3
ObjectDBX Classes
 90
        0
280
     0
281
     0
  0
ENDSEC
  0
SECTION
  2
TABLES
  0
TABLE
  2
VPORT
  5
6
330
0
100
AcDbSymbolTable
 70
     1
  0
VPORT
  5
C5D
330
6
100
AcDbSymbolTableRecord
100
AcDbViewportTableRecord
  2
*Active
 70
     0
 10
0.0
 20
0.0
 11
1.0
 21
1.0
 12
157.2908547133156
 22
172.1610251538089
 13
0.0
 23
0.0
 14
1.0
 24
1.0
 15
0.0
 25
0.0
 16
0.0
 26
0.0
 36
1.0
 17
0.0
 27
0.0
 37
0.0
 40
156.5587947621703
 41
1.888667992047713
 42
50.0
 43
0.0
 44
0.0
 50
0.0
 51
0.0
 71
     0
 72
   100
 73
     1
 74
     1
 75
     0
 76
     0
 77
     0
 78
     0
281
     0
 65
     1
110
0.0
120
0.0
130
0.0
111
1.0
121
0.0
131
0.0
112
0.0
122
1.0
132
0.0
 79
     0
146
0.0
  0
ENDTAB
  0
TABLE
  2
LTYPE
  5
3
330
0
100
AcDbSymbolTable
 70
     2
  0
LTYPE
  5
C
330
3
100
AcDbSymbolTableRecord
100
AcDbLinetypeTableRecord
  2
BYBLOCK
 70
     0
  3

 72
    65
 73
     0
 40
0.0
  0
LTYPE
  5
D
330
3
100
AcDbSymbolTableRecord
100
AcDbLinetypeTableRecord
  2
BYLAYER
 70
     0
  3

 72
    65
 73
     0
 40
0.0
  0
LTYPE
  5
E
330
3
100
AcDbSymbolTableRecord
100
AcDbLinetypeTableRecord
  2
CONTINUOUS
 70
     0
  3
Solid line
 72
    65
 73
     0
 40
0.0
  0
LTYPE
  5
656
330
3
100
AcDbSymbolTableRecord
100
AcDbLinetypeTableRecord
  2
CENTRO2
 70
     0
  3
Centro (.5x) ___ _ ___ _ ___ _ ___ _ ___ _ ___
 72
    65
 73
     4
 40
1.125
 49
0.75
 74
     0
 49
-0.125
 74
     0
 49
0.125
 74
     0
 49
-0.125
 74
     0
  0
ENDTAB
  0
TABLE
  2
LAYER
  5
1
330
0
100
AcDbSymbolTable
 70
     3
  0
LAYER
  5
14
330
1
100
AcDbSymbolTableRecord
100
AcDbLayerTableRecord
  2
0
 70
     0
 62
     7
  6
CONTINUOUS
370
    -3
390
426
  0
LAYER
  5
436
330
1
100
AcDbSymbolTableRecord
100
AcDbLayerTableRecord
  2
ellissi
 70
     0
 62
     1
  6
CONTINUOUS
370
    -3
390
426
  0
LAYER
  5
46A
330
1
100
AcDbSymbolTableRecord
100
AcDbLayerTableRecord
  2
Defpoints
 70
     0
 62
     7
  6
CONTINUOUS
290
     0
370
    -3
390
426
  0
ENDTAB
  0
TABLE
  2
STYLE
  5
2
330
0
100
AcDbSymbolTable
 70
     2
  0
STYLE
  5
1F
330
2
100
AcDbSymbolTableRecord
100
AcDbTextStyleTableRecord
  2
STANDARD
 70
     0
 40
0.0
 41
1.0
 50
0.0
 71
     0
 42
0.2
  3
txt
  4

  0
STYLE
  5
1D
330
2
100
AcDbSymbolTableRecord
100
AcDbTextStyleTableRecord
  2
TEXTSTYLE_1
 70
     0
 40
0.0
 41
0.8
 50
0.0
 71
     0
 42
0.2
  3
txt
  4

  0
ENDTAB
  0
TABLE
  2
VIEW
  5
4
330
0
100
AcDbSymbolTable
 70
     0
  0
ENDTAB
  0
TABLE
  2
UCS
  5
5
330
0
100
AcDbSymbolTable
 70
     0
  0
ENDTAB
  0
TABLE
  2
APPID
  5
7
330
0
100
AcDbSymbolTable
 70
     1
  0
APPID
  5
1B
330
7
100
AcDbSymbolTableRecord
100
AcDbRegAppTableRecord
  2
ACAD
 70
     0
  0
ENDTAB
  0
TABLE
  2
DIMSTYLE
  5
8
330
0
100
AcDbSymbolTable
 70
     1
100
AcDbDimStyleTable
  0
DIMSTYLE
105
27
330
8
100
AcDbSymbolTableRecord
100
AcDbDimStyleTableRecord
  2
STANDARD
 70
     0
 47
0.003
 48
0.003
 71
     1
140
1.5
146
0.6
289
     0
340
1F
  0
ENDTAB
  0
TABLE
  2
BLOCK_RECORD
  5
22
330
0
100
AcDbSymbolTable
 70
     0
  0
BLOCK_RECORD
  5
20
330
22
100
AcDbSymbolTableRecord
100
AcDbBlockTableRecord
  2
*MODEL_SPACE
340
429
  0
BLOCK_RECORD
  5
21
330
22
100
AcDbSymbolTableRecord
100
AcDbBlockTableRecord
  2
*PAPER_SPACE
340
42A
  0
ENDTAB
  0
ENDSEC
  0
SECTION
  2
BLOCKS
  0
BLOCK
  5
23
330
20
100
AcDbEntity
  8
0
100
AcDbBlockBegin
  2
*MODEL_SPACE
 70
     0
 71
     0
 10
0.0
 20
0.0
 30
0.0
  3
*MODEL_SPACE
  1

  0
ENDBLK
  5
24
330
20
100
AcDbEntity
  8
0
100
AcDbBlockEnd
  0
BLOCK
  5
25
330
21
100
AcDbEntity
 67
     1
  8
0
100
AcDbBlockBegin
  2
*PAPER_SPACE
 70
     0
 71
     0
 10
0.0
 20
0.0
 30
0.0
  3
*PAPER_SPACE
  1

  0
ENDBLK
  5
26
330
21
100
AcDbEntity
 67
     1
  8
0
100
AcDbBlockEnd
  0
ENDSEC
  0
SECTION
  2
ENTITIES
  0
TEXT
  5
6C
330
20
100
AcDbEntity
  8
0
  6
Continuous
 62
     1
100
AcDbText
 10
329.0263371197
 20
31.790927071
 30
0.0
 40
1.5
  1
 
  7
TEXTSTYLE_1
 72
     5
 11
330.9549085483
 21
31.790927071
 31
0.0
100
AcDbText
  0
TEXT
  5
6E
330
20
100
AcDbEntity
  8
0
  6
Continuous
 62
     1
100
AcDbText
 10
352.7763371197
 20
31.790927071
 30
0.0
 40
1.5
  1
 
  7
TEXTSTYLE_1
 72
     5
 11
354.7049085483
 21
31.790927071
 31
0.0
100
AcDbText
  0
TEXT
  5
78
330
20
100
AcDbEntity
  8
0
  6
Continuous
 62
     1
100
AcDbText
 10
401.7191942625999
 20
20.9052127852
 30
0.0
 40
1.5
  1
 
  7
TEXTSTYLE_1
 72
     5
 11
403.2620514054999
 21
20.9052127852
 31
0.0
100
AcDbText
  0
LINE
  5
FE
330
20
100
AcDbEntity
  8
0
  6
Continuous
100
AcDbLine
 10
72.45165094339998
 20
177.4971101177
 30
0.0
 11
72.45165094339998
 21
154.6627955427
 31
0.0
  0
LINE
  5
101
330
20
100
AcDbEntity
  8
0
  6
Continuous
100
AcDbLine
 10
73.8562637385
 20
153.1753400351
 30
0.0
 11
73.8562637385
 21
178.9845656253
 31
0.0
  0
LINE
  5
103
330
20
100
AcDbEntity
  8
0
  6
Continuous
100
AcDbLine
 10
72.5102295872
 20
154.5213741864
 30
0.0
 11
73.8562637385
 21
153.1753400351
 31
0.0
  0
LINE
  5
104
330
20
100
AcDbEntity
  8
0
  6
Continuous
100
AcDbLine
 10
89.75165094340001
 20
152.4307523346014
 30
0.0
 11
90.3515913148
 21
149.9409448825
 31
0.0
  0
LINE
  5
105
330
20
100
AcDbEntity
  8
0
  6
Continuous
100
AcDbLine
 10
86.9516513249
 20
179.4478470029
 30
0.0
 11
86.9516513249
 21
152.7120586575
 31
0.0
  0
LINE
  5
106
330
20
100
AcDbEntity
  8
0
  6
Continuous
100
AcDbLine
 10
89.55789471680001
 20
152.6306548491
 30
0.0
 11
89.55789471680001
 21
179.5292508113
 31
0.0
  0
LINE
  5
108
330
20
100
AcDbEntity
  8
0
  6
Continuous
100
AcDbLine
 10
90.35453662640001
 20
149.9299528302
 30
0.0
 11
90.35453662640001
 21
149.9417340764
 31
0.0
  0
LINE
  5
109
330
20
100
AcDbEntity
  8
0
  6
Continuous
100
AcDbLine
 10
90.35453662640001
 20
157.4767118305
 30
0.0
 11
90.35453662640001
 21
158.5449750761
 31
0.0
  0
LINE
  5
10A
330
20
100
AcDbEntity
  8
0
  6
Continuous
100
AcDbLine
 10
90.35453662640001
 20
173.6149305843
 30
0.0
 11
90.35453662640001
 21
174.6831938299
 31
0.0
  0
LINE
  5
10B
330
20
100
AcDbEntity
  8
0
  6
Continuous
100
AcDbLine
 10
90.35453662640001
 20
182.218171584
 30
0.0
 11
90.35453662640001
 21
182.2299528302
 31
0.0
  0
LINE
  5
10C
330
20
100
AcDbEntity
  8
0
  6
Continuous
100
AcDbLine
 10
98.3516509434
 20
145.5799528302
 30
0.0
 11
97.9631258993
 21
145.9684778743
 31
0.0
  0
LINE
  5
10D
330
20
100
AcDbEntity
  8
0
  6
Continuous
100
AcDbLine
 10
95.49459280529999
 20
174.6831938299
 30
0.0
 11
95.49459280529999
 21
173.6149305843
 31
0.0
  0
LINE
  5
10E
330
20
100
AcDbEntity
  8
0
  6
Continuous
100
AcDbLine
 10
95.49459280529999
 20
158.5449750761
 30
0.0
 11
95.49459280529999
 21
157.4767118305
 31
0.0
  0
LINE
  5
10F
330
20
100
AcDbEntity
  8
0
  6
Continuous
100
AcDbLine
 10
95.49459280529999
 20
149.9299528302
 30
0.0
 11
95.49459280529999
 21
149.9417340764
 31
0.0
  0
LINE
  5
111
330
20
100
AcDbEntity
  8
0
  6
Continuous
100
AcDbLine
 10
89.75165094340001
 20
179.7291533258
 30
0.0
 11
90.35453662640001
 21
182.2299528302
 31
0.0
  0
LINE
  5
112
330
20
100
AcDbEntity
  8
0
  6
Continuous
100
AcDbLine
 10
72.5102295872
 20
177.638531474
 30
0.0
 11
73.8562637385
 21
178.9845656253
 31
0.0
  0
LINE
  5
113
330
20
100
AcDbEntity
  8
0
  6
Continuous
100
AcDbLine
 10
97.82427541330002
 20
146.2352071761
 30
0.0
 11
97.4642083113
 21
148.2772491855
 31
0.0
  0
LINE
  5
11A
330
20
100
AcDbEntity
  8
0
  6
Continuous
100
AcDbLine
 10
98.3516509434
 20
145.5799528302
 30
0.0
 11
98.3516509434
 21
186.5799528302
 31
0.0
  0
LINE
  5
11C
330
20
100
AcDbEntity
  8
0
  6
Continuous
100
AcDbLine
 10
100.3516509434
 20
186.5799528302
 30
0.0
 11
100.3516509434
 21
145.5799528302
 31
0.0
  0
LINE
  5
11E
330
20
100
AcDbEntity
  8
0
  6
Continuous
100
AcDbLine
 10
97.82427541330002
 20
185.9246984843
 30
0.0
 11
97.4642083113
 21
183.8826564749
 31
0.0
  0
LINE
  5
11F
330
20
100
AcDbEntity
  8
0
  6
Continuous
100
AcDbLine
 10
101.8516509434
 20
186.5799528302
 30
0.0
 11
101.8516509434
 21
145.5799528302
 31
0.0
  0
LINE
  5
122
330
20
100
AcDbEntity
  8
0
  6
Continuous
100
AcDbLine
 10
104.8016509434
 20
196.6799528302
 30
0.0
 11
104.8016509434
 21
191.2491615281
 31
0.0
  0
LINE
  5
12B
330
20
100
AcDbEntity
  8
0
  6
Continuous
100
AcDbLine
 10
98.3516509434
 20
186.5799528302
 30
0.0
 11
97.9631258993
 21
186.191427786
 31
0.0
  0
LINE
  5
12C
330
20
100
AcDbEntity
  8
0
  6
Continuous
100
AcDbLine
 10
109.2016509434
 20
203.5356152629
 30
0.0
 11
108.5016509434
 21
203.1314700745
 31
0.0
  0
LINE
  5
12D
330
20
100
AcDbEntity
  8
0
  6
Continuous
100
AcDbLine
 10
108.1916678298
 20
196.6799528302
 30
0.0
 11
108.1916678298
 21
193.8799528302
 31
0.0
  0
LINE
  5
12E
330
20
100
AcDbEntity
  8
0
  6
Continuous
100
AcDbLine
 10
108.2516509434
 20
202.6984573726
 30
0.0
 11
108.2516509434
 21
198.8057858551
 31
0.0
  0
LINE
  5
131
330
20
100
AcDbEntity
  8
0
  6
Continuous
100
AcDbLine
 10
108.5316336919
 20
183.9033206675
 30
0.0
 11
108.5316336919
 21
146.5799528302
 31
0.0
  0
LINE
  5
133
330
20
100
AcDbEntity
  8
0
  6
Continuous
100
AcDbLine
 10
108.7016509434
 20
194.8799528302
 30
0.0
 11
108.7016509434
 21
197.4799528302
 31
0.0
  0
LINE
  5
134
330
20
100
AcDbEntity
  8
0
  6
Continuous
100
AcDbLine
 10
109.2016509434
 20
194.6799528302
 30
0.0
 11
109.2016509434
 21
193.6799528302
 31
0.0
  0
LINE
  5
136
330
20
100
AcDbEntity
  8
0
  6
Continuous
100
AcDbLine
 10
110.2629626612
 20
182.1674964844
 30
0.0
 11
110.2629626612
 21
147.1299528302
 31
0.0
  0
LINE
  5
145
330
20
100
AcDbEntity
  8
0
  6
Continuous
100
AcDbLine
 10
112.9330305473
 20
198.8057859514
 30
0.0
 11
112.8145204315
 21
198.3727731041
 31
0.0
  0
LINE
  5
146
330
20
100
AcDbEntity
  8
0
  6
Continuous
100
AcDbLine
 10
100.5516509434
 20
145.5799528302
 30
0.0
 11
98.3516509434
 21
145.5799528302
 31
0.0
  0
LINE
  5
147
330
20
100
AcDbEntity
  8
0
  6
Continuous
100
AcDbLine
 10
100.5516509434
 20
145.5799528302
 30
0.0
 11
101.8516509434
 21
145.5799528302
 31
0.0
  0
LINE
  5
148
330
20
100
AcDbEntity
  8
0
  6
Continuous
100
AcDbLine
 10
103.6800780681
 20
146.5799528302
 30
0.0
 11
108.5316336919
 21
146.5799528302
 31
0.0
  0
LINE
  5
149
330
20
100
AcDbEntity
  8
0
  6
Continuous
100
AcDbLine
 10
111.9942916305
 20
147.6799528302
 30
0.0
 11
124.6090102563
 21
147.6799528302
 31
0.0
  0
LINE
  5
14A
330
20
100
AcDbEntity
  8
0
  6
Continuous
100
AcDbLine
 10
136.3540211488
 20
148.8299528302
 30
0.0
 11
127.9746454118
 21
148.8299528302
 31
0.0
  0
LINE
  5
166
330
20
100
AcDbEntity
  8
0
  6
Continuous
100
AcDbLine
 10
112.0907706336
 20
198.8057858494
 30
0.0
 11
112.0907706336
 21
202.6984573951
 31
0.0
  0
LINE
  5
169
330
20
100
AcDbEntity
  8
0
  6
Continuous
100
AcDbLine
 10
112.9330305062
 20
202.6984573949
 30
0.0
 11
112.9330305062
 21
198.8057858423
 31
0.0
  0
LINE
  5
184
330
20
100
AcDbEntity
  8
0
  6
Continuous
100
AcDbLine
 10
120.47027132
 20
202.6984572287
 30
0.0
 11
120.5887814537
 21
203.1314701486
 31
0.0
  0
LINE
  5
185
330
20
100
AcDbEntity
  8
0
  6
Continuous
100
AcDbLine
 10
137.44540717
 20
152.6306548491
 30
0.0
 11
153.0118605654
 21
153.1168588768
 31
0.0
  0
LINE
  5
186
330
20
100
AcDbEntity
  8
0
  6
Continuous
100
AcDbLine
 10
154.2910788788
 20
154.3193807656
 30
0.0
 11
140.0516509434
 21
153.8746251724
 31
0.0
  0
LINE
  5
187
330
20
100
AcDbEntity
  8
0
  6
Continuous
100
AcDbLine
 10
95.49459280529999
 20
149.9299528302
 30
0.0
 11
90.35453662640001
 21
149.9299528302
 31
0.0
  0
LINE
  5
18A
330
20
100
AcDbEntity
  8
0
  6
Continuous
100
AcDbLine
 10
73.9914413214
 20
153.1168588768
 30
0.0
 11
89.55789471680001
 21
152.6306548491
 31
0.0
  0
LINE
  5
18B
330
20
100
AcDbEntity
  8
0
  6
Continuous
100
AcDbLine
 10
86.9516509434
 20
153.8746251724
 30
0.0
 11
72.712223008
 21
154.3193807656
 31
0.0
  0
LINE
  5
1A6
330
20
100
AcDbEntity
  8
0
  6
Continuous
100
AcDbLine
 10
120.4702713806
 20
198.8057858423
 30
0.0
 11
120.4702713806
 21
202.6984573949
 31
0.0
  0
LINE
  5
1AD
330
20
100
AcDbEntity
  8
0
  6
Continuous
100
AcDbLine
 10
121.3125312532
 20
202.6984573951
 30
0.0
 11
121.3125312532
 21
198.8057858495
 31
0.0
  0
LINE
  5
1C4
330
20
100
AcDbEntity
  8
0
  6
Continuous
100
AcDbLine
 10
140.0409907716
 20
211.5619333455
 30
0.0
 11
126.7447966939
 21
198.2657392678
 31
0.0
  0
LINE
  5
1C7
330
20
100
AcDbEntity
  8
0
  6
Continuous
100
AcDbLine
 10
128.7196704281
 20
195.9979723148
 30
0.0
 11
142.0158645058
 21
209.2941663926
 31
0.0
  0
LINE
  5
1C8
330
20
100
AcDbEntity
  8
0
  6
Continuous
100
AcDbLine
 10
124.9016509434
 20
198.3727731532
 30
0.0
 11
123.7480611049
 21
197.7067477494
 31
0.0
  0
LINE
  5
1C9
330
20
100
AcDbEntity
  8
0
  6
Continuous
100
AcDbLine
 10
128.4136984957
 20
156.4462852933
 30
0.0
 11
136.3973289085
 21
156.4462852933
 31
0.0
  0
LINE
  5
1CB
330
20
100
AcDbEntity
  8
0
  6
Continuous
100
AcDbLine
 10
90.32540382009999
 20
157.1433948477
 30
0.0
 11
95.44317610180001
 21
157.1433948477
 31
0.0
  0
LINE
  5
1CF
330
20
100
AcDbEntity
  8
0
  6
Continuous
100
AcDbLine
 10
128.4136984957
 20
158.6737054673
 30
0.0
 11
136.3973289085
 21
158.6737054673
 31
0.0
  0
LINE
  5
1D0
330
20
100
AcDbEntity
  8
0
  6
Continuous
100
AcDbLine
 10
90.32540382009999
 20
159.0115371661
 30
0.0
 11
95.44317610180001
 21
159.0115371661
 31
0.0
  0
LINE
  5
1D8
330
20
100
AcDbEntity
  8
0
  6
Continuous
100
AcDbLine
 10
101.8516509434
 20
186.5799528302
 30
0.0
 11
102.2658645058
 21
186.1657392678
 31
0.0
  0
LINE
  5
1DA
330
20
100
AcDbEntity
  8
0
  6
Continuous
100
AcDbLine
 10
112.9330305672
 20
202.6984572288
 30
0.0
 11
112.814520433
 21
203.1314701482
 31
0.0
  0
LINE
  5
1EA
330
20
100
AcDbEntity
  8
0
  6
Continuous
100
AcDbLine
 10
124.2016509434
 20
194.6799528302
 30
0.0
 11
124.2016509434
 21
193.6799528302
 31
0.0
  0
LINE
  5
1EB
330
20
100
AcDbEntity
  8
0
  6
Continuous
100
AcDbLine
 10
124.6090102563
 20
147.6799528302
 30
0.0
 11
124.6090102563
 21
182.6282575483
 31
0.0
  0
LINE
  5
1ED
330
20
100
AcDbEntity
  8
0
  6
Continuous
100
AcDbLine
 10
125.0197148651
 20
194.6799528302
 30
0.0
 11
125.0197148651
 21
193.8799528302
 31
0.0
  0
LINE
  5
1F0
330
20
100
AcDbEntity
  8
0
  6
Continuous
100
AcDbLine
 10
125.1516509434
 20
202.6984573726
 30
0.0
 11
125.1516509434
 21
198.8057858551
 31
0.0
  0
LINE
  5
1F3
330
20
100
AcDbEntity
  8
0
  6
Continuous
100
AcDbLine
 10
125.9516509434
 20
188.1365771572
 30
0.0
 11
125.9516509434
 21
185.8299528302
 31
0.0
  0
LINE
  5
1F6
330
20
100
AcDbEntity
  8
0
  6
Continuous
100
AcDbLine
 10
126.4448112483
 20
148.307225556
 30
0.0
 11
126.4448112502
 21
148.3175204306
 31
0.0
  0
LINE
  5
1F7
330
20
100
AcDbEntity
  8
0
  6
Continuous
100
AcDbLine
 10
126.7303305998
 20
148.7344232067
 30
0.0
 11
126.7303305998
 21
155.2631377633
 31
0.0
  0
LINE
  5
1F8
330
20
100
AcDbEntity
  8
0
  6
Continuous
100
AcDbLine
 10
126.7303305998
 20
155.2631377633
 30
0.0
 11
126.7303305998
 21
172.6086673868
 31
0.0
  0
LINE
  5
1F9
330
20
100
AcDbEntity
  8
0
  6
Continuous
100
AcDbLine
 10
126.7303305998
 20
172.6086673868
 30
0.0
 11
126.6838839210545
 21
184.0621858495046
 31
0.0
  0
LINE
  5
20A
330
20
100
AcDbEntity
  8
0
  6
Continuous
100
AcDbLine
 10
128.1516509434
 20
190.8501234224
 30
0.0
 11
127.2016509434
 21
190.3016406667
 31
0.0
  0
LINE
  5
213
330
20
100
AcDbEntity
  8
0
  6
Continuous
100
AcDbLine
 10
120.4702713393
 20
198.8057859514
 30
0.0
 11
120.5887814553
 21
198.3727731043
 31
0.0
  0
LINE
  5
214
330
20
100
AcDbEntity
  8
0
  6
Continuous
100
AcDbLine
 10
127.9746454118
 20
148.8299528302
 30
0.0
 11
127.9746454118
 21
148.8399449129
 31
0.0
  0
LINE
  5
215
330
20
100
AcDbEntity
  8
0
  6
Continuous
100
AcDbLine
 10
127.9746454118
 20
156.9515491675
 30
0.0
 11
127.9746454118
 21
157.9683485756
 31
0.0
  0
LINE
  5
216
330
20
100
AcDbEntity
  8
0
  6
Continuous
100
AcDbLine
 10
127.9746454118
 20
174.1915570848
 30
0.0
 11
127.9746454118
 21
175.2083564929
 31
0.0
  0
LINE
  5
217
330
20
100
AcDbEntity
  8
0
  6
Continuous
100
AcDbLine
 10
128.6016509434
 20
193.6799528302
 30
0.0
 11
128.6016509434
 21
191.2491615281
 31
0.0
  0
LWPOLYLINE
  5
232
330
20
100
AcDbEntity
  8
0
  6
Continuous
100
AcDbPolyline
 90
        5
 70
     0
 43
0.0
 10
125.1516509434
 20
202.6984573726
 10
125.1308813037
 20
202.8278939548
 10
125.0809294146
 20
202.9485110698
 10
125.0014771772
 20
203.0520697974
 10
124.8980285517
 20
203.1314700745
  0
LINE
  5
239
330
20
100
AcDbEntity
  8
0
  6
Continuous
100
AcDbLine
 10
136.3540211488
 20
148.8299528302
 30
0.0
 11
136.3540211488
 21
148.8399449129
 31
0.0
  0
LINE
  5
23C
330
20
100
AcDbEntity
  8
0
  6
Continuous
100
AcDbLine
 10
136.3540211488
 20
183.3199607475
 30
0.0
 11
136.3540211488
 21
183.3299528302
 31
0.0
  0
LINE
  5
241
330
20
100
AcDbEntity
  8
0
  6
Continuous
100
AcDbLine
 10
90.32540382009999
 20
173.1483684943
 30
0.0
 11
95.44317610180001
 21
173.1483684943
 31
0.0
  0
LINE
  5
242
330
20
100
AcDbEntity
  8
0
  6
Continuous
100
AcDbLine
 10
128.4136984957
 20
173.4862001931
 30
0.0
 11
136.3973289085
 21
173.4862001931
 31
0.0
  0
LINE
  5
246
330
20
100
AcDbEntity
  8
0
  6
Continuous
100
AcDbLine
 10
90.32540382009999
 20
175.0165108127
 30
0.0
 11
95.44317610180001
 21
175.0165108127
 31
0.0
  0
LINE
  5
248
330
20
100
AcDbEntity
  8
0
  6
Continuous
100
AcDbLine
 10
105.2516509434
 20
190.8501234224
 30
0.0
 11
106.0518438259
 21
190.3881318463
 31
0.0
  0
LINE
  5
249
330
20
100
AcDbEntity
  8
0
  6
Continuous
100
AcDbLine
 10
137.2448361087
 20
180.0053861397
 30
0.0
 11
137.2448361087
 21
152.1545195207
 31
0.0
  0
LINE
  5
24C
330
20
100
AcDbEntity
  8
0
  6
Continuous
100
AcDbLine
 10
140.0516513249
 20
179.4478470029
 30
0.0
 11
140.0516513249
 21
152.7120586575
 31
0.0
  0
LINE
  5
24D
330
20
100
AcDbEntity
  8
0
  6
Continuous
100
AcDbLine
 10
137.2516509434
 20
152.2062833297
 30
0.0
 11
137.2448361087
 21
152.1545195207
 31
0.0
  0
LINE
  5
24E
330
20
100
AcDbEntity
  8
0
  6
Continuous
100
AcDbLine
 10
101.8516509434
 20
145.5799528302
 30
0.0
 11
102.2658645058
 21
145.9941663926
 31
0.0
  0
LINE
  5
252
330
20
100
AcDbEntity
  8
0
  6
Continuous
100
AcDbLine
 10
86.9516509434
 20
178.285280488
 30
0.0
 11
72.712223008
 21
177.8405248948
 31
0.0
  0
LINE
  5
254
330
20
100
AcDbEntity
  8
0
  6
Continuous
100
AcDbLine
 10
128.4136984957
 20
175.713620367
 30
0.0
 11
136.3973289085
 21
175.713620367
 31
0.0
  0
LINE
  5
255
330
20
100
AcDbEntity
  8
0
  6
Continuous
100
AcDbLine
 10
154.2910788788
 20
177.8405248948
 30
0.0
 11
140.0516509434
 21
178.285280488
 31
0.0
  0
LINE
  5
256
330
20
100
AcDbEntity
  8
0
  6
Continuous
100
AcDbLine
 10
137.44540717
 20
179.5292508113
 30
0.0
 11
153.0118605654
 21
179.0430467836
 31
0.0
  0
LINE
  5
25D
330
20
100
AcDbEntity
  8
0
  6
Continuous
100
AcDbLine
 10
108.5016509434
 20
198.3727731532
 30
0.0
 11
109.6552407819
 21
197.7067477494
 31
0.0
  0
LINE
  5
25E
330
20
100
AcDbEntity
  8
0
  6
Continuous
100
AcDbLine
 10
137.2448361087
 20
180.0053861397
 30
0.0
 11
136.3565191694
 21
183.3206300901
 31
0.0
  0
LINE
  5
25F
330
20
100
AcDbEntity
  8
0
  6
Continuous
100
AcDbLine
 10
137.2516509434
 20
179.9536223307
 30
0.0
 11
137.2448361087
 21
180.0053861397
 31
0.0
  0
LINE
  5
262
330
20
100
AcDbEntity
  8
0
  6
Continuous
100
AcDbLine
 10
144.6016509434
 20
212.8799528302
 30
0.0
 11
144.6016509434
 21
209.8799528302
 31
0.0
  0
LINE
  5
264
330
20
100
AcDbEntity
  8
0
  6
Continuous
100
AcDbLine
 10
137.2448361087
 20
152.1545195207
 30
0.0
 11
136.3565191694
 21
148.8392755703
 31
0.0
  0
LINE
  5
26B
330
20
100
AcDbEntity
  8
0
  6
Continuous
100
AcDbLine
 10
73.9914413214
 20
179.0430467836
 30
0.0
 11
89.55789471680001
 21
179.5292508113
 31
0.0
  0
LINE
  5
26E
330
20
100
AcDbEntity
  8
0
  6
Continuous
100
AcDbLine
 10
95.49459280529999
 20
182.2299528302
 30
0.0
 11
90.35453662640001
 21
182.2299528302
 31
0.0
  0
LINE
  5
271
330
20
100
AcDbEntity
  8
0
  6
Continuous
100
AcDbLine
 10
136.3540211488
 20
183.3299528302
 30
0.0
 11
128.4516509434
 21
183.3299528302
 31
0.0
  0
LINE
  5
275
330
20
100
AcDbEntity
  8
0
  6
Continuous
100
AcDbLine
 10
103.6800780681
 20
185.5799528302
 30
0.0
 11
104.4516509434
 21
185.5799528302
 31
0.0
  0
LINE
  5
276
330
20
100
AcDbEntity
  8
0
  6
Continuous
100
AcDbLine
 10
100.5516509434
 20
186.5799528302
 30
0.0
 11
98.3516509434
 21
186.5799528302
 31
0.0
  0
LINE
  5
277
330
20
100
AcDbEntity
  8
0
  6
Continuous
100
AcDbLine
 10
100.5516509434
 20
186.5799528302
 30
0.0
 11
101.8516509434
 21
186.5799528302
 31
0.0
  0
LINE
  5
279
330
20
100
AcDbEntity
  8
0
  6
Continuous
100
AcDbLine
 10
127.2016509434
 20
190.3016406667
 30
0.0
 11
106.9171752161
 21
190.301640018
 31
0.0
  0
LINE
  5
27A
330
20
100
AcDbEntity
  8
0
  6
Continuous
100
AcDbLine
 10
153.1470381483
 20
178.9845656253
 30
0.0
 11
154.4930722996
 21
177.638531474
 31
0.0
  0
LINE
  5
27C
330
20
100
AcDbEntity
  8
0
  6
Continuous
100
AcDbLine
 10
153.1470381483
 20
153.1753400351
 30
0.0
 11
153.1470381483
 21
178.9845656253
 31
0.0
  0
LINE
  5
27F
330
20
100
AcDbEntity
  8
0
  6
Continuous
100
AcDbLine
 10
154.5516509434
 20
177.4971101177
 30
0.0
 11
154.5516509434
 21
154.6627955427
 31
0.0
  0
LINE
  5
281
330
20
100
AcDbEntity
  8
0
  6
Continuous
100
AcDbLine
 10
128.6016509434
 20
191.2491615281
 30
0.0
 11
104.8016509434
 21
191.2491615281
 31
0.0
  0
LINE
  5
282
330
20
100
AcDbEntity
  8
0
  6
Continuous
100
AcDbLine
 10
128.6016509434
 20
193.6799528302
 30
0.0
 11
108.344852985
 21
193.6799528302
 31
0.0
  0
LINE
  5
285
330
20
100
AcDbEntity
  8
0
  6
Continuous
100
AcDbLine
 10
108.9016509434
 20
194.6799528302
 30
0.0
 11
125.5376899127
 21
194.6799528302
 31
0.0
  0
LINE
  5
287
330
20
100
AcDbEntity
  8
0
  6
Continuous
100
AcDbLine
 10
124.2016509434
 20
203.5356152629
 30
0.0
 11
124.9016509434
 21
203.1314700745
 31
0.0
  0
LINE
  5
28A
330
20
100
AcDbEntity
  8
0
  6
Continuous
100
AcDbLine
 10
105.3017294446
 20
197.1799528302
 30
0.0
 11
108.7016509434
 21
197.1799528302
 31
0.0
  0
LINE
  5
28C
330
20
100
AcDbEntity
  8
0
  6
Continuous
100
AcDbLine
 10
125.3305831315
 20
197.6799528302
 30
0.0
 11
108.9016509528
 21
197.6799528302
 31
0.0
  0
LINE
  5
28E
330
20
100
AcDbEntity
  8
0
  6
Continuous
100
AcDbLine
 10
108.5016509434
 20
198.3727731532
 30
0.0
 11
108.5052733085
 21
198.3727731532
 31
0.0
  0
LINE
  5
28F
330
20
100
AcDbEntity
  8
0
  6
Continuous
100
AcDbLine
 10
112.3924048347
 20
198.3727731532
 30
0.0
 11
112.8145189076
 21
198.3727731532
 31
0.0
  0
LINE
  5
290
330
20
100
AcDbEntity
  8
0
  6
Continuous
100
AcDbLine
 10
120.5887829789
 20
198.3727731532
 30
0.0
 11
121.0108970692
 21
198.3727731532
 31
0.0
  0
LINE
  5
291
330
20
100
AcDbEntity
  8
0
  6
Continuous
100
AcDbLine
 10
124.8980285805
 20
198.3727731532
 30
0.0
 11
124.9016509434
 21
198.3727731532
 31
0.0
  0
LINE
  5
293
330
20
100
AcDbEntity
  8
0
  6
Continuous
100
AcDbLine
 10
112.0907706336
 20
198.8057858973
 30
0.0
 11
112.9330305062
 21
198.8057859515
 31
0.0
  0
LINE
  5
297
330
20
100
AcDbEntity
  8
0
  6
Continuous
100
AcDbLine
 10
121.3125312532
 20
202.6984572271
 30
0.0
 11
120.4702713806
 21
202.6984572286
 31
0.0
  0
LINE
  5
298
330
20
100
AcDbEntity
  8
0
  6
Continuous
100
AcDbLine
 10
112.9330305062
 20
202.6984572287
 30
0.0
 11
112.0907706336
 21
202.698457227
 31
0.0
  0
LINE
  5
29A
330
20
100
AcDbEntity
  8
0
  6
Continuous
100
AcDbLine
 10
124.9016509434
 20
203.1314700745
 30
0.0
 11
124.8980286451
 21
203.1314700745
 31
0.0
  0
LINE
  5
29B
330
20
100
AcDbEntity
  8
0
  6
Continuous
100
AcDbLine
 10
121.0108953285
 20
203.1314700745
 30
0.0
 11
120.5887842325
 21
203.1314700745
 31
0.0
  0
LINE
  5
29C
330
20
100
AcDbEntity
  8
0
  6
Continuous
100
AcDbLine
 10
112.8145176551
 20
203.1314700745
 30
0.0
 11
112.392406559
 21
203.1314700745
 31
0.0
  0
LINE
  5
29D
330
20
100
AcDbEntity
  8
0
  6
Continuous
100
AcDbLine
 10
108.5052732416
 20
203.1314700745
 30
0.0
 11
108.5016509434
 21
203.1314700745
 31
0.0
  0
LINE
  5
29E
330
20
100
AcDbEntity
  8
0
  6
Continuous
100
AcDbLine
 10
109.2016509434
 20
203.5356152629
 30
0.0
 11
109.4541606332
 21
203.5356143467
 31
0.0
  0
LINE
  5
2A1
330
20
100
AcDbEntity
  8
0
  6
Continuous
100
AcDbLine
 10
123.949140372
 20
203.5356143467
 30
0.0
 11
124.2016509434
 21
203.5356152629
 31
0.0
  0
LINE
  5
2AD
330
20
100
AcDbEntity
  8
0
  6
Continuous
100
AcDbLine
 10
153.1470381483
 20
153.1753400351
 30
0.0
 11
154.4930722996
 21
154.5213741864
 31
0.0
  0
LINE
  5
2AE
330
20
100
AcDbEntity
  8
0
  6
Continuous
100
AcDbLine
 10
145.1016509434
 20
209.3799528302
 30
0.0
 11
210.2016509434
 21
209.3799528302
 31
0.0
  0
LINE
  5
2AF
330
20
100
AcDbEntity
  8
0
  6
Continuous
100
AcDbLine
 10
143.4300780681
 20
209.8799528302
 30
0.0
 11
144.6016509434
 21
209.8799528302
 31
0.0
  0
LINE
  5
2B4
330
20
100
AcDbEntity
  8
0
  6
Continuous
100
AcDbLine
 10
144.6016509434
 20
212.8799528302
 30
0.0
 11
143.222971287
 21
212.8799528302
 31
0.0
  0
LINE
  5
2B5
330
20
100
AcDbEntity
  8
0
  6
Continuous
100
AcDbLine
 10
210.2016509434
 20
213.3799528302
 30
0.0
 11
145.1016509434
 21
213.3799528302
 31
0.0
  0
LINE
  5
2B7
330
20
100
AcDbEntity
  8
0
  6
Continuous
100
AcDbLine
 10
210.7016509434
 20
209.8799528302
 30
0.0
 11
210.7016509434
 21
212.8799528302
 31
0.0
  0
ARC
  5
2D8
330
20
100
AcDbEntity
  8
0
  6
Continuous
100
AcDbCircle
 10
123.6480611049
 20
197.8799528302
 30
0.0
 40
0.2
100
AcDbArc
 50
270.0000000000006
 51
299.9999999996006
  0
ARC
  5
2D9
330
20
100
AcDbEntity
  8
0
  6
Continuous
100
AcDbCircle
 10
109.7552407819
 20
197.8799528302
 30
0.0
 40
0.2
100
AcDbArc
 50
240.0000000006006
 51
270.0000000000006
  0
ARC
  5
2DA
330
20
100
AcDbEntity
  8
0
  6
Continuous
100
AcDbCircle
 10
124.6516509434
 20
198.8057858551
 30
0.0
 40
0.5
100
AcDbArc
 50
300.0000000000007
 51
360.0000000000008
  0
ARC
  5
2DB
330
20
100
AcDbEntity
  8
0
  6
Continuous
100
AcDbCircle
 10
108.7516509434
 20
198.8057858551
 30
0.0
 40
0.5
100
AcDbArc
 50
180.0000000000004
 51
240.0000000000005
  0
ARC
  5
2DC
330
20
100
AcDbEntity
  8
0
  6
Continuous
100
AcDbCircle
 10
108.7516509434
 20
202.6984573726
 30
0.0
 40
0.5
100
AcDbArc
 50
120.0000000000002
 51
180.0000000000004
  0
ARC
  5
2E2
330
20
100
AcDbEntity
  8
0
  6
Continuous
100
AcDbCircle
 10
72.6516509434
 20
177.4971101177
 30
0.0
 40
0.2
100
AcDbArc
 50
135.0000000183003
 51
180.0000000000004
  0
ARC
  5
2E3
330
20
100
AcDbEntity
  8
0
  6
Continuous
100
AcDbCircle
 10
72.6516509434
 20
154.6627955427
 30
0.0
 40
0.2
100
AcDbArc
 50
180.0000000000004
 51
224.9999999762005
  0
ARC
  5
2E4
330
20
100
AcDbEntity
  8
0
  6
Continuous
100
AcDbCircle
 10
73.99768509480001
 20
178.8431442691
 30
0.0
 40
0.2
100
AcDbArc
 50
91.7890000007002
 51
135.0000000095003
  0
ARC
  5
2E5
330
20
100
AcDbEntity
  8
0
  6
Continuous
100
AcDbCircle
 10
73.99768509480001
 20
153.3167613913
 30
0.0
 40
0.2
100
AcDbArc
 50
224.9999999895005
 51
268.2109999993006
  0
ARC
  5
2E6
330
20
100
AcDbEntity
  8
0
  6
Continuous
100
AcDbCircle
 10
89.55165094340001
 20
179.7291533258
 30
0.0
 40
0.2
100
AcDbArc
 50
271.7890000017006
 51
360.0000000000008
  0
ARC
  5
2E7
330
20
100
AcDbEntity
  8
0
  6
Continuous
100
AcDbCircle
 10
89.55165094340001
 20
152.4307523346
 30
0.0
 40
0.2
100
AcDbArc
 50
0.0000000004
 51
88.21099999930023
  0
ARC
  5
2E8
330
20
100
AcDbEntity
  8
0
  6
Continuous
100
AcDbCircle
 10
95.49459280529999
 20
147.9299528302
 30
0.0
 40
2.0
100
AcDbArc
 50
10.00000000000002
 51
90.00000000000019
  0
ARC
  5
2E9
330
20
100
AcDbEntity
  8
0
  6
Continuous
100
AcDbCircle
 10
95.49459280529999
 20
184.2299528302
 30
0.0
 40
2.0
100
AcDbArc
 50
270.0000000000006
 51
350.0000000000008
  0
ARC
  5
2EA
330
20
100
AcDbEntity
  8
0
  6
Continuous
100
AcDbCircle
 10
98.31667928980001
 20
146.3220312649
 30
0.0
 40
0.5
100
AcDbArc
 50
190.0000000000004
 51
224.9999999999005
  0
ARC
  5
2EB
330
20
100
AcDbEntity
  8
0
  6
Continuous
100
AcDbCircle
 10
98.31667928980001
 20
185.8378743955
 30
0.0
 40
0.5
100
AcDbArc
 50
135.0000000007003
 51
170.0000000002003
  0
ARC
  5
2EE
330
20
100
AcDbEntity
  8
0
  6
Continuous
100
AcDbCircle
 10
108.9016509434
 20
194.8799528302
 30
0.0
 40
0.2
100
AcDbArc
 50
180.0000000000004
 51
270.0000000000006
  0
ARC
  5
2EF
330
20
100
AcDbEntity
  8
0
  6
Continuous
100
AcDbCircle
 10
108.9016509434
 20
197.4799528302
 30
0.0
 40
0.2
100
AcDbArc
 50
90.00000000000019
 51
180.0000000000004
  0
ARC
  5
2F0
330
20
100
AcDbEntity
  8
0
  6
Continuous
100
AcDbCircle
 10
125.3305831315
 20
199.6799528302
 30
0.0
 40
2.0
100
AcDbArc
 50
270.0000000000006
 51
315.0000000000007
  0
ARC
  5
2F1
330
20
100
AcDbEntity
  8
0
  6
Continuous
100
AcDbCircle
 10
143.222971287
 20
208.3799528302
 30
0.0
 40
4.5
100
AcDbArc
 50
90.00000000000019
 51
135.0000000000003
  0
ARC
  5
2F2
330
20
100
AcDbEntity
  8
0
  6
Continuous
100
AcDbCircle
 10
210.2016509434
 20
209.8799528302
 30
0.0
 40
0.5
100
AcDbArc
 50
270.0000000000006
 51
360.0000000000008
  0
ARC
  5
2F3
330
20
100
AcDbEntity
  8
0
  6
Continuous
100
AcDbCircle
 10
145.1016509434
 20
209.8799528302
 30
0.0
 40
0.5
100
AcDbArc
 50
180.0000000000004
 51
270.0000000000006
  0
ARC
  5
2F4
330
20
100
AcDbEntity
  8
0
  6
Continuous
100
AcDbCircle
 10
145.1016509434
 20
212.8799528302
 30
0.0
 40
0.5
100
AcDbArc
 50
90.00000000000019
 51
180.0000000000004
  0
ARC
  5
2F5
330
20
100
AcDbEntity
  8
0
  6
Continuous
100
AcDbCircle
 10
210.2016509434
 20
212.8799528302
 30
0.0
 40
0.5
100
AcDbArc
 50
0.0
 51
90.00000000000019
  0
ARC
  5
2F6
330
20
100
AcDbEntity
  8
0
  6
Continuous
100
AcDbCircle
 10
125.5376899127
 20
199.1799528302
 30
0.0
 40
4.5
100
AcDbArc
 50
270.0000000000006
 51
315.0000000000007
  0
ARC
  5
2F7
330
20
100
AcDbEntity
  8
0
  6
Continuous
100
AcDbCircle
 10
143.4300780681
 20
207.8799528302
 30
0.0
 40
2.0
100
AcDbArc
 50
90.00000000000019
 51
135.0000000000003
  0
ARC
  5
2FC
330
20
100
AcDbEntity
  8
0
  6
Continuous
100
AcDbCircle
 10
137.4516509434
 20
179.7291533258
 30
0.0
 40
0.2
100
AcDbArc
 50
180.0000000000004
 51
268.2110000000006
  0
ARC
  5
2FD
330
20
100
AcDbEntity
  8
0
  6
Continuous
100
AcDbCircle
 10
137.4516509434
 20
152.4307523346
 30
0.0
 40
0.2
100
AcDbArc
 50
91.7890000000002
 51
180.0000000000004
  0
ARC
  5
2FE
330
20
100
AcDbEntity
  8
0
  6
Continuous
100
AcDbCircle
 10
153.005616792
 20
178.8431442691
 30
0.0
 40
0.2
100
AcDbArc
 50
44.99999999880009
 51
88.2109999999002
  0
ARC
  5
2FF
330
20
100
AcDbEntity
  8
0
  6
Continuous
100
AcDbCircle
 10
153.005616792
 20
153.3167613913
 30
0.0
 40
0.2
100
AcDbArc
 50
271.7890000000005
 51
315.0000000007008
  0
ARC
  5
300
330
20
100
AcDbEntity
  8
0
  6
Continuous
100
AcDbCircle
 10
154.3516509434
 20
177.4971101177
 30
0.0
 40
0.2
100
AcDbArc
 50
0.0
 51
44.99999999820011
  0
ARC
  5
301
330
20
100
AcDbEntity
  8
0
  6
Continuous
100
AcDbCircle
 10
154.3516509434
 20
154.6627955427
 30
0.0
 40
0.2
100
AcDbArc
 50
315.0000000014007
 51
360.0000000000008
  0
ARC
  5
304
330
20
100
AcDbEntity
  8
0
  6
Continuous
100
AcDbCircle
 10
105.3016509434
 20
196.6799528302
 30
0.0
 40
0.5
100
AcDbArc
 50
90.00000000000019
 51
180.0000000000004
  0
ARC
  5
305
330
20
100
AcDbEntity
  8
0
  6
Continuous
100
AcDbCircle
 10
127.4016509434
 20
192.1491615281
 30
0.0
 40
1.5
100
AcDbArc
 50
300.0000000000007
 51
323.1301023542007
  0
ARC
  5
306
330
20
100
AcDbEntity
  8
0
  6
Continuous
100
AcDbCircle
 10
106.0016509434
 20
192.1491615281
 30
0.0
 40
1.5
100
AcDbArc
 50
216.8698976458005
 51
240.0000000000005
  0
ARC
  5
307
330
20
100
AcDbEntity
  8
0
  6
Continuous
100
AcDbCircle
 10
104.8018451024
 20
188.2230680364
 30
0.0
 40
2.500002160899999
100
AcDbArc
 50
314.4576614515007
 51
60.00001861810014
  0
ARC
  5
308
330
20
100
AcDbEntity
  8
0
  6
Continuous
100
AcDbCircle
 10
128.4516509434
 20
188.1365771572
 30
0.0
 40
2.5
100
AcDbArc
 50
120.0000000000002
 51
180.0000000000004
  0
ARC
  5
30A
330
20
100
AcDbEntity
  8
0
  6
Continuous
100
AcDbCircle
 10
127.9746454118
 20
146.3299528302
 30
0.0
 40
2.5
100
AcDbArc
 50
90.00000000000019
 51
127.7294512653003
  0
ARC
  5
30B
330
20
100
AcDbEntity
  8
0
  6
Continuous
100
AcDbCircle
 10
104.4516531459
 20
188.5799512702
 30
0.0
 40
2.999999461899999
100
AcDbArc
 50
269.9999577698006
 51
314.4576674240007
  0
ARC
  5
30C
330
20
100
AcDbEntity
  8
0
  6
Continuous
100
AcDbCircle
 10
108.5316336919
 20
149.5799528302
 30
0.0
 40
3.0
100
AcDbArc
 50
270.0000000000006
 51
305.2475069921007
  0
ARC
  5
30D
330
20
100
AcDbEntity
  8
0
  6
Continuous
100
AcDbCircle
 10
111.9942916305
 20
144.6799528302
 30
0.0
 40
3.0
100
AcDbArc
 50
90.00000000000019
 51
125.2475069921002
  0
ARC
  5
30E
330
20
100
AcDbEntity
  8
0
  6
Continuous
100
AcDbCircle
 10
103.6800780681
 20
187.5799528302
 30
0.0
 40
2.0
100
AcDbArc
 50
225.0000000000005
 51
270.0000000000006
  0
ARC
  5
30F
330
20
100
AcDbEntity
  8
0
  6
Continuous
100
AcDbCircle
 10
103.6800780681
 20
144.5799528302
 30
0.0
 40
2.0
100
AcDbArc
 50
90.00000000000019
 51
135.0000000000003
  0
ARC
  5
310
330
20
100
AcDbEntity
  8
0
  6
Continuous
100
AcDbCircle
 10
124.6090102563
 20
150.6799528302
 30
0.0
 40
3.0
100
AcDbArc
 50
270.0000000000006
 51
307.7294511740007
  0
SPLINE
  5
319
330
20
100
AcDbEntity
  8
0
  6
Continuous
100
AcDbSpline
210
0.0
220
0.0
230
1.0
 70
     8
 71
     3
 72
    11
 73
     7
 74
     5
 42
0.0000000001
 43
0.0000000001
 44
0.0000000001
 40
0.0
 40
0.0
 40
0.0
 40
0.0
 40
0.1371931703161387
 40
0.2761421525637222
 40
0.4136087008186754
 40
0.5466875343362474
 40
0.5466875343362474
 40
0.5466875343362474
 40
0.5466875343362474
 10
121.312531284
 20
202.6984572272
 30
0.0
 10
121.3030863186975
 20
202.7434486823316
 30
0.0
 10
121.2840755104807
 20
202.8340073977427
 30
0.0
 10
121.216174919814
 20
202.9558323242235
 30
0.0
 10
121.1264272186152
 20
203.0610243363533
 30
0.0
 10
121.048989049333
 20
203.1082434787011
 30
0.0
 10
121.0108979122
 20
203.131470149
 30
0.0
 11
121.312531284
 21
202.6984572272
 31
0.0
 11
121.2776992022
 21
202.8311549742
 31
0.0
 11
121.2120899037
 21
202.9536386042
 31
0.0
 11
121.1207813775
 21
203.0563995157
 31
0.0
 11
121.0108979122
 21
203.131470149
 31
0.0
  0
SPLINE
  5
31A
330
20
100
AcDbEntity
  8
0
  6
Continuous
100
AcDbSpline
210
0.0
220
0.0
230
1.0
 70
     8
 71
     3
 72
    10
 73
     6
 74
     4
 42
0.0000000001
 43
0.0000000001
 44
0.0000000001
 40
0.0
 40
0.0
 40
0.0
 40
0.0
 40
0.3390906385921271
 40
0.6935862623954123
 40
1.066953156237617
 40
1.066953156237617
 40
1.066953156237617
 40
1.066953156237617
 10
121.9966033096
 20
203.5356143535
 30
0.0
 10
121.8887046615445
 20
203.5018080812799
 30
0.0
 10
121.6680054988279
 20
203.4326597081725
 30
0.0
 10
121.3389972313976
 20
203.2961798610306
 30
0.0
 10
121.1221368074059
 20
203.1873141890331
 30
0.0
 10
121.0108953285
 20
203.1314700745
 30
0.0
 11
121.9966033096
 21
203.5356143535
 31
0.0
 11
121.6745382374
 21
203.4295174617
 31
0.0
 11
121.3466156259
 21
203.2948552615
 31
0.0
 11
121.0108953285
 21
203.1314700745
 31
0.0
  0
SPLINE
  5
31B
330
20
100
AcDbEntity
  8
0
  6
Continuous
100
AcDbSpline
210
0.0
220
0.0
230
1.0
 70
     8
 71
     3
 72
    10
 73
     6
 74
     4
 42
0.0000000001
 43
0.0000000001
 44
0.0000000001
 40
0.0
 40
0.0
 40
0.0
 40
0.0
 40
0.6767905545902917
 40
1.334265254853226
 40
1.977353469974583
 40
1.977353469974583
 40
1.977353469974583
 40
1.977353469974583
 10
120.5887842325
 20
203.1314700745
 30
0.0
 10
120.3702413498097
 20
203.1874935430663
 30
0.0
 10
119.9393928796421
 20
203.2979415495542
 30
0.0
 10
119.2941094239966
 20
203.4338978229139
 30
0.0
 10
118.8659177542293
 20
203.5019597962581
 30
0.0
 10
118.6541901912
 20
203.5356143411
 30
0.0
 11
120.5887842325
 21
203.1314700745
 31
0.0
 11
119.9319793659
 21
203.2947269947
 31
0.0
 11
119.2884511251
 21
203.4294280889
 31
0.0
 11
118.6541901912
 21
203.5356143411
 31
0.0
  0
SPLINE
  5
31D
330
20
100
AcDbEntity
  8
0
  6
Continuous
100
AcDbSpline
210
0.0
220
0.0
230
1.0
 70
     8
 71
     3
 72
    10
 73
     6
 74
     4
 42
0.0000000001
 43
0.0000000001
 44
0.0000000001
 40
0.0
 40
0.0
 40
0.0
 40
0.0
 40
0.6430987341881292
 40
1.300579074891771
 40
1.977353466858879
 40
1.977353466858879
 40
1.977353466858879
 40
1.977353466858879
 10
114.7491116937
 20
203.5356143411
 30
0.0
 10
114.5373806731293
 20
203.5019592035482
 30
0.0
 10
114.1091836946244
 20
203.4338962991519
 30
0.0
 10
113.4639003522106
 20
203.2979394751756
 30
0.0
 10
113.0330553056028
 20
203.1874922504313
 30
0.0
 10
112.8145176551
 20
203.1314700745
 30
0.0
 11
114.7491116937
 21
203.5356143411
 31
0.0
 11
114.1148404211
 21
203.4294261371
 31
0.0
 11
113.4713067654
 21
203.2947233814
 31
0.0
 11
112.8145176551
 21
203.1314700745
 31
0.0
  0
SPLINE
  5
31E
330
20
100
AcDbEntity
  8
0
  6
Continuous
100
AcDbSpline
210
0.0
220
0.0
230
1.0
 70
     8
 71
     3
 72
    10
 73
     6
 74
     4
 42
0.0000000001
 43
0.0000000001
 44
0.0000000001
 40
0.0
 40
0.0
 40
0.0
 40
0.0
 40
0.3733681294803369
 40
0.7278618373983397
 40
1.066952023518363
 40
1.066952023518363
 40
1.066952023518363
 40
1.066952023518363
 10
112.392406559
 20
203.1314700745
 30
0.0
 10
112.2811647118101
 20
203.1873143773325
 30
0.0
 10
112.0643044902268
 20
203.2961799543825
 30
0.0
 10
111.7352965283974
 20
203.4326595157764
 30
0.0
 10
111.5145982235887
 20
203.5018079708702
 30
0.0
 10
111.4066997705
 20
203.5356143535
 30
0.0
 11
112.392406559
 21
203.1314700745
 31
0.0
 11
112.0566851339
 21
203.294855768
 31
0.0
 11
111.7287642883
 21
203.4295172249
 31
0.0
 11
111.4066997705
 21
203.5356143535
 31
0.0
  0
SPLINE
  5
31F
330
20
100
AcDbEntity
  8
0
  6
Continuous
100
AcDbSpline
210
0.0
220
0.0
230
1.0
 70
     8
 71
     3
 72
    11
 73
     7
 74
     5
 42
0.0000000001
 43
0.0000000001
 44
0.0000000001
 40
0.0
 40
0.0
 40
0.0
 40
0.0
 40
0.1372031789903492
 40
0.2761149441722831
 40
0.4135525244713142
 40
0.5466911248433555
 40
0.5466911248433555
 40
0.5466911248433555
 40
0.5466911248433555
 10
112.0907706029
 20
202.6984572271
 30
0.0
 10
112.1002147143617
 20
202.7434523751404
 30
0.0
 10
112.1192205444612
 20
202.834002994161
 30
0.0
 10
112.1871081854832
 20
202.9558128609929
 30
0.0
 10
112.2768477217164
 20
203.0610087685456
 30
0.0
 10
112.3542953930957
 20
203.1082331263957
 30
0.0
 10
112.3924039751
 20
203.1314701493
 30
0.0
 11
112.0907706029
 21
202.6984572271
 31
0.0
 11
112.1256018637
 21
202.8311655373
 31
0.0
 11
112.1911901729
 21
202.9536181902
 31
0.0
 11
112.2824728665
 21
203.0563633036
 31
0.0
 11
112.3924039751
 21
203.1314701493
 31
0.0
  0
SPLINE
  5
324
330
20
100
AcDbEntity
  8
0
  6
Continuous
100
AcDbSpline
210
0.0
220
0.0
230
1.0
 70
     8
 71
     3
 72
    11
 73
     7
 74
     5
 42
0.0000000001
 43
0.0000000001
 44
0.0000000001
 40
0.0
 40
0.0
 40
0.0
 40
0.0
 40
0.1371891942948733
 40
0.276138035245492
 40
0.4136031860920089
 40
0.5466695946224177
 40
0.5466695946224177
 40
0.5466695946224177
 40
0.5466695946224177
 10
112.0907706245
 20
198.8057858973
 30
0.0
 10
112.100223600165
 20
198.7607976848177
 30
0.0
 10
112.1192507993607
 20
198.6702442220035
 30
0.0
 10
112.187156788369
 20
198.548426216047
 30
0.0
 10
112.2768947896367
 20
198.4432340466446
 30
0.0
 10
112.3543204919655
 20
198.3960041231645
 30
0.0
 10
112.3924038866
 20
198.3727731319
 30
0.0
 11
112.0907706245
 21
198.8057858973
 31
0.0
 11
112.1256233808
 21
198.6730976898
 31
0.0
 11
112.1912398498
 21
198.5506180613
 31
0.0
 11
112.2825420556
 21
198.4478534034
 31
0.0
 11
112.3924038866
 21
198.3727731319
 31
0.0
  0
SPLINE
  5
32C
330
20
100
AcDbEntity
  8
0
  6
Continuous
100
AcDbSpline
210
0.0
220
0.0
230
1.0
 70
     8
 71
     3
 72
    11
 73
     7
 74
     5
 42
0.0000000001
 43
0.0000000001
 44
0.0000000001
 40
0.0
 40
0.0
 40
0.0
 40
0.0
 40
0.1371970092905944
 40
0.2761086406902135
 40
0.4135442780772569
 40
0.5466715121520978
 40
0.5466715121520978
 40
0.5466715121520978
 40
0.5466715121520978
 10
121.3125312621
 20
198.8057858965
 30
0.0
 10
121.3030785533098
 20
198.7607948900647
 30
0.0
 10
121.28405500033
 20
198.6702506012762
 30
0.0
 10
121.2161621905788
 20
198.5484487567053
 30
0.0
 10
121.1264332334459
 20
198.4432518948074
 30
0.0
 10
121.0489987264541
 20
198.3960153236689
 30
0.0
 10
121.0108980008
 20
198.3727731322
 30
0.0
 11
121.3125312621
 21
198.8057858965
 31
0.0
 11
121.2776780532
 21
198.6730897278
 31
0.0
 11
121.2120822644
 21
198.5506412332
 31
0.0
 11
121.1208071183
 21
198.4478920136
 31
0.0
 11
121.0108980008
 21
198.3727731322
 31
0.0
  0
SPLINE
  5
356
330
20
100
AcDbEntity
  8
0
  6
Continuous
100
AcDbSpline
210
0.0
220
0.0
230
1.0
 70
     8
 71
     3
 72
    10
 73
     6
 74
     4
 42
0.0000000001
 43
0.0000000001
 44
0.0000000001
 40
0.0
 40
0.0
 40
0.0
 40
0.0
 40
0.0194068727624894
 40
0.0651756245992528
 40
0.1364190610971351
 40
0.1364190610971351
 40
0.1364190610971351
 40
0.1364190610971351
 10
90.35453662640001
 20
149.9417340764
 30
0.0
 10
90.35349064809606
 20
149.9481190167584
 30
0.0
 10
90.34997785702909
 20
149.9695620633007
 30
0.0
 10
90.33952806837081
 20
150.0138477945854
 30
0.0
 10
90.33074899895271
 20
150.0518446280006
 30
0.0
 10
90.32540382009999
 20
150.0749791837
 30
0.0
 11
90.35453662640001
 21
149.9417340764
 31
0.0
 11
90.351267497
 21
149.9608636217
 31
0.0
 11
90.34150761819998
 21
150.0055796525
 31
0.0
 11
90.32540382009999
 21
150.0749791837
 31
0.0
  0
SPLINE
  5
35B
330
20
100
AcDbEntity
  8
0
  6
Continuous
100
AcDbSpline
210
0.0
220
0.0
230
1.0
 70
     8
 71
     3
 72
    10
 73
     6
 74
     4
 42
0.0000000001
 43
0.0000000001
 44
0.0000000001
 40
0.0
 40
0.0
 40
0.0
 40
0.0
 40
0.0712434364978822
 40
0.1170121883346457
 40
0.1364190610971351
 40
0.1364190610971351
 40
0.1364190610971351
 40
0.1364190610971351
 10
90.32540382009999
 20
182.0849264767
 30
0.0
 10
90.33074899895271
 20
182.1080610323994
 30
0.0
 10
90.33952806837081
 20
182.1460578658145
 30
0.0
 10
90.34997785702912
 20
182.1903435970994
 30
0.0
 10
90.35349064809603
 20
182.2117866436416
 30
0.0
 10
90.35453662640001
 20
182.218171584
 30
0.0
 11
90.32540382009999
 21
182.0849264767
 31
0.0
 11
90.34150761819998
 21
182.1543260079
 31
0.0
 11
90.351267497
 21
182.1990420387
 31
0.0
 11
90.35453662640001
 21
182.218171584
 31
0.0
  0
SPLINE
  5
36A
330
20
100
AcDbEntity
  8
0
  6
Continuous
100
AcDbSpline
210
0.0
220
0.0
230
1.0
 70
     8
 71
     3
 72
    10
 73
     6
 74
     4
 42
0.0000000001
 43
0.0000000001
 44
0.0000000001
 40
0.0
 40
0.0
 40
0.0
 40
0.0
 40
0.0518249276256845
 40
0.1036191693187401
 40
0.1553358076338956
 40
0.1553358076338956
 40
0.1553358076338956
 40
0.1553358076338956
 10
108.694264436
 20
196.5971101177
 30
0.0
 10
108.6929844963305
 20
196.6143940270638
 30
0.0
 10
108.6904253748536
 20
196.6489516118576
 30
0.0
 10
108.6712036232593
 20
196.6982137431814
 30
0.0
 10
108.6493650804785
 20
196.7250989491168
 30
0.0
 10
108.6384539954
 20
196.738531474
 30
0.0
 11
108.694264436
 21
196.5971101177
 31
0.0
 11
108.6878573353
 21
196.6485374663
 31
0.0
 11
108.6689331907
 21
196.6967507448
 31
0.0
 11
108.6384539954
 21
196.738531474
 31
0.0
  0
SPLINE
  5
36B
330
20
100
AcDbEntity
  8
0
  6
Continuous
100
AcDbSpline
210
0.0
220
0.0
230
1.0
 70
     8
 71
     3
 72
    15
 73
    11
 74
     9
 42
0.0000000001
 43
0.0000000001
 44
0.0000000001
 40
0.0
 40
0.0
 40
0.0
 40
0.0
 40
0.0408451029325979
 40
0.080814698870859
 40
0.1190211165804853
 40
0.1549851317451367
 40
0.188493701709937
 40
0.2198671109194113
 40
0.2496238347294777
 40
0.2785593364702358
 40
0.2785593364702358
 40
0.2785593364702358
 40
0.2785593364702358
 10
125.0197148651
 20
193.8799528302
 30
0.0
 10
125.0203349477677
 20
193.8663231277322
 30
0.0
 10
125.0215618217492
 20
193.8393558728707
 30
0.0
 10
125.0313289747027
 20
193.8006356166461
 30
0.0
 10
125.0462834894874
 20
193.7654848786899
 30
0.0
 10
125.0661013440528
 20
193.7353154683973
 30
0.0
 10
125.0896672151096
 20
193.7110042519683
 30
0.0
 10
125.1160392733792
 20
193.6933688811104
 30
0.0
 10
125.1443220763424
 20
193.6820773423324
 30
0.0
 10
125.1639324328001
 20
193.6806543641369
 30
0.0
 10
125.1736004169
 20
193.6799528302
 30
0.0
 11
125.0197148651
 21
193.8799528302
 31
0.0
 11
125.0229557917
 21
193.8392365088
 31
0.0
 11
125.0324741209
 21
193.8004167972
 31
0.0
 11
125.0476208916
 21
193.7653410835
 31
0.0
 11
125.0674773615
 21
193.7353555705
 31
0.0
 11
125.0909445471
 21
193.7114366353
 31
0.0
 11
125.1170591947
 21
193.694049399
 31
0.0
 11
125.1448831621
 21
193.6835000175
 31
0.0
 11
125.1736004169
 21
193.6799528302
 31
0.0
  0
SPLINE
  5
36F
330
20
100
AcDbEntity
  8
0
  6
Continuous
100
AcDbSpline
210
0.0
220
0.0
230
1.0
 70
     8
 71
     3
 72
    10
 73
     6
 74
     4
 42
0.0000000001
 43
0.0000000001
 44
0.0000000001
 40
0.0
 40
0.0
 40
0.0
 40
0.0
 40
0.1405144240167104
 40
0.2807005950505873
 40
0.4205486468145065
 40
0.4205486468145065
 40
0.4205486468145065
 40
0.4205486468145065
 10
108.3483374487
 20
197.0429876339
 30
0.0
 10
108.3806512770758
 20
197.0090814695457
 30
0.0
 10
108.4452034461285
 20
196.9413483483608
 30
0.0
 10
108.5419080247777
 20
196.8398620685401
 30
0.0
 10
108.6062979204352
 20
196.7722811392968
 30
0.0
 10
108.6384539954
 20
196.738531474
 30
0.0
 11
108.3483374487
 21
197.0429876339
 31
0.0
 11
108.4452775666
 21
196.9412678379
 31
0.0
 11
108.5419848762
 21
196.8397796178
 31
0.0
 11
108.6384539954
 21
196.738531474
 31
0.0
  0
SPLINE
  5
373
330
20
100
AcDbEntity
  8
0
  6
Continuous
100
AcDbSpline
210
0.0
220
0.0
230
1.0
 70
     8
 71
     3
 72
    12
 73
     8
 74
     6
 42
0.0000000001
 43
0.0000000001
 44
0.0000000001
 40
0.0
 40
0.0
 40
0.0
 40
0.0
 40
0.0845785305680376
 40
0.1544295755334047
 40
0.2088344951453221
 40
0.2470743139083322
 40
0.2684403416462388
 40
0.2684403416462388
 40
0.2684403416462388
 40
0.2684403416462388
 10
108.3483374487
 20
197.0429876339
 30
0.0
 10
108.3250349361994
 20
197.0588455085131
 30
0.0
 10
108.2824875297813
 20
197.0877999586425
 30
0.0
 10
108.2241499927338
 20
197.1259264702485
 30
0.0
 10
108.1776461249904
 20
197.1534011006027
 30
0.0
 10
108.144649645594
 20
197.172951579071
 30
0.0
 10
108.1253945931545
 20
197.1781054118559
 30
0.0
 10
108.1184925188
 20
197.1799528302
 30
0.0
 11
108.3483374487
 21
197.0429876339
 31
0.0
 11
108.278252272
 21
197.0903331283
 31
0.0
 11
108.219566681
 21
197.1282167645
 31
0.0
 11
108.1729167069
 21
197.1562109638
 31
0.0
 11
108.1389412221
 21
197.1737594729
 31
0.0
 11
108.1184925188
 21
197.1799528302
 31
0.0
  0
SPLINE
  5
389
330
20
100
AcDbEntity
  8
0
  6
Continuous
100
AcDbSpline
210
0.0
220
0.0
230
1.0
 70
     8
 71
     3
 72
     9
 73
     5
 74
     3
 42
0.0000000001
 43
0.0000000001
 44
0.0000000001
 40
0.0
 40
0.0
 40
0.0
 40
0.0
 40
0.0694893709676308
 40
0.1381910477549378
 40
0.1381910477549378
 40
0.1381910477549378
 40
0.1381910477549378
 10
128.4136984957
 20
175.713620367
 30
0.0
 10
128.4280731957209
 20
175.7317847511864
 30
0.0
 10
128.4566596518853
 20
175.7679076178576
 30
0.0
 10
128.484337507435
 20
175.804731262206
 30
0.0
 10
128.4980975528
 20
175.8230381363
 30
0.0
 11
128.4136984957
 21
175.713620367
 31
0.0
 11
128.4565928487
 21
175.7682907169
 31
0.0
 11
128.4980975528
 21
175.8230381363
 31
0.0
  0
SPLINE
  5
392
330
20
100
AcDbEntity
  8
0
  6
Continuous
100
AcDbSpline
210
0.0
220
0.0
230
1.0
 70
     8
 71
     3
 72
     9
 73
     5
 74
     3
 42
0.0000000001
 43
0.0000000001
 44
0.0000000001
 40
0.0
 40
0.0
 40
0.0
 40
0.0
 40
0.1170972375624701
 40
0.2345506806424557
 40
0.2345506806424557
 40
0.2345506806424557
 40
0.2345506806424557
 10
128.4980975528
 20
173.2673646546
 30
0.0
 10
128.4843674581894
 20
173.3039033586683
 30
0.0
 10
128.4568655025223
 20
173.3770919162075
 30
0.0
 10
128.4281020587183
 20
173.4497939639513
 30
0.0
 10
128.4136984957
 20
173.4862001931
 30
0.0
 11
128.4980975528
 21
173.2673646546
 31
0.0
 11
128.4565928541
 21
173.3768595085
 31
0.0
 11
128.4136984957
 21
173.4862001931
 31
0.0
  0
SPLINE
  5
396
330
20
100
AcDbEntity
  8
0
  6
Continuous
100
AcDbSpline
210
0.0
220
0.0
230
1.0
 70
     8
 71
     3
 72
     9
 73
     5
 74
     3
 42
0.0000000001
 43
0.0000000001
 44
0.0000000001
 40
0.0
 40
0.0
 40
0.0
 40
0.0
 40
0.1174534551649063
 40
0.2345506805217295
 40
0.2345506805217295
 40
0.2345506805217295
 40
0.2345506805217295
 10
128.4136984957
 20
158.6737054673
 30
0.0
 10
128.4281020553068
 20
158.7101117021036
 30
0.0
 10
128.4568654893238
 20
158.7828137536222
 30
0.0
 10
128.4843674547443
 20
158.8560023073995
 30
0.0
 10
128.4980975528
 20
158.8925410058
 30
0.0
 11
128.4136984957
 21
158.6737054673
 31
0.0
 11
128.4565928487
 21
158.783046167
 31
0.0
 11
128.4980975528
 21
158.8925410058
 31
0.0
  0
SPLINE
  5
39F
330
20
100
AcDbEntity
  8
0
  6
Continuous
100
AcDbSpline
210
0.0
220
0.0
230
1.0
 70
     8
 71
     3
 72
     9
 73
     5
 74
     3
 42
0.0000000001
 43
0.0000000001
 44
0.0000000001
 40
0.0
 40
0.0
 40
0.0
 40
0.0
 40
0.0687016795813493
 40
0.138191047824364
 40
0.138191047824364
 40
0.138191047824364
 40
0.138191047824364
 10
128.4980975528
 20
156.3368675241
 30
0.0
 10
128.4843375104085
 20
156.3551744016324
 30
0.0
 10
128.4566596619515
 20
156.391998051418
 30
0.0
 10
128.4280731987092
 20
156.4281209125969
 30
0.0
 10
128.4136984957
 20
156.4462852933
 30
0.0
 11
128.4980975528
 21
156.3368675241
 31
0.0
 11
128.4565928541
 21
156.3916149511
 31
0.0
 11
128.4136984957
 21
156.4462852933
 31
0.0
  0
SPLINE
  5
3A5
330
20
100
AcDbEntity
  8
0
  6
Continuous
100
AcDbSpline
210
0.0
220
0.0
230
1.0
 70
     8
 71
     3
 72
     9
 73
     5
 74
     3
 42
0.0000000001
 43
0.0000000001
 44
0.0000000001
 40
0.0
 40
0.0
 40
0.0
 40
0.0
 40
0.0694893708889662
 40
0.1381910476762732
 40
0.1381910476762732
 40
0.1381910476762732
 40
0.1381910476762732
 10
128.4136984957
 20
149.0400379305
 30
0.0
 10
128.4280731957248
 20
149.0582023146499
 30
0.0
 10
128.4566596519131
 20
149.094325181269
 30
0.0
 10
128.484337507439
 20
149.1311488256029
 30
0.0
 10
128.4980975528
 20
149.1494556997
 30
0.0
 11
128.4136984957
 21
149.0400379305
 31
0.0
 11
128.4565928487
 21
149.0947082803
 31
0.0
 11
128.4980975528
 21
149.1494556997
 31
0.0
  0
SPLINE
  5
3A7
330
20
100
AcDbEntity
  8
0
  6
Continuous
100
AcDbSpline
210
0.0
220
0.0
230
1.0
 70
     8
 71
     3
 72
     9
 73
     5
 74
     3
 42
0.0000000001
 43
0.0000000001
 44
0.0000000001
 40
0.0
 40
0.0
 40
0.0
 40
0.0
 40
0.0418553706104931
 40
0.083509678682715
 40
0.083509678682715
 40
0.083509678682715
 40
0.083509678682715
 10
126.6842947505
 20
148.6647528077
 30
0.0
 10
126.6921480304373
 20
148.6762853497679
 30
0.0
 10
126.7078168651557
 20
148.6992950345095
 30
0.0
 10
126.7228380768863
 20
148.7227326258519
 30
0.0
 10
126.7303305998
 20
148.7344232067
 30
0.0
 11
126.6842947505
 21
148.6647528077
 31
0.0
 11
126.707691904
 21
148.6994579263
 31
0.0
 11
126.7303305998
 21
148.7344232067
 31
0.0
  0
SPLINE
  5
3A8
330
20
100
AcDbEntity
  8
0
  6
Continuous
100
AcDbSpline
210
0.0
220
0.0
230
1.0
 70
     8
 71
     3
 72
    12
 73
     8
 74
     6
 42
0.0000000001
 43
0.0000000001
 44
0.0000000001
 40
0.0
 40
0.0
 40
0.0
 40
0.0
 40
0.017064571029305
 40
0.0686181753688396
 40
0.160943114491439
 40
0.2985238207317029
 40
0.4827373944945936
 40
0.4827373944945936
 40
0.4827373944945936
 40
0.4827373944945936
 10
127.9746454118
 20
148.8399449129
 30
0.0
 10
127.9793320898494
 20
148.843183933207
 30
0.0
 10
127.9981776439354
 20
148.8562083252684
 30
0.0
 10
128.0485030366184
 20
148.8759179481106
 30
0.0
 10
128.1337160734818
 20
148.9146651588374
 30
0.0
 10
128.2606672198827
 20
148.9691560134546
 30
0.0
 10
128.3579870319233
 20
149.0142331704416
 30
0.0
 10
128.4136984957
 20
149.0400379305
 30
0.0
 11
127.9746454118
 21
148.8399449129
 31
0.0
 11
127.9888669077
 21
148.8493761715
 31
0.0
 11
128.0355706816
 21
148.8712057758
 31
0.0
 11
128.1201556716
 21
148.9082094763
 31
0.0
 11
128.246128752
 21
148.9635198166
 31
0.0
 11
128.4136984957
 21
149.0400379305
 31
0.0
  0
SPLINE
  5
3AA
330
20
100
AcDbEntity
  8
0
  6
Continuous
100
AcDbSpline
210
0.0
220
0.0
230
1.0
 70
     8
 71
     3
 72
    12
 73
     8
 74
     6
 42
0.0000000001
 43
0.0000000001
 44
0.0000000001
 40
0.0
 40
0.0
 40
0.0
 40
0.0
 40
0.0202598618064355
 40
0.067111478944079
 40
0.1465323375504238
 40
0.2635871231848823
 40
0.4223277867551045
 40
0.4223277867551045
 40
0.4223277867551045
 40
0.4223277867551045
 10
126.4448112502
 20
148.3175204306
 30
0.0
 10
126.4472303535816
 20
148.3238454953259
 30
0.0
 10
126.4552437155289
 20
148.3447974866191
 30
0.0
 10
126.4847803707878
 20
148.3843076663771
 30
0.0
 10
126.5310855475015
 20
148.45057724585
 30
0.0
 10
126.6015080129355
 20
148.5459328556399
 30
0.0
 10
126.654051874777
 20
148.6213466154852
 30
0.0
 10
126.6842947505
 20
148.6647528077
 30
0.0
 11
126.4448112502
 21
148.3175204306
 31
0.0
 11
126.4525711047
 21
148.3362353086
 31
0.0
 11
126.4780194302
 21
148.3755730355
 31
0.0
 11
126.5241791143
 21
148.4402024123
 31
0.0
 11
126.5928594148
 21
148.5349908038
 31
0.0
 11
126.6842947505
 21
148.6647528077
 31
0.0
  0
SPLINE
  5
3B0
330
20
100
AcDbEntity
  8
0
  6
Continuous
100
AcDbSpline
210
0.0
220
0.0
230
1.0
 70
     8
 71
     3
 72
    15
 73
    11
 74
     9
 42
0.0000000001
 43
0.0000000001
 44
0.0000000001
 40
0.0
 40
0.0
 40
0.0
 40
0.0
 40
0.0292496786549948
 40
0.0591441516794653
 40
0.0905078476762642
 40
0.1239038405778924
 40
0.1597039775590502
 40
0.1977518153690109
 40
0.2376177950390687
 40
0.278429144857115
 40
0.278429144857115
 40
0.278429144857115
 40
0.278429144857115
 10
108.344852985
 20
193.6799528302
 30
0.0
 10
108.3350794185166
 20
193.6806498583162
 30
0.0
 10
108.3153168322209
 20
193.6820592801807
 30
0.0
 10
108.2868731967867
 20
193.69335758586
 30
0.0
 10
108.2605223719458
 20
193.7110517244699
 30
0.0
 10
108.2371500538603
 20
193.7354248885304
 30
0.0
 10
108.2176375388683
 20
193.7656213354497
 30
0.0
 10
108.2029962578945
 20
193.8007478829677
 30
0.0
 10
108.1934673179126
 20
193.8394147944144
 30
0.0
 10
108.1922723267727
 20
193.8663350020301
 30
0.0
 10
108.1916678298
 20
193.8799528302
 30
0.0
 11
108.344852985
 21
193.6799528302
 31
0.0
 11
108.3158197945
 21
193.6835049494
 31
0.0
 11
108.2878583182
 21
193.6940801733
 31
0.0
 11
108.2617863933
 21
193.7115139382
 31
0.0
 11
108.2385224089
 21
193.7354738917
 31
0.0
 11
108.2189696182
 21
193.7654628594
 31
0.0
 11
108.2041313876
 21
193.8004980542
 31
0.0
 11
108.1948324912
 21
193.8392643651
 31
0.0
 11
108.1916678298
 21
193.8799528302
 31
0.0
  0
SPLINE
  5
3B1
330
20
100
AcDbEntity
  8
0
  6
Continuous
100
AcDbSpline
210
0.0
220
0.0
230
1.0
 70
     8
 71
     3
 72
    11
 73
     7
 74
     5
 42
0.0000000001
 43
0.0000000001
 44
0.0000000001
 40
0.0
 40
0.0
 40
0.0
 40
0.0
 40
0.0995222068123548
 40
0.2026479584589874
 40
0.3060622705045624
 40
0.4058173593063779
 40
0.4058173593063779
 40
0.4058173593063779
 40
0.4058173593063779
 10
108.1916678298
 20
196.6799528302
 30
0.0
 10
108.1935862512531
 20
196.7131954665854
 30
0.0
 10
108.1974925572262
 20
196.7808844036887
 30
0.0
 10
108.2296285365393
 20
196.8787085861268
 30
0.0
 10
108.2787917102146
 20
196.9692653015421
 30
0.0
 10
108.3254355653745
 20
197.0187103698876
 30
0.0
 10
108.3483374487
 20
197.0429876339
 30
0.0
 11
108.1916678298
 21
196.6799528302
 31
0.0
 11
108.201612856
 21
196.7789768985
 31
0.0
 11
108.2324565447
 21
196.8773821195
 31
0.0
 11
108.2830148889
 21
196.9675950552
 31
0.0
 11
108.3483374487
 21
197.0429876339
 31
0.0
  0
SPLINE
  5
3C1
330
20
100
AcDbEntity
  8
0
  6
Continuous
100
AcDbSpline
210
0.0
220
0.0
230
1.0
 70
     8
 71
     3
 72
    10
 73
     6
 74
     4
 42
0.0000000001
 43
0.0000000001
 44
0.0000000001
 40
0.0
 40
0.0
 40
0.0
 40
0.0
 40
0.0285403378655049
 40
0.0972616759178867
 40
0.2047583459490861
 40
0.2047583459490861
 40
0.2047583459490861
 40
0.2047583459490861
 10
136.3540211488
 20
183.3199607475
 30
0.0
 10
136.3555835407406
 20
183.3105751459134
 30
0.0
 10
136.3609079646946
 20
183.2785902638804
 30
0.0
 10
136.3763524294155
 20
183.212070654447
 30
0.0
 10
136.3893811291833
 20
183.1548025010644
 30
0.0
 10
136.3973289085
 20
183.1198677299
 30
0.0
 11
136.3540211488
 21
183.3199607475
 31
0.0
 11
136.3588815538
 21
183.2918373169
 31
0.0
 11
136.37338769
 21
183.224664448
 31
0.0
 11
136.3973289085
 21
183.1198677299
 31
0.0
  0
SPLINE
  5
3C3
330
20
100
AcDbEntity
  8
0
  6
Continuous
100
AcDbSpline
210
0.0
220
0.0
230
1.0
 70
     8
 71
     3
 72
    14
 73
    10
 74
     8
 42
0.0000000001
 43
0.0000000001
 44
0.0000000001
 40
0.0
 40
0.0
 40
0.0
 40
0.0
 40
0.1833299758521496
 40
0.386274218419898
 40
0.5759237317975963
 40
0.7177871843801461
 40
0.8083343999158651
 40
0.8562474517918679
 40
0.8704905402405698
 40
0.8704905402405698
 40
0.8704905402405698
 40
0.8704905402405698
 10
106.9171752161
 20
190.301640018
 30
0.0
 10
106.8560646507466
 20
190.3029051942468
 30
0.0
 10
106.7273053697869
 20
190.3055709065158
 30
0.0
 10
106.5359206493049
 20
190.321945286418
 30
0.0
 10
106.3589142106921
 20
190.3421505094508
 30
0.0
 10
106.2195562446648
 20
190.3615348118325
 30
0.0
 10
106.1272056355343
 20
190.375776358134
 30
0.0
 10
106.0769612327109
 20
190.3839291183715
 30
0.0
 10
106.0565265865025
 20
190.3873482583782
 30
0.0
 10
106.0518439844
 20
190.3881317548
 30
0.0
 11
106.9171752161
 21
190.301640018
 31
0.0
 11
106.7339329076
 21
190.3073089175
 31
0.0
 11
106.5316201837
 21
190.3233066467
 31
0.0
 11
106.3431969241
 21
190.3448383249
 31
0.0
 11
106.2026766715
 21
190.3643138939
 31
0.0
 11
106.1131843976
 21
190.3780954451
 31
0.0
 11
106.0658926707
 21
190.3857865508
 31
0.0
 11
106.0518439844
 21
190.3881317548
 31
0.0
  0
SPLINE
  5
3C9
330
20
100
AcDbEntity
  8
0
  6
Continuous
100
AcDbSpline
210
0.0
220
0.0
230
1.0
 70
     8
 71
     3
 72
    10
 73
     6
 74
     4
 42
0.0000000001
 43
0.0000000001
 44
0.0000000001
 40
0.0
 40
0.0
 40
0.0
 40
0.0
 40
0.1075232123095874
 40
0.1762477683237336
 40
0.2047583566284938
 40
0.2047583566284938
 40
0.2047583566284938
 40
0.2047583566284938
 10
136.3973289085
 20
149.0400379305
 30
0.0
 10
136.3893792783634
 20
149.0050945156568
 30
0.0
 10
136.376348561177
 20
148.9478166614015
 30
0.0
 10
136.3609036815591
 20
148.881297089645
 30
0.0
 10
136.3555816395927
 20
148.8493207768922
 30
0.0
 10
136.3540211488
 20
148.8399449129
 30
0.0
 11
136.3973289085
 21
149.0400379305
 31
0.0
 11
136.373381905
 21
148.9352153079
 31
0.0
 11
136.3588756334
 21
148.8680391761
 31
0.0
 11
136.3540211488
 21
148.8399449129
 31
0.0
  0
ARC
  5
432
330
20
100
AcDbEntity
  8
0
100
AcDbCircle
 10
116.7016493722639
 20
151.2222313260596
 30
0.0
 40
52.81337466984627
100
AcDbArc
 50
82.10975905088095
 51
97.89024094911903
  0
LINE
  5
433
330
20
100
AcDbEntity
  8
0
100
AcDbLine
 10
109.4541606332
 20
203.5356143467
 30
0.0
 11
123.949140372
 21
203.5356143467
 31
0.0
  0
ELLIPSE
  5
437
330
20
100
AcDbEntity
  8
0
100
AcDbEllipse
 10
117.7004471725711
 20
167.1071432416779
 30
0.0
 11
-0.0012036665485056
 21
-5.084611088127988
 31
0.0
210
0.0
220
0.0
230
0.9999999999999998
 40
0.9730638783848397
 41
0.0
 42
6.283185307179586
  0
ELLIPSE
  5
438
330
20
100
AcDbEntity
  8
0
100
AcDbEllipse
 10
117.7015314563535
 20
167.1071159337881
 30
0.0
 11
-0.0021541974233372
 21
-4.519575541215431
 31
0.0
210
0.0
220
0.0
230
1.0
 40
0.9732430547222153
 41
0.0
 42
6.283185307179586
  0
ELLIPSE
  5
439
330
20
100
AcDbEntity
  8
0
100
AcDbEllipse
 10
117.7016448216841
 20
167.0799400946045
 30
0.0
 11
-0.002245692096011001
 21
-4.400012163493158
 31
0.0
210
0.0
220
0.0
230
1.0
 40
0.9998112034167075
 41
0.0
 42
6.283185307179586
  0
ARC
  5
43A
330
20
100
AcDbEntity
  8
0
100
AcDbCircle
 10
128.4516508442032
 20
185.8299526920032
 30
0.0
 40
2.499999900803278
100
AcDbArc
 50
179.9999968327635
 51
270.0000005532547
  0
ARC
  5
43B
330
20
100
AcDbEntity
  8
0
100
AcDbCircle
 10
127.2343424636324
 20
181.0475598889552
 30
0.0
 40
3.064469658703642
100
AcDbArc
 50
100.347978325802
 51
148.9480920674751
  0
ARC
  5
43C
330
20
100
AcDbEntity
  8
0
100
AcDbCircle
 10
116.7617281228259
 20
203.1044525362786
 30
0.0
 40
21.92839250989593
100
AcDbArc
 50
257.4430857902489
 51
290.9687946037642
  0
ARC
  5
43D
330
20
100
AcDbEntity
  8
0
100
AcDbCircle
 10
112.0876610398955
 20
185.4901066917955
 30
0.0
 40
3.790681042148911
100
AcDbArc
 50
241.2254579937295
 51
268.5885787221121
  0
ARC
  5
43E
330
20
100
AcDbEntity
  8
0
100
AcDbCircle
 10
104.7503416209243
 20
178.400486109565
 30
0.0
 40
6.67677750850114
100
AcDbArc
 50
34.34647053233508
 51
55.50495995173904
  0
LINE
  5
440
330
20
100
AcDbEntity
  8
0
100
AcDbLine
 10
103.6800780681
 20
185.5799528302
 30
0.0
 11
108.5316336918999
 21
183.9033206675
 31
0.0
  0
ARC
  5
442
330
20
100
AcDbEntity
  8
0
100
AcDbCircle
 10
124.2246628567208
 20
179.5343444832099
 30
0.0
 40
5.66003877215229
100
AcDbArc
 50
319.0269972837772
 51
41.97699839480204
  0
ARC
  5
443
330
20
100
AcDbEntity
  8
0
100
AcDbCircle
 10
110.5372730252394
 20
166.0799528302
 30
0.0
 40
19.34991182412457
100
AcDbArc
 50
337.4956517373118
 51
22.50434826268839
  0
ARC
  5
444
330
20
100
AcDbEntity
  8
0
100
AcDbCircle
 10
124.496946184984
 20
152.7431616119
 30
0.0
 40
5.390183082534829
100
AcDbArc
 50
316.6059071667468
 51
43.39409283325319
  0
ARC
  5
445
330
20
100
AcDbEntity
  8
0
100
AcDbCircle
 10
121.3082434634022
 20
179.4361106241495
 30
0.0
 40
15.54147461742393
100
AcDbArc
 50
346.1418020984055
 51
14.50977794243232
  0
ARC
  5
446
330
20
100
AcDbEntity
  8
0
100
AcDbCircle
 10
75.99659179489174
 20
166.0799528302001
 30
0.0
 40
60.85311449603606
100
AcDbArc
 50
353.0093738584187
 51
6.990626141581053
  0
ARC
  5
447
330
20
100
AcDbEntity
  8
0
100
AcDbCircle
 10
121.3481997127366
 20
152.7286761294716
 30
0.0
 40
15.50151306956056
100
AcDbArc
 50
345.4715089627563
 51
13.87605506559298
  0
ARC
  5
449
330
20
100
AcDbEntity
  8
0
100
AcDbCircle
 10
118.3973256881527
 20
178.45657333005
 30
0.0
 40
23.21149642645766
100
AcDbArc
 50
170.6441840657626
 51
189.3558159342374
  0
ARC
  5
44A
330
20
100
AcDbEntity
  8
0
100
AcDbCircle
 10
104.3595492523454
 20
178.5606279355023
 30
0.0
 40
14.47473675731468
100
AcDbArc
 50
165.3635675898184
 51
194.1728788509688
  0
LINE
  5
44B
330
20
100
AcDbEntity
  8
0
100
AcDbLine
 10
90.32540382009999
 20
175.0165108127
 30
0.0
 11
90.35453662640001
 21
174.6831938299
 31
0.0
  0
ARC
  5
44C
330
20
100
AcDbEntity
  8
0
100
AcDbCircle
 10
187.3380415774512
 20
166.0799528301999
 30
0.0
 40
92.15202098770025
100
AcDbArc
 50
175.3098701279859
 51
184.6901298720139
  0
ARC
  5
44D
330
20
100
AcDbEntity
  8
0
100
AcDbCircle
 10
152.4609688970951
 20
166.2000433653408
 30
0.0
 40
62.57642527268064
100
AcDbArc
 50
173.1948453039342
 51
187.0266795394701
  0
ARC
  5
44E
330
20
100
AcDbEntity
  8
0
100
AcDbCircle
 10
104.4296999592406
 20
153.5935777921837
 30
0.0
 40
14.54415245754156
100
AcDbArc
 50
165.873015043799
 51
194.5897814317403
  0
ARC
  5
44F
330
20
100
AcDbEntity
  8
0
100
AcDbCircle
 10
119.6007081640743
 20
153.6091870156999
 30
0.0
 40
24.41468779934693
100
AcDbArc
 50
171.6767663642944
 51
188.3232336357052
  0
LINE
  5
450
330
20
100
AcDbEntity
  8
0
100
AcDbLine
 10
95.44317610180001
 20
157.1433948477
 30
0.0
 11
95.49459280529999
 21
157.4767118305
 31
0.0
  0
LINE
  5
451
330
20
100
AcDbEntity
  8
0
100
AcDbLine
 10
90.32540382009999
 20
157.1433948477
 30
0.0
 11
90.35453662640001
 21
157.4767118305
 31
0.0
  0
LINE
  5
452
330
20
100
AcDbEntity
  8
0
100
AcDbLine
 10
95.44317610180001
 20
150.0749791837
 30
0.0
 11
95.47029710676853
 21
150.0088707187734
 31
0.0
  0
LINE
  5
453
330
20
100
AcDbEntity
  8
0
100
AcDbLine
 10
95.47029710676853
 20
150.0088707187734
 30
0.0
 11
95.49459280529999
 21
149.9417340764
 31
0.0
  0
ARC
  5
455
330
20
100
AcDbEntity
  8
0
100
AcDbCircle
 10
116.7016509407743
 20
190.02532146051
 30
0.0
 40
13.22160640129007
100
AcDbArc
 50
73.43905992096416
 51
106.5609400552945
  0
ARC
  5
456
330
20
100
AcDbEntity
  8
0
100
AcDbCircle
 10
110.1712107945775
 20
199.6147477025769
 30
0.0
 40
3.632351069123251
100
AcDbArc
 50
58.09839732330662
 51
121.9016034729483
  0
ARC
  5
457
330
20
100
AcDbEntity
  8
0
100
AcDbCircle
 10
123.2320912304901
 20
199.6147472281984
 30
0.0
 40
3.632351544951524
100
AcDbArc
 50
58.09840376819676
 51
121.9016005717592
  0
ARC
  5
459
330
20
100
AcDbEntity
  8
0
100
AcDbCircle
 10
110.1712107958301
 20
201.88949553032
 30
0.0
 40
3.632351064808213
100
AcDbArc
 50
238.0983964614105
 51
301.9016026957906
  0
ARC
  5
45A
330
20
100
AcDbEntity
  8
0
100
AcDbCircle
 10
116.7016509407743
 20
211.47892177669
 30
0.0
 40
13.22160640129007
100
AcDbArc
 50
253.4390599447054
 51
286.5609400790358
  0
ARC
  5
45B
330
20
100
AcDbEntity
  8
0
100
AcDbCircle
 10
123.2320912599234
 20
201.8894961101218
 30
0.0
 40
3.632351646352571
100
AcDbArc
 50
238.0983998770131
 51
301.9015946892819
  0
ARC
  5
45C
330
20
100
AcDbEntity
  8
0
100
AcDbCircle
 10
116.7016502873583
 20
211.8727026190652
 30
0.0
 40
14.04841222155859
100
AcDbArc
 50
253.9369241087384
 51
286.0630750052963
  0
ARC
  5
45D
330
20
100
AcDbEntity
  8
0
100
AcDbCircle
 10
122.9544632533999
 20
201.5426934518086
 30
0.0
 40
3.71831151416886
100
AcDbArc
 50
238.4863941806425
 51
301.5136115387498
  0
ARC
  5
45E
330
20
100
AcDbEntity
  8
0
100
AcDbCircle
 10
110.4470274323889
 20
201.5491182016533
 30
0.0
 40
3.724735903489647
100
AcDbArc
 50
238.5142995726957
 51
301.4856997999703
  0
LINE
  5
460
330
20
100
AcDbEntity
  8
0
100
AcDbLine
 10
120.4702713393
 20
198.8057859514
 30
0.0
 11
121.3125312532
 21
198.8057860291725
 31
0.0
  0
ARC
  5
462
330
20
100
AcDbEntity
  8
0
100
AcDbCircle
 10
128.6057847223738
 20
157.0565914372153
 30
0.0
 40
0.63982084037527
100
AcDbArc
 50
189.4492831489673
 51
252.529256483862
  0
ARC
  5
463
330
20
100
AcDbEntity
  8
0
100
AcDbCircle
 10
129.1212320119108
 20
157.7439736428111
 30
0.0
 40
1.168334259541224
100
AcDbArc
 50
127.2714313138534
 51
168.9277388937613
  0
ARC
  5
464
330
20
100
AcDbEntity
  8
0
100
AcDbCircle
 10
128.6057843880001
 20
175.1033145136205
 30
0.0
 40
0.6398204628564632
100
AcDbArc
 50
107.4707227652315
 51
170.5507375907079
  0
ARC
  5
465
330
20
100
AcDbEntity
  8
0
100
AcDbCircle
 10
129.1212016695188
 20
174.4159131308003
 30
0.0
 40
1.168300854870505
100
AcDbArc
 50
191.0716378777084
 51
232.7291919137489
  0
ARC
  5
466
330
20
100
AcDbEntity
  8
0
100
AcDbCircle
 10
140.8821080683782
 20
157.5599953803
 30
0.0
 40
4.62099494381504
100
AcDbArc
 50
166.0537886400142
 51
193.9462113599853
  0
ARC
  5
467
330
20
100
AcDbEntity
  8
0
100
AcDbCircle
 10
150.5802986616338
 20
174.5999102800506
 30
0.0
 40
14.22662929776701
100
AcDbArc
 50
175.5100929350701
 51
184.4899070649373
  0
LINE
  5
515
330
20
100
AcDbEntity
  8
0
  6
CENTRO2
 48
0.75
100
AcDbLine
 10
69.82665094339998
 20
166.0799528302
 30
0.0
 11
162.6240578258025
 21
166.0799528302
 31
0.0
  0
ENDSEC
  0
SECTION
  2
OBJECTS
  0
DICTIONARY
  5
3CA
330
0
100
AcDbDictionary
281
     1
  3
ACAD_COLOR
350
C59
  3
ACAD_GROUP
350
3CB
  3
ACAD_LAYOUT
350
427
  3
ACAD_MATERIAL
350
C58
  3
ACAD_MLINESTYLE
350
3CC
  3
ACAD_PLOTSETTINGS
350
428
  3
ACAD_PLOTSTYLENAME
350
425
  3
ACDBHEADERROUNDTRIPXREC
350
C64
  3
AcDbVariableDictionary
350
42E
  0
DICTIONARY
  5
C59
102
{ACAD_REACTORS
330
3CA
102
}
330
3CA
100
AcDbDictionary
281
     1
  0
DICTIONARY
  5
3CB
102
{ACAD_REACTORS
330
3CA
102
}
330
3CA
100
AcDbDictionary
281
     1
  0
DICTIONARY
  5
427
102
{ACAD_REACTORS
330
3CA
102
}
330
3CA
100
AcDbDictionary
281
     1
  3
Layout1
350
42A
  3
Model
350
429
  0
DICTIONARY
  5
C58
102
{ACAD_REACTORS
330
3CA
102
}
330
3CA
100
AcDbDictionary
281
     1
  0
DICTIONARY
  5
3CC
102
{ACAD_REACTORS
330
3CA
102
}
330
3CA
100
AcDbDictionary
281
     1
  3
STANDARD
350
3CD
  0
DICTIONARY
  5
428
102
{ACAD_REACTORS
330
3CA
102
}
330
3CA
100
AcDbDictionary
281
     1
  0
ACDBDICTIONARYWDFLT
  5
425
102
{ACAD_REACTORS
330
3CA
102
}
330
3CA
100
AcDbDictionary
281
     1
  3
Normal
350
426
100
AcDbDictionaryWithDefault
340
426
  0
DICTIONARY
  5
C64
102
{ACAD_REACTORS
330
3CA
102
}
330
3CA
100
AcDbDictionary
281
     1
  3
COLORDICT
350
C65
  3
MATERIALDICT
350
C66
  0
DICTIONARY
  5
42E
102
{ACAD_REACTORS
330
3CA
102
}
330
3CA
100
AcDbDictionary
281
     1
  0
LAYOUT
  5
42A
102
{ACAD_REACTORS
330
427
102
}
330
427
100
AcDbPlotSettings
  1

  2
\\alderaan\HP LaserJet 5Si/5Si MX PS Tecnico
  4

  6

 40
0.0
 41
0.0
 42
0.0
 43
0.0
 44
0.0
 45
0.0
 46
0.0
 47
0.0
 48
0.0
 49
0.0
140
0.0
141
0.0
142
1.0
143
1.0
 70
   688
 72
     0
 73
     0
 74
     5
  7

 75
    16
147
1.0
148
0.0
149
0.0
100
AcDbLayout
  1
Layout1
 70
     0
 71
     1
 10
0.0
 20
0.0
 11
12.0
 21
9.0
 12
0.0
 22
0.0
 32
0.0
 14
1.000000000000000E+20
 24
1.000000000000000E+20
 34
1.000000000000000E+20
 15
-1.000000000000000E+20
 25
-1.000000000000000E+20
 35
-1.000000000000000E+20
146
0.0
 13
0.0
 23
0.0
 33
0.0
 16
1.0
 26
0.0
 36
0.0
 17
0.0
 27
1.0
 37
0.0
 76
     0
330
21
  0
LAYOUT
  5
429
102
{ACAD_REACTORS
330
427
102
}
330
427
100
AcDbPlotSettings
  1

  2
\\alderaan\HP LaserJet 4050 Ricerca
  4
A4
  6

 40
5.027083396911621
 41
5.069430828094482
 42
5.365737915039062
 43
5.365753173828125
 44
209.8886566162109
 45
297.0530090332031
 46
33.17
 47
0.0
 48
39.98787435451118
 49
78.25542880296835
140
409.0100005374941
141
249.6863041076424
142
1.0
143
1.287505849096123
 70
 11956
 72
     1
 73
     1
 74
     4
  7

 75
     0
147
0.7766955006084338
148
-39.98787435451118
149
-78.25542880296835
100
AcDbLayout
  1
Model
 70
     1
 71
     0
 10
0.0
 20
0.0
 11
12.0
 21
9.0
 12
0.0
 22
0.0
 32
0.0
 14
0.0
 24
0.0
 34
0.0
 15
0.0
 25
0.0
 35
0.0
146
0.0
 13
0.0
 23
0.0
 33
0.0
 16
1.0
 26
0.0
 36
0.0
 17
0.0
 27
1.0
 37
0.0
 76
     0
330
20
  0
MLINESTYLE
  5
3CD
102
{ACAD_REACTORS
330
3CC
102
}
330
3CC
100
AcDbMlineStyle
  2
STANDARD
 70
     0
  3

 62
     0
 51
90.00000000000019
 52
90.00000000000019
 71
     2
 49
0.5
 62
   256
  6
BYLAYER
 49
-0.5
 62
   256
  6
BYLAYER
  0
ACDBPLACEHOLDER
  5
426
102
{ACAD_REACTORS
330
425
102
}
330
425
  0
XRECORD
  5
C65
102
{ACAD_REACTORS
330
C64
102
}
330
C64
100
AcDbXrecord
280
     1
340
C59
  0
XRECORD
  5
C66
102
{ACAD_REACTORS
330
C64
102
}
330
C64
100
AcDbXrecord
280
     1
340
C58
  0
ENDSEC
  0
EOF
