  0
SECTION
  2
HEADER
  9
$ACADVER
  1
AC1015
  9
$ACADMAINTVER
 70
     6
  9
$DWGCODEPAGE
  3
ANSI_1252
  9
$INSBASE
 10
0.0
 20
0.0
 30
0.0
  9
$EXTMIN
 10
46.23780546847753
 20
73.4909528048
 30
-8.891451256799998
  9
$EXTMAX
 10
366.5811790974013
 20
258.6438856374006
 30
27.0029780183
  9
$LIMMIN
 10
0.0
 20
0.0
  9
$LIMMAX
 10
420.0
 20
297.0
  9
$ORTHOMODE
 70
     0
  9
$REGENMODE
 70
     1
  9
$FILLMODE
 70
     1
  9
$QTEXTMODE
 70
     0
  9
$MIRRTEXT
 70
     1
  9
$LTSCALE
 40
23.1
  9
$ATTMODE
 70
     1
  9
$TEXTSIZE
 40
0.2
  9
$TRACEWID
 40
0.05
  9
$TEXTSTYLE
  7
STANDARD
  9
$CLAYER
  8
0
  9
$CELTYPE
  6
BYLAYER
  9
$CECOLOR
 62
   256
  9
$CELTSCALE
 40
1.0
  9
$DISPSILH
 70
     0
  9
$DIMSCALE
 40
1.0
  9
$DIMASZ
 40
3.0
  9
$DIMEXO
 40
2.625
  9
$DIMDLI
 40
15.96
  9
$DIMRND
 40
0.0
  9
$DIMDLE
 40
0.0
  9
$DIMEXE
 40
7.559999999999999
  9
$DIMTP
 40
0.0
  9
$DIMTM
 40
0.0
  9
$DIMTXT
 40
0.18
  9
$DIMCEN
 40
3.779999999999999
  9
$DIMTSZ
 40
0.0
  9
$DIMTOL
 70
     0
  9
$DIMLIM
 70
     0
  9
$DIMTIH
 70
     1
  9
$DIMTOH
 70
     1
  9
$DIMSE1
 70
     0
  9
$DIMSE2
 70
     0
  9
$DIMTAD
 70
     0
  9
$DIMZIN
 70
     0
  9
$DIMBLK
  1

  9
$DIMASO
 70
     1
  9
$DIMSHO
 70
     1
  9
$DIMPOST
  1

  9
$DIMAPOST
  1

  9
$DIMALT
 70
     0
  9
$DIMALTD
 70
     2
  9
$DIMALTF
 40
25.4
  9
$DIMLFAC
 40
1.0
  9
$DIMTOFL
 70
     0
  9
$DIMTVP
 40
0.0
  9
$DIMTIX
 70
     0
  9
$DIMSOXD
 70
     0
  9
$DIMSAH
 70
     0
  9
$DIMBLK1
  1

  9
$DIMBLK2
  1

  9
$DIMSTYLE
  2
STANDARD
  9
$DIMCLRD
 70
     0
  9
$DIMCLRE
 70
     0
  9
$DIMCLRT
 70
     0
  9
$DIMTFAC
 40
1.0
  9
$DIMGAP
 40
0.09
  9
$DIMJUST
 70
     0
  9
$DIMSD1
 70
     0
  9
$DIMSD2
 70
     0
  9
$DIMTOLJ
 70
     1
  9
$DIMTZIN
 70
     0
  9
$DIMALTZ
 70
     0
  9
$DIMALTTZ
 70
     0
  9
$DIMUPT
 70
     0
  9
$DIMDEC
 70
     4
  9
$DIMTDEC
 70
     4
  9
$DIMALTU
 70
     2
  9
$DIMALTTD
 70
     2
  9
$DIMTXSTY
  7
STANDARD
  9
$DIMAUNIT
 70
     0
  9
$DIMADEC
 70
     0
  9
$DIMALTRND
 40
0.0
  9
$DIMAZIN
 70
     0
  9
$DIMDSEP
 70
    46
  9
$DIMATFIT
 70
     3
  9
$DIMFRAC
 70
     0
  9
$DIMLDRBLK
  1

  9
$DIMLUNIT
 70
     2
  9
$DIMLWD
 70
    -2
  9
$DIMLWE
 70
    -2
  9
$DIMTMOVE
 70
     0
  9
$LUNITS
 70
     2
  9
$LUPREC
 70
     4
  9
$SKETCHINC
 40
0.1
  9
$FILLETRAD
 40
0.0
  9
$AUNITS
 70
     0
  9
$AUPREC
 70
     0
  9
$MENU
  1
acad
  9
$ELEVATION
 40
0.0
  9
$PELEVATION
 40
0.0
  9
$THICKNESS
 40
0.0
  9
$LIMCHECK
 70
     0
  9
$CHAMFERA
 40
0.0
  9
$CHAMFERB
 40
0.0
  9
$CHAMFERC
 40
0.0
  9
$CHAMFERD
 40
0.0
  9
$SKPOLY
 70
     0
  9
$TDCREATE
 40
2444972.041666667
  9
$TDUCREATE
 40
2444972.0
  9
$TDUPDATE
 40
2453409.729371296
  9
$TDUUPDATE
 40
2453409.68770463
  9
$TDINDWG
 40
0.1021195023
  9
$TDUSRTIMER
 40
0.1021195023
  9
$USRTIMER
 70
     1
  9
$ANGBASE
 50
0.0
  9
$ANGDIR
 70
     0
  9
$PDMODE
 70
     0
  9
$PDSIZE
 40
0.0
  9
$PLINEWID
 40
0.0
  9
$SPLFRAME
 70
     0
  9
$SPLINETYPE
 70
     6
  9
$SPLINESEGS
 70
     8
  9
$HANDSEED
  5
BDE
  9
$SURFTAB1
 70
     6
  9
$SURFTAB2
 70
     6
  9
$SURFTYPE
 70
     6
  9
$SURFU
 70
     6
  9
$SURFV
 70
     6
  9
$UCSBASE
  2

  9
$UCSNAME
  2

  9
$UCSORG
 10
0.0
 20
0.0
 30
0.0
  9
$UCSXDIR
 10
1.0
 20
0.0
 30
0.0
  9
$UCSYDIR
 10
0.0
 20
1.0
 30
0.0
  9
$UCSORTHOREF
  2

  9
$UCSORTHOVIEW
 70
     0
  9
$UCSORGTOP
 10
0.0
 20
0.0
 30
0.0
  9
$UCSORGBOTTOM
 10
0.0
 20
0.0
 30
0.0
  9
$UCSORGLEFT
 10
0.0
 20
0.0
 30
0.0
  9
$UCSORGRIGHT
 10
0.0
 20
0.0
 30
0.0
  9
$UCSORGFRONT
 10
0.0
 20
0.0
 30
0.0
  9
$UCSORGBACK
 10
0.0
 20
0.0
 30
0.0
  9
$PUCSBASE
  2

  9
$PUCSNAME
  2

  9
$PUCSORG
 10
0.0
 20
0.0
 30
0.0
  9
$PUCSXDIR
 10
1.0
 20
0.0
 30
0.0
  9
$PUCSYDIR
 10
0.0
 20
1.0
 30
0.0
  9
$PUCSORTHOREF
  2

  9
$PUCSORTHOVIEW
 70
     0
  9
$PUCSORGTOP
 10
0.0
 20
0.0
 30
0.0
  9
$PUCSORGBOTTOM
 10
0.0
 20
0.0
 30
0.0
  9
$PUCSORGLEFT
 10
0.0
 20
0.0
 30
0.0
  9
$PUCSORGRIGHT
 10
0.0
 20
0.0
 30
0.0
  9
$PUCSORGFRONT
 10
0.0
 20
0.0
 30
0.0
  9
$PUCSORGBACK
 10
0.0
 20
0.0
 30
0.0
  9
$USERI1
 70
     0
  9
$USERI2
 70
     0
  9
$USERI3
 70
     0
  9
$USERI4
 70
     0
  9
$USERI5
 70
     0
  9
$USERR1
 40
0.0
  9
$USERR2
 40
0.0
  9
$USERR3
 40
0.0
  9
$USERR4
 40
0.0
  9
$USERR5
 40
0.0
  9
$WORLDVIEW
 70
     1
  9
$SHADEDGE
 70
     3
  9
$SHADEDIF
 70
    70
  9
$TILEMODE
 70
     1
  9
$MAXACTVP
 70
    16
  9
$PINSBASE
 10
0.0
 20
0.0
 30
0.0
  9
$PLIMCHECK
 70
     0
  9
$PEXTMIN
 10
1.000000000000000E+20
 20
1.000000000000000E+20
 30
1.000000000000000E+20
  9
$PEXTMAX
 10
-1.000000000000000E+20
 20
-1.000000000000000E+20
 30
-1.000000000000000E+20
  9
$PLIMMIN
 10
0.0
 20
0.0
  9
$PLIMMAX
 10
12.0
 20
9.0
  9
$UNITMODE
 70
     0
  9
$VISRETAIN
 70
     0
  9
$PLINEGEN
 70
     1
  9
$PSLTSCALE
 70
     0
  9
$TREEDEPTH
 70
  3020
  9
$CMLSTYLE
  2
STANDARD
  9
$CMLJUST
 70
     0
  9
$CMLSCALE
 40
1.0
  9
$PROXYGRAPHICS
 70
     1
  9
$MEASUREMENT
 70
     0
  9
$CELWEIGHT
370
    -1
  9
$ENDCAPS
280
     0
  9
$JOINSTYLE
280
     0
  9
$LWDISPLAY
290
     0
  9
$INSUNITS
 70
     0
  9
$HYPERLINKBASE
  1

  9
$STYLESHEET
  1

  9
$XEDIT
290
     1
  9
$CEPSNTYPE
380
     0
  9
$PSTYLEMODE
290
     1
  9
$FINGERPRINTGUID
  2
{0B23346E-5C7B-4C1A-B92B-80872B2AB9E1}
  9
$VERSIONGUID
  2
{DC87F81F-6BE5-4028-8136-C3BCDDF562E8}
  9
$EXTNAMES
290
     1
  9
$PSVPSCALE
 40
0.0
  9
$OLESTARTUP
290
     0
  0
ENDSEC
  0
SECTION
  2
CLASSES
  0
CLASS
  1
IMAGE
  2
AcDbRasterImage
  3
ISM
 90
      127
280
     0
281
     1
  0
CLASS
  1
DICTIONARYVAR
  2
AcDbDictionaryVar
  3
ObjectDBX Classes
 90
        0
280
     0
281
     0
  0
CLASS
  1
RASTERVARIABLES
  2
AcDbRasterVariables
  3
ISM
 90
        0
280
     0
281
     0
  0
CLASS
  1
IMAGEDEF
  2
AcDbRasterImageDef
  3
ISM
 90
        0
280
     0
281
     0
  0
CLASS
  1
IMAGEDEF_REACTOR
  2
AcDbRasterImageDefReactor
  3
ISM
 90
        1
280
     0
281
     0
  0
CLASS
  1
IDBUFFER
  2
AcDbIdBuffer
  3
ObjectDBX Classes
 90
        0
280
     0
281
     0
  0
CLASS
  1
SPATIAL_FILTER
  2
AcDbSpatialFilter
  3
ObjectDBX Classes
 90
        0
280
     0
281
     0
  0
CLASS
  1
SORTENTSTABLE
  2
AcDbSortentsTable
  3
ObjectDBX Classes
 90
        0
280
     0
281
     0
  0
CLASS
  1
LAYER_INDEX
  2
AcDbLayerIndex
  3
ObjectDBX Classes
 90
        0
280
     0
281
     0
  0
CLASS
  1
SPATIAL_INDEX
  2
AcDbSpatialIndex
  3
AutoCAD 2000
 90
        0
280
     0
281
     0
  0
CLASS
  1
OBJECT_PTR
  2
CAseDLPNTableRecord
  3
ASE-LPNTableRecord
 90
        1
280
     0
281
     0
  0
CLASS
  1
PLOTSETTINGS
  2
AcDbPlotSettings
  3
ObjectDBX Classes
 90
        0
280
     0
281
     0
  0
CLASS
  1
ACDBDICTIONARYWDFLT
  2
AcDbDictionaryWithDefault
  3
ObjectDBX Classes
 90
        0
280
     0
281
     0
  0
CLASS
  1
WIPEOUT
  2
AcDbWipeout
  3
WipeOut|AutoCAD Express Tool|expresstools@autodesk.com
 90
      127
280
     0
281
     1
  0
CLASS
  1
WIPEOUTVARIABLES
  2
AcDbWipeoutVariables
  3
WipeOut|AutoCAD Express Tool|expresstools@autodesk.com
 90
        0
280
     0
281
     0
  0
CLASS
  1
RTEXT
  2
RText
  3
RText|AutoCAD Express Tool|expresstools@autodesk.com
 90
        0
280
     0
281
     1
  0
CLASS
  1
ARCALIGNEDTEXT
  2
AcDbArcAlignedText
  3
ATEXT|AutoCAD Express Tool|expresstools@autodesk.com
 90
        0
280
     0
281
     1
  0
CLASS
  1
ACDBPLACEHOLDER
  2
AcDbPlaceHolder
  3
ObjectDBX Classes
 90
        0
280
     0
281
     0
  0
CLASS
  1
LAYOUT
  2
AcDbLayout
  3
ObjectDBX Classes
 90
        0
280
     0
281
     0
  0
ENDSEC
  0
SECTION
  2
TABLES
  0
TABLE
  2
VPORT
  5
6
330
0
100
AcDbSymbolTable
 70
     1
  0
VPORT
  5
BD4
330
6
100
AcDbSymbolTableRecord
100
AcDbViewportTableRecord
  2
*Active
 70
     0
 10
0.0
 20
0.0
 11
1.0
 21
1.0
 12
229.7844741922298
 22
153.4811092778341
 13
0.0
 23
0.0
 14
1.0
 24
1.0
 15
0.0
 25
0.0
 16
0.0
 26
0.0
 36
1.0
 17
0.0
 27
0.0
 37
0.0
 40
290.0409716151643
 41
1.888667992047713
 42
50.0
 43
0.0
 44
0.0
 50
0.0
 51
0.0
 71
     0
 72
   100
 73
     1
 74
     1
 75
     0
 76
     0
 77
     0
 78
     0
281
     0
 65
     1
110
0.0
120
0.0
130
0.0
111
1.0
121
0.0
131
0.0
112
0.0
122
1.0
132
0.0
 79
     0
146
0.0
  0
ENDTAB
  0
TABLE
  2
LTYPE
  5
3
330
0
100
AcDbSymbolTable
 70
     2
  0
LTYPE
  5
C
330
3
100
AcDbSymbolTableRecord
100
AcDbLinetypeTableRecord
  2
BYBLOCK
 70
     0
  3

 72
    65
 73
     0
 40
0.0
  0
LTYPE
  5
D
330
3
100
AcDbSymbolTableRecord
100
AcDbLinetypeTableRecord
  2
BYLAYER
 70
     0
  3

 72
    65
 73
     0
 40
0.0
  0
LTYPE
  5
E
330
3
100
AcDbSymbolTableRecord
100
AcDbLinetypeTableRecord
  2
CONTINUOUS
 70
     0
  3
Solid line
 72
    65
 73
     0
 40
0.0
  0
LTYPE
  5
F
330
3
100
AcDbSymbolTableRecord
100
AcDbLinetypeTableRecord
  2
CENTER
 70
     0
  3
____ _ ____ _ ____ _ ____ _ ____ _ ____ _ ____
 72
    65
 73
     4
 40
0.6
 49
0.375
 74
     0
 49
-0.075
 74
     0
 49
0.075
 74
     0
 49
-0.075
 74
     0
  0
ENDTAB
  0
TABLE
  2
LAYER
  5
1
330
0
100
AcDbSymbolTable
 70
     3
  0
LAYER
  5
14
330
1
100
AcDbSymbolTableRecord
100
AcDbLayerTableRecord
  2
0
 70
     0
 62
     7
  6
CONTINUOUS
370
    -3
390
65A
  0
LAYER
  5
15
330
1
100
AcDbSymbolTableRecord
100
AcDbLayerTableRecord
  2
DEFAULT_1
 70
     0
 62
     7
  6
CENTER
370
    -3
390
65A
  0
LAYER
  5
661
330
1
100
AcDbSymbolTableRecord
100
AcDbLayerTableRecord
  2
Defpoints
 70
     0
 62
     7
  6
CONTINUOUS
290
     0
370
    -3
390
65A
  0
ENDTAB
  0
TABLE
  2
STYLE
  5
2
330
0
100
AcDbSymbolTable
 70
     1
  0
STYLE
  5
1D
330
2
100
AcDbSymbolTableRecord
100
AcDbTextStyleTableRecord
  2
STANDARD
 70
     0
 40
0.0
 41
1.0
 50
0.0
 71
     0
 42
0.2
  3
txt
  4

  0
ENDTAB
  0
TABLE
  2
VIEW
  5
4
330
0
100
AcDbSymbolTable
 70
     0
  0
ENDTAB
  0
TABLE
  2
UCS
  5
5
330
0
100
AcDbSymbolTable
 70
     0
  0
ENDTAB
  0
TABLE
  2
APPID
  5
7
330
0
100
AcDbSymbolTable
 70
     1
  0
APPID
  5
1B
330
7
100
AcDbSymbolTableRecord
100
AcDbRegAppTableRecord
  2
ACAD
 70
     0
  0
ENDTAB
  0
TABLE
  2
DIMSTYLE
  5
8
330
0
100
AcDbSymbolTable
 70
     1
100
AcDbDimStyleTable
  0
DIMSTYLE
105
2F
330
8
100
AcDbSymbolTableRecord
100
AcDbDimStyleTableRecord
  2
STANDARD
 70
     0
 47
0.003
 48
0.003
 71
     1
140
1.5
146
0.6
289
     0
340
1D
  0
ENDTAB
  0
TABLE
  2
BLOCK_RECORD
  5
2A
330
0
100
AcDbSymbolTable
 70
     0
  0
BLOCK_RECORD
  5
28
330
2A
100
AcDbSymbolTableRecord
100
AcDbBlockTableRecord
  2
*MODEL_SPACE
340
65D
  0
BLOCK_RECORD
  5
29
330
2A
100
AcDbSymbolTableRecord
100
AcDbBlockTableRecord
  2
*PAPER_SPACE
340
65E
  0
ENDTAB
  0
ENDSEC
  0
SECTION
  2
BLOCKS
  0
BLOCK
  5
2B
330
28
100
AcDbEntity
  8
0
100
AcDbBlockBegin
  2
*MODEL_SPACE
 70
     0
 71
     0
 10
0.0
 20
0.0
 30
0.0
  3
*MODEL_SPACE
  1

  0
ENDBLK
  5
2C
330
28
100
AcDbEntity
  8
0
100
AcDbBlockEnd
  0
BLOCK
  5
2D
330
29
100
AcDbEntity
 67
     1
  8
0
100
AcDbBlockBegin
  2
*PAPER_SPACE
 70
     0
 71
     0
 10
0.0
 20
0.0
 30
0.0
  3
*PAPER_SPACE
  1

  0
ENDBLK
  5
2E
330
29
100
AcDbEntity
 67
     1
  8
0
100
AcDbBlockEnd
  0
ENDSEC
  0
SECTION
  2
ENTITIES
  0
LINE
  5
42
330
28
100
AcDbEntity
  8
0
  6
Continuous
 62
     0
100
AcDbLine
 10
109.5261638475
 20
122.6086256219
 30
0.0
 11
107.3790653935
 21
124.7557240759
 31
0.0
  0
LINE
  5
43
330
28
100
AcDbEntity
  8
0
  6
Continuous
 62
     0
100
AcDbLine
 10
107.0861721766
 20
171.6341271507
 30
0.0
 11
107.0861721766
 21
125.4631074349
 31
0.0
  0
LINE
  5
46
330
28
100
AcDbEntity
  8
0
  6
Continuous
 62
     0
100
AcDbLine
 10
109.5261638475
 20
122.6086256219
 30
0.0
 11
109.5261638475
 21
174.4886089637
 31
0.0
  0
LINE
  5
47
330
28
100
AcDbEntity
  8
0
  6
Continuous
 62
     0
100
AcDbLine
 10
126.807082955
 20
122.5080881756
 30
0.0
 11
126.807082955
 21
174.58914641
 31
0.0
  0
LINE
  5
48
330
28
100
AcDbEntity
  8
0
  6
Continuous
 62
     0
100
AcDbLine
 10
131.0861721766
 20
172.668618132
 30
0.0
 11
131.0861721766
 21
124.4286164536
 31
0.0
  0
LINE
  5
49
330
28
100
AcDbEntity
  8
0
  6
Continuous
 62
     0
100
AcDbLine
 10
109.5261638475
 20
174.4886089637
 30
0.0
 11
107.3790653935
 21
172.3415105097
 31
0.0
  0
LINE
  5
4E
330
28
100
AcDbEntity
  8
0
  6
Continuous
 62
     0
100
AcDbLine
 10
205.7817260692
 20
107.5486172928
 30
0.0
 11
201.3817260692
 21
107.5486172928
 31
0.0
  0
LINE
  5
4F
330
28
100
AcDbEntity
  8
0
  6
Continuous
 62
     0
100
AcDbLine
 10
205.7817260692
 20
107.5486172928
 30
0.0
 11
208.3817260692
 21
107.5486172928
 31
0.0
  0
LINE
  5
5F
330
28
100
AcDbEntity
  8
0
  6
Continuous
 62
     0
100
AcDbLine
 10
148.3007004179
 20
183.8486172785
 30
0.0
 11
148.3007004179
 21
113.2489170372
 31
0.0
  0
LINE
  5
61
330
28
100
AcDbEntity
  8
0
  6
Continuous
 62
     0
100
AcDbLine
 10
151.1459998795
 20
111.2486172928
 30
0.0
 11
151.1459998795
 21
185.8486172928
 31
0.0
  0
LINE
  5
62
330
28
100
AcDbEntity
  8
0
  6
Continuous
 62
     0
100
AcDbLine
 10
152.8780506871
 20
137.7964933948
 30
0.0
 11
152.8780506871
 21
122.0897711414
 31
0.0
  0
LINE
  5
63
330
28
100
AcDbEntity
  8
0
  6
Continuous
 62
     0
100
AcDbLine
 10
152.8780506871
 20
111.3376472434
 30
0.0
 11
152.8780506871
 21
110.2486172928
 31
0.0
  0
LINE
  5
64
330
28
100
AcDbEntity
  8
0
  6
Continuous
 62
     0
100
AcDbLine
 10
152.8780506871
 20
159.3007411908
 30
0.0
 11
152.8780506871
 21
175.0074634442
 31
0.0
  0
LINE
  5
65
330
28
100
AcDbEntity
  8
0
  6
Continuous
 62
     0
100
AcDbLine
 10
152.8780506871
 20
185.7595873422
 30
0.0
 11
152.8780506871
 21
186.8486172927999
 31
0.0
  0
LINE
  5
66
330
28
100
AcDbEntity
  8
0
  6
Continuous
 62
     0
100
AcDbLine
 10
154.6101014946
 20
189.8039474623
 30
0.0
 11
152.8780506871
 21
186.8486172927999
 31
0.0
  0
LINE
  5
67
330
28
100
AcDbEntity
  8
0
  6
Continuous
 62
     0
100
AcDbLine
 10
212.0385803187
 20
109.5486172928
 30
0.0
 11
221.7416915662
 21
109.5486172928
 31
0.0
  0
LINE
  5
68
330
28
100
AcDbEntity
  8
0
  6
Continuous
 62
     0
100
AcDbLine
 10
151.1459998795
 20
111.2486172928
 30
0.0
 11
150.3007004179
 21
111.2486172928
 31
0.0
  0
LINE
  5
69
330
28
100
AcDbEntity
  8
0
  6
Continuous
 62
     0
100
AcDbLine
 10
228.6670074435
 20
111.7486172928
 30
0.0
 11
253.896444695
 21
111.7486172928
 31
0.0
  0
LINE
  5
6D
330
28
100
AcDbEntity
  8
0
  6
Continuous
 62
     0
100
AcDbLine
 10
183.9817260692
 20
115.396323189
 30
0.0
 11
196.6722254548
 21
115.3594078447
 31
0.0
  0
LINE
  5
6F
330
28
100
AcDbEntity
  8
0
  6
Continuous
 62
     0
100
AcDbLine
 10
154.6101014946
 20
170.8393429246
 30
0.0
 11
154.6101014946
 21
167.5132134955
 31
0.0
  0
LINE
  5
70
330
28
100
AcDbEntity
  8
0
  6
Continuous
 62
     0
100
AcDbLine
 10
154.6101014946
 20
129.5840210512
 30
0.0
 11
154.6101014946
 21
126.2578917117
 31
0.0
  0
LINE
  5
72
330
28
100
AcDbEntity
  8
0
  6
Continuous
 62
     0
100
AcDbLine
 10
156.3421523022
 20
190.8028658683
 30
0.0
 11
156.3421523022
 21
190.5370798638
 31
0.0
  0
LINE
  5
73
330
28
100
AcDbEntity
  8
0
  6
Continuous
 62
     0
100
AcDbLine
 10
156.3421523022
 20
172.0316752479
 30
0.0
 11
156.3421523022
 21
167.0540219087
 31
0.0
  0
LINE
  5
74
330
28
100
AcDbEntity
  8
0
  6
Continuous
 62
     0
100
AcDbLine
 10
156.3421523022
 20
130.0432126768
 30
0.0
 11
156.3421523022
 21
125.0655593377
 31
0.0
  0
LINE
  5
76
330
28
100
AcDbEntity
  8
0
  6
Continuous
 62
     0
100
AcDbLine
 10
165.6508962604
 20
233.8881302403
 30
0.0
 11
165.0817281912
 21
225.7486476392
 31
0.0
  0
LINE
  5
79
330
28
100
AcDbEntity
  8
0
  6
Continuous
 62
     0
100
AcDbLine
 10
278.3715119037
 20
133.0250136576
 30
0.0
 11
280.1035627113
 21
133.4884048109
 31
0.0
  0
LINE
  5
7B
330
28
100
AcDbEntity
  8
0
  6
Continuous
 62
     0
100
AcDbLine
 10
265.2670074435
 20
118.1486172928
 30
0.0
 11
273.1176244541
 21
118.1486172928
 31
0.0
  0
LINE
  5
7C
330
28
100
AcDbEntity
  8
0
  6
Continuous
 62
     0
100
AcDbLine
 10
179.3959396316
 20
118.5486172928
 30
0.0
 11
182.9817260692
 21
118.5486172928
 31
0.0
  0
LINE
  5
7D
330
28
100
AcDbEntity
  8
0
  6
Continuous
 62
     0
100
AcDbLine
 10
148.3007004179
 20
122.4455656004
 30
0.0
 11
126.807082955
 21
122.5080881756
 31
0.0
  0
LINE
  5
7E
330
28
100
AcDbEntity
  8
0
  6
Continuous
 62
     0
100
AcDbLine
 10
126.807082955
 20
122.5080881756
 30
0.0
 11
109.5261638475
 21
122.6086256219
 31
0.0
  0
LINE
  5
7F
330
28
100
AcDbEntity
  8
0
  6
Continuous
 62
     0
100
AcDbLine
 10
201.3817260692
 20
107.5486172928
 30
0.0
 11
201.0505758044
 21
107.8797675576
 31
0.0
  0
LINE
  5
80
330
28
100
AcDbEntity
  8
0
  6
Continuous
 62
     0
100
AcDbLine
 10
165.0817260692
 20
225.7486172928
 30
0.0
 11
165.6640394022
 21
209.0733452006
 31
0.0
  0
LINE
  5
AF
330
28
100
AcDbEntity
  8
0
  6
Continuous
 62
     0
100
AcDbLine
 10
176.6525701118
 20
125.0655593377
 30
0.0
 11
156.3421522416
 21
125.0655593377
 31
0.0
  0
LINE
  5
B2
330
28
100
AcDbEntity
  8
0
  6
Continuous
 62
     0
100
AcDbLine
 10
298.2810797597
 20
129.4051410972
 30
0.0
 11
280.1035627113
 21
129.4051410972
 31
0.0
  0
LINE
  5
B3
330
28
100
AcDbEntity
  8
0
  6
Continuous
 62
     0
100
AcDbLine
 10
156.3421523022
 20
130.0432126768
 30
0.0
 11
176.6525701118
 21
130.0432126768
 31
0.0
  0
LINE
  5
D3
330
28
100
AcDbEntity
  8
0
  6
Continuous
 62
     0
100
AcDbLine
 10
176.5294191258
 20
129.1248303138
 30
0.0
 11
176.5294191258
 21
125.7181556963
 31
0.0
  0
LINE
  5
D5
330
28
100
AcDbEntity
  8
0
  6
Continuous
 62
     0
100
AcDbLine
 10
176.5294191258
 20
167.9724042718
 30
0.0
 11
176.5294191258
 21
171.3790788893
 31
0.0
  0
LINE
  5
D8
330
28
100
AcDbEntity
  8
0
  6
Continuous
 62
     0
100
AcDbLine
 10
280.1035627113
 20
133.4884048109
 30
0.0
 11
298.2810797597
 21
133.4884048109
 31
0.0
  0
LINE
  5
DA
330
28
100
AcDbEntity
  8
0
  6
Continuous
 62
     0
100
AcDbLine
 10
179.3007004179
 20
185.9414375545
 30
0.0
 11
179.3007004179
 21
111.1557970311
 31
0.0
  0
LINE
  5
DD
330
28
100
AcDbEntity
  8
0
  6
Continuous
 62
     0
100
AcDbLine
 10
183.9817260692
 20
181.7009113966
 30
0.0
 11
183.9817260692
 21
115.396323189
 31
0.0
  0
LINE
  5
DE
330
28
100
AcDbEntity
  8
0
  6
Continuous
 62
     0
100
AcDbLine
 10
156.3421523022
 20
130.0432126771
 30
0.0
 11
154.6101014949
 21
129.5840214951
 31
0.0
  0
LINE
  5
E0
330
28
100
AcDbEntity
  8
0
  6
Continuous
 62
     0
100
AcDbLine
 10
201.3817260692
 20
189.5486172928
 30
0.0
 11
201.0505758044
 21
189.2174670279
 31
0.0
  0
LINE
  5
E1
330
28
100
AcDbEntity
  8
DEFAULT_1
  6
CENTER
 62
     0
100
AcDbLine
 10
102.0861721766
 20
148.5486172928
 30
0.0
 11
300.055580287
 21
148.5486172928
 31
0.0
  0
LINE
  5
E3
330
28
100
AcDbEntity
  8
0
  6
Continuous
 62
     0
100
AcDbLine
 10
156.3421523022
 20
167.0540219085
 30
0.0
 11
154.6101014949
 21
167.5132130904
 31
0.0
  0
LINE
  5
E4
330
28
100
AcDbEntity
  8
0
  6
Continuous
 62
     0
100
AcDbLine
 10
179.2471105971
 20
186.1414375851
 30
0.0
 11
176.5294191257999
 21
190.8028658683
 31
0.0
  0
LINE
  5
E5
330
28
100
AcDbEntity
  8
0
  6
Continuous
 62
     0
100
AcDbLine
 10
200.2174728889
 20
109.4801433682
 30
0.0
 11
199.6179220625
 21
112.8803650701
 31
0.0
  0
LINE
  5
E6
330
28
100
AcDbEntity
  8
0
  6
Continuous
 62
     0
100
AcDbLine
 10
196.6722254548
 20
181.7378267409
 30
0.0
 11
196.6722254548
 21
115.3594078447
 31
0.0
  0
LINE
  5
EA
330
28
100
AcDbEntity
  8
0
  6
Continuous
 62
     0
100
AcDbLine
 10
201.3817260692
 20
107.5486172928
 30
0.0
 11
201.3817260692
 21
189.5486172928
 31
0.0
  0
LINE
  5
EB
330
28
100
AcDbEntity
  8
0
  6
Continuous
 62
     0
100
AcDbLine
 10
200.2174728889
 20
187.6170912174
 30
0.0
 11
199.6179220625
 21
184.2168695155
 31
0.0
  0
LINE
  5
EC
330
28
100
AcDbEntity
  8
0
  6
Continuous
 62
     0
100
AcDbLine
 10
298.2810797597
 20
163.6088297747
 30
0.0
 11
280.1035627113
 21
163.6088297747
 31
0.0
  0
LINE
  5
F0
330
28
100
AcDbEntity
  8
0
  6
Continuous
 62
     0
100
AcDbLine
 10
208.3817260692
 20
189.5486172928
 30
0.0
 11
208.3817260692
 21
107.5486172928
 31
0.0
  0
LINE
  5
103
330
28
100
AcDbEntity
  8
0
  6
Continuous
 62
     0
100
AcDbLine
 10
176.6525701118
 20
167.0540219087
 30
0.0
 11
156.3421523022
 21
167.0540219087
 31
0.0
  0
LINE
  5
104
330
28
100
AcDbEntity
  8
0
  6
Continuous
 62
     0
100
AcDbLine
 10
280.1035627113
 20
167.6920934884
 30
0.0
 11
298.2810797597
 21
167.6920934884
 31
0.0
  0
LINE
  5
107
330
28
100
AcDbEntity
  8
0
  6
Continuous
 62
     0
100
AcDbLine
 10
156.3421522419
 20
172.0316752479
 30
0.0
 11
176.6525701118
 21
172.0316752479
 31
0.0
  0
LINE
  5
108
330
28
100
AcDbEntity
  8
0
  6
Continuous
 62
     0
100
AcDbLine
 10
212.0385803187
 20
187.5486172928
 30
0.0
 11
212.0385803187
 21
109.5486172928
 31
0.0
  0
LINE
  5
109
330
28
100
AcDbEntity
  8
0
  6
Continuous
 62
     0
100
AcDbLine
 10
214.2817260692
 20
201.7486172928
 30
0.0
 11
214.2817260692
 21
198.8870346886
 31
0.0
  0
LINE
  5
10B
330
28
100
AcDbEntity
  8
0
  6
Continuous
 62
     0
100
AcDbLine
 10
260.9817260692
 20
198.0889584772
 30
0.0
 11
259.0817260692
 21
196.9919929658
 31
0.0
  0
LINE
  5
11B
330
28
100
AcDbEntity
  8
0
  6
Continuous
 62
     0
100
AcDbLine
 10
126.807082955
 20
174.58914641
 30
0.0
 11
109.5261638475
 21
174.4886089637
 31
0.0
  0
LINE
  5
11C
330
28
100
AcDbEntity
  8
0
  6
Continuous
 62
     0
100
AcDbLine
 10
148.3007004179
 20
174.6516689852
 30
0.0
 11
126.807082955
 21
174.58914641
 31
0.0
  0
LINE
  5
11D
330
28
100
AcDbEntity
  8
0
  6
Continuous
 62
     0
100
AcDbLine
 10
179.3959396316
 20
178.5486172928
 30
0.0
 11
182.9817260692
 21
178.5486172928
 31
0.0
  0
LINE
  5
11E
330
28
100
AcDbEntity
  8
0
  6
Continuous
 62
     0
100
AcDbLine
 10
265.2670074435
 20
178.9486172928
 30
0.0
 11
273.1176244541
 21
178.9486172928
 31
0.0
  0
LINE
  5
11F
330
28
100
AcDbEntity
  8
0
  6
Continuous
 62
     0
100
AcDbLine
 10
221.7416915662
 20
184.1953529674
 30
0.0
 11
221.7416915662
 21
109.5486172928
 31
0.0
  0
LINE
  5
121
330
28
100
AcDbEntity
  8
0
  6
Continuous
 62
     0
100
AcDbLine
 10
183.9817260692
 20
181.7009113966
 30
0.0
 11
196.6722254548
 21
181.7378267409
 31
0.0
  0
LINE
  5
123
330
28
100
AcDbEntity
  8
0
  6
Continuous
 62
     0
100
AcDbLine
 10
298.1568549386
 20
183.0185098009
 30
0.0
 11
280.1035627113
 21
183.0185098009
 31
0.0
  0
LINE
  5
125
330
28
100
AcDbEntity
  8
0
  6
Continuous
 62
     0
100
AcDbLine
 10
151.1459998795
 20
185.8486172928
 30
0.0
 11
150.3007004179
 21
185.8486172928
 31
0.0
  0
LINE
  5
126
330
28
100
AcDbEntity
  8
0
  6
Continuous
 62
     0
100
AcDbLine
 10
212.0385803187
 20
187.5486172928
 30
0.0
 11
213.5817260692
 21
187.5486172928
 31
0.0
  0
LWPOLYLINE
  5
127
330
28
100
AcDbEntity
  8
0
  6
Continuous
 62
     0
100
AcDbPolyline
 90
       10
 70
     0
 43
0.0
 10
228.6670074435
 20
179.789863017
 10
228.2555771733
 20
179.8009036322
 10
227.8479752032
 20
179.8367854207
 10
227.4452421356
 20
179.8965836594
 10
227.0467881982
 20
179.9794447947
 10
226.6550423545
 20
180.0848352977
 10
226.2746726404
 20
180.2122736557
 10
225.9068069682
 20
180.3613021048
 10
225.5499971879
 20
180.5317433249
 10
225.2043495046
 20
180.7237046013
  0
LINE
  5
134
330
28
100
AcDbEntity
  8
0
  6
Continuous
 62
     0
100
AcDbLine
 10
278.3715119037
 20
164.072220928
 30
0.0
 11
280.1035627113
 21
163.6088297747
 31
0.0
  0
LINE
  5
159
330
28
100
AcDbEntity
  8
0
  6
Continuous
 62
     0
100
AcDbLine
 10
208.3817260692
 20
189.5486172928
 30
0.0
 11
209.210153194
 21
188.7201901681
 31
0.0
  0
LINE
  5
15A
330
28
100
AcDbEntity
  8
0
  6
Continuous
 62
     0
100
AcDbLine
 10
228.6670074435
 20
179.789863017
 30
0.0
 11
228.6670074435
 21
111.7486172928
 31
0.0
  0
LWPOLYLINE
  5
15D
330
28
100
AcDbEntity
  8
0
  6
Continuous
 62
     0
100
AcDbPolyline
 90
       13
 70
     0
 43
0.0
 10
156.3421523022
 20
190.8028658683
 10
156.1678104202
 20
190.795260838
 10
155.9947922124
 20
190.7725030091
 10
155.8244150935
 20
190.7347646953
 10
155.6579737164
 20
190.6823312785
 10
155.4967386625
 20
190.6156016079
 10
155.3419457925
 20
190.5350873764
 10
155.1947643569
 20
190.4413967179
 10
155.0563240867
 20
190.3352487423
 10
154.9277072942
 20
190.2174817695
 10
154.8098934293
 20
190.0890114046999
 10
154.7037591079
 20
189.9508140398
 10
154.6101014946
 20
189.8039474623
  0
LINE
  5
16C
330
28
100
AcDbEntity
  8
0
  6
Continuous
 62
     0
100
AcDbLine
 10
205.7817260692
 20
189.5486172928
 30
0.0
 11
201.3817260692
 21
189.5486172928
 31
0.0
  0
LINE
  5
16D
330
28
100
AcDbEntity
  8
0
  6
Continuous
 62
     0
100
AcDbLine
 10
205.7817260692
 20
189.5486172928
 30
0.0
 11
208.3817260692
 21
189.5486172928
 31
0.0
  0
LINE
  5
16F
330
28
100
AcDbEntity
  8
0
  6
Continuous
 62
     0
100
AcDbLine
 10
176.5294191258
 20
190.8028658683
 30
0.0
 11
156.3421523022
 21
190.8028658683
 31
0.0
  0
LINE
  5
171
330
28
100
AcDbEntity
  8
0
  6
Continuous
 62
     0
100
AcDbLine
 10
220.842406825
 20
192.66186995
 30
0.0
 11
256.5817260692
 21
192.6618659468
 31
0.0
  0
LINE
  5
172
330
28
100
AcDbEntity
  8
DEFAULT_1
  6
CENTER
 62
     0
100
AcDbLine
 10
238.0817260692
 20
236.0504106726
 30
0.0
 11
238.0817260692
 21
98.66995209629999
 31
0.0
  0
LINE
  5
173
330
28
100
AcDbEntity
  8
0
  6
Continuous
 62
     0
100
AcDbLine
 10
259.0817260692
 20
196.9919929658
 30
0.0
 11
218.5127746146
 21
196.9919916685
 31
0.0
  0
LINE
  5
175
330
28
100
AcDbEntity
  8
0
  6
Continuous
 62
     0
100
AcDbLine
 10
261.8817260692
 20
198.8870346886
 30
0.0
 11
214.2817260692
 21
198.8870346886
 31
0.0
  0
LINE
  5
176
330
28
100
AcDbEntity
  8
0
  6
Continuous
 62
     0
100
AcDbLine
 10
200.8813633021
 20
201.7486172928
 30
0.0
 11
275.2820888364
 21
201.7486172928
 31
0.0
  0
LINE
  5
17A
330
28
100
AcDbEntity
  8
0
  6
Continuous
 62
     0
100
AcDbLine
 10
167.3155247009
 20
207.1735286879
 30
0.0
 11
195.3246216167
 21
202.2347691964
 31
0.0
  0
LINE
  5
17C
330
28
100
AcDbEntity
  8
0
  6
Continuous
 62
     0
100
AcDbLine
 10
215.1817260692
 20
198.0889584772
 30
0.0
 11
216.7821118341
 21
197.164975325
 31
0.0
  0
LINE
  5
190
330
28
100
AcDbEntity
  8
0
  6
Continuous
 62
     0
100
AcDbLine
 10
243.2546743394
 20
147.8603321759
 30
0.0
 11
242.8938259479
 21
146.1965008144
 31
0.0
  0
LINE
  5
1BC
330
28
100
AcDbEntity
  8
0
  6
Continuous
 62
     0
100
AcDbLine
 10
253.896444695
 20
111.7486172928
 30
0.0
 11
253.896444695
 21
181.645226729
 31
0.0
  0
LINE
  5
1BD
330
28
100
AcDbEntity
  8
0
  6
Continuous
 62
     0
100
AcDbLine
 10
256.5817260692
 20
192.6618659468
 30
0.0
 11
256.5817260692
 21
187.633898667
 31
0.0
  0
LINE
  5
1BF
330
28
100
AcDbEntity
  8
0
  6
Continuous
 62
     0
100
AcDbLine
 10
208.3817260692
 20
107.5486172928
 30
0.0
 11
209.210153194
 21
108.3770444175
 31
0.0
  0
LINE
  5
1E4
330
28
100
AcDbEntity
  8
0
  6
Continuous
 62
     0
100
AcDbLine
 10
258.3390853821
 20
183.3912579799
 30
0.0
 11
261.0243667563
 21
180.7059766056999
 31
0.0
  0
LINE
  5
1E6
330
28
100
AcDbEntity
  8
0
  6
Continuous
 62
     0
100
AcDbLine
 10
261.8817260692
 20
201.7486172928
 30
0.0
 11
261.8817260692
 21
198.8870346886
 31
0.0
  0
LINE
  5
1E7
330
28
100
AcDbEntity
  8
0
  6
Continuous
 62
     0
100
AcDbLine
 10
265.2670074435
 20
178.9486172928
 30
0.0
 11
265.2670074435
 21
118.1486172928
 31
0.0
  0
LWPOLYLINE
  5
1E9
330
28
100
AcDbEntity
  8
0
  6
Continuous
 62
     0
100
AcDbPolyline
 90
       16
 70
     0
 43
0.0
 10
278.3715119037
 20
182.0193824818
 10
278.4454266092
 20
182.1375746768
 10
278.5274262241
 20
182.2503565079
 10
278.617116983
 20
182.35717529
 10
278.7140737973
 20
182.4575131148
 10
278.8178234133
 20
182.5508694511
 10
278.9278423614
 20
182.6367683395
 10
279.0435885218
 20
182.7147865003
 10
279.1645040016
 20
182.784547877
 10
279.289995433
 20
182.8457097963
 10
279.4194507451
 20
182.8979742327
 10
279.5522392501
 20
182.9410868379
 10
279.6877100544
 20
182.9748369252
 10
279.8252014852
 20
182.9990608144
 10
279.9640445811
 20
183.0136417909
 10
280.1035627113
 20
183.0185098009
  0
LINE
  5
205
330
28
100
AcDbEntity
  8
0
  6
Continuous
 62
     0
100
AcDbLine
 10
266.3840304902
 20
227.7486172928
 30
0.0
 11
210.45876082
 21
227.7486172928
 31
0.0
  0
LINE
  5
207
330
28
100
AcDbEntity
  8
0
  6
Continuous
 62
     0
100
AcDbLine
 10
273.1176244541
 20
178.9486172928
 30
0.0
 11
273.1176244541
 21
118.1486172928
 31
0.0
  0
LINE
  5
22A
330
28
100
AcDbEntity
  8
0
  6
Continuous
 62
     0
100
AcDbLine
 10
204.9916285467
 20
235.7486172928
 30
0.0
 11
167.6460243609
 21
235.7486172928
 31
0.0
  0
LINE
  5
255
330
28
100
AcDbEntity
  8
0
  6
Continuous
 62
     0
100
AcDbLine
 10
278.3715119037
 20
130.6014712554
 30
0.0
 11
278.3715119037
 21
133.0249973736
 31
0.0
  0
LINE
  5
256
330
28
100
AcDbEntity
  8
0
  6
Continuous
 62
     0
100
AcDbLine
 10
278.3715119037
 20
164.072237212
 30
0.0
 11
278.3715119037
 21
166.4958884956
 31
0.0
  0
LINE
  5
259
330
28
100
AcDbEntity
  8
0
  6
Continuous
 62
     0
100
AcDbLine
 10
280.1035627113
 20
129.4051410972
 30
0.0
 11
280.1035627113
 21
133.4884048109
 31
0.0
  0
LINE
  5
25A
330
28
100
AcDbEntity
  8
0
  6
Continuous
 62
     0
100
AcDbLine
 10
280.1035627113
 20
163.6088297747
 30
0.0
 11
280.1035627113
 21
167.6920934884
 31
0.0
  0
LINE
  5
25B
330
28
100
AcDbEntity
  8
0
  6
Continuous
 62
     0
100
AcDbLine
 10
280.1035627113
 20
182.7523059703
 30
0.0
 11
280.1035627113
 21
183.0185098009
 31
0.0
  0
LINE
  5
27B
330
28
100
AcDbEntity
  8
0
  6
Continuous
 62
     0
100
AcDbLine
 10
258.1390853821
 20
113.5059766057
 30
0.0
 11
261.0243667563
 21
116.3912579799
 31
0.0
  0
LINE
  5
27D
330
28
100
AcDbEntity
  8
0
  6
Continuous
 62
     0
100
AcDbLine
 10
298.1568549386
 20
167.0315150124
 30
0.0
 11
298.1568549386
 21
164.5356120813
 31
0.0
  0
LINE
  5
27E
330
28
100
AcDbEntity
  8
0
  6
Continuous
 62
     0
100
AcDbLine
 10
298.1568549386
 20
132.5616225043
 30
0.0
 11
298.1568549386
 21
130.0657195732
 31
0.0
  0
LINE
  5
280
330
28
100
AcDbEntity
  8
0
  6
Continuous
 62
     0
100
AcDbLine
 10
298.1568549386
 20
183.0185098009
 30
0.0
 11
300.5281362307
 21
178.9414376158
 31
0.0
  0
LINE
  5
283
330
28
100
AcDbEntity
  8
0
  6
Continuous
 62
     0
100
AcDbLine
 10
300.5817260692
 20
178.7414376158
 30
0.0
 11
300.5817260692
 21
118.3557969698
 31
0.0
  0
ARC
  5
2AA
330
28
100
AcDbEntity
  8
0
  6
Continuous
 62
     0
100
AcDbCircle
 10
247.1393640918
 20
226.5347468269
 30
0.0
 40
1.6
100
AcDbArc
 50
49.34700358220011
 51
74.73383327350017
  0
ARC
  5
2AB
330
28
100
AcDbEntity
  8
0
  6
Continuous
 62
     0
100
AcDbCircle
 10
229.0240880466
 20
226.5347468269
 30
0.0
 40
1.6
100
AcDbArc
 50
105.2661667265002
 51
130.6529964178003
  0
ARC
  5
2AC
330
28
100
AcDbEntity
  8
0
  6
Continuous
 62
     0
100
AcDbCircle
 10
238.0817260692
 20
193.3486172928
 30
0.0
 40
36.0
100
AcDbArc
 50
74.73383327350017
 51
105.2661667265002
  0
ARC
  5
2AD
330
28
100
AcDbEntity
  8
0
  6
Continuous
 62
     0
100
AcDbCircle
 10
178.9007004179
 20
111.1557969698
 30
0.0
 40
0.4
100
AcDbArc
 50
330.0000050846007
 51
360.0000000000008
  0
ARC
  5
2AE
330
28
100
AcDbEntity
  8
0
  6
Continuous
 62
     0
100
AcDbCircle
 10
178.9007004179
 20
185.9414376158
 30
0.0
 40
0.4
100
AcDbArc
 50
0.0
 51
29.99999491540007
  0
ARC
  5
2B1
330
28
100
AcDbEntity
  8
0
  6
Continuous
 62
     0
100
AcDbCircle
 10
150.3007004179
 20
183.8486172928
 30
0.0
 40
2.0
100
AcDbArc
 50
90.00000000000019
 51
180.0000000000004
  0
ARC
  5
2B2
330
28
100
AcDbEntity
  8
0
  6
Continuous
 62
     0
100
AcDbCircle
 10
150.3007004179
 20
113.2486172928
 30
0.0
 40
2.0
100
AcDbArc
 50
180.0000000000004
 51
270.0000000000006
  0
ARC
  5
2B3
330
28
100
AcDbEntity
  8
0
  6
Continuous
 62
     0
100
AcDbCircle
 10
151.1459998795
 20
109.2486172928
 30
0.0
 40
2.0
100
AcDbArc
 50
30.00000000000008
 51
90.00000000000019
  0
ARC
  5
2B4
330
28
100
AcDbEntity
  8
0
  6
Continuous
 62
     0
100
AcDbCircle
 10
151.1459998795
 20
187.8486172927999
 30
0.0
 40
2.0
100
AcDbArc
 50
270.0000000000006
 51
330.0000000000007
  0
ARC
  5
2B5
330
28
100
AcDbEntity
  8
0
  6
Continuous
 62
     0
100
AcDbCircle
 10
108.0861721766
 20
125.4628308552
 30
0.0
 40
1.0
100
AcDbArc
 50
180.0000000000004
 51
224.9999998446005
  0
ARC
  5
2B6
330
28
100
AcDbEntity
  8
0
  6
Continuous
 62
     0
100
AcDbCircle
 10
108.0861721766
 20
171.6344037304
 30
0.0
 40
1.0
100
AcDbArc
 50
135.0000001554003
 51
180.0000000000004
  0
ARC
  5
2B7
330
28
100
AcDbEntity
  8
0
  6
Continuous
 62
     0
100
AcDbCircle
 10
210.45876082
 20
228.7486172928
 30
0.0
 40
1.0
100
AcDbArc
 50
186.9667053159004
 51
270.0000000000006
  0
ARC
  5
2BB
330
28
100
AcDbEntity
  8
0
  6
Continuous
 62
     0
100
AcDbCircle
 10
167.6460243609
 20
233.7486172928
 30
0.0
 40
2.0
100
AcDbArc
 50
90.00000000000019
 51
176.0000000000004
  0
ARC
  5
2BC
330
28
100
AcDbEntity
  8
0
  6
Continuous
 62
     0
100
AcDbCircle
 10
167.6628210562
 20
209.143144194
 30
0.0
 40
2.0
100
AcDbArc
 50
182.0000000000004
 51
260.0000000000006
  0
ARC
  5
2BD
330
28
100
AcDbEntity
  8
0
  6
Continuous
 62
     0
100
AcDbCircle
 10
200.8813633021
 20
233.7486172928
 30
0.0
 40
32.0
100
AcDbArc
 50
260.0000000000006
 51
270.0000000000006
  0
ARC
  5
2C1
330
28
100
AcDbEntity
  8
0
  6
Continuous
 62
     0
100
AcDbCircle
 10
182.9817260692
 20
179.5486172928
 30
0.0
 40
1.0
100
AcDbArc
 50
270.0000000000006
 51
360.0000000000008
  0
ARC
  5
2C2
330
28
100
AcDbEntity
  8
0
  6
Continuous
 62
     0
100
AcDbCircle
 10
182.9817260692
 20
117.5486172928
 30
0.0
 40
1.0
100
AcDbArc
 50
0.0
 51
90.00000000000019
  0
ARC
  5
2C3
330
28
100
AcDbEntity
  8
0
  6
Continuous
 62
     0
100
AcDbCircle
 10
179.3959396316
 20
179.5486172928
 30
0.0
 40
1.0
100
AcDbArc
 50
264.5327065471006
 51
270.0000000000006
  0
ARC
  5
2C4
330
28
100
AcDbEntity
  8
0
  6
Continuous
 62
     0
100
AcDbCircle
 10
179.3959396316
 20
117.5486172928
 30
0.0
 40
1.0
100
AcDbArc
 50
90.00000000000019
 51
95.46729345290021
  0
ARC
  5
2C5
330
28
100
AcDbEntity
  8
0
  6
Continuous
 62
     0
100
AcDbCircle
 10
203.1718961479
 20
110.0010879012
 30
0.0
 40
3.0
100
AcDbArc
 50
190.0000000000004
 51
224.9999999999005
  0
ARC
  5
2C6
330
28
100
AcDbEntity
  8
0
  6
Continuous
 62
     0
100
AcDbCircle
 10
203.1718961479
 20
187.0961466844
 30
0.0
 40
3.0
100
AcDbArc
 50
135.0000000000003
 51
170.0000000000004
  0
ARC
  5
2C7
330
28
100
AcDbEntity
  8
0
  6
Continuous
 62
     0
100
AcDbCircle
 10
196.6634988034
 20
184.7378140485
 30
0.0
 40
3.0
100
AcDbArc
 50
270.1666670000006
 51
350.0000000000008
  0
ARC
  5
2C8
330
28
100
AcDbEntity
  8
0
  6
Continuous
 62
     0
100
AcDbCircle
 10
196.6634988034
 20
112.3594205371
 30
0.0
 40
3.0
100
AcDbArc
 50
10.00000000000002
 51
89.8333330000002
  0
ARC
  5
2CB
330
28
100
AcDbEntity
  8
0
  6
Continuous
 62
     0
100
AcDbCircle
 10
300.1817260692
 20
178.7414376158
 30
0.0
 40
0.4
100
AcDbArc
 50
0.0
 51
29.99999999910007
  0
ARC
  5
2CD
330
28
100
AcDbEntity
  8
0
  6
Continuous
 62
     0
100
AcDbCircle
 10
259.4817260692
 20
200.6870346886
 30
0.0
 40
3.0
100
AcDbArc
 50
300.0000000000007
 51
323.1301023542007
  0
ARC
  5
2CE
330
28
100
AcDbEntity
  8
0
  6
Continuous
 62
     0
100
AcDbCircle
 10
216.6817260692
 20
200.6870346886
 30
0.0
 40
3.0
100
AcDbArc
 50
216.8698976458005
 51
240.0000000000005
  0
ARC
  5
2CF
330
28
100
AcDbEntity
  8
0
  6
Continuous
 62
     0
100
AcDbCircle
 10
214.2821144197
 20
192.8348476971
 30
0.0
 40
5.000004346499999
100
AcDbArc
 50
314.4576614217007
 51
60.00001871980014
  0
ARC
  5
2D0
330
28
100
AcDbEntity
  8
0
  6
Continuous
 62
     0
100
AcDbCircle
 10
261.5817260692
 20
192.6618659468
 30
0.0
 40
5.0
100
AcDbArc
 50
120.0000000000002
 51
180.0000000000004
  0
ARC
  5
2D1
330
28
100
AcDbEntity
  8
0
  6
Continuous
 62
     0
100
AcDbCircle
 10
262.5817255762
 20
187.6338984394
 30
0.0
 40
5.999999879399999
100
AcDbArc
 50
179.9999978151004
 51
225.0000016824005
  0
ARC
  5
2D2
330
28
100
AcDbEntity
  8
0
  6
Continuous
 62
     0
100
AcDbCircle
 10
213.5817304743
 20
193.5486141729
 30
0.0
 40
5.999998923699999
100
AcDbArc
 50
269.9999577698006
 51
314.4576674240007
  0
ARC
  5
2D5
330
28
100
AcDbEntity
  8
0
  6
Continuous
 62
     0
100
AcDbCircle
 10
265.2670074435
 20
184.9486172928
 30
0.0
 40
6.0
100
AcDbArc
 50
225.0000000000005
 51
270.0000000000006
  0
ARC
  5
2D6
330
28
100
AcDbEntity
  8
0
  6
Continuous
 62
     0
100
AcDbCircle
 10
265.2670074435
 20
112.1486172928
 30
0.0
 40
6.0
100
AcDbArc
 50
90.00000000000019
 51
135.0000000000003
  0
ARC
  5
2D7
330
28
100
AcDbEntity
  8
0
  6
Continuous
 62
     0
100
AcDbCircle
 10
221.7416915662
 20
115.5486172928
 30
0.0
 40
6.0
100
AcDbArc
 50
270.0000000000006
 51
305.2475069921007
  0
ARC
  5
2D8
330
28
100
AcDbEntity
  8
0
  6
Continuous
 62
     0
100
AcDbCircle
 10
228.6670074435
 20
105.7486172928
 30
0.0
 40
6.0
100
AcDbArc
 50
90.00000000000019
 51
125.2475069921002
  0
ARC
  5
2D9
330
28
100
AcDbEntity
  8
0
  6
Continuous
 62
     0
100
AcDbCircle
 10
212.0385803187
 20
191.5486172928
 30
0.0
 40
4.0
100
AcDbArc
 50
225.0000000000005
 51
270.0000000000006
  0
ARC
  5
2DA
330
28
100
AcDbEntity
  8
0
  6
Continuous
 62
     0
100
AcDbCircle
 10
212.0385803187
 20
105.5486172928
 30
0.0
 40
4.0
100
AcDbArc
 50
90.00000000000019
 51
135.0000000000003
  0
ARC
  5
2DB
330
28
100
AcDbEntity
  8
0
  6
Continuous
 62
     0
100
AcDbCircle
 10
253.896444695
 20
117.7486172928
 30
0.0
 40
6.0
100
AcDbArc
 50
270.0000000000006
 51
315.0000000000007
  0
ARC
  5
2DC
330
28
100
AcDbEntity
  8
0
  6
Continuous
 62
     0
100
AcDbCircle
 10
273.1028211084113
 20
185.003864131032
 30
0.0
 40
6.055264933176924
100
AcDbArc
 50
270.1400715055179
 51
330.4703539298151
  0
CIRCLE
  5
2DF
330
28
100
AcDbEntity
  8
0
  6
Continuous
 62
     0
100
AcDbCircle
 10
242.399521371
 20
155.4960667778
 30
0.0
 40
0.2687037129
  0
CIRCLE
  5
2E0
330
28
100
AcDbEntity
  8
0
  6
Continuous
 62
     0
100
AcDbCircle
 10
240.0817260692
 20
150.5486172928
 30
0.0
 40
8.99991
  0
SPLINE
  5
2E1
330
28
100
AcDbEntity
  8
0
  6
Continuous
 62
     0
100
AcDbSpline
210
1.0
220
0.0
230
0.0
 70
    24
 71
     3
 72
     8
 73
     4
 74
     2
 42
0.0000000001
 43
0.0000000001
 44
0.0000000001
 40
0.0
 40
0.0
 40
0.0
 40
0.0
 40
0.34815689882503
 40
0.34815689882503
 40
0.34815689882503
 40
0.34815689882503
 10
131.0861721766
 20
124.4259474317
 30
-8.891451256799998
 10
131.0861721766
 20
124.3828267470666
 30
-8.783707380866662
 10
131.0861721766
 20
124.3397060624333
 30
-8.67596350493333
 10
131.0861721766
 20
124.2965853778
 30
-8.568219629
 11
131.0861721766
 21
124.4259474317
 31
-8.891451256799998
 11
131.0861721766
 21
124.2965853778
 31
-8.568219629
  0
SPLINE
  5
2E2
330
28
100
AcDbEntity
  8
0
  6
Continuous
 62
     0
100
AcDbSpline
210
1.0
220
-5.500000000000000E-14
230
-1.140000000000000E-14
 70
     8
 71
     3
 72
    10
 73
     6
 74
     4
 42
0.0000000001
 43
0.0000000001
 44
0.0000000001
 40
0.0
 40
0.0
 40
0.0
 40
0.0
 40
3.893882746816154
 40
7.787765493687294
 40
9.736068029814208
 40
9.736068029814208
 40
9.736068029814208
 40
9.736068029814208
 10
131.0861721766
 20
124.2965853778
 30
-8.568219629
 10
131.0861721766
 20
123.8755981044266
 30
-7.338461038705463
 10
131.0861721766
 20
123.0336235576739
 30
-4.878943858099025
 10
131.0861721766
 20
122.5571874256153
 30
-1.646031946617252
 10
131.0861721766
 20
122.5110584272947
 30
0.3007663474209684
 10
131.0861721766
 20
122.4956749295
 30
0.9500015000000001
 11
131.0861721766
 21
124.2965853778
 31
-8.568219629
 11
131.0861721766
 21
123.1488432897
 31
-4.8473311672
 11
131.0861721766
 21
122.5684901808
 31
-0.9969398734
 11
131.0861721766
 21
122.4956749295
 31
0.9500015000000001
  0
SPLINE
  5
2E3
330
28
100
AcDbEntity
  8
0
  6
Continuous
 62
     0
100
AcDbSpline
210
-1.0
220
7.310000000000000E-14
230
-1.020000000000000E-14
 70
     8
 71
     3
 72
    10
 73
     6
 74
     4
 42
0.0000000001
 43
0.0000000001
 44
0.0000000001
 40
0.0
 40
0.0
 40
0.0
 40
0.0
 40
1.948302536126913
 40
5.842185282998052
 40
9.736068029814206
 40
9.736068029814206
 40
9.736068029814206
 40
9.736068029814206
 10
131.0861721766
 20
122.4956749295
 30
0.9500015000000001
 10
131.0861721766
 20
122.5110584272947
 30
1.599236652579032
 10
131.0861721766
 20
122.5571874256153
 30
3.546034946617253
 10
131.0861721766
 20
123.0336235576739
 30
6.778946858099025
 10
131.0861721766
 20
123.8755981044266
 30
9.238464038705464
 10
131.0861721766
 20
124.2965853778
 30
10.468222629
 11
131.0861721766
 21
122.4956749295
 31
0.9500015000000001
 11
131.0861721766
 21
122.5684901808
 31
2.8969428734
 11
131.0861721766
 21
123.1488432897
 31
6.7473341672
 11
131.0861721766
 21
124.2965853778
 31
10.468222629
  0
SPLINE
  5
2E4
330
28
100
AcDbEntity
  8
0
  6
Continuous
 62
     0
100
AcDbSpline
210
-1.0
220
0.0
230
0.0
 70
    24
 71
     3
 72
     8
 73
     4
 74
     2
 42
0.0000000001
 43
0.0000000001
 44
0.0000000001
 40
0.0
 40
0.0
 40
0.0
 40
0.0
 40
0.7794724970410741
 40
0.7794724970410741
 40
0.7794724970410741
 40
0.7794724970410741
 10
131.0861721766
 20
124.2965853778
 30
10.468222629
 10
131.0861721766
 20
124.3951216756
 30
10.7086372606
 10
131.0861721766
 20
124.4936579734
 30
10.9490518922
 10
131.0861721766
 20
124.5921942712
 30
11.1894665238
 11
131.0861721766
 21
124.2965853778
 31
10.468222629
 11
131.0861721766
 21
124.5921942712
 31
11.1894665238
  0
SPLINE
  5
2E5
330
28
100
AcDbEntity
  8
0
  6
Continuous
 62
     0
100
AcDbSpline
210
-1.0
220
-9.000000000000000E-16
230
1.300000000000000E-15
 70
     8
 71
     3
 72
    15
 73
    11
 74
     9
 42
0.0000000001
 43
0.0000000001
 44
0.0000000001
 40
0.0
 40
0.0
 40
0.0
 40
0.0
 40
3.116153038776949
 40
7.010035785583639
 40
10.90391853240277
 40
14.79780127931364
 40
18.69168402612512
 40
22.58556677293789
 40
26.47944951980966
 40
30.37333226662367
 40
30.37333226662367
 40
30.37333226662367
 40
30.37333226662367
 10
131.0861721766
 20
124.5921942712
 30
11.1894665238
 10
131.0861721766
 20
125.0342084338176
 30
12.13074887800364
 10
131.0861721766
 20
126.0285546867542
 30
14.24823890663707
 10
131.0861721766
 20
128.1092532177034
 30
17.25207266349996
 10
131.0861721766
 20
130.7603199708839
 30
20.12032101168147
 10
131.0861721766
 20
133.8180244620947
 30
22.5557515109023
 10
131.0861721766
 20
137.2023004673695
 30
24.51255825939789
 10
131.0861721766
 20
140.8407002238193
 30
25.93154900669796
 10
131.0861721766
 20
144.6511045686667
 30
26.83434993804702
 10
131.0861721766
 20
147.2494463847619
 30
26.94676865821594
 10
131.0861721766
 20
148.5486172928
 30
27.0029780183
 11
131.0861721766
 21
124.5921942712
 31
11.1894665238
 11
131.0861721766
 21
125.9860777837
 31
13.9764897592
 11
131.0861721766
 21
128.1795800388
 31
17.1937666672
 11
131.0861721766
 21
130.8280929272
 31
20.0481847035
 11
131.0861721766
 21
133.8724530478
 31
22.4759808858
 11
131.0861721766
 21
137.2446544259
 31
24.4229222592
 11
131.0861721766
 21
140.8693676552
 31
25.8455173707
 11
131.0861721766
 21
144.6656226319
 31
26.7119877962
 11
131.0861721766
 21
148.5486172928
 31
27.0029780183
  0
SPLINE
  5
2E6
330
28
100
AcDbEntity
  8
0
  6
Continuous
 62
     0
100
AcDbSpline
210
1.0
220
-1.200000000000000E-15
230
-1.400000000000000E-15
 70
     8
 71
     3
 72
    15
 73
    11
 74
     9
 42
0.0000000001
 43
0.0000000001
 44
0.0000000001
 40
0.0
 40
0.0
 40
0.0
 40
0.0
 40
3.893882746814007
 40
7.787765493685779
 40
11.68164824049855
 40
15.57553098731003
 40
19.4694137342209
 40
23.36329648104003
 40
27.25717922784671
 40
30.37333226662366
 40
30.37333226662366
 40
30.37333226662366
 40
30.37333226662366
 10
131.0861721766
 20
148.5486172928
 30
27.0029780183
 10
131.0861721766
 20
149.8477882008381
 30
26.94676865821595
 10
131.0861721766
 20
152.4461300169334
 30
26.83434993804702
 10
131.0861721766
 20
156.2565343617807
 30
25.93154900669796
 10
131.0861721766
 20
159.8949341182305
 30
24.51255825939788
 10
131.0861721766
 20
163.2792101235052
 30
22.5557515109023
 10
131.0861721766
 20
166.3369146147161
 30
20.12032101168146
 10
131.0861721766
 20
168.9879813678967
 30
17.25207266349997
 10
131.0861721766
 20
171.0686798988458
 30
14.24823890663706
 10
131.0861721766
 20
172.0630261517824
 30
12.13074887800364
 10
131.0861721766
 20
172.5050403144
 30
11.1894665238
 11
131.0861721766
 21
148.5486172928
 31
27.0029780183
 11
131.0861721766
 21
152.4316119537
 31
26.7119877962
 11
131.0861721766
 21
156.2278669304
 31
25.8455173707
 11
131.0861721766
 21
159.8525801597
 31
24.4229222592
 11
131.0861721766
 21
163.2247815378
 31
22.4759808858
 11
131.0861721766
 21
166.2691416584
 31
20.0481847035
 11
131.0861721766
 21
168.9176545468
 31
17.1937666672
 11
131.0861721766
 21
171.1111568019
 31
13.9764897592
 11
131.0861721766
 21
172.5050403144
 31
11.1894665238
  0
SPLINE
  5
2E7
330
28
100
AcDbEntity
  8
0
  6
Continuous
 62
     0
100
AcDbSpline
210
1.0
220
0.0
230
0.0
 70
    24
 71
     3
 72
     8
 73
     4
 74
     2
 42
0.0000000001
 43
0.0000000001
 44
0.0000000001
 40
0.0
 40
0.0
 40
0.0
 40
0.0
 40
0.7794724970410796
 40
0.7794724970410796
 40
0.7794724970410796
 40
0.7794724970410796
 10
131.0861721766
 20
172.5050403144
 30
11.1894665238
 10
131.0861721766
 20
172.6035766122
 30
10.9490518922
 10
131.0861721766
 20
172.70211291
 30
10.7086372606
 10
131.0861721766
 20
172.8006492078
 30
10.468222629
 11
131.0861721766
 21
172.5050403144
 31
11.1894665238
 11
131.0861721766
 21
172.8006492078
 31
10.468222629
  0
SPLINE
  5
2E8
330
28
100
AcDbEntity
  8
0
  6
Continuous
 62
     0
100
AcDbSpline
210
1.0
220
-9.900000000000001E-15
230
-3.200000000000000E-15
 70
     8
 71
     3
 72
    10
 73
     6
 74
     4
 42
0.0000000001
 43
0.0000000001
 44
0.0000000001
 40
0.0
 40
0.0
 40
0.0
 40
0.0
 40
3.89388274681615
 40
7.78776549368729
 40
9.736068029814204
 40
9.736068029814204
 40
9.736068029814204
 40
9.736068029814204
 10
131.0861721766
 20
172.8006492078
 30
10.468222629
 10
131.0861721766
 20
173.2216364811734
 30
9.238464038705462
 10
131.0861721766
 20
174.0636110279261
 30
6.778946858099022
 10
131.0861721766
 20
174.5400471599847
 30
3.546034946617253
 10
131.0861721766
 20
174.5861761583053
 30
1.599236652579032
 10
131.0861721766
 20
174.6015596561
 30
0.9500015000000001
 11
131.0861721766
 21
172.8006492078
 31
10.468222629
 11
131.0861721766
 21
173.9483912959
 31
6.7473341672
 11
131.0861721766
 21
174.5287444048
 31
2.8969428734
 11
131.0861721766
 21
174.6015596561
 31
0.9500015000000001
  0
SPLINE
  5
2E9
330
28
100
AcDbEntity
  8
0
  6
Continuous
 62
     0
100
AcDbSpline
210
-1.0
220
9.000000000000000E-15
230
-4.200000000000000E-15
 70
     8
 71
     3
 72
    10
 73
     6
 74
     4
 42
0.0000000001
 43
0.0000000001
 44
0.0000000001
 40
0.0
 40
0.0
 40
0.0
 40
0.0
 40
1.948302536126913
 40
5.842185282998052
 40
9.736068029814202
 40
9.736068029814202
 40
9.736068029814202
 40
9.736068029814202
 10
131.0861721766
 20
174.6015596561
 30
0.9500015000000001
 10
131.0861721766
 20
174.5861761583053
 30
0.3007663474209684
 10
131.0861721766
 20
174.5400471599847
 30
-1.646031946617253
 10
131.0861721766
 20
174.0636110279261
 30
-4.878943858099023
 10
131.0861721766
 20
173.2216364811735
 30
-7.338461038705465
 10
131.0861721766
 20
172.8006492078
 30
-8.568219629
 11
131.0861721766
 21
174.6015596561
 31
0.9500015000000001
 11
131.0861721766
 21
174.5287444048
 31
-0.9969398734
 11
131.0861721766
 21
173.9483912959
 31
-4.8473311672
 11
131.0861721766
 21
172.8006492078
 31
-8.568219629
  0
SPLINE
  5
2EA
330
28
100
AcDbEntity
  8
0
  6
Continuous
 62
     0
100
AcDbSpline
210
-1.0
220
0.0
230
0.0
 70
    24
 71
     3
 72
     8
 73
     4
 74
     2
 42
0.0000000001
 43
0.0000000001
 44
0.0000000001
 40
0.0
 40
0.0
 40
0.0
 40
0.0
 40
0.34815689882503
 40
0.34815689882503
 40
0.34815689882503
 40
0.34815689882503
 10
131.0861721766
 20
172.8006492078
 30
-8.568219629
 10
131.0861721766
 20
172.7575285231667
 30
-8.67596350493333
 10
131.0861721766
 20
172.7144078385333
 30
-8.783707380866662
 10
131.0861721766
 20
172.6712871539
 30
-8.891451256799998
 11
131.0861721766
 21
172.8006492078
 31
-8.568219629
 11
131.0861721766
 21
172.6712871539
 31
-8.891451256799998
  0
SPLINE
  5
2EB
330
28
100
AcDbEntity
  8
0
  6
Continuous
 62
     0
100
AcDbSpline
210
0.0
220
0.0
230
1.0
 70
     8
 71
     3
 72
    11
 73
     7
 74
     5
 42
0.0000000001
 43
0.0000000001
 44
0.0000000001
 40
0.0
 40
0.0
 40
0.0
 40
0.0
 40
4.595370709465231
 40
9.210293752262938
 40
13.88839104047465
 40
18.71633884167992
 40
18.71633884167992
 40
18.71633884167992
 40
18.71633884167992
 10
179.1274953371
 20
148.5486172928
 30
0.0
 10
179.0964737352801
 20
150.08076514152
 30
0.0
 10
179.0342985412661
 20
153.1515798049689
 30
0.0
 10
178.5321532816066
 20
157.7586457826963
 30
0.0
 10
177.76454278347
 20
162.4057773187819
 30
0.0
 10
177.0271025994435
 20
165.4884091433943
 30
0.0
 10
176.6525701118
 20
167.0540219087
 30
0.0
 11
179.1274953371
 21
148.5486172928
 31
0.0
 11
178.9670102141
 21
153.141184819
 31
0.0
 11
178.4927182189
 21
157.7316708275
 31
0.0
 11
177.7192405872
 21
162.3453815457
 31
0.0
 11
176.6525701118
 21
167.0540219087
 31
0.0
  0
SPLINE
  5
2EC
330
28
100
AcDbEntity
  8
0
  6
Continuous
 62
     0
100
AcDbSpline
210
0.0
220
0.0
230
1.0
 70
     8
 71
     3
 72
    11
 73
     7
 74
     5
 42
0.0000000001
 43
0.0000000001
 44
0.0000000001
 40
0.0
 40
0.0
 40
0.0
 40
0.0
 40
4.828544192680893
 40
9.50684129690908
 40
14.12147405946626
 40
18.71633894197398
 40
18.71633894197398
 40
18.71633894197398
 40
18.71633894197398
 10
176.6525701118
 20
130.0432126768
 30
0.0
 10
177.0271463230078
 20
131.6090195639154
 30
0.0
 10
177.7646432685569
 20
134.6919110076714
 30
0.0
 10
178.532239161329
 20
139.3392167155999
 30
0.0
 10
179.0343174156176
 20
143.9460890630899
 30
0.0
 10
179.0964805069411
 20
147.0166381600291
 30
0.0
 10
179.1274953371
 20
148.5486172928
 30
0.0
 11
176.6525701118
 21
130.0432126768
 31
0.0
 11
177.7193564401
 21
134.7524382979
 31
0.0
 11
178.4928257863
 21
139.3663530095
 31
0.0
 11
178.9670453708
 21
143.9565546738
 31
0.0
 11
179.1274953371
 21
148.5486172928
 31
0.0
  0
SPLINE
  5
2ED
330
28
100
AcDbEntity
  8
0
  6
Continuous
 62
     0
100
AcDbSpline
210
0.0
220
0.0
230
1.0
 70
     8
 71
     3
 72
    15
 73
    11
 74
     9
 42
0.0000000001
 43
0.0000000001
 44
0.0000000001
 40
0.0
 40
0.0
 40
0.0
 40
0.0
 40
2.596220302371624
 40
5.030959049107384
 40
7.369915425868214
 40
9.664085620850598
 40
11.95819796797006
 40
14.29701362342864
 40
16.73102622818731
 40
19.32677925696952
 40
19.32677925696952
 40
19.32677925696952
 40
19.32677925696952
 10
176.6525701118
 20
106.5601547218
 30
0.0
 10
177.0265553078886
 20
107.3413060873663
 30
0.0
 10
177.7512643030288
 20
108.8550222106585
 30
0.0
 10
178.5321510136938
 20
111.1913175898899
 30
0.0
 10
179.018592286053
 20
113.5024469776745
 30
0.0
 10
179.1814678435092
 20
115.8135374660885
 30
0.0
 10
179.0184029292356
 20
118.1245663612593
 30
0.0
 10
178.5318655302412
 20
120.4353582392022
 30
0.0
 10
177.7510346727409
 20
122.7711967956139
 30
0.0
 10
177.0264912622603
 20
124.2845503622489
 30
0.0
 10
176.6525701118
 20
125.0655593377
 30
0.0
 11
176.6525701118
 21
106.5601547218
 31
0.0
 11
177.7234884264
 21
108.9252115545
 31
0.0
 11
178.4961898312
 21
111.2340825565
 31
0.0
 11
178.9681710039
 21
113.5249231675
 31
0.0
 11
179.1274953223
 21
115.8135543403
 31
0.0
 11
178.9679872448
 21
118.102114725
 31
0.0
 11
178.4958762124
 21
120.3927848984
 31
0.0
 11
177.7233164143
 21
122.700937562
 31
0.0
 11
176.6525701118
 21
125.0655593377
 31
0.0
  0
SPLINE
  5
2EE
330
28
100
AcDbEntity
  8
0
  6
Continuous
 62
     0
100
AcDbSpline
210
0.0
220
0.0
230
1.0
 70
     8
 71
     3
 72
    15
 73
    11
 74
     9
 42
0.0000000001
 43
0.0000000001
 44
0.0000000001
 40
0.0
 40
0.0
 40
0.0
 40
0.0
 40
2.596220302371624
 40
5.030959049107371
 40
7.369915425868215
 40
9.664085620850598
 40
11.95819796797005
 40
14.29701362342864
 40
16.73102622818731
 40
19.32677925696951
 40
19.32677925696951
 40
19.32677925696951
 40
19.32677925696951
 10
176.6525701118
 20
172.0316752479
 30
0.0
 10
177.0265553078887
 20
172.8128266134663
 30
0.0
 10
177.7512643030289
 20
174.3265427367586
 30
0.0
 10
178.5321510136938
 20
176.6628381159898
 30
0.0
 10
179.018592286053
 20
178.9739675037745
 30
0.0
 10
179.1814678435092
 20
181.2850579921885
 30
0.0
 10
179.0184029292356
 20
183.5960868873593
 30
0.0
 10
178.5318655302412
 20
185.9068787653022
 30
0.0
 10
177.7510346727409
 20
188.2427173217138
 30
0.0
 10
177.0264912622603
 20
189.7560708883488
 30
0.0
 10
176.6525701118
 20
190.5370798638
 30
0.0
 11
176.6525701118
 21
172.0316752479
 31
0.0
 11
177.7234884264
 21
174.3967320806
 31
0.0
 11
178.4961898312
 21
176.7056030826
 31
0.0
 11
178.9681710039
 21
178.9964436936
 31
0.0
 11
179.1274953223
 21
181.2850748664
 31
0.0
 11
178.9679872448
 21
183.5736352511
 31
0.0
 11
178.4958762124
 21
185.8643054245
 31
0.0
 11
177.7233164143
 21
188.1724580881
 31
0.0
 11
176.6525701118
 21
190.5370798638
 31
0.0
  0
SPLINE
  5
2EF
330
28
100
AcDbEntity
  8
0
  6
Continuous
 62
     0
100
AcDbSpline
210
0.0
220
0.0
230
1.0
 70
     8
 71
     3
 72
    10
 73
     6
 74
     4
 42
0.0000000001
 43
0.0000000001
 44
0.0000000001
 40
0.0
 40
0.0
 40
0.0
 40
0.0
 40
0.041529866697443
 40
0.1390698074175975
 40
0.2931992023005002
 40
0.2931992023005002
 40
0.2931992023005002
 40
0.2931992023005002
 10
176.5294191258
 20
190.8028658683
 30
0.0
 10
176.533755482308
 20
190.7897075381949
 30
0.0
 10
176.5482765080763
 20
190.7456446365009
 30
0.0
 10
176.5926262803734
 20
190.6582237262261
 30
0.0
 10
176.6298024051251
 20
190.5830924035316
 30
0.0
 10
176.6525701118
 20
190.5370798638
 30
0.0
 11
176.5294191258
 21
190.8028658683
 31
0.0
 11
176.5430091772
 21
190.7636225207
 31
0.0
 11
176.5839325154
 21
190.6750825838
 31
0.0
 11
176.6525701118
 21
190.5370798638
 31
0.0
  0
SPLINE
  5
2F0
330
28
100
AcDbEntity
  8
0
  6
Continuous
 62
     0
100
AcDbSpline
210
0.0
220
0.0
230
1.0
 70
     8
 71
     3
 72
    10
 73
     6
 74
     4
 42
0.0000000001
 43
0.0000000001
 44
0.0000000001
 40
0.0
 40
0.0
 40
0.0
 40
0.0
 40
0.1953346728622922
 40
0.4183776570351401
 40
0.6692074358533509
 40
0.6692074358533509
 40
0.6692074358533509
 40
0.6692074358533509
 10
176.6525701118
 20
172.0316752479
 30
0.0
 10
176.6274614025241
 20
171.9714154375263
 30
0.0
 10
176.5736823022542
 20
171.8423479355404
 30
0.0
 10
176.5367406770172
 20
171.6204985564664
 30
0.0
 10
176.5319532180192
 20
171.4626376437188
 30
0.0
 10
176.5294191258
 20
171.3790788893
 30
0.0
 11
176.6525701118
 21
172.0316752479
 31
0.0
 11
176.5839325154
 21
171.8487968326
 31
0.0
 11
176.5430091772
 21
171.6295402405
 31
0.0
 11
176.5294191258
 21
171.3790788893
 31
0.0
  0
SPLINE
  5
2F1
330
28
100
AcDbEntity
  8
0
  6
Continuous
 62
     0
100
AcDbSpline
210
0.0
220
0.0
230
1.0
 70
     8
 71
     3
 72
    10
 73
     6
 74
     4
 42
0.0000000001
 43
0.0000000001
 44
0.0000000001
 40
0.0
 40
0.0
 40
0.0
 40
0.0
 40
0.2900232783827017
 40
0.6005283875392637
 40
0.9286683313058752
 40
0.9286683313058752
 40
0.9286683313058752
 40
0.9286683313058752
 10
176.5294191258
 20
167.9724042718
 30
0.0
 10
176.5323019131419
 20
167.8757272406412
 30
0.0
 10
176.5382710741132
 20
167.6755457174283
 30
0.0
 10
176.5802664235119
 20
167.3681453366789
 30
0.0
 10
176.6280292590869
 20
167.160639661712
 30
0.0
 10
176.6525701118
 20
167.0540219087
 30
0.0
 11
176.5294191258
 21
167.9724042718
 31
0.0
 11
176.5430091772
 21
167.682699573
 31
0.0
 11
176.5839325154
 21
167.3749030441
 31
0.0
 11
176.6525701118
 21
167.0540219087
 31
0.0
  0
SPLINE
  5
2F2
330
28
100
AcDbEntity
  8
0
  6
Continuous
 62
     0
100
AcDbSpline
210
0.0
220
0.0
230
1.0
 70
     8
 71
     3
 72
    10
 73
     6
 74
     4
 42
0.0000000001
 43
0.0000000001
 44
0.0000000001
 40
0.0
 40
0.0
 40
0.0
 40
0.0
 40
0.3281399436688357
 40
0.6386450528253977
 40
0.9286683312080994
 40
0.9286683312080994
 40
0.9286683312080994
 40
0.9286683312080994
 10
176.6525701118
 20
130.0432126768
 30
0.0
 10
176.6280292590858
 20
129.9365949238215
 30
0.0
 10
176.5802664235017
 20
129.7290892488899
 30
0.0
 10
176.5382710741145
 20
129.4216888681715
 30
0.0
 10
176.5323019131423
 20
129.2215073449587
 30
0.0
 10
176.5294191258
 20
129.1248303138
 30
0.0
 11
176.6525701118
 21
130.0432126768
 31
0.0
 11
176.5839325154
 21
129.7223315415
 31
0.0
 11
176.5430091772
 21
129.4145350126
 31
0.0
 11
176.5294191258
 21
129.1248303138
 31
0.0
  0
SPLINE
  5
2F3
330
28
100
AcDbEntity
  8
0
  6
Continuous
 62
     0
100
AcDbSpline
210
0.0
220
0.0
230
1.0
 70
     8
 71
     3
 72
    10
 73
     6
 74
     4
 42
0.0000000001
 43
0.0000000001
 44
0.0000000001
 40
0.0
 40
0.0
 40
0.0
 40
0.0
 40
0.2508297788181966
 40
0.4738727629910585
 40
0.6692074358533373
 40
0.6692074358533373
 40
0.6692074358533373
 40
0.6692074358533373
 10
176.5294191258
 20
125.7181556963
 30
0.0
 10
176.5319532180192
 20
125.6345969418812
 30
0.0
 10
176.5367406770172
 20
125.4767360291336
 30
0.0
 10
176.5736823022543
 20
125.2548866500597
 30
0.0
 10
176.6274614025241
 20
125.1258191480738
 30
0.0
 10
176.6525701118
 20
125.0655593377
 30
0.0
 11
176.5294191258
 21
125.7181556963
 31
0.0
 11
176.5430091772
 21
125.4676943451
 31
0.0
 11
176.5839325154
 21
125.248437753
 31
0.0
 11
176.6525701118
 21
125.0655593377
 31
0.0
  0
SPLINE
  5
2F5
330
28
100
AcDbEntity
  8
0
  6
Continuous
 62
     0
100
AcDbSpline
210
0.0
220
0.0
230
1.0
 70
     8
 71
     3
 72
     9
 73
     5
 74
     3
 42
0.0000000001
 43
0.0000000001
 44
0.0000000001
 40
0.0
 40
0.0
 40
0.0
 40
0.0
 40
2.258458825982192
 40
4.378650200687023
 40
4.378650200687023
 40
4.378650200687023
 40
4.378650200687023
 10
156.3421523022
 20
190.5370798638
 30
0.0
 10
155.9997119879378
 20
189.865616538926
 30
0.0
 10
155.3357962532265
 20
188.5637982421346
 30
0.0
 10
154.8468531910461
 20
187.1868204108187
 30
0.0
 10
154.6101014946
 20
186.5200723521
 30
0.0
 11
156.3421523022
 21
190.5370798638
 31
0.0
 11
155.3613807582
 21
188.5026945888
 31
0.0
 11
154.6101014946
 21
186.5200723521
 31
0.0
  0
SPLINE
  5
2F6
330
28
100
AcDbEntity
  8
0
  6
Continuous
 62
     0
100
AcDbSpline
210
0.0
220
0.0
230
1.0
 70
     8
 71
     3
 72
    10
 73
     6
 74
     4
 42
0.0000000001
 43
0.0000000001
 44
0.0000000001
 40
0.0
 40
0.0
 40
0.0
 40
0.0
 40
1.526919122036485
 40
2.99104335709118
 40
4.404739066690782
 40
4.404739066690782
 40
4.404739066690782
 40
4.404739066690782
 10
154.6101014946
 20
189.8039475316
 30
0.0
 10
154.3786959478902
 20
189.3505573564161
 30
0.0
 10
153.9254014588167
 20
188.4624227773917
 30
0.0
 10
153.342377528951
 20
187.1130348852904
 30
0.0
 10
153.0310075715811
 20
186.2054351822139
 30
0.0
 10
152.8780506871
 20
185.7595873422
 30
0.0
 11
154.6101014946
 21
189.8039475316
 31
0.0
 11
153.9308414719
 21
188.4364359862
 31
0.0
 11
153.3537039828
 21
187.0908609811
 31
0.0
 11
152.8780506871
 21
185.7595873422
 31
0.0
  0
SPLINE
  5
2F8
330
28
100
AcDbEntity
  8
0
  6
Continuous
 62
     0
100
AcDbSpline
210
0.0
220
0.0
230
1.0
 70
     8
 71
     3
 72
    13
 73
     9
 74
     7
 42
0.0000000001
 43
0.0000000001
 44
0.0000000001
 40
0.0
 40
0.0
 40
0.0
 40
0.0
 40
1.887008558568185
 40
3.57737638346783
 40
5.166036897643494
 40
6.84486394158154
 40
8.770689556021983
 40
10.94997714572819
 40
10.94997714572819
 40
10.94997714572819
 40
10.94997714572819
 10
154.6101014946
 20
186.5200723521
 30
0.0
 10
154.3980618628797
 20
185.9276873639035
 30
0.0
 10
153.9960787518699
 20
184.804648436988
 30
0.0
 10
153.3723602790838
 20
183.2015790411586
 30
0.0
 10
152.9948045733006
 20
181.5718899387913
 30
0.0
 10
153.2096130510072
 20
179.8220475486945
 30
0.0
 10
153.8946213813615
 20
178.0168468790737
 30
0.0
 10
154.3619892270012
 20
176.7311974145945
 30
0.0
 10
154.6101014946
 20
176.0486827595
 30
0.0
 11
154.6101014946
 21
186.5200723521
 31
0.0
 11
153.9656550768
 21
184.7465193885
 31
0.0
 11
153.3989289045
 21
183.1539852981
 31
0.0
 11
153.0924412846
 21
181.5951692191
 31
0.0
 11
153.2596574626
 21
179.9246905472
 31
0.0
 11
153.8604629322
 21
178.0949809842
 31
0.0
 11
154.6101014946
 21
176.0486827595
 31
0.0
  0
SPLINE
  5
2F9
330
28
100
AcDbEntity
  8
0
  6
Continuous
 62
     0
100
AcDbSpline
210
0.0
220
0.0
230
1.0
 70
     8
 71
     3
 72
    13
 73
     9
 74
     7
 42
0.0000000001
 43
0.0000000001
 44
0.0000000001
 40
0.0
 40
0.0
 40
0.0
 40
0.0
 40
1.438894280356593
 40
2.891750625053547
 40
4.440288838868757
 40
6.24004691667044
 40
8.373786772781859
 40
10.87552276768627
 40
10.87552276768627
 40
10.87552276768627
 40
10.87552276768627
 10
152.8780506871
 20
185.7595873422
 30
0.0
 10
152.769412331897
 20
185.2924378139289
 30
0.0
 10
152.551081467808
 20
184.3536058519055
 30
0.0
 10
152.2423322225727
 20
182.9056026489937
 30
0.0
 10
152.069656637064
 20
181.3087393966001
 30
0.0
 10
152.18300436701
 20
179.4778725604308
 30
0.0
 10
152.5280752209956
 20
177.3606812419992
 30
0.0
 10
152.7553772622685
 20
175.8323135111024
 30
0.0
 10
152.8780506871
 20
175.0074634442
 30
0.0
 11
152.8780506871
 21
185.7595873422
 31
0.0
 11
152.5564083234
 21
184.3571027826
 31
0.0
 11
152.2725928095
 21
182.9322377671
 31
0.0
 11
152.1192572835
 21
181.3913098596
 31
0.0
 11
152.2032289513
 21
179.5935117904
 31
0.0
 11
152.5038374569
 21
177.4810534358
 31
0.0
 11
152.8780506871
 21
175.0074634442
 31
0.0
  0
SPLINE
  5
2FB
330
28
100
AcDbEntity
  8
0
  6
Continuous
 62
     0
100
AcDbSpline
210
0.0
220
0.0
230
1.0
 70
     8
 71
     3
 72
     9
 73
     5
 74
     3
 42
0.0000000001
 43
0.0000000001
 44
0.0000000001
 40
0.0
 40
0.0
 40
0.0
 40
0.0
 40
2.206402452298811
 40
4.378629400296001
 40
4.378629400296001
 40
4.378629400296001
 40
4.378629400296001
 10
154.6101014946
 20
176.0486827595
 30
0.0
 10
154.8572232742209
 20
175.3550499550738
 30
0.0
 10
155.3476391041046
 20
173.9785281934587
 30
0.0
 10
156.0123773051287
 20
172.677240683514
 30
0.0
 10
156.3421522419
 20
172.0316752479
 30
0.0
 11
154.6101014946
 21
176.0486827595
 31
0.0
 11
155.3957303802
 21
173.9868876592
 31
0.0
 11
156.3421522419
 21
172.0316752479
 31
0.0
  0
SPLINE
  5
2FC
330
28
100
AcDbEntity
  8
0
  6
Continuous
 62
     0
100
AcDbSpline
210
0.0
220
0.0
230
1.0
 70
     8
 71
     3
 72
    11
 73
     7
 74
     5
 42
0.0000000001
 43
0.0000000001
 44
0.0000000001
 40
0.0
 40
0.0
 40
0.0
 40
0.0
 40
0.5471474291176214
 40
1.100790873702274
 40
1.648207132827898
 40
2.178045139192604
 40
2.178045139192604
 40
2.178045139192604
 40
2.178045139192604
 10
156.3421523022
 20
172.0316752478
 30
0.0
 10
156.1625659663244
 20
171.9947807980655
 30
0.0
 10
155.8012611533013
 20
171.9205538687285
 30
0.0
 10
155.3143701378761
 20
171.6526482891769
 30
0.0
 10
154.8933803785841
 20
171.2976285012563
 30
0.0
 10
154.7034949616485
 20
170.9904397445175
 30
0.0
 10
154.6101014946
 20
170.8393516647
 30
0.0
 11
156.3421523022
 21
172.0316752478
 31
0.0
 11
155.8123180435
 21
171.8951250098
 31
0.0
 11
155.3229068309
 21
171.6362858151
 31
0.0
 11
154.9116158069
 21
171.2750320894
 31
0.0
 11
154.6101014946
 21
170.8393516647
 31
0.0
  0
SPLINE
  5
2FD
330
28
100
AcDbEntity
  8
0
  6
Continuous
 62
     0
100
AcDbSpline
210
0.0
220
0.0
230
1.0
 70
     8
 71
     3
 72
    10
 73
     6
 74
     4
 42
0.0000000001
 43
0.0000000001
 44
0.0000000001
 40
0.0
 40
0.0
 40
0.0
 40
0.0
 40
1.520239620321413
 40
3.035212188112461
 40
4.518473419163703
 40
4.518473419163703
 40
4.518473419163703
 40
4.518473419163703
 10
152.8780506871
 20
175.0074634442
 30
0.0
 10
153.0392170781447
 20
174.526883548867
 30
0.0
 10
153.3609914799392
 20
173.5673887848979
 30
0.0
 10
153.948155285728
 20
172.1786311142355
 30
0.0
 10
154.3910140824503
 20
171.282613359051
 30
0.0
 10
154.6101014946
 20
170.8393429246
 30
0.0
 11
152.8780506871
 21
175.0074634442
 31
0.0
 11
153.379773816
 21
173.5724016319
 31
0.0
 11
153.9658707023
 21
172.1753932851
 31
0.0
 11
154.6101014946
 21
170.8393429246
 31
0.0
  0
SPLINE
  5
2FF
330
28
100
AcDbEntity
  8
0
  6
Continuous
 62
     0
100
AcDbSpline
210
0.0
220
0.0
230
1.0
 70
     8
 71
     3
 72
     9
 73
     5
 74
     3
 42
0.0000000001
 43
0.0000000001
 44
0.0000000001
 40
0.0
 40
0.0
 40
0.0
 40
0.0
 40
4.198074584101568
 40
8.221097038671639
 40
8.221097038671639
 40
8.221097038671639
 40
8.221097038671639
 10
156.3421523022
 20
167.0540219087
 30
0.0
 10
155.9971102159847
 20
165.6973073407091
 30
0.0
 10
155.3214136754934
 20
163.0404507523406
 30
0.0
 10
154.8438157177847
 20
160.3409949697591
 30
0.0
 10
154.6101014946
 20
159.0200068854
 30
0.0
 11
156.3421523022
 21
167.0540219087
 31
0.0
 11
155.3586822037
 21
162.9727700445
 31
0.0
 11
154.6101014946
 21
159.0200068854
 31
0.0
  0
SPLINE
  5
300
330
28
100
AcDbEntity
  8
0
  6
Continuous
 62
     0
100
AcDbSpline
210
0.0
220
0.0
230
1.0
 70
     8
 71
     3
 72
    10
 73
     6
 74
     4
 42
0.0000000001
 43
0.0000000001
 44
0.0000000001
 40
0.0
 40
0.0
 40
0.0
 40
0.0
 40
2.862780697406078
 40
5.665263406313066
 40
8.396097351838037
 40
8.396097351838037
 40
8.396097351838037
 40
8.396097351838037
 10
154.6101014946
 20
167.5132134955
 30
0.0
 10
154.3779636538989
 20
166.5875784339707
 30
0.0
 10
153.9185774301004
 20
164.755804716049
 30
0.0
 10
153.3376270246109
 20
162.0170504672608
 30
0.0
 10
153.0299146503537
 20
160.1983276383101
 30
0.0
 10
152.8780506871
 20
159.3007411908
 30
0.0
 11
154.6101014946
 21
167.5132134955
 31
0.0
 11
153.9308960544
 21
164.7321717318
 31
0.0
 11
153.351947634
 21
161.9901418158
 31
0.0
 11
152.8780506871
 21
159.3007411908
 31
0.0
  0
SPLINE
  5
301
330
28
100
AcDbEntity
  8
0
  6
Continuous
 62
     0
100
AcDbSpline
210
0.0
220
0.0
230
1.0
 70
     8
 71
     3
 72
    11
 73
     7
 74
     5
 42
0.0000000001
 43
0.0000000001
 44
0.0000000001
 40
0.0
 40
0.0
 40
0.0
 40
0.0
 40
2.839432515977561
 40
5.665897404918244
 40
8.264906812499273
 40
10.5951458339309
 40
10.5951458339309
 40
10.5951458339309
 40
10.5951458339309
 10
154.6101014946
 20
159.0200068854
 30
0.0
 10
154.4463259456954
 20
158.0876988529857
 30
0.0
 10
154.1195228072844
 20
156.2273406188256
 30
0.0
 10
153.5894310003932
 20
153.5249630643513
 30
0.0
 10
153.170416473963
 20
150.9690488658487
 30
0.0
 10
153.1107147686487
 20
149.3255570063438
 30
0.0
 10
153.0824915526
 20
148.5486172928
 30
0.0
 11
154.6101014946
 21
159.0200068854
 31
0.0
 11
154.1095843532
 21
156.2250364734
 31
0.0
 11
153.5897309338
 21
153.4467895098
 31
0.0
 11
153.2133341917
 21
150.8751800151
 31
0.0
 11
153.0824915526
 21
148.5486172928
 31
0.0
  0
SPLINE
  5
302
330
28
100
AcDbEntity
  8
0
  6
Continuous
 62
     0
100
AcDbSpline
210
0.0
220
0.0
230
1.0
 70
     8
 71
     3
 72
    11
 73
     7
 74
     5
 42
0.0000000001
 43
0.0000000001
 44
0.0000000001
 40
0.0
 40
0.0
 40
0.0
 40
0.0
 40
2.805851835511036
 40
5.662202453332633
 40
8.344261348270797
 40
10.78264622618213
 40
10.78264622618213
 40
10.78264622618213
 40
10.78264622618213
 10
152.8780506871
 20
159.3007411908
 30
0.0
 10
152.7957497890708
 20
158.3690648382434
 30
0.0
 10
152.629666768993
 20
156.4889441339378
 30
0.0
 10
152.3648820775132
 20
153.7204030108368
 30
0.0
 10
152.1575804768041
 20
151.0683833152638
 30
0.0
 10
152.1282249753306
 20
149.3614627281086
 30
0.0
 10
152.1142457161
 20
148.5486172928
 30
0.0
 11
152.8780506871
 21
159.3007411908
 31
0.0
 11
152.6278100625
 21
156.506070521
 31
0.0
 11
152.3678136419
 21
153.6615774707
 31
0.0
 11
152.1797031498
 21
150.9861234235
 31
0.0
 11
152.1142457161
 21
148.5486172928
 31
0.0
  0
SPLINE
  5
303
330
28
100
AcDbEntity
  8
0
  6
Continuous
 62
     0
100
AcDbSpline
210
0.0
220
0.0
230
1.0
 70
     8
 71
     3
 72
    11
 73
     7
 74
     5
 42
0.0000000001
 43
0.0000000001
 44
0.0000000001
 40
0.0
 40
0.0
 40
0.0
 40
0.0
 40
2.368014519063686
 40
4.983436794088352
 40
7.791490266273936
 40
10.59511096157832
 40
10.59511096157832
 40
10.59511096157832
 40
10.59511096157832
 10
153.0824915526
 20
148.5486172928
 30
0.0
 10
153.1116319836635
 20
147.7590835247366
 30
0.0
 10
153.1729574084818
 20
146.0975263010512
 30
0.0
 10
153.5974208421679
 20
143.5304005571997
 30
0.0
 10
154.1251649046
 20
140.8404136779643
 30
0.0
 10
154.4485411117731
 20
138.9978045211603
 30
0.0
 10
154.6101014946
 20
138.0772277002
 30
0.0
 11
153.0824915526
 21
148.5486172928
 31
0.0
 11
153.2173658483
 21
146.1844468914
 31
0.0
 11
153.5991221735
 21
143.5970358717
 31
0.0
 11
154.1162857441
 21
140.8370166428
 31
0.0
 11
154.6101014946
 21
138.0772277002
 31
0.0
  0
SPLINE
  5
304
330
28
100
AcDbEntity
  8
0
  6
Continuous
 62
     0
100
AcDbSpline
210
0.0
220
0.0
230
1.0
 70
     8
 71
     3
 72
    11
 73
     7
 74
     5
 42
0.0000000001
 43
0.0000000001
 44
0.0000000001
 40
0.0
 40
0.0
 40
0.0
 40
0.0
 40
2.477320602298552
 40
5.175538082987222
 40
8.012467948140312
 40
10.78263762468057
 40
10.78263762468057
 40
10.78263762468057
 40
10.78263762468057
 10
152.1142457161
 20
148.5486172928
 30
0.0
 10
152.1286720511096
 20
147.7227923464993
 30
0.0
 10
152.1588110836475
 20
145.9975055767955
 30
0.0
 10
152.368830230549
 20
143.3337654629702
 30
0.0
 10
152.6325373737498
 20
140.5781648659776
 30
0.0
 10
152.7968650980837
 20
138.7163279803689
 30
0.0
 10
152.8780506871
 20
137.7964933948
 30
0.0
 11
152.1142457161
 21
148.5486172928
 31
0.0
 11
152.1817008852
 21
146.072215232
 31
0.0
 11
152.3724812066
 21
143.3807508644
 31
0.0
 11
152.6311483617
 21
140.5556380591
 31
0.0
 11
152.8780506871
 21
137.7964933948
 31
0.0
  0
SPLINE
  5
305
330
28
100
AcDbEntity
  8
0
  6
Continuous
 62
     0
100
AcDbSpline
210
0.0
220
0.0
230
1.0
 70
     8
 71
     3
 72
     9
 73
     5
 74
     3
 42
0.0000000001
 43
0.0000000001
 44
0.0000000001
 40
0.0
 40
0.0
 40
0.0
 40
0.0
 40
4.022730406721232
 40
8.221097047294073
 40
8.221097047294073
 40
8.221097047294073
 40
8.221097047294073
 10
154.6101014946
 20
138.0772277002
 30
0.0
 10
154.8437974276531
 20
136.7563353181182
 30
0.0
 10
155.3213926803646
 20
134.0568791368186
 30
0.0
 10
155.9970872291772
 20
131.4000219397145
 30
0.0
 10
156.3421523022
 20
130.0432126768
 30
0.0
 11
154.6101014946
 21
138.0772277002
 31
0.0
 11
155.3586206168
 21
134.1247501166
 31
0.0
 11
156.3421523022
 21
130.0432126768
 31
0.0
  0
SPLINE
  5
306
330
28
100
AcDbEntity
  8
0
  6
Continuous
 62
     0
100
AcDbSpline
210
0.0
220
0.0
230
1.0
 70
     8
 71
     3
 72
    10
 73
     6
 74
     4
 42
0.0000000001
 43
0.0000000001
 44
0.0000000001
 40
0.0
 40
0.0
 40
0.0
 40
0.0
 40
2.730651846997239
 40
5.533391493111845
 40
8.396097390347123
 40
8.396097390347123
 40
8.396097390347123
 40
8.396097390347123
 10
152.8780506871
 20
137.7964933948
 30
0.0
 10
153.0299039909578
 20
136.8989667235687
 30
0.0
 10
153.3376194475039
 20
135.0802191403153
 30
0.0
 10
153.9185682655591
 20
132.3414644007014
 30
0.0
 10
154.3779695646382
 20
130.5096318817422
 30
0.0
 10
154.6101014946
 20
129.5840210512
 30
0.0
 11
152.8780506871
 21
137.7964933948
 31
0.0
 11
153.3519129748
 21
135.1072715665
 31
0.0
 11
153.9309126863
 21
132.3649898782
 31
0.0
 11
154.6101014946
 21
129.5840210512
 31
0.0
  0
SPLINE
  5
307
330
28
100
AcDbEntity
  8
0
  6
Continuous
 62
     0
100
AcDbSpline
210
0.0
220
0.0
230
1.0
 70
     8
 71
     3
 72
     9
 73
     5
 74
     3
 42
0.0000000001
 43
0.0000000001
 44
0.0000000001
 40
0.0
 40
0.0
 40
0.0
 40
0.0
 40
2.172783686518502
 40
4.378629568008401
 40
4.378629568008401
 40
4.378629568008401
 40
4.378629568008401
 10
156.3421522416
 20
125.0655593377
 30
0.0
 10
156.0122954571635
 20
124.4198267538009
 30
0.0
 10
155.3475626176711
 20
123.1185357866281
 30
0.0
 10
154.8571561906897
 20
121.7420111044684
 30
0.0
 10
154.6101014946
 20
121.048551826
 30
0.0
 11
156.3421522416
 21
125.0655593377
 31
0.0
 11
155.3955078235
 21
123.1098361226
 31
0.0
 11
154.6101014946
 21
121.048551826
 31
0.0
  0
SPLINE
  5
308
330
28
100
AcDbEntity
  8
0
  6
Continuous
 62
     0
100
AcDbSpline
210
0.0
220
0.0
230
1.0
 70
     8
 71
     3
 72
    10
 73
     6
 74
     4
 42
0.0000000001
 43
0.0000000001
 44
0.0000000001
 40
0.0
 40
0.0
 40
0.0
 40
0.0
 40
1.483770288392222
 40
2.99872833372922
 40
4.518473549241788
 40
4.518473549241788
 40
4.518473549241788
 40
4.518473549241788
 10
154.6101014946
 20
126.2578917117
 30
0.0
 10
154.3909406648544
 20
125.8144681830076
 30
0.0
 10
153.9480124063878
 20
124.9183006901451
 30
0.0
 10
153.3608762835566
 20
123.5295312400416
 30
0.0
 10
153.0391617182051
 20
122.5701956171082
 30
0.0
 10
152.8780506871
 20
122.0897711414
 30
0.0
 11
154.6101014946
 21
126.2578917117
 31
0.0
 11
153.9656608685
 21
124.921377384
 31
0.0
 11
153.3795957487
 21
123.524371459
 31
0.0
 11
152.8780506871
 21
122.0897711414
 31
0.0
  0
SPLINE
  5
309
330
28
100
AcDbEntity
  8
0
  6
Continuous
 62
     0
100
AcDbSpline
210
0.0
220
0.0
230
1.0
 70
     8
 71
     3
 72
    11
 73
     7
 74
     5
 42
0.0000000001
 43
0.0000000001
 44
0.0000000001
 40
0.0
 40
0.0
 40
0.0
 40
0.0
 40
0.5471817763545269
 40
1.100675506053411
 40
1.647968272638334
 40
2.178045232446411
 40
2.178045232446411
 40
2.178045232446411
 40
2.178045232446411
 10
156.3421523022
 20
125.0655593378
 30
0.0
 10
156.1625546011681
 20
125.1024565245834
 30
0.0
 10
155.8012874701859
 20
125.1766765214651
 30
0.0
 10
155.3144650795273
 20
125.4445328875593
 30
0.0
 10
154.8934583127524
 20
125.7995114857817
 30
0.0
 10
154.703542180309
 20
126.1067288335663
 30
0.0
 10
154.6101014945
 20
126.2578829209
 30
0.0
 11
156.3421523022
 21
125.0655593378
 31
0.0
 11
155.8122857301
 21
125.2021218222
 31
0.0
 11
155.3230023901
 21
125.460882565
 31
0.0
 11
154.911776047
 21
125.8220227969
 31
0.0
 11
154.6101014945
 21
126.2578829209
 31
0.0
  0
SPLINE
  5
30A
330
28
100
AcDbEntity
  8
0
  6
Continuous
 62
     0
100
AcDbSpline
210
0.0
220
0.0
230
1.0
 70
     8
 71
     3
 72
    13
 73
     9
 74
     7
 42
0.0000000001
 43
0.0000000001
 44
0.0000000001
 40
0.0
 40
0.0
 40
0.0
 40
0.0
 40
2.212203427143879
 40
4.14744404998862
 40
5.826498994755738
 40
7.413732234645009
 40
9.095431020345266
 40
10.94991177214178
 40
10.94991177214178
 40
10.94991177214178
 40
10.94991177214178
 10
154.6101014946
 20
121.048551826
 30
0.0
 10
154.3579344354934
 20
120.3559140880112
 30
0.0
 10
153.8851710557507
 20
119.0573552710546
 30
0.0
 10
153.1971927537327
 20
117.2372409575272
 30
0.0
 10
152.9984577441529
 20
115.4822733418626
 30
0.0
 10
153.3852843931053
 20
113.8590228187251
 30
0.0
 10
154.0052877054979
 20
112.2697951088421
 30
0.0
 10
154.4020350481688
 20
111.1594573362095
 30
0.0
 10
154.6101014946
 20
110.5771622334
 30
0.0
 11
154.6101014946
 21
121.048551826
 31
0.0
 11
153.8487761603
 21
118.9714799114
 31
0.0
 11
153.2497052568
 21
117.131297768
 31
0.0
 11
153.0954052296
 21
115.4593477062
 31
0.0
 11
153.4109115138
 21
113.9037882755
 31
0.0
 11
153.9773270886
 21
112.3203476538
 31
0.0
 11
154.6101014946
 21
110.5771622334
 31
0.0
  0
SPLINE
  5
30B
330
28
100
AcDbEntity
  8
0
  6
Continuous
 62
     0
100
AcDbSpline
210
0.0
220
0.0
230
1.0
 70
     8
 71
     3
 72
    13
 73
     9
 74
     7
 42
0.0000000001
 43
0.0000000001
 44
0.0000000001
 40
0.0
 40
0.0
 40
0.0
 40
0.0
 40
2.538270861622291
 40
4.681491757063266
 40
6.479116187679484
 40
8.021114592184503
 40
9.462679474642425
 40
10.87550742199149
 40
10.87550742199149
 40
10.87550742199149
 40
10.87550742199149
 10
152.8780506871
 20
122.0897711414
 30
0.0
 10
152.7533825054361
 20
121.2529186125487
 30
0.0
 10
152.5234491781258
 20
119.7094591358912
 30
0.0
 10
152.1769344285527
 20
117.5775452095545
 30
0.0
 10
152.0710573044762
 20
115.7458096851472
 30
0.0
 10
152.2486590504285
 20
114.1563558446053
 30
0.0
 10
152.5561996193806
 20
112.7231188628477
 30
0.0
 10
152.7714894831912
 20
111.7963610354525
 30
0.0
 10
152.8780506871
 20
111.3376472434
 30
0.0
 11
152.8780506871
 21
122.0897711414
 31
0.0
 11
152.4980369686
 21
119.5801081081
 31
0.0
 11
152.1982807625
 21
117.4579530658
 31
0.0
 11
152.1207489672
 21
115.6620013921
 31
0.0
 11
152.2785353871
 21
114.1280970518
 31
0.0
 11
152.5621930208
 21
112.7147154129
 31
0.0
 11
152.8780506871
 21
111.3376472434
 31
0.0
  0
SPLINE
  5
30D
330
28
100
AcDbEntity
  8
0
  6
Continuous
 62
     0
100
AcDbSpline
210
0.0
220
0.0
230
1.0
 70
     8
 71
     3
 72
     9
 73
     5
 74
     3
 42
0.0000000001
 43
0.0000000001
 44
0.0000000001
 40
0.0
 40
0.0
 40
0.0
 40
0.0
 40
2.120186441818021
 40
4.378650199523619
 40
4.378650199523619
 40
4.378650199523619
 40
4.378650199523619
 10
154.6101014946
 20
110.5771622334
 30
0.0
 10
154.8468526091591
 20
109.9104157173937
 30
0.0
 10
155.3357956070742
 20
108.5334378687668
 30
0.0
 10
155.9997112746822
 20
107.2316195331374
 30
0.0
 10
156.3421523022
 20
106.5601547218
 30
0.0
 11
154.6101014946
 21
110.5771622334
 31
0.0
 11
155.361378821
 21
108.5945445378
 31
0.0
 11
156.3421523022
 21
106.5601547218
 31
0.0
  0
SPLINE
  5
312
330
28
100
AcDbEntity
  8
0
  6
Continuous
 62
     0
100
AcDbSpline
210
0.0
220
0.0
230
1.0
 70
     8
 71
     3
 72
    22
 73
    18
 74
    16
 42
0.0000000001
 43
0.0000000001
 44
0.0000000001
 40
0.0
 40
0.0
 40
0.0
 40
0.0
 40
0.3610485018185617
 40
0.7516587793858818
 40
1.143395794526471
 40
1.536244421769105
 40
1.930171296334611
 40
2.325166978382981
 40
2.721133724335525
 40
3.117967081255262
 40
3.515517255012882
 40
3.913575562299319
 40
4.311935245966113
 40
4.710379934257993
 40
5.108684575892545
 40
5.506614598029239
 40
5.876225165945971
 40
5.876225165945971
 40
5.876225165945971
 40
5.876225165945971
 10
209.0316952258
 20
232.1981994381
 30
0.0
 10
209.0140556325032
 20
232.3173317227607
 30
0.0
 10
208.9773321587884
 20
232.565350554642
 30
0.0
 10
208.8769341935596
 20
232.9339651009043
 30
0.0
 10
208.7397727119524
 20
233.3014251168208
 30
0.0
 10
208.5661414242151
 20
233.6545642394268
 30
0.0
 10
208.3584595938476
 20
233.9900130321899
 30
0.0
 10
208.1183540850193
 20
234.3044119189908
 30
0.0
 10
207.8480989282403
 20
234.594620671345
 30
0.0
 10
207.5502250689893
 20
234.8576962355216
 30
0.0
 10
207.2276020543721
 20
235.0909438721209
 30
0.0
 10
206.8833863546638
 20
235.291983723821
 30
0.0
 10
206.5209903445445
 20
235.4586875256118
 30
0.0
 10
206.1440284222115
 20
235.5896088465154
 30
0.0
 10
205.7562860186439
 20
235.6825270861719
 30
0.0
 10
205.3708183021971
 20
235.738636147072
 30
0.0
 10
205.114887825836
 20
235.7453727796992
 30
0.0
 10
204.9916440392
 20
235.7486168174
 30
0.0
 11
209.0316952258
 21
232.1981994381
 31
0.0
 11
208.9720215181
 21
232.5542823909
 31
0.0
 11
208.8713955974
 21
232.9317089573
 31
0.0
 11
208.7339140102
 21
233.2985286708
 31
0.0
 11
208.560728127
 21
233.651142757
 31
0.0
 11
208.3533559225
 21
233.9860683477
 31
0.0
 11
208.1136417656
 21
234.300008966
 31
0.0
 11
207.843804048
 21
234.5897972854
 31
0.0
 11
207.5463770309
 21
234.85250222
 31
0.0
 11
207.2242157263
 21
235.0854361902
 31
0.0
 11
206.8804890182
 21
235.2861906824
 31
0.0
 11
206.5186012442
 21
235.4527069777
 31
0.0
 11
206.1421635974
 21
235.5832936068
 31
0.0
 11
205.7549538187
 21
235.6766487075
 31
0.0
 11
205.3608755103
 21
235.7318808482
 31
0.0
 11
204.9916440392
 21
235.7486168174
 31
0.0
  0
SPLINE
  5
313
330
28
100
AcDbEntity
  8
0
  6
Continuous
 62
     0
100
AcDbSpline
210
0.0
220
0.0
230
1.0
 70
     8
 71
     3
 72
    10
 73
     6
 74
     4
 42
0.0000000001
 43
0.0000000001
 44
0.0000000001
 40
0.0
 40
0.0
 40
0.0
 40
0.0
 40
0.8890603071151593
 40
2.246485731157778
 40
3.597206025074633
 40
3.597206025074633
 40
3.597206025074633
 40
3.597206025074633
 10
209.4661440265
 20
228.6273247111
 30
0.0
 10
209.430222500033
 20
228.9214930355391
 30
0.0
 10
209.33945565778
 20
229.6648002534212
 30
0.0
 10
209.1945577512361
 20
230.8550819106619
 30
0.0
 10
209.0858932312872
 20
231.7512330360899
 30
0.0
 10
209.0316954932
 20
232.1981992032
 30
0.0
 11
209.4661440265
 21
228.6273247111
 31
0.0
 11
209.358422811
 21
229.509834977
 31
0.0
 11
209.1943935445
 21
230.8573134301
 31
0.0
 11
209.0316954932
 21
232.1981992032
 31
0.0
  0
SPLINE
  5
316
330
28
100
AcDbEntity
  8
0
  6
Continuous
 62
     0
100
AcDbSpline
210
0.0
220
0.0
230
1.0
 70
     8
 71
     3
 72
    19
 73
    15
 74
    13
 42
0.0000000001
 43
0.0000000001
 44
0.0000000001
 40
0.0
 40
0.0
 40
0.0
 40
0.0
 40
0.0015818384415557
 40
0.0046539333157307
 40
0.0093803847386659
 40
0.0159974247284416
 40
0.0245795115492856
 40
0.0351541207263776
 40
0.0477280840328747
 40
0.0622978211382692
 40
0.0788728978374155
 40
0.0974159224328379
 40
0.117707868070012
 40
0.1394532029158921
 40
0.1394532029158921
 40
0.1394532029158921
 40
0.1394532029158921
 10
209.4660947124
 20
228.6273211614
 30
0.0
 10
209.4660577929176
 20
228.6267780204226
 30
0.0
 10
209.4659491719584
 20
228.6251800431429
 30
0.0
 10
209.4631259742655
 20
228.6231648141653
 30
0.0
 10
209.4588433488093
 20
228.6212906083406
 30
0.0
 10
209.4523702934939
 20
228.6194849161991
 30
0.0
 10
209.4439690423737
 20
228.6177982462822
 30
0.0
 10
209.4334971154183
 20
228.6162237991922
 30
0.0
 10
209.4210097473139
 20
228.614776142105
 30
0.0
 10
209.4064943403539
 20
228.6134574065552
 30
0.0
 10
209.3899738065778
 20
228.6122717345762
 30
0.0
 10
209.3715326679534
 20
228.6112283840035
 30
0.0
 10
209.3513591653608
 20
228.6103203646172
 30
0.0
 10
209.3373542511633
 20
228.6098584430034
 30
0.0
 10
209.3301096924
 20
228.609619497
 30
0.0
 11
209.4660947124
 21
228.6273211614
 31
0.0
 11
209.4658346854
 21
228.6257608413
 31
0.0
 11
209.4636285849
 21
228.6236228779
 31
0.0
 11
209.4593503046
 21
228.6216139825
 31
0.0
 11
209.4530054926
 21
228.6197355313
 31
0.0
 11
209.4446029042
 21
228.6179894722
 31
0.0
 11
209.4341519119
 21
228.6163772938
 31
0.0
 11
209.4216649614
 21
228.6149006014
 31
0.0
 11
209.4071569534
 21
228.6135608465
 31
0.0
 11
209.3906255745
 21
228.6123580667
 31
0.0
 11
209.3721130291
 21
228.6112953231
 31
0.0
 11
209.3518416779
 21
228.6103813328
 31
0.0
 11
209.3301096924
 21
228.609619497
 31
0.0
  0
SPLINE
  5
342
330
28
100
AcDbEntity
  8
0
  6
Continuous
 62
     0
100
AcDbSpline
210
0.0
220
0.0
230
1.0
 70
     8
 71
     3
 72
    59
 73
    55
 74
    53
 42
0.0000000001
 43
0.0000000001
 44
0.0000000001
 40
0.0
 40
0.0
 40
0.0
 40
0.0
 40
0.0472432105865807
 40
0.0949006793273917
 40
0.1430402045461926
 40
0.1917270113502932
 40
0.2410235130979905
 40
0.2909934079292876
 40
0.3417400791870484
 40
0.3934012625750539
 40
0.4461019686399271
 40
0.4999487298359318
 40
0.5550471262295642
 40
0.6115205671549582
 40
0.6694966063817714
 40
0.7291079435359749
 40
0.790484183252363
 40
0.8537728248251544
 40
0.9191231390701278
 40
0.9866236674659594
 40
1.05633228835015
 40
1.128370131510819
 40
1.202853573585638
 40
1.279937534005563
 40
1.359886664559124
 40
1.442700671190613
 40
1.527327006845203
 40
1.613158030385593
 40
1.699655253371533
 40
1.786221408636735
 40
1.872458202676796
 40
1.958549451219887
 40
2.044672263407979
 40
2.130839695112999
 40
2.217132102415424
 40
2.303615570966518
 40
2.39035016277581
 40
2.477396796703995
 40
2.564814131620366
 40
2.652653955514632
 40
2.740925060636779
 40
2.829677713889178
 40
2.918947440389579
 40
3.00874774057154
 40
3.099082812261855
 40
3.189956941914494
 40
3.281376031027862
 40
3.373306705648075
 40
3.465729604051602
 40
3.558615269946142
 40
3.651933982336098
 40
3.745628563596594
 40
3.839630298893405
 40
3.933934593932996
 40
3.933934593932996
 40
3.933934593932996
 40
3.933934593932996
 10
206.8643162263
 20
203.6412179305
 30
0.0
 10
206.8657070559013
 20
203.6255301882844
 30
0.0
 10
206.8685009107718
 20
203.5940171438724
 30
0.0
 10
206.8747770747503
 20
203.5467375155625
 30
0.0
 10
206.8826421148984
 20
203.499215297946
 30
0.0
 10
206.8922826782518
 20
203.45146053915
 30
0.0
 10
206.9037037986178
 20
203.4034736481881
 30
0.0
 10
206.9169646752204
 20
203.355249218601
 30
0.0
 10
206.9321249653347
 20
203.3067612337809
 30
0.0
 10
206.9492617240701
 20
203.2579699032724
 30
0.0
 10
206.9684618375164
 20
203.2088416177947
 30
0.0
 10
206.9898168132063
 20
203.1593602252113
 30
0.0
 10
207.0134248530011
 20
203.1095178132763
 30
0.0
 10
207.0393937941188
 20
203.0593085349904
 30
0.0
 10
207.0678426228272
 20
203.0087279637183
 30
0.0
 10
207.0988982661104
 20
202.9577802316417
 30
0.0
 10
207.1326975078224
 20
202.90647484213
 30
0.0
 10
207.1693864111091
 20
202.854828651096
 30
0.0
 10
207.2091085457255
 20
202.8028821761021
 30
0.0
 10
207.2519913033464
 20
202.7507106082346
 30
0.0
 10
207.2981541510567
 20
202.6984047025385
 30
0.0
 10
207.3477204024974
 20
202.6460564027479
 30
0.0
 10
207.4008347186471
 20
202.5937439351254
 30
0.0
 10
207.4576774526002
 20
202.5415248052841
 30
0.0
 10
207.5184040130278
 20
202.4894990217592
 30
0.0
 10
207.5828541166359
 20
202.4380301445095
 30
0.0
 10
207.6505930795481
 20
202.3876166918653
 30
0.0
 10
207.720981232489
 20
202.3387870536744
 30
0.0
 10
207.7934528060021
 20
202.291906884975
 30
0.0
 10
207.8674657060786
 20
202.2472397623022
 30
0.0
 10
207.9426637828249
 20
202.2048754158072
 30
0.0
 10
208.0189169345681
 20
202.1647594015999
 30
0.0
 10
208.0962301907491
 20
202.126780743303
 30
0.0
 10
208.1745913905662
 20
202.0908547736376
 30
0.0
 10
208.2539651150042
 20
202.0569195319515
 30
0.0
 10
208.3343391055493
 20
202.0249133855008
 30
0.0
 10
208.4157028931802
 20
201.9947838674092
 30
0.0
 10
208.4980503688379
 20
201.9664856413671
 30
0.0
 10
208.5813785898033
 20
201.939980261276
 30
0.0
 10
208.6656729065294
 20
201.9152398594237
 30
0.0
 10
208.7509198271102
 20
201.8922412693153
 30
0.0
 10
208.8371039592422
 20
201.8709664010677
 30
0.0
 10
208.92421435499
 20
201.8514005197833
 30
0.0
 10
209.0122274816089
 20
201.8335353559722
 30
0.0
 10
209.1011114637256
 20
201.8173666859701
 30
0.0
 10
209.1908334692144
 20
201.8028922349746
 30
0.0
 10
209.281349597268
 20
201.7901128749043
 30
0.0
 10
209.3726091276562
 20
201.7790311279082
 30
0.0
 10
209.4645504420907
 20
201.7696495983887
 30
0.0
 10
209.557113819463
 20
201.7619737874177
 30
0.0
 10
209.650227588549
 20
201.75599565298
 30
0.0
 10
209.7438075139697
 20
201.7517581492167
 30
0.0
 10
209.8377782079499
 20
201.7491071096551
 30
0.0
 10
209.9005477549014
 20
201.7487807398827
 30
0.0
 10
209.9319829557
 20
201.7486172928
 30
0.0
 11
206.8643162263
 21
203.6412179305
 31
0.0
 11
206.868828255
 21
203.5941906773
 31
0.0
 11
206.8750062538
 21
203.5469353426
 31
0.0
 11
206.8828885257
 21
203.4994455155
 31
0.0
 11
206.8925138477
 21
203.451719649
 31
0.0
 11
206.9039261023
 21
203.4037623187
 31
0.0
 11
206.9171710388
 21
203.355579728
 31
0.0
 11
206.9323103635
 21
203.3071439407
 31
0.0
 11
206.9494250382
 21
203.2584000613
 31
0.0
 11
206.9686029773
 21
203.2093126793
 31
0.0
 11
206.9899337643
 21
203.1598710853
 31
0.0
 11
207.0135129211
 21
203.1100729262
 31
0.0
 11
207.0394500001
 21
203.0599080235
 31
0.0
 11
207.067863728
 21
203.0093720839
 31
0.0
 11
207.0988823535
 21
202.9584667169
 31
0.0
 11
207.1326388795
 21
202.9072071836
 31
0.0
 11
207.1692821384
 21
202.8556055971
 31
0.0
 11
207.2089683392
 21
202.8036857643
 31
0.0
 11
207.2518197028
 21
202.7515313592
 31
0.0
 11
207.2979356359
 21
202.6992569626
 31
0.0
 11
207.3474540035
 21
202.6469369653
 31
0.0
 11
207.4005093603
 21
202.594659702
 31
0.0
 11
207.4572640281
 21
202.5424979858
 31
0.0
 11
207.5179665999
 21
202.490468559
 31
0.0
 11
207.5826660275
 21
202.4387757765
 31
0.0
 11
207.6505429707
 21
202.3882353247
 31
0.0
 11
207.7210550178
 21
202.3392964259
 31
0.0
 11
207.7936715476
 21
202.2923005837
 31
0.0
 11
207.8677776475
 21
202.2475570345
 31
0.0
 11
207.9429037307
 21
202.205214901
 31
0.0
 11
208.0190876088
 21
202.1651185197
 31
0.0
 11
208.0963812861
 21
202.1271339672
 31
0.0
 11
208.174703691
 21
202.0912114509
 31
0.0
 11
208.2540437969
 21
202.0572772918
 31
0.0
 11
208.3343867865
 21
202.0252711306
 31
0.0
 11
208.415719988
 21
201.9951414152
 31
0.0
 11
208.4980381918
 21
201.9668424788
 31
0.0
 11
208.5813398623
 21
201.9403354583
 31
0.0
 11
208.6656218752
 21
201.9155892068
 31
0.0
 11
208.7508436819
 21
201.8925885185
 31
0.0
 11
208.8370078759
 21
201.8713102401
 31
0.0
 11
208.924105884
 21
201.8517393164
 31
0.0
 11
209.0121100456
 21
201.8338686294
 31
0.0
 11
209.1009853947
 21
201.8176946534
 31
0.0
 11
209.1906985628
 21
201.8032151883
 31
0.0
 11
209.2812191097
 21
201.7904292412
 31
0.0
 11
209.3724787249
 21
201.7793417902
 31
0.0
 11
209.4644237329
 21
201.7699552225
 31
0.0
 11
209.5569911327
 21
201.7622725522
 31
0.0
 11
209.6501182697
 21
201.7562960619
 31
0.0
 11
209.7437156058
 21
201.7520283655
 31
0.0
 11
209.8376825137
 21
201.7494697607
 31
0.0
 11
209.9319829557
 21
201.7486172928
 31
0.0
  0
SPLINE
  5
345
330
28
100
AcDbEntity
  8
0
  6
Continuous
 62
     0
100
AcDbSpline
210
0.0
220
0.0
230
1.0
 70
     8
 71
     3
 72
    10
 73
     6
 74
     4
 42
0.0000000001
 43
0.0000000001
 44
0.0000000001
 40
0.0
 40
0.0
 40
0.0
 40
0.0
 40
0.01255272833506
 40
0.0251125075091768
 40
0.0376803913269743
 40
0.0376803913269743
 40
0.0376803913269743
 40
0.0376803913269743
 10
206.8618780231
 20
203.6788182994
 30
0.0
 10
206.8621028873118
 20
203.674640084438
 30
0.0
 10
206.8625527420413
 20
203.6662813076202
 30
0.0
 10
206.8633654957033
 20
203.6537471494597
 30
0.0
 10
206.8639992479646
 20
203.6453952347585
 30
0.0
 10
206.8643162263
 20
203.6412179305
 30
0.0
 11
206.8618780231
 21
203.6788182994
 31
0.0
 11
206.8625755563
 21
203.6662849664
 31
0.0
 11
206.8633882453
 21
203.6537515076
 31
0.0
 11
206.8643162263
 21
203.6412179305
 31
0.0
  0
SPLINE
  5
349
330
28
100
AcDbEntity
  8
0
  6
Continuous
 62
     0
100
AcDbSpline
210
0.0
220
0.0
230
1.0
 70
     8
 71
     3
 72
    10
 73
     6
 74
     4
 42
0.0000000001
 43
0.0000000001
 44
0.0000000001
 40
0.0
 40
0.0
 40
0.0
 40
0.0
 40
7.737290364213007
 40
15.09623912260356
 40
22.40086056298699
 40
22.40086056298699
 40
22.40086056298699
 40
22.40086056298699
 10
206.3182699246
 20
226.0730338548
 30
0.0
 10
206.3705187715694
 20
223.4944582892508
 30
0.0
 10
206.4724615772031
 20
218.4633955397796
 30
0.0
 10
206.6743668671676
 20
210.9991432668641
 30
0.0
 10
206.7995288760954
 20
206.1128922362187
 30
0.0
 10
206.8618780231
 20
203.6788182994
 30
0.0
 11
206.3182699246
 21
226.0730338548
 31
0.0
 11
206.4839803961
 21
218.3375182146
 31
0.0
 11
206.6730923105
 21
210.9809997777
 31
0.0
 11
206.8618780231
 21
203.6788182994
 31
0.0
  0
SPLINE
  5
354
330
28
100
AcDbEntity
  8
0
  6
Continuous
 62
     0
100
AcDbSpline
210
0.0
220
0.0
230
1.0
 70
     8
 71
     3
 72
    32
 73
    28
 74
    26
 42
0.0000000001
 43
0.0000000001
 44
0.0000000001
 40
0.0
 40
0.0
 40
0.0
 40
0.0
 40
0.1076225445957218
 40
0.2133669480532798
 40
0.3173629292517672
 40
0.4208104435266731
 40
0.5236980607707509
 40
0.6252065678430966
 40
0.7254673999416341
 40
0.8252265899595291
 40
0.9245159852762037
 40
1.022802239710019
 40
1.120067907323844
 40
1.216774829144153
 40
1.313086657304199
 40
1.408593026078895
 40
1.50309307698178
 40
1.596766762279673
 40
1.689838557419397
 40
1.782051664819839
 40
1.873127558922658
 40
1.963099575405822
 40
2.051955241098792
 40
2.139646538999359
 40
2.226118670303995
 40
2.311357193126235
 40
2.395336849521761
 40
2.395336849521761
 40
2.395336849521761
 40
2.395336849521761
 10
207.4888426767
 20
228.0891451752
 30
0.0
 10
207.4607349251223
 20
228.0668489933747
 30
0.0
 10
207.4050099355925
 20
228.0226457245597
 30
0.0
 10
207.3247642310579
 20
227.9536738200122
 30
0.0
 10
207.2475995786939
 20
227.8833391671095
 30
0.0
 10
207.1734211949938
 20
227.8112143870707
 30
0.0
 10
207.102099464139
 20
227.7374151369331
 30
0.0
 10
207.0338647659676
 20
227.6621796173446
 30
0.0
 10
206.9687253991662
 20
227.585613089949
 30
0.0
 10
206.9065304659131
 20
227.5075799134504
 30
0.0
 10
206.8472353837785
 20
227.4281410993054
 30
0.0
 10
206.7909874867708
 20
227.3475276731971
 30
0.0
 10
206.7378225662209
 20
227.2658738293251
 30
0.0
 10
206.6876639647318
 20
227.1831082742029
 30
0.0
 10
206.6404768063676
 20
227.0992858228328
 30
0.0
 10
206.5963595180591
 20
227.0146363760503
 30
0.0
 10
206.5553896861134
 20
226.9293942649253
 30
0.0
 10
206.517543775274
 20
226.8436062632367
 30
0.0
 10
206.4827989576773
 20
226.7573375396344
 30
0.0
 10
206.4511828684721
 20
226.6707950596747
 30
0.0
 10
206.4227478324501
 20
226.5842429071932
 30
0.0
 10
206.3974924195155
 20
226.4978753622061
 30
0.0
 10
206.375393988292
 20
226.4118117328729
 30
0.0
 10
206.3564037184005
 20
226.3262019801417
 30
0.0
 10
206.3405618240287
 20
226.2411857027983
 30
0.0
 10
206.3275575585786
 20
226.1569286016014
 30
0.0
 10
206.3213504102936
 20
226.1008597325082
 30
0.0
 10
206.3182699246
 20
226.0730338548
 30
0.0
 11
207.4888426767
 21
228.0891451752
 31
0.0
 11
207.4049709749
 21
228.0217052038
 31
0.0
 11
207.3246669152
 21
227.9529074069
 31
0.0
 11
207.2478478871
 21
227.8828074709
 31
0.0
 11
207.1736684667
 21
227.8107047539
 31
0.0
 11
207.1021792289
 21
227.7367104929
 31
0.0
 11
207.0339908892
 21
227.6615152315
 31
0.0
 11
206.9690309262
 21
227.5851448337
 31
0.0
 11
206.9068514658
 21
227.5071345094
 31
0.0
 11
206.8474668654
 21
227.4275615664
 31
0.0
 11
206.7912306178
 21
227.3469534262
 31
0.0
 11
206.7381656927
 21
227.2654382508
 31
0.0
 11
206.688043645
 21
227.1827339035
 31
0.0
 11
206.6408026077
 21
227.0988038574
 31
0.0
 11
206.5966683017
 21
227.0141065758
 31
0.0
 11
206.5557381419
 21
226.9289303958
 31
0.0
 11
206.5179332937
 21
226.8432241955
 31
0.0
 11
206.4831665529
 21
226.7568897714
 31
0.0
 11
206.4515326246
 21
226.6702724997
 31
0.0
 11
206.423113395
 21
226.5837440889
 31
0.0
 11
206.3978703666
 21
226.4973858046
 31
0.0
 11
206.3757765807
 21
226.4113207481
 31
0.0
 11
206.3568071233
 21
226.3257057762
 31
0.0
 11
206.3409311591
 21
226.2407035218
 31
0.0
 11
206.328102289
 21
226.1564359369
 31
0.0
 11
206.3182699246
 21
226.0730338548
 31
0.0
  0
SPLINE
  5
355
330
28
100
AcDbEntity
  8
0
  6
Continuous
 62
     0
100
AcDbSpline
210
0.0
220
0.0
230
1.0
 70
     8
 71
     3
 72
    19
 73
    15
 74
    13
 42
0.0000000001
 43
0.0000000001
 44
0.0000000001
 40
0.0
 40
0.0
 40
0.0
 40
0.0
 40
0.0197743911236924
 40
0.0412791151685293
 40
0.0646665068979092
 40
0.0900814432246061
 40
0.1176502130955398
 40
0.147507271303725
 40
0.1798165029275545
 40
0.2147259744154867
 40
0.2523431818551362
 40
0.2928027009342777
 40
0.3362644878514963
 40
0.3828008074772509
 40
0.3828008074772509
 40
0.3828008074772509
 40
0.3828008074772509
 10
209.3301096924
 20
228.609619497
 30
0.0
 10
209.3235161615238
 20
228.6095620264949
 30
0.0
 10
209.3097521412461
 20
228.6094420566013
 30
0.0
 10
209.2882334722683
 20
228.6110139515562
 30
0.0
 10
209.2649595897834
 20
228.613802661171
 30
0.0
 10
209.2398389115368
 20
228.6179795564097
 30
0.0
 10
209.2127792689268
 20
228.6235066342444
 30
0.0
 10
209.1836724260191
 20
228.6304175639202
 30
0.0
 10
209.1523949875137
 20
228.6387241471007
 30
0.0
 10
209.1188249245478
 20
228.6484395299506
 30
0.0
 10
209.0828418744545
 20
228.6595651933905
 30
0.0
 10
209.0443193712535
 20
228.6721109252244
 30
0.0
 10
209.0031232369202
 20
228.6860384480229
 30
0.0
 10
208.9748013811436
 20
228.6959299888314
 30
0.0
 10
208.9601566849
 20
228.7010447176
 30
0.0
 11
209.3301096924
 21
228.609619497
 31
0.0
 11
209.3103354856
 21
228.609704877
 31
0.0
 11
209.2888777955
 21
228.6111263874
 31
0.0
 11
209.2656543404
 21
228.613890664
 31
0.0
 11
209.2405751978
 21
228.6180083812
 31
0.0
 11
209.2135569359
 21
228.6234902236
 31
0.0
 11
209.1844989125
 21
228.6303513606
 31
0.0
 11
209.1532635371
 21
228.6386119763
 31
0.0
 11
209.1197212596
 21
228.6482860044
 31
0.0
 11
209.0837745461
 21
228.6593714942
 31
0.0
 11
209.0452938898
 21
228.6718699651
 31
0.0
 11
209.0041169499
 21
228.6857763141
 31
0.0
 11
208.9601566849
 21
228.7010447176
 31
0.0
  0
SPLINE
  5
356
330
28
100
AcDbEntity
  8
0
  6
Continuous
 62
     0
100
AcDbSpline
210
0.0
220
0.0
230
1.0
 70
     8
 71
     3
 72
    42
 73
    38
 74
    36
 42
0.0000000001
 43
0.0000000001
 44
0.0000000001
 40
0.0
 40
0.0
 40
0.0
 40
0.0
 40
0.046939413389898
 40
0.0931231628425376
 40
0.1385652696451674
 40
0.1832665443846133
 40
0.2272960722452086
 40
0.270752655725134
 40
0.313726059255844
 40
0.3563037872365692
 40
0.3985936951026844
 40
0.4406703720551187
 40
0.4825792710242552
 40
0.5244199938163395
 40
0.5663063044867542
 40
0.608325852201858
 40
0.6505844420798921
 40
0.693166692990859
 40
0.7361207103834417
 40
0.7795938743067927
 40
0.8237496747561427
 40
0.8686984652058083
 40
0.9145410023582462
 40
0.9614062330373392
 40
1.009359810526632
 40
1.058429029026851
 40
1.108780137065056
 40
1.160569882725367
 40
1.213935633955352
 40
1.268991038048157
 40
1.325942295652899
 40
1.385066264671321
 40
1.44642930843506
 40
1.510128936803164
 40
1.576318029528971
 40
1.645193878613771
 40
1.71695600651344
 40
1.71695600651344
 40
1.71695600651344
 40
1.71695600651344
 10
208.9601566849
 20
228.7010447176
 30
0.0
 10
208.9453311863006
 20
228.7060534389772
 30
0.0
 10
208.9159188604833
 20
228.7159902477859
 30
0.0
 10
208.8714243948899
 20
228.7284591514213
 30
0.0
 10
208.8272149124938
 20
228.7390170305837
 30
0.0
 10
208.7832977268734
 20
228.7475494537298
 30
0.0
 10
208.7397201373253
 20
228.7541514328342
 30
0.0
 10
208.6964780740731
 20
228.7588728278724
 30
0.0
 10
208.6535613057413
 20
228.7617732015251
 30
0.0
 10
208.6109507718886
 20
228.7629028473942
 30
0.0
 10
208.568628705138
 20
228.762306011665
 30
0.0
 10
208.5265876852623
 20
228.7600217698077
 30
0.0
 10
208.4848200281442
 20
228.7560819655431
 30
0.0
 10
208.4433032895663
 20
228.7505070347117
 30
0.0
 10
208.4019991961695
 20
228.7433124116379
 30
0.0
 10
208.3608670171865
 20
228.7345023642218
 30
0.0
 10
208.3198756717057
 20
228.7240745978084
 30
0.0
 10
208.2790074824716
 20
228.7120225440704
 30
0.0
 10
208.238232264389
 20
228.6983295144291
 30
0.0
 10
208.1974999080879
 20
228.6829547843564
 30
0.0
 10
208.1567413289085
 20
228.6658499595903
 30
0.0
 10
208.1159079149262
 20
228.6469579079736
 30
0.0
 10
208.0749664382996
 20
228.6262177522514
 30
0.0
 10
208.0339027316763
 20
228.6035667283024
 30
0.0
 10
207.9927276345294
 20
228.5789507227646
 30
0.0
 10
207.951449572662
 20
228.5522992380995
 30
0.0
 10
207.9100586018633
 20
228.5235195527829
 30
0.0
 10
207.8685205911771
 20
228.4924947245933
 30
0.0
 10
207.8268272504527
 20
228.459107838598
 30
0.0
 10
207.784967169004
 20
228.4232256590089
 30
0.0
 10
207.7429085807797
 20
228.3846740151236
 30
0.0
 10
207.7006424672961
 20
228.3432843590266
 30
0.0
 10
207.6581988568131
 20
228.2989080584134
 30
0.0
 10
207.6156444902898
 20
228.2514232510453
 30
0.0
 10
207.5730737352269
 20
228.2006428766427
 30
0.0
 10
207.5303827974224
 20
228.1464857102653
 30
0.0
 10
207.5028775471164
 20
228.1085184190996
 30
0.0
 10
207.4888426802
 20
228.0891451768
 30
0.0
 11
208.9601566849
 21
228.7010447176
 31
0.0
 11
208.9155556168
 21
228.7156752765
 31
0.0
 11
208.8711121897
 21
228.7282339588
 31
0.0
 11
208.8269053002
 21
228.7387570758
 31
0.0
 11
208.7830249883
 21
228.7472848065
 31
0.0
 11
208.7394914961
 21
228.753875283
 31
0.0
 11
208.6962915119
 21
228.7585907907
 31
0.0
 11
208.6534158513
 21
228.761487537
 31
0.0
 11
208.6108530856
 21
228.762616207
 31
0.0
 11
208.5685673636
 21
228.7620212093
 31
0.0
 11
208.5265525702
 21
228.7597400081
 31
0.0
 11
208.4848287332
 21
228.7558058959
 31
0.0
 11
208.4433597924
 21
228.7502405538
 31
0.0
 11
208.4020942013
 21
228.7430562645
 31
0.0
 11
208.3610056771
 21
228.7342599261
 31
0.0
 11
208.3200502711
 21
228.7238463226
 31
0.0
 11
208.2792054721
 21
228.7118067841
 31
0.0
 11
208.2384846616
 21
228.6981369925
 31
0.0
 11
208.197809796
 21
228.6827919187
 31
0.0
 11
208.1570910966
 21
228.6657120407
 31
0.0
 11
208.1162934163
 21
228.6468455878
 31
0.0
 11
208.0753949285
 21
228.6261368479
 31
0.0
 11
208.0343541669
 21
228.6035093042
 31
0.0
 11
207.9931907522
 21
228.5789101399
 31
0.0
 11
207.9519626254
 21
228.5523013112
 31
0.0
 11
207.9106166538
 21
228.5235655371
 31
0.0
 11
207.8691168924
 21
228.4925825166
 31
0.0
 11
207.8274538354
 21
228.4592344569
 31
0.0
 11
207.7856461589
 21
228.4234124566
 31
0.0
 11
207.7436540108
 21
228.3849403207
 31
0.0
 11
207.7014010653
 21
228.3435841566
 31
0.0
 11
207.6589761623
 21
228.2992496244
 31
0.0
 11
207.6164585581
 21
228.2518165559
 31
0.0
 11
207.5739011382
 21
228.2011227495
 31
0.0
 11
207.5313439946
 21
228.1469676748
 31
0.0
 11
207.4888426802
 21
228.0891451768
 31
0.0
  0
SPLINE
  5
358
330
28
100
AcDbEntity
  8
0
  6
Continuous
 62
     0
100
AcDbSpline
210
0.0
220
0.0
230
1.0
 70
     8
 71
     3
 72
     9
 73
     5
 74
     3
 42
0.0000000001
 43
0.0000000001
 44
0.0000000001
 40
0.0
 40
0.0
 40
0.0
 40
0.0
 40
1.876898580626469
 40
3.753797107286368
 40
3.753797107286368
 40
3.753797107286368
 40
3.753797107286368
 10
245.8286245997
 20
154.4148346302
 30
0.0
 10
246.2499468969236
 20
153.935259506783
 30
0.0
 10
247.0925914792566
 20
152.9761092737383
 30
0.0
 10
247.3226001673211
 20
151.720276855428
 30
0.0
 10
247.4376045097
 20
151.0923606553
 30
0.0
 11
245.8286245997
 21
154.4148346302
 31
0.0
 11
246.9394325134
 21
152.9019387115
 31
0.0
 11
247.4376045097
 21
151.0923606553
 31
0.0
  0
SPLINE
  5
359
330
28
100
AcDbEntity
  8
0
  6
Continuous
 62
     0
100
AcDbSpline
210
0.0
220
0.0
230
1.0
 70
     8
 71
     3
 72
    18
 73
    14
 74
    12
 42
0.0000000001
 43
0.0000000001
 44
0.0000000001
 40
0.0
 40
0.0
 40
0.0
 40
0.0
 40
0.0326698685984166
 40
0.0653891626291095
 40
0.1311410682261662
 40
0.1969599645190715
 40
0.2625370658127967
 40
0.3945411342650881
 40
0.5281108006443209
 40
0.6615440096975659
 40
0.7942824592505606
 40
0.9249498116104586
 40
1.055592859554834
 40
1.055592859554834
 40
1.055592859554834
 40
1.055592859554834
 10
247.4376045097
 20
151.0923606553
 30
0.0
 10
247.4381930353382
 20
151.0814812624215
 30
0.0
 10
247.4393709769804
 20
151.0597060175012
 30
0.0
 10
247.4370952172368
 20
151.0159538051139
 30
0.0
 10
247.4248089663044
 20
150.9621319211803
 30
0.0
 10
247.3980597742041
 20
150.9017014310581
 30
0.0
 10
247.3475070203106
 20
150.8292129796825
 30
0.0
 10
247.2562952641815
 20
150.7614088780925
 30
0.0
 10
247.1239673342181
 20
150.7272927897175
 30
0.0
 10
246.9888173404362
 20
150.7513942336642
 30
0.0
 10
246.8748899766321
 20
150.8241874079807
 30
0.0
 10
246.7972525156195
 20
150.9368644359212
 30
0.0
 10
246.7879979196839
 20
151.0245994615781
 30
0.0
 10
246.7833710521
 20
151.0684628943
 30
0.0
 11
247.4376045097
 21
151.0923606553
 31
0.0
 11
247.4387927918
 21
151.0597124042
 31
0.0
 11
247.4370440822
 21
151.0270398742
 31
0.0
 11
247.4228129501
 21
150.9628465103
 31
0.0
 11
247.3961726347
 21
150.9026599611
 31
0.0
 11
247.3584382377
 21
150.8490272146
 31
0.0
 11
247.2530387495
 21
150.7695538104
 31
0.0
 11
247.1234910667
 21
150.7370229995
 31
0.0
 11
246.9919943108
 21
150.7596730429
 31
0.0
 11
246.8803197444
 21
150.8314246088
 31
0.0
 11
246.8078072102
 21
150.9401255258
 31
0.0
 11
246.7833710521
 21
151.0684628943
 31
0.0
  0
SPLINE
  5
35A
330
28
100
AcDbEntity
  8
0
  6
Continuous
 62
     0
100
AcDbSpline
210
0.0
220
0.0
230
1.0
 70
     8
 71
     3
 72
     9
 73
     5
 74
     3
 42
0.0000000001
 43
0.0000000001
 44
0.0000000001
 40
0.0
 40
0.0
 40
0.0
 40
0.0
 40
1.718028560337322
 40
3.436057138258488
 40
3.436057138258488
 40
3.436057138258488
 40
3.436057138258488
 10
246.7833710521
 20
151.0684628943
 30
0.0
 10
246.7381693056827
 20
151.6501477173513
 30
0.0
 10
246.6477658123857
 20
152.8135173694074
 30
0.0
 10
245.9924087643131
 20
153.7789752292222
 30
0.0
 10
245.6647302386
 20
154.2617041616
 30
0.0
 11
246.7833710521
 21
151.0684628943
 31
0.0
 11
246.5065274256
 21
152.7640394159
 31
0.0
 11
245.6647302386
 21
154.2617041616
 31
0.0
  0
SPLINE
  5
35B
330
28
100
AcDbEntity
  8
0
  6
Continuous
 62
     0
100
AcDbSpline
210
0.0
220
0.0
230
1.0
 70
     8
 71
     3
 72
    11
 73
     7
 74
     5
 42
0.0000000001
 43
0.0000000001
 44
0.0000000001
 40
0.0
 40
0.0
 40
0.0
 40
0.0
 40
0.0826489623162169
 40
0.1652966237537585
 40
0.2479441638790075
 40
0.3305929542628039
 40
0.3305929542628039
 40
0.3305929542628039
 40
0.3305929542628039
 10
245.6647302386
 20
154.2617041616
 30
0.0
 10
245.6518694140683
 20
154.2876042609809
 30
0.0
 10
245.6261479674318
 20
154.3394040520801
 30
0.0
 10
245.6674607773093
 20
154.4230546824301
 30
0.0
 10
245.7537209326807
 20
154.4585986584283
 30
0.0
 10
245.8036565847934
 20
154.4294227131692
 30
0.0
 10
245.8286245997
 20
154.4148346302
 30
0.0
 11
245.6647302386
 21
154.2617041616
 31
0.0
 11
245.639463826
 21
154.3403963427
 31
0.0
 11
245.6749520016
 21
154.415036984
 31
0.0
 11
245.7518277176
 21
154.4453806848
 31
0.0
 11
245.8286245997
 21
154.4148346302
 31
0.0
  0
SPLINE
  5
35C
330
28
100
AcDbEntity
  8
0
  6
Continuous
 62
     0
100
AcDbSpline
210
0.0
220
0.0
230
1.0
 70
     8
 71
     3
 72
    12
 73
     8
 74
     6
 42
0.0000000001
 43
0.0000000001
 44
0.0000000001
 40
0.0
 40
0.0
 40
0.0
 40
0.0
 40
0.3183343103687838
 40
0.6651994936127971
 40
1.032442287778695
 40
1.248091177771276
 40
1.299720809510789
 40
1.299720809510789
 40
1.299720809510789
 40
1.299720809510789
 10
246.7684912009
 20
149.778702592
 30
0.0
 10
246.7536502982722
 20
149.6671866291397
 30
0.0
 10
246.7226383696448
 20
149.4341600290898
 30
0.0
 10
246.3479402169392
 20
149.2758845432294
 30
0.0
 10
246.0251544572894
 20
149.4432150852052
 30
0.0
 10
245.9723520223602
 20
149.6583792853697
 30
0.0
 10
245.9634827991539
 20
149.7467964917877
 30
0.0
 10
245.9617695499
 20
149.7638758582
 30
0.0
 11
246.7684912009
 21
149.778702592
 31
0.0
 11
246.6757826916
 21
149.4741671007
 31
0.0
 11
246.3579896687
 21
149.335159727
 31
0.0
 11
246.0335984159
 21
149.5073154268
 31
0.0
 11
245.9674082834
 21
149.7125550675
 31
0.0
 11
245.9617695499
 21
149.7638758582
 31
0.0
  0
SPLINE
  5
35D
330
28
100
AcDbEntity
  8
0
  6
Continuous
 62
     0
100
AcDbSpline
210
0.0
220
0.0
230
1.0
 70
     8
 71
     3
 72
    11
 73
     7
 74
     5
 42
0.0000000001
 43
0.0000000001
 44
0.0000000001
 40
0.0
 40
0.0
 40
0.0
 40
0.0
 40
0.0694145762552932
 40
0.1388279087366249
 40
0.2082411808207491
 40
0.2776559029326235
 40
0.2776559029326235
 40
0.2776559029326235
 40
0.2776559029326235
 10
244.8621302647
 20
154.4992417862
 30
0.0
 10
244.85549909784
 20
154.5226284688744
 30
0.0
 10
244.8422368829377
 20
154.5694014151794
 30
0.0
 10
244.8898716004027
 20
154.6318501476488
 30
0.0
 10
244.9670095556089
 20
154.6466506378757
 30
0.0
 10
245.0029608444352
 20
154.6139215285747
 30
0.0
 10
245.0209366766
 20
154.597556803
 30
0.0
 11
244.8621302647
 21
154.4992417862
 31
0.0
 11
244.8534916651
 21
154.5681167308
 31
0.0
 11
244.8947887857
 21
154.623908832
 31
0.0
 11
244.9631405546
 21
154.6360017237
 31
0.0
 11
245.0209366766
 21
154.597556803
 31
0.0
  0
SPLINE
  5
35E
330
28
100
AcDbEntity
  8
0
  6
Continuous
 62
     0
100
AcDbSpline
210
0.0
220
0.0
230
1.0
 70
     8
 71
     3
 72
     9
 73
     5
 74
     3
 42
0.0000000001
 43
0.0000000001
 44
0.0000000001
 40
0.0
 40
0.0
 40
0.0
 40
0.0
 40
2.584054886871946
 40
3.913125007322361
 40
3.913125007322361
 40
3.913125007322361
 40
3.913125007322361
 10
245.0209366766
 20
154.597556803
 30
0.0
 10
245.4663957954948
 20
153.8521563943164
 30
0.0
 10
246.1409701734395
 20
152.7233703942563
 30
0.0
 10
246.4648659641942
 20
151.4548803781523
 30
0.0
 10
246.5748752833
 20
151.0240451313
 30
0.0
 11
245.0209366766
 21
154.597556803
 31
0.0
 11
246.2043936871
 21
152.3004348727
 31
0.0
 11
246.5748752833
 21
151.0240451313
 31
0.0
  0
SPLINE
  5
35F
330
28
100
AcDbEntity
  8
0
  6
Continuous
 62
     0
100
AcDbSpline
210
0.0
220
0.0
230
1.0
 70
    24
 71
     3
 72
     8
 73
     4
 74
     2
 42
0.0000000001
 43
0.0000000001
 44
0.0000000001
 40
0.0
 40
0.0
 40
0.0
 40
0.0
 40
1.26030359982754
 40
1.26030359982754
 40
1.26030359982754
 40
1.26030359982754
 10
246.5748752833
 20
151.0240451313
 30
0.0
 10
246.6394139225
 20
150.6089309515334
 30
0.0
 10
246.7039525617
 20
150.1938167717667
 30
0.0
 10
246.7684912009
 20
149.778702592
 30
0.0
 11
246.5748752833
 21
151.0240451313
 31
0.0
 11
246.7684912009
 21
149.778702592
 31
0.0
  0
SPLINE
  5
360
330
28
100
AcDbEntity
  8
0
  6
Continuous
 62
     0
100
AcDbSpline
210
0.0
220
0.0
230
1.0
 70
     8
 71
     3
 72
    14
 73
    10
 74
     8
 42
0.0000000001
 43
0.0000000001
 44
0.0000000001
 40
0.0
 40
0.0
 40
0.0
 40
0.0
 40
0.1075424934847507
 40
0.3766295225936685
 40
1.878699954163851
 40
2.125723465326986
 40
2.341739259428869
 40
3.172444602734185
 40
3.510352229260496
 40
3.510352229260496
 40
3.510352229260496
 40
3.510352229260496
 10
241.3970865674
 20
155.7289805221
 30
0.0
 10
241.3660845012363
 20
155.7488010072018
 30
0.0
 10
241.2575107365756
 20
155.8182152415158
 30
0.0
 10
240.5987362232489
 20
155.6192405745667
 30
0.0
 10
240.0918975671522
 20
155.2241793070867
 30
0.0
 10
239.5240656647353
 20
154.8818790171378
 30
0.0
 10
239.2735450406248
 20
154.5113118665362
 30
0.0
 10
239.4003227189813
 20
153.9998854909663
 30
0.0
 10
239.5379389813239
 20
153.6414180791201
 30
0.0
 10
239.5777310988
 20
153.5377662496
 30
0.0
 11
241.3970865674
 21
155.7289805221
 31
0.0
 11
241.3021649181
 21
155.7795301848
 31
0.0
 11
241.0351558122
 21
155.7461540466
 31
0.0
 11
239.7279237313
 21
155.0063163157
 31
0.0
 11
239.5276669019
 21
154.8616863833
 31
0.0
 11
239.4052877283
 21
154.6836803127
 31
0.0
 11
239.4609146254
 21
153.8548395465
 31
0.0
 11
239.5777310988
 21
153.5377662496
 31
0.0
  0
SPLINE
  5
361
330
28
100
AcDbEntity
  8
0
  6
Continuous
 62
     0
100
AcDbSpline
210
0.0
220
0.0
230
1.0
 70
     8
 71
     3
 72
    18
 73
    14
 74
    12
 42
0.0000000001
 43
0.0000000001
 44
0.0000000001
 40
0.0
 40
0.0
 40
0.0
 40
0.0
 40
0.2371820444423638
 40
0.55430414942772
 40
0.7583115758792136
 40
0.9027274002136287
 40
1.688328088741301
 40
2.469029343865779
 40
3.220816104659646
 40
3.321560700033944
 40
3.378289226788709
 40
3.438458915700464
 40
3.512121779991337
 40
3.512121779991337
 40
3.512121779991337
 40
3.512121779991337
 10
239.5777310988
 20
153.5377662496
 30
0.0
 10
239.632429748296
 20
153.4727707990337
 30
0.0
 10
239.7602627318383
 20
153.3208737697813
 30
0.0
 10
240.0806430376297
 20
153.4477672252638
 30
0.0
 10
240.1124442014537
 20
153.6891393626894
 30
0.0
 10
239.9745684350632
 20
154.0424600248866
 30
0.0
 10
240.0410582091824
 20
154.6535774467624
 30
0.0
 10
240.4804617565596
 20
155.3212096680192
 30
0.0
 10
241.0123502198137
 20
155.5607605672465
 30
0.0
 10
241.3083483187396
 20
155.5961760164657
 30
0.0
 10
241.3850697242162
 20
155.5981392509054
 30
0.0
 10
241.4258428489942
 20
155.6620090932257
 30
0.0
 10
241.407295323305
 20
155.7052050222064
 30
0.0
 10
241.3970865674
 20
155.7289805221
 30
0.0
 11
239.5777310988
 21
153.5377662496
 31
0.0
 11
239.7612998695
 21
153.3875736112
 31
0.0
 11
240.0561224239
 21
153.504390095
 31
0.0
 11
240.0950612519
 21
153.7046469244
 31
0.0
 11
240.0561224239
 21
153.8437141671
 31
0.0
 11
240.1006239416
 21
154.6280534156
 31
0.0
 11
240.5400764284
 21
155.2733254215
 31
0.0
 11
241.2242872622
 21
155.5848360451
 31
0.0
 11
241.3244156769
 21
155.5959614245
 31
0.0
 11
241.380042574
 21
155.6070868039
 31
0.0
 11
241.4134187122
 21
155.6571510113
 31
0.0
 11
241.3970865674
 21
155.7289805221
 31
0.0
  0
SPLINE
  5
362
330
28
100
AcDbEntity
  8
0
  6
Continuous
 62
     0
100
AcDbSpline
210
0.0
220
0.0
230
1.0
 70
     8
 71
     3
 72
    11
 73
     7
 74
     5
 42
0.0000000001
 43
0.0000000001
 44
0.0000000001
 40
0.0
 40
0.0
 40
0.0
 40
0.0
 40
0.0765247659725012
 40
0.1530488470124033
 40
0.2295731481455585
 40
0.3060981158225616
 40
0.3060981158225616
 40
0.3060981158225616
 40
0.3060981158225616
 10
242.4718741675
 20
153.966663112
 30
0.0
 10
242.4713993043514
 20
153.9932073204291
 30
0.0
 10
242.4704495823046
 20
154.0462954997042
 30
0.0
 10
242.4067176677644
 20
154.1017806762456
 30
0.0
 10
242.3224548583411
 20
154.1080983348934
 30
0.0
 10
242.2840291672962
 20
154.0714556630252
 30
0.0
 10
242.2648162381
 20
154.0531342473
 30
0.0
 11
242.4718741675
 21
153.966663112
 31
0.0
 11
242.4600649242
 21
154.0422711908
 31
0.0
 11
242.4032959438
 21
154.0935860799
 31
0.0
 11
242.326892477
 21
154.0978847919
 31
0.0
 11
242.2648162381
 21
154.0531342473
 31
0.0
  0
SPLINE
  5
363
330
28
100
AcDbEntity
  8
0
  6
Continuous
 62
     0
100
AcDbSpline
210
0.0
220
0.0
230
1.0
 70
     8
 71
     3
 72
     9
 73
     5
 74
     3
 42
0.0000000001
 43
0.0000000001
 44
0.0000000001
 40
0.0
 40
0.0
 40
0.0
 40
0.0
 40
0.772746899482999
 40
1.545493817198348
 40
1.545493817198348
 40
1.545493817198348
 40
1.545493817198348
 10
242.2648162381
 20
154.0531342473
 30
0.0
 10
242.0888319589952
 20
153.8544630422636
 30
0.0
 10
241.7368633966333
 20
153.4571206275031
 30
0.0
 10
241.2153342947286
 20
153.3582760030231
 30
0.0
 10
240.9545697407
 20
153.3088536902
 30
0.0
 11
242.2648162381
 21
154.0531342473
 31
0.0
 11
241.6944732669
 21
153.531745078
 31
0.0
 11
240.9545697407
 21
153.3088536902
 31
0.0
  0
SPLINE
  5
364
330
28
100
AcDbEntity
  8
0
  6
Continuous
 62
     0
100
AcDbSpline
210
0.0
220
0.0
230
1.0
 70
     8
 71
     3
 72
    11
 73
     7
 74
     5
 42
0.0000000001
 43
0.0000000001
 44
0.0000000001
 40
0.0
 40
0.0
 40
0.0
 40
0.0
 40
0.0927301719043813
 40
0.1854591791659586
 40
0.2781880565426088
 40
0.3709181449409101
 40
0.3709181449409101
 40
0.3709181449409101
 40
0.3709181449409101
 10
240.9545697407
 20
153.3088536902
 30
0.0
 10
240.9235486444866
 20
153.2997562730653
 30
0.0
 10
240.8615068416686
 20
153.2815615530547
 30
0.0
 10
240.8211049653209
 20
153.1860568292976
 30
0.0
 10
240.8505389376479
 20
153.0866214028798
 30
0.0
 10
240.9101503739978
 20
153.0615860474524
 30
0.0
 10
240.9399562868
 20
153.049068288
 30
0.0
 11
240.9545697407
 21
153.3088536902
 31
0.0
 11
240.8702833497
 21
153.2701924813
 31
0.0
 11
240.8327442209
 21
153.1854016646
 31
0.0
 11
240.8605358676
 21
153.0969354616
 31
0.0
 11
240.9399562868
 21
153.049068288
 31
0.0
  0
SPLINE
  5
365
330
28
100
AcDbEntity
  8
0
  6
Continuous
 62
     0
100
AcDbSpline
210
0.0
220
0.0
230
1.0
 70
     8
 71
     3
 72
    11
 73
     7
 74
     5
 42
0.0000000001
 43
0.0000000001
 44
0.0000000001
 40
0.0
 40
0.0
 40
0.0
 40
0.0
 40
0.6975144020324032
 40
1.304828336000438
 40
1.64679752884247
 40
1.993086810876241
 40
1.993086810876241
 40
1.993086810876241
 40
1.993086810876241
 10
240.9399562868
 20
153.049068288
 30
0.0
 10
241.1739225554567
 20
153.03749528662
 30
0.0
 10
241.6115992774313
 20
153.0158458696485
 30
0.0
 10
242.1422876054822
 20
153.2616683614579
 30
0.0
 10
242.3910798262504
 20
153.6295242867006
 30
0.0
 10
242.4448302594379
 20
153.8538142261183
 30
0.0
 10
242.4718741675
 20
153.966663112
 30
0.0
 11
240.9399562868
 21
153.049068288
 31
0.0
 11
241.636943016
 21
153.0761946656
 31
0.0
 11
242.1772003024
 21
153.3535974033
 31
0.0
 11
242.3708911445
 21
153.6354249863
 31
0.0
 11
242.4718741675
 21
153.966663112
 31
0.0
  0
SPLINE
  5
366
330
28
100
AcDbEntity
  8
0
  6
Continuous
 62
     0
100
AcDbSpline
210
0.0
220
0.0
230
1.0
 70
     8
 71
     3
 72
    17
 73
    13
 74
    11
 42
0.0000000001
 43
0.0000000001
 44
0.0000000001
 40
0.0
 40
0.0
 40
0.0
 40
0.0
 40
0.0865660654966656
 40
0.1909744359793054
 40
0.2418414213277486
 40
0.2924990722007665
 40
0.343750837657822
 40
0.3953633835493622
 40
0.4973681518922458
 40
0.599079569443325
 40
0.702405894447235
 40
0.8053258161304034
 40
0.8053258161304034
 40
0.8053258161304034
 40
0.8053258161304034
 10
244.8138683901
 20
155.3805397473
 30
0.0
 10
244.8242931043039
 20
155.3535662680245
 30
0.0
 10
244.8472911914171
 20
155.2940597516838
 30
0.0
 10
244.8539369241668
 20
155.2118081688222
 30
0.0
 10
244.8406043316082
 20
155.1439956940292
 30
0.0
 10
244.8187713466293
 20
155.0974323889769
 30
0.0
 10
244.7874583570801
 20
155.0565354638638
 30
0.0
 10
244.7366620185795
 20
155.0105188991417
 30
0.0
 10
244.6598928857918
 20
154.969605325183
 30
0.0
 10
244.5568064707074
 20
154.9553756020074
 30
0.0
 10
244.4537444429698
 20
154.9716194631887
 30
0.0
 10
244.3915241339772
 20
155.0014771755668
 30
0.0
 10
244.3604752813
 20
155.0163766148
 30
0.0
 11
244.8138683901
 21
155.3805397473
 31
0.0
 11
244.8414954361
 21
155.2985005492
 31
0.0
 11
244.8489337733
 21
155.1943574795
 31
0.0
 11
244.8385986524
 21
155.1445515012
 31
0.0
 11
244.8173187859
 21
155.0985801528
 31
0.0
 11
244.7864088411
 21
155.057698387
 31
0.0
 11
244.7482422843
 21
155.0229540517
 31
0.0
 11
244.6580133502
 21
154.9753755669
 31
0.0
 11
244.5574029949
 21
154.9604501233
 31
0.0
 11
244.455315812
 21
154.9764043242
 31
0.0
 11
244.3604752813
 21
155.0163766148
 31
0.0
  0
SPLINE
  5
367
330
28
100
AcDbEntity
  8
0
  6
Continuous
 62
     0
100
AcDbSpline
210
0.0
220
0.0
230
1.0
 70
     8
 71
     3
 72
     9
 73
     5
 74
     3
 42
0.0000000001
 43
0.0000000001
 44
0.0000000001
 40
0.0
 40
0.0
 40
0.0
 40
0.0
 40
0.1425957268959168
 40
0.5703169868450022
 40
0.5703169868450022
 40
0.5703169868450022
 40
0.5703169868450022
 10
244.3604752813
 20
155.0163766148
 30
0.0
 10
244.3204776266506
 20
155.0424232480853
 30
0.0
 10
244.1605054986136
 20
155.1465977400993
 30
0.0
 10
244.0469732063259
 20
155.3026819408383
 30
0.0
 10
243.9618272678
 20
155.4197405811
 30
0.0
 11
244.3604752813
 21
155.0163766148
 31
0.0
 11
244.2433854781
 21
155.0977616215
 31
0.0
 11
243.9618272678
 21
155.4197405811
 31
0.0
  0
SPLINE
  5
368
330
28
100
AcDbEntity
  8
0
  6
Continuous
 62
     0
100
AcDbSpline
210
0.0
220
0.0
230
1.0
 70
     8
 71
     3
 72
    14
 73
    10
 74
     8
 42
0.0000000001
 43
0.0000000001
 44
0.0000000001
 40
0.0
 40
0.0
 40
0.0
 40
0.0
 40
0.3476066348036356
 40
0.5222604516358456
 40
0.6990524064372566
 40
0.8730015522606286
 40
1.048998825137444
 40
1.232469161497293
 40
1.413021080665248
 40
1.413021080665248
 40
1.413021080665248
 40
1.413021080665248
 10
243.9618272678
 20
155.4197405811
 30
0.0
 10
243.8747470977422
 20
155.4988362124738
 30
0.0
 10
243.743913781029
 20
155.6176731851544
 30
0.0
 10
243.5190606182304
 20
155.6915028166039
 30
0.0
 10
243.3428013722459
 20
155.7052595972818
 30
0.0
 10
243.1674893848766
 20
155.6588118231672
 30
0.0
 10
243.0320501305734
 20
155.5364078800764
 30
0.0
 10
242.9375503307496
 20
155.3801666582047
 30
0.0
 10
242.9078814600919
 20
155.2619387665695
 30
0.0
 10
242.8931659545
 20
155.2032987455
 30
0.0
 11
243.9618272678
 21
155.4197405811
 31
0.0
 11
243.6841276223
 21
155.6288177904
 31
0.0
 11
243.5185483827
 21
155.6843828077
 31
0.0
 11
243.3420841719
 21
155.6951428072
 31
0.0
 11
243.1749946254
 21
155.6467755788
 31
0.0
 11
243.0407477015
 21
155.5329651949
 31
0.0
 11
242.9456847425
 21
155.3760435643
 31
0.0
 11
242.8931659545
 21
155.2032987455
 31
0.0
  0
SPLINE
  5
369
330
28
100
AcDbEntity
  8
0
  6
Continuous
 62
     0
100
AcDbSpline
210
0.0
220
0.0
230
1.0
 70
     8
 71
     3
 72
    11
 73
     7
 74
     5
 42
0.0000000001
 43
0.0000000001
 44
0.0000000001
 40
0.0
 40
0.0
 40
0.0
 40
0.0
 40
0.2840105213281663
 40
0.5691990757732607
 40
0.8007307366041672
 40
0.81471044455183
 40
0.81471044455183
 40
0.81471044455183
 40
0.81471044455183
 10
242.8931659545
 20
155.2032987455
 30
0.0
 10
242.8838836536934
 20
155.1086460140054
 30
0.0
 10
242.8652805504864
 20
154.9189479456585
 30
0.0
 10
242.9118522795785
 20
154.6540229755449
 30
0.0
 10
242.947400706759
 20
154.4811024741766
 30
0.0
 10
242.9621195296993
 20
154.4005961752551
 30
0.0
 10
242.9629576369
 20
154.3960120513
 30
0.0
 11
242.8931659545
 21
155.2032987455
 31
0.0
 11
242.8781927474
 21
154.9196831971
 31
0.0
 11
242.9163617226
 21
154.637060408
 31
0.0
 11
242.9604377174
 21
154.4097627691
 31
0.0
 11
242.9629576369
 21
154.3960120513
 31
0.0
  0
SPLINE
  5
36A
330
28
100
AcDbEntity
  8
0
  6
Continuous
 62
     0
100
AcDbSpline
210
0.0
220
0.0
230
1.0
 70
    24
 71
     3
 72
     8
 73
     4
 74
     2
 42
0.0000000001
 43
0.0000000001
 44
0.0000000001
 40
0.0
 40
0.0
 40
0.0
 40
0.0
 40
0.6066407573179107
 40
0.6066407573179107
 40
0.6066407573179107
 40
0.6066407573179107
 10
242.962980978
 20
154.3960163167
 30
0.0
 10
242.9882768178334
 20
154.1953911568667
 30
0.0
 10
243.0135726576667
 20
153.9947659970334
 30
0.0
 10
243.0388684975
 20
153.7941408372
 30
0.0
 11
242.962980978
 21
154.3960163167
 31
0.0
 11
243.0388684975
 21
153.7941408372
 31
0.0
  0
SPLINE
  5
36B
330
28
100
AcDbEntity
  8
0
  6
Continuous
 62
     0
100
AcDbSpline
210
0.0
220
0.0
230
1.0
 70
     8
 71
     3
 72
     9
 73
     5
 74
     3
 42
0.0000000001
 43
0.0000000001
 44
0.0000000001
 40
0.0
 40
0.0
 40
0.0
 40
0.0
 40
0.2827377409268174
 40
0.5654841984805639
 40
0.5654841984805639
 40
0.5654841984805639
 40
0.5654841984805639
 10
243.0388684975
 20
153.7941408372
 30
0.0
 10
243.0616048988682
 20
153.7025847523188
 30
0.0
 10
243.1070784025533
 20
153.5194697599398
 30
0.0
 10
243.1306923203193
 20
153.332276476407
 30
0.0
 10
243.1424994612
 20
153.2386783919
 30
0.0
 11
243.0388684975
 21
153.7941408372
 31
0.0
 11
243.1016129736
 21
153.5184530412
 31
0.0
 11
243.1424994612
 21
153.2386783919
 31
0.0
  0
SPLINE
  5
36C
330
28
100
AcDbEntity
  8
0
  6
Continuous
 62
     0
100
AcDbSpline
210
0.0
220
0.0
230
1.0
 70
     8
 71
     3
 72
    12
 73
     8
 74
     6
 42
0.0000000001
 43
0.0000000001
 44
0.0000000001
 40
0.0
 40
0.0
 40
0.0
 40
0.0
 40
0.1415759635012323
 40
0.2831126857837641
 40
0.4271953338181179
 40
0.5711459558189527
 40
0.5751882466284597
 40
0.5751882466284597
 40
0.5751882466284597
 40
0.5751882466284597
 10
243.1424994612
 20
153.2386783919
 30
0.0
 10
243.1361934990868
 20
153.1914126604169
 30
0.0
 10
243.1235833227109
 20
153.0968942982967
 30
0.0
 10
243.0469469519533
 20
152.9730533050853
 30
0.0
 10
242.950151848765
 20
152.8675320585625
 30
0.0
 10
242.8758153972976
 20
152.8042912368064
 30
0.0
 10
242.8375823091698
 20
152.7731195265047
 30
0.0
 10
242.8365380074
 20
152.7722680998
 30
0.0
 11
243.1424994612
 21
153.2386783919
 31
0.0
 11
243.1140342785
 21
153.0999935448
 31
0.0
 11
243.0441818368
 21
152.9768948846
 31
0.0
 11
242.948018912
 21
152.8695985596
 31
0.0
 11
242.8396704895
 21
152.7748230305
 31
0.0
 11
242.8365380074
 21
152.7722680998
 31
0.0
  0
SPLINE
  5
36D
330
28
100
AcDbEntity
  8
0
  6
Continuous
 62
     0
100
AcDbSpline
210
0.0
220
0.0
230
1.0
 70
     8
 71
     3
 72
    14
 73
    10
 74
     8
 42
0.0000000001
 43
0.0000000001
 44
0.0000000001
 40
0.0
 40
0.0
 40
0.0
 40
0.0
 40
0.3505556915868031
 40
0.5278333683922386
 40
0.7051901558273009
 40
0.8828915324820265
 40
1.061260638576052
 40
1.238919128167298
 40
1.415431485058465
 40
1.415431485058465
 40
1.415431485058465
 40
1.415431485058465
 10
242.8365380074
 20
152.7722680998
 30
0.0
 10
242.7456051605609
 20
152.6987961242986
 30
0.0
 10
242.6086871415514
 20
152.5881690221233
 30
0.0
 10
242.4150081070712
 20
152.4546978943568
 30
0.0
 10
242.2626992826343
 20
152.3633657983188
 30
0.0
 10
242.1028472358227
 20
152.2848957227952
 30
0.0
 10
241.9377746834129
 20
152.2187589924823
 30
0.0
 10
241.7729836284869
 20
152.151522853891
 30
0.0
 10
241.6724318529887
 20
152.0892579171515
 30
0.0
 10
241.6223186631
 20
152.0582261966
 30
0.0
 11
242.8365380074
 21
152.7722680998
 31
0.0
 11
242.5601886
 21
152.5565824537
 31
0.0
 11
242.4140137099
 21
152.4562815255
 31
0.0
 11
242.2615969486
 21
152.3655921605
 31
0.0
 11
242.1021949209
 21
152.2870506248
 31
0.0
 11
241.9375404306
 21
152.2184617275
 31
0.0
 11
241.77490465
 21
152.1469624842
 31
0.0
 11
241.6223186631
 21
152.0582261966
 31
0.0
  0
SPLINE
  5
36E
330
28
100
AcDbEntity
  8
0
  6
Continuous
 62
     0
100
AcDbSpline
210
0.0
220
0.0
230
1.0
 70
     8
 71
     3
 72
     9
 73
     5
 74
     3
 42
0.0000000001
 43
0.0000000001
 44
0.0000000001
 40
0.0
 40
0.0
 40
0.0
 40
0.0
 40
0.273920060182102
 40
0.548164753082186
 40
0.548164753082186
 40
0.548164753082186
 40
0.548164753082186
 10
241.6223186631
 20
152.0582261966
 30
0.0
 10
241.551635754568
 20
151.9967759663778
 30
0.0
 10
241.4101861685944
 20
151.8738026790098
 30
0.0
 10
241.3641867864766
 20
151.6920970074248
 30
0.0
 10
241.3411734746
 20
151.601190367
 30
0.0
 11
241.6223186631
 21
152.0582261966
 31
0.0
 11
241.4341042332
 21
151.8592097959
 31
0.0
 11
241.3411734746
 21
151.601190367
 31
0.0
  0
SPLINE
  5
36F
330
28
100
AcDbEntity
  8
0
  6
Continuous
 62
     0
100
AcDbSpline
210
0.0
220
0.0
230
1.0
 70
     8
 71
     3
 72
    22
 73
    18
 74
    16
 42
0.0000000001
 43
0.0000000001
 44
0.0000000001
 40
0.0
 40
0.0
 40
0.0
 40
0.0
 40
0.1762329192626843
 40
0.2650575640091085
 40
0.3532537588963766
 40
0.4420043532413736
 40
0.5323637156068491
 40
0.5763244277561075
 40
0.619188772864817
 40
0.7063884485599024
 40
0.7991883936374395
 40
0.8934200243380513
 40
0.9841358732838709
 40
1.072112112710335
 40
1.159305314343552
 40
1.247588662165365
 40
1.425050630044324
 40
1.425050630044324
 40
1.425050630044324
 40
1.425050630044324
 10
241.3411734746
 20
151.601190367
 30
0.0
 10
241.3348807623528
 20
151.5412866405384
 30
0.0
 10
241.3254164069633
 20
151.4511903300568
 30
0.0
 10
241.3745012695538
 20
151.3416227280735
 30
0.0
 10
241.4214463584436
 20
151.2667898053139
 30
0.0
 10
241.4705721954578
 20
151.1923729491868
 30
0.0
 10
241.5015783099781
 20
151.1239808428907
 30
0.0
 10
241.5134529894704
 20
151.0657681390162
 30
0.0
 10
241.5121515667932
 20
151.0072412024932
 30
0.0
 10
241.4857637247104
 20
150.9359082402786
 30
0.0
 10
241.4325199561569
 20
150.8610772206505
 30
0.0
 10
241.3684811918843
 20
150.7939461777232
 30
0.0
 10
241.2994514674737
 20
150.7344192578094
 30
0.0
 10
241.2253332486665
 20
150.6853612409998
 30
0.0
 10
241.145691343531
 20
150.6474536728227
 30
0.0
 10
241.0327742855451
 20
150.6138843079565
 30
0.0
 10
240.9495249743769
 20
150.5836086894136
 30
0.0
 10
240.8939319471
 20
150.5633909451
 30
0.0
 11
241.3411734746
 21
151.601190367
 31
0.0
 11
241.3427607798
 21
151.4249645962
 31
0.0
 11
241.3762682739
 21
151.3427024217
 31
0.0
 11
241.4216624848
 21
151.2670853971
 31
0.0
 11
241.4683070657
 21
151.1915807544
 31
0.0
 11
241.5036522978
 21
151.1084210951
 31
0.0
 11
241.5118683162
 21
151.0652349717
 31
0.0
 11
241.5109161391
 21
151.0223812036
 31
0.0
 11
241.4832267522
 21
150.9396945584
 31
0.0
 11
241.4311215152
 21
150.8629034516
 31
0.0
 11
241.3665969412
 21
150.7942290053
 31
0.0
 11
241.2975688361
 21
150.7353691212
 31
0.0
 11
241.2240748444
 21
150.687011579
 31
0.0
 11
241.1452569065
 21
150.6497236845
 31
0.0
 11
241.061501093
 21
150.6218146679
 31
0.0
 11
240.8939319471
 21
150.5633909451
 31
0.0
  0
SPLINE
  5
370
330
28
100
AcDbEntity
  8
0
  6
Continuous
 62
     0
100
AcDbSpline
210
0.0
220
0.0
230
1.0
 70
     8
 71
     3
 72
     9
 73
     5
 74
     3
 42
0.0000000001
 43
0.0000000001
 44
0.0000000001
 40
0.0
 40
0.0
 40
0.0
 40
0.0
 40
0.2701994877946917
 40
0.5402857145153397
 40
0.5402857145153397
 40
0.5402857145153397
 40
0.5402857145153397
 10
240.8939319471
 20
150.5633909451
 30
0.0
 10
240.8237187958342
 20
150.5054205516307
 30
0.0
 10
240.683321924953
 20
150.3895040644755
 30
0.0
 10
240.5985425340319
 20
150.228382963189
 30
0.0
 10
240.5561617248
 20
150.1478393006
 30
0.0
 11
240.8939319471
 21
150.5633909451
 31
0.0
 11
240.6972026935
 21
150.3781738725
 31
0.0
 11
240.5561617248
 21
150.1478393006
 31
0.0
  0
SPLINE
  5
371
330
28
100
AcDbEntity
  8
0
  6
Continuous
 62
     0
100
AcDbSpline
210
0.0
220
0.0
230
1.0
 70
     8
 71
     3
 72
    21
 73
    17
 74
    15
 42
0.0000000001
 43
0.0000000001
 44
0.0000000001
 40
0.0
 40
0.0
 40
0.0
 40
0.0
 40
0.0873810832393846
 40
0.1754592931797926
 40
0.2586158398859244
 40
0.3414923621034042
 40
0.4264456353460485
 40
0.5101029852491226
 40
0.5942492366555415
 40
0.6785659827124621
 40
0.7622955782859682
 40
0.8460387664590037
 40
1.013683988609219
 40
1.097433546157039
 40
1.181272708955488
 40
1.349062951755122
 40
1.349062951755122
 40
1.349062951755122
 40
1.349062951755122
 10
240.5561617248
 20
150.1478393006
 30
0.0
 10
240.5417175498645
 20
150.1224972909
 30
0.0
 10
240.5127139642966
 20
150.071611092825
 30
0.0
 10
240.4833826789092
 20
149.9900747279528
 30
0.0
 10
240.4769967903235
 20
149.9030615485569
 30
0.0
 10
240.5137172923557
 20
149.8244393815623
 30
0.0
 10
240.5749763889598
 20
149.7652200198726
 30
0.0
 10
240.652498291773
 20
149.7282569120671
 30
0.0
 10
240.7371423861263
 20
149.7186553493975
 30
0.0
 10
240.8210962653931
 20
149.7273510686851
 30
0.0
 10
240.9029648666657
 20
149.7459541526255
 30
0.0
 10
241.0129329905318
 20
149.7660142635453
 30
0.0
 10
241.1243491894983
 20
149.775505592965
 30
0.0
 10
241.2352329924987
 20
149.789570900982
 30
0.0
 10
241.3450484864915
 20
149.8110862690691
 30
0.0
 10
241.4256378814081
 20
149.8345209095828
 30
0.0
 10
241.4793760926
 20
149.8501474776
 30
0.0
 11
240.5561617248
 21
150.1478393006
 31
0.0
 11
240.5150870556
 21
150.070713914
 31
0.0
 11
240.4868242752
 21
149.9872933751
 31
0.0
 11
240.484129749
 21
149.9041804953
 31
0.0
 11
240.5173947928
 21
149.8282729542
 31
0.0
 11
240.5779937074
 21
149.7687344777
 31
0.0
 11
240.653558821
 21
149.7328392719
 31
0.0
 11
240.7369660722
 21
149.7217117352
 31
0.0
 11
240.8209639016
 21
149.7290382843
 31
0.0
 11
240.9030860522
 21
149.7453660997
 31
0.0
 11
240.9855207428
 21
149.7601120602
 31
0.0
 11
241.1520520112
 21
149.779406027
 31
0.0
 11
241.2350640525
 21
149.7904960851
 31
0.0
 11
241.3173595949
 21
149.8065101077
 31
0.0
 11
241.4793760926
 21
149.8501474776
 31
0.0
  0
SPLINE
  5
372
330
28
100
AcDbEntity
  8
0
  6
Continuous
 62
     0
100
AcDbSpline
210
0.0
220
0.0
230
1.0
 70
    24
 71
     3
 72
     8
 73
     4
 74
     2
 42
0.0000000001
 43
0.0000000001
 44
0.0000000001
 40
0.0
 40
0.0
 40
0.0
 40
0.0
 40
0.2838470357775889
 40
0.2838470357775889
 40
0.2838470357775889
 40
0.2838470357775889
 10
241.4793760926
 20
149.8501474776
 30
0.0
 10
241.5721591647667
 20
149.8686792922667
 30
0.0
 10
241.6649422369333
 20
149.8872111069333
 30
0.0
 10
241.7577253091
 20
149.9057429216
 30
0.0
 11
241.4793760926
 21
149.8501474776
 31
0.0
 11
241.7577253091
 21
149.9057429216
 31
0.0
  0
SPLINE
  5
373
330
28
100
AcDbEntity
  8
0
  6
Continuous
 62
     0
100
AcDbSpline
210
0.0
220
0.0
230
1.0
 70
     8
 71
     3
 72
    14
 73
    10
 74
     8
 42
0.0000000001
 43
0.0000000001
 44
0.0000000001
 40
0.0
 40
0.0
 40
0.0
 40
0.0
 40
0.3144510767497711
 40
0.4718072955720765
 40
0.6286259118806024
 40
0.7855900831427635
 40
0.944959354763879
 40
1.104148807696266
 40
1.260604857659974
 40
1.260604857659974
 40
1.260604857659974
 40
1.260604857659974
 10
241.7577253091
 20
149.9057429216
 30
0.0
 10
241.8611500377969
 20
149.9234726538305
 30
0.0
 10
242.0163301123766
 20
149.9500746203474
 30
0.0
 10
242.2256363643976
 20
149.9628289811213
 30
0.0
 10
242.3823700533821
 20
149.97187103467
 30
0.0
 10
242.5399117870502
 20
149.981113830091
 30
0.0
 10
242.6980162874984
 20
149.9868107089654
 30
0.0
 10
242.8577170649695
 20
149.9830556426195
 30
0.0
 10
242.958439633207
 20
149.950858294155
 30
0.0
 10
243.0083648025
 20
149.93489903
 30
0.0
 11
241.7577253091
 21
149.9057429216
 31
0.0
 11
242.0688488504
 21
149.9513677144
 31
0.0
 11
242.2257926165
 21
149.9627534021
 31
0.0
 11
242.3823445501
 21
149.9718950927
 31
0.0
 11
242.5390738598
 21
149.9804784802
 31
0.0
 11
242.6983723608
 21
149.9852274081
 31
0.0
 11
242.8572630689
 21
149.9754793414
 31
0.0
 11
243.0083648025
 21
149.93489903
 31
0.0
  0
SPLINE
  5
374
330
28
100
AcDbEntity
  8
0
  6
Continuous
 62
     0
100
AcDbSpline
210
0.0
220
0.0
230
1.0
 70
     8
 71
     3
 72
    14
 73
    10
 74
     8
 42
0.0000000001
 43
0.0000000001
 44
0.0000000001
 40
0.0
 40
0.0
 40
0.0
 40
0.0
 40
0.2826115853567711
 40
0.5652635489003253
 40
0.8479283297253983
 40
1.130564947670416
 40
1.412452403226355
 40
1.696536615585197
 40
2.261843569242587
 40
2.261843569242587
 40
2.261843569242587
 40
2.261843569242587
 10
243.0083648025
 20
149.93489903
 30
0.0
 10
243.0900359718159
 20
149.8849614855297
 30
0.0
 10
243.2533899792323
 20
149.7850792617526
 30
0.0
 10
243.393139571881
 20
149.527830630781
 30
0.0
 10
243.464246492131
 20
149.2540414298452
 30
0.0
 10
243.482329607026
 20
148.9694917438059
 30
0.0
 10
243.4353199632613
 20
148.6891225218188
 30
0.0
 10
243.3375902979441
 20
148.3249548834094
 30
0.0
 10
243.2878071804509
 20
148.045993302984
 30
0.0
 10
243.2546743394
 20
147.8603321759
 30
0.0
 11
243.0083648025
 21
149.93489903
 31
0.0
 11
243.2358330076
 21
149.7671864072
 31
0.0
 11
243.3816965517
 21
149.5250790777
 31
0.0
 11
243.4554134055
 21
149.2521959456
 31
0.0
 11
243.4714862962
 21
148.9700167118
 31
0.0
 11
243.4310904093
 21
148.6910387379
 31
0.0
 11
243.3645240817
 21
148.4148634969
 31
0.0
 11
243.2546743394
 21
147.8603321759
 31
0.0
  0
SPLINE
  5
375
330
28
100
AcDbEntity
  8
0
  6
Continuous
 62
     0
100
AcDbSpline
210
0.0
220
0.0
230
1.0
 70
     8
 71
     3
 72
    21
 73
    17
 74
    15
 42
0.0000000001
 43
0.0000000001
 44
0.0000000001
 40
0.0
 40
0.0
 40
0.0
 40
0.0
 40
0.2115055280375311
 40
0.3178775949334987
 40
0.4247928417542289
 40
0.530805698645841
 40
0.6364637130606176
 40
0.7431178350825101
 40
0.8499276294107199
 40
0.9559004353760701
 40
1.061890871549484
 40
1.168164488875692
 40
1.274376010178041
 40
1.380246286369074
 40
1.485972922165896
 40
1.697830686156407
 40
1.697830686156407
 40
1.697830686156407
 40
1.697830686156407
 10
242.8938259479
 20
146.1965008144
 30
0.0
 10
242.8788214808579
 20
146.1275409367677
 30
0.0
 10
242.8562708461731
 20
146.0238992010075
 30
0.0
 10
242.8419980738958
 20
145.8828163165633
 30
0.0
 10
242.8415479507087
 20
145.7761742588264
 30
0.0
 10
242.8565814738399
 20
145.6704265521017
 30
0.0
 10
242.8936674341533
 20
145.5701311128591
 30
0.0
 10
242.949552729732
 20
145.4790057000018
 30
0.0
 10
243.0184242238357
 20
145.3973679955439
 30
0.0
 10
243.096818722224
 20
145.3253063087626
 30
0.0
 10
243.1814959171541
 20
145.2612459484394
 30
0.0
 10
243.2697844672639
 20
145.2022433993053
 30
0.0
 10
243.3606070764345
 20
145.1472370304509
 30
0.0
 10
243.455022266609
 20
145.0989875964438
 30
0.0
 10
243.5864220437679
 20
145.04640834503
 30
0.0
 10
243.6902911330469
 20
145.0245909031031
 30
0.0
 10
243.7595812903
 20
145.0100366792
 30
0.0
 11
242.8938259479
 21
146.1965008144
 31
0.0
 11
242.8540676315
 21
145.9887657315
 31
0.0
 11
242.8437240043
 21
145.8828977666
 31
0.0
 11
242.8441556208
 21
145.775983391
 31
0.0
 11
242.8602785285
 21
145.6712037285
 31
0.0
 11
242.8966336189
 21
145.5719972599
 31
0.0
 11
242.9516826188
 21
145.4806478792
 31
0.0
 11
243.0202304379
 21
145.3987361666
 31
0.0
 11
243.0978823206
 21
145.326622224
 31
0.0
 11
243.18201015
 21
145.2621514486
 31
0.0
 11
243.2702303275
 21
145.202895377
 31
0.0
 11
243.3613318324
 21
145.1482931512
 31
0.0
 11
243.4557653311
 21
145.1004305384
 31
0.0
 11
243.5540788569
 21
145.0615387377
 31
0.0
 11
243.7595812903
 21
145.0100366792
 31
0.0
  0
SPLINE
  5
376
330
28
100
AcDbEntity
  8
0
  6
Continuous
 62
     0
100
AcDbSpline
210
0.0
220
0.0
230
1.0
 70
     8
 71
     3
 72
    10
 73
     6
 74
     4
 42
0.0000000001
 43
0.0000000001
 44
0.0000000001
 40
0.0
 40
0.0
 40
0.0
 40
0.0
 40
0.0712114605027724
 40
0.1427955607808894
 40
0.2857233700719654
 40
0.2857233700719654
 40
0.2857233700719654
 40
0.2857233700719654
 10
243.7595812903
 20
145.0100366792
 30
0.0
 10
243.782870455
 20
145.0053981357229
 30
0.0
 10
243.8295706533947
 20
144.9960967759089
 30
0.0
 10
243.9201486237233
 20
144.9649982435122
 30
0.0
 10
243.9807874449032
 20
144.9264933300727
 30
0.0
 10
244.0211906742
 20
144.9008377712
 30
0.0
 11
243.7595812903
 21
145.0100366792
 31
0.0
 11
243.8290926068
 21
144.9945690037
 31
0.0
 11
243.8967116738
 21
144.9710754898999
 31
0.0
 11
244.0211906742
 21
144.9008377712
 31
0.0
  0
SPLINE
  5
377
330
28
100
AcDbEntity
  8
0
  6
Continuous
 62
     0
100
AcDbSpline
210
0.0
220
0.0
230
1.0
 70
     8
 71
     3
 72
    13
 73
     9
 74
     7
 42
0.0000000001
 43
0.0000000001
 44
0.0000000001
 40
0.0
 40
0.0
 40
0.0
 40
0.0
 40
0.0581219004706161
 40
0.1173560144930117
 40
0.1490530028924804
 40
0.1816652085898337
 40
0.2122447568675253
 40
0.2407676199153719
 40
0.2407676199153719
 40
0.2407676199153719
 40
0.2407676199153719
 10
244.0211906742
 20
144.9008377712
 30
0.0
 10
244.0366663589076
 20
144.8891455918492
 30
0.0
 10
244.0679138691253
 20
144.8655374930389
 30
0.0
 10
244.1029350120021
 20
144.8300860693831
 30
0.0
 10
244.1292900195065
 20
144.7983104283324
 30
0.0
 10
244.1472676947465
 20
144.7725512405741
 30
0.0
 10
244.1611707785737
 20
144.7439771332435
 30
0.0
 10
244.1584988085244
 20
144.7240489767764
 30
0.0
 10
244.157209314
 20
144.7144316352
 30
0.0
 11
244.0211906742
 21
144.9008377712
 31
0.0
 11
244.0667166004
 21
144.86470544
 31
0.0
 11
244.1085703909
 21
144.8227895661
 31
0.0
 11
244.1287219305
 21
144.7983229659
 31
0.0
 11
244.1470154302
 21
144.7713247469
 31
0.0
 11
244.1583688174
 21
144.7429309206
 31
0.0
 11
244.157209314
 21
144.7144316352
 31
0.0
  0
SPLINE
  5
378
330
28
100
AcDbEntity
  8
0
  6
Continuous
 62
     0
100
AcDbSpline
210
0.0
220
0.0
230
1.0
 70
     8
 71
     3
 72
    13
 73
     9
 74
     7
 42
0.0000000001
 43
0.0000000001
 44
0.0000000001
 40
0.0
 40
0.0
 40
0.0
 40
0.0
 40
0.0318727658463362
 40
0.0684070987338813
 40
0.1085067759613501
 40
0.1461815885454256
 40
0.2141711805524187
 40
0.2805865680729408
 40
0.2805865680729408
 40
0.2805865680729408
 40
0.2805865680729408
 10
244.157209314
 20
144.7144316352
 30
0.0
 10
244.1520692800623
 20
144.7046856994732
 30
0.0
 10
244.141037453996
 20
144.6837684313977
 30
0.0
 10
244.1040534856588
 20
144.6724657814402
 30
0.0
 10
244.0670601160035
 20
144.6664476913252
 30
0.0
 10
244.0183630571844
 20
144.6627174087921
 30
0.0
 10
243.9609525695278
 20
144.6644459464083
 30
0.0
 10
243.9164985961804
 20
144.670208512624
 30
0.0
 10
243.8945319408
 20
144.673056049
 30
0.0
 11
244.157209314
 21
144.7144316352
 31
0.0
 11
244.1391224132
 21
144.6881878317
 31
0.0
 11
244.1055686098
 21
144.6737344668
 31
0.0
 11
244.0660592132
 21
144.666879418
 31
0.0
 11
244.0284967604
 21
144.6639719031
 31
0.0
 11
243.9605264465
 21
144.6655908687
 31
0.0
 11
243.8945319408
 21
144.673056049
 31
0.0
  0
SPLINE
  5
379
330
28
100
AcDbEntity
  8
0
  6
Continuous
 62
     0
100
AcDbSpline
210
0.0
220
0.0
230
1.0
 70
     8
 71
     3
 72
     9
 73
     5
 74
     3
 42
0.0000000001
 43
0.0000000001
 44
0.0000000001
 40
0.0
 40
0.0
 40
0.0
 40
0.0
 40
0.141930880554364
 40
0.2838955957234147
 40
0.2838955957234147
 40
0.2838955957234147
 40
0.2838955957234147
 10
243.8945319408
 20
144.673056049
 30
0.0
 10
243.8476867745767
 20
144.6797648597294
 30
0.0
 10
243.7539852748061
 20
144.6931840804881
 30
0.0
 10
243.6613045978229
 20
144.7124283016553
 30
0.0
 10
243.6149587365
 20
144.722051559
 30
0.0
 11
243.8945319408
 21
144.673056049
 31
0.0
 11
243.754251587
 21
144.6946383842
 31
0.0
 11
243.6149587365
 21
144.722051559
 31
0.0
  0
SPLINE
  5
37A
330
28
100
AcDbEntity
  8
0
  6
Continuous
 62
     0
100
AcDbSpline
210
0.0
220
0.0
230
1.0
 70
     8
 71
     3
 72
     9
 73
     5
 74
     3
 42
0.0000000001
 43
0.0000000001
 44
0.0000000001
 40
0.0
 40
0.0
 40
0.0
 40
0.0
 40
0.2839178324355189
 40
0.5678325219200808
 40
0.5678325219200808
 40
0.5678325219200808
 40
0.5678325219200808
 10
243.6149587365
 20
144.722051559
 30
0.0
 10
243.5222744719098
 20
144.7413324111748
 30
0.0
 10
243.3369069687377
 20
144.7798939020865
 30
0.0
 10
243.1493821969296
 20
144.8060197413643
 30
0.0
 10
243.05562033
 20
144.8190825887
 30
0.0
 11
243.6149587365
 21
144.722051559
 31
0.0
 11
243.3363666196
 21
144.7767851682
 31
0.0
 11
243.05562033
 21
144.8190825887
 31
0.0
  0
SPLINE
  5
37B
330
28
100
AcDbEntity
  8
0
  6
Continuous
 62
     0
100
AcDbSpline
210
0.0
220
0.0
230
1.0
 70
     8
 71
     3
 72
     9
 73
     5
 74
     3
 42
0.0000000001
 43
0.0000000001
 44
0.0000000001
 40
0.0
 40
0.0
 40
0.0
 40
0.0
 40
0.2826634339562889
 40
0.5653412695946272
 40
0.5653412695946272
 40
0.5653412695946272
 40
0.5653412695946272
 10
243.05562033
 20
144.8190825887
 30
0.0
 10
242.9609806174101
 20
144.8251985933028
 30
0.0
 10
242.7716963703436
 20
144.8374309141184
 30
0.0
 10
242.5875443082305
 20
144.7919754154221
 30
0.0
 10
242.4954659316
 20
144.7692470871
 30
0.0
 11
243.05562033
 21
144.8190825887
 31
0.0
 11
242.7729841731
 21
144.8230093823999
 31
0.0
 11
242.4954659316
 21
144.7692470871
 31
0.0
  0
SPLINE
  5
37C
330
28
100
AcDbEntity
  8
0
  6
Continuous
 62
     0
100
AcDbSpline
210
0.0
220
0.0
230
1.0
 70
     8
 71
     3
 72
    23
 73
    19
 74
    17
 42
0.0000000001
 43
0.0000000001
 44
0.0000000001
 40
0.0
 40
0.0
 40
0.0
 40
0.0
 40
0.1101668910278946
 40
0.2195117905583039
 40
0.2725990609487078
 40
0.325793259443521
 40
0.3798834322828603
 40
0.4342792521964434
 40
0.5416242501639856
 40
0.6483929806988659
 40
0.8621546243132486
 40
0.9686854307642436
 40
1.075612615379398
 40
1.18264073370979
 40
1.289633790691891
 40
1.396327220086596
 40
1.503086161215566
 40
1.717202150622958
 40
1.717202150622958
 40
1.717202150622958
 40
1.717202150622958
 10
242.4954659316
 20
144.7692470871
 30
0.0
 10
242.4592222073699
 20
144.7630767495557
 30
0.0
 10
242.3870051852861
 20
144.7507821133899
 30
0.0
 10
242.2947256706688
 20
144.7571523493499
 30
0.0
 10
242.2265200210509
 20
144.7815200698706
 30
0.0
 10
242.181674533402
 20
144.811598805556
 30
0.0
 10
242.1443472295193
 20
144.8509841766915
 30
0.0
 10
242.1054086189346
 20
144.9119209530855
 30
0.0
 10
242.0788295823216
 20
144.999405440951
 30
0.0
 10
242.0810200142533
 20
145.1436989588938
 30
0.0
 10
242.1264380401855
 20
145.2800146040138
 30
0.0
 10
242.1490222657796
 20
145.4207431094409
 30
0.0
 10
242.1604458775875
 20
145.5269570860197
 30
0.0
 10
242.1749266719531
 20
145.6330027388629
 30
0.0
 10
242.1953680778509
 20
145.7379580358002
 30
0.0
 10
242.2123215009431
 20
145.8434405700879
 30
0.0
 10
242.2200566339152
 20
145.9864197088084
 30
0.0
 10
242.2007752459428
 20
146.0921467601638
 30
0.0
 10
242.1879090072
 20
146.1626971524
 30
0.0
 11
242.4954659316
 21
144.7692470871
 31
0.0
 11
242.3862079531
 21
144.7551248347
 31
0.0
 11
242.2773158279
 21
144.7650652634
 31
0.0
 11
242.2275264657
 21
144.7834847555
 31
0.0
 11
242.1832112164
 21
144.8129089196
 31
0.0
 11
242.1457786102
 21
144.8519543648
 31
0.0
 11
242.1164509151
 21
144.8977669343
 31
0.0
 11
242.0843752407
 21
145.0002076474
 31
0.0
 11
242.084072526
 21
145.1069759488
 31
0.0
 11
242.1302114297
 21
145.3156988317
 31
0.0
 11
242.1480858579
 21
145.4207193894
 31
0.0
 11
242.1609485618
 21
145.5268701014
 31
0.0
 11
242.1759247575
 21
145.6328452479
 31
0.0
 11
242.1948069282
 21
145.7381589596
 31
0.0
 11
242.2104613488
 21
145.843697706
 31
0.0
 11
242.2153374505
 21
145.9503452336
 31
0.0
 11
242.1879090072
 21
146.1626971524
 31
0.0
  0
SPLINE
  5
37D
330
28
100
AcDbEntity
  8
0
  6
Continuous
 62
     0
100
AcDbSpline
210
0.0
220
0.0
230
1.0
 70
     8
 71
     3
 72
    10
 73
     6
 74
     4
 42
0.0000000001
 43
0.0000000001
 44
0.0000000001
 40
0.0
 40
0.0
 40
0.0
 40
0.0
 40
1.015492515907087
 40
1.711415474033832
 40
2.021018890350722
 40
2.021018890350722
 40
2.021018890350722
 40
2.021018890350722
 10
242.1879090072
 20
146.1626971524
 30
0.0
 10
242.0886860580405
 20
146.4890486184286
 30
0.0
 10
241.9214650417248
 20
147.0390506521078
 30
0.0
 10
242.0147691152518
 20
147.736448946815
 30
0.0
 10
242.185426717522
 20
148.0262265643725
 30
0.0
 10
242.2379725065
 20
148.1154496247
 30
0.0
 11
242.1879090072
 21
146.1626971524
 31
0.0
 11
241.9769336456
 21
147.1560321647
 31
0.0
 11
242.092113116
 21
147.8423574908
 31
0.0
 11
242.2379725065
 21
148.1154496247
 31
0.0
  0
SPLINE
  5
37E
330
28
100
AcDbEntity
  8
0
  6
Continuous
 62
     0
100
AcDbSpline
210
0.0
220
0.0
230
1.0
 70
     8
 71
     3
 72
    13
 73
     9
 74
     7
 42
0.0000000001
 43
0.0000000001
 44
0.0000000001
 40
0.0
 40
0.0
 40
0.0
 40
0.0
 40
0.0711652479598064
 40
0.143171275929111
 40
0.1815198704941557
 40
0.2213460292411256
 40
0.2589401572142132
 40
0.2938851676211037
 40
0.2938851676211037
 40
0.2938851676211037
 40
0.2938851676211037
 10
242.2379725065
 20
148.1154496247
 30
0.0
 10
242.2502561080608
 20
148.1357400168579
 30
0.0
 10
242.2749684354801
 20
148.1765605214949
 30
0.0
 10
242.3014596062809
 20
148.23124494595
 30
0.0
 10
242.3153976495949
 20
148.2795835384549
 30
0.0
 10
242.3210045456228
 20
148.3175455142535
 30
0.0
 10
242.3197346188387
 20
148.3565516865567
 30
0.0
 10
242.3051769278417
 20
148.3764979861271
 30
0.0
 10
242.2981639046
 20
148.3861069181
 30
0.0
 11
242.2379725065
 21
148.1154496247
 31
0.0
 11
242.2738800422
 21
148.176891804
 31
0.0
 11
242.303875243
 21
148.2423529069
 31
0.0
 11
242.314425711
 21
148.2792216244
 31
0.0
 11
242.3198888747
 21
148.3186712982
 31
0.0
 11
242.3160147786
 21
148.3560652795
 31
0.0
 11
242.2981639046
 21
148.3861069181
 31
0.0
  0
SPLINE
  5
37F
330
28
100
AcDbEntity
  8
0
  6
Continuous
 62
     0
100
AcDbSpline
210
0.0
220
0.0
230
1.0
 70
     8
 71
     3
 72
    28
 73
    24
 74
    22
 42
0.0000000001
 43
0.0000000001
 44
0.0000000001
 40
0.0
 40
0.0
 40
0.0
 40
0.0
 40
0.0875427521326912
 40
0.1752458498356919
 40
0.3501410332083378
 40
0.5251962313429155
 40
0.7002299657033371
 40
0.787886942661196
 40
0.8755782091215576
 40
1.05105011356306
 40
1.226147679552188
 40
1.401316477661463
 40
1.575151249677545
 40
1.75333932057037
 40
1.84315775230627
 40
1.930425963055725
 40
2.016956868667158
 40
2.105150992320293
 40
2.192881256325863
 40
2.280682249979646
 40
2.456752610525364
 40
2.63246610606978
 40
2.80762974202192
 40
2.80762974202192
 40
2.80762974202192
 40
2.80762974202192
 10
242.2981639046
 20
148.3861069181
 30
0.0
 10
242.2723117067049
 20
148.400660673059
 30
0.0
 10
242.2205599593599
 20
148.4297948400111
 30
0.0
 10
242.1009757653238
 20
148.4305392537942
 30
0.0
 10
241.9568539703506
 20
148.4102916169772
 30
0.0
 10
241.7902420653413
 20
148.3504422509531
 30
0.0
 10
241.667214340389
 20
148.2713856044608
 30
0.0
 10
241.5660840795358
 20
148.2128762416839
 30
0.0
 10
241.4600901848393
 20
148.163164632053
 30
0.0
 10
241.3216163626922
 20
148.1151978499295
 30
0.0
 10
241.150308132717
 20
148.0773950953964
 30
0.0
 10
240.9776536980037
 20
148.0497616193894
 30
0.0
 10
240.8023545212043
 20
148.0362447992294
 30
0.0
 10
240.655208010622
 20
148.0285272393935
 30
0.0
 10
240.5378354444086
 20
148.0116026883935
 30
0.0
 10
240.4532953964721
 20
147.984840092506
 30
0.0
 10
240.3798514837019
 20
147.9350411420792
 30
0.0
 10
240.324531559863
 20
147.865759976426
 30
0.0
 10
240.2882329345644
 20
147.7849139459641
 30
0.0
 10
240.2613457933973
 20
147.6703449578358
 30
0.0
 10
240.2600630783875
 20
147.5218606101015
 30
0.0
 10
240.2996050184925
 20
147.349723681261
 30
0.0
 10
240.3408528673337
 20
147.2402286462598
 30
0.0
 10
240.361444472
 20
147.1855669236
 30
0.0
 11
242.2981639046
 21
148.3861069181
 31
0.0
 11
242.2185859571
 21
148.4225909382
 31
0.0
 11
242.1311127181
 21
148.4289364725
 31
0.0
 11
241.9579503206
 21
148.4043781896
 31
0.0
 11
241.7934142192
 21
148.3446103577
 31
0.0
 11
241.6417731826
 21
148.2571929442
 31
0.0
 11
241.565502271
 21
148.2139900085
 31
0.0
 11
241.4862073668
 21
148.1765456981
 31
0.0
 11
241.320630242
 21
148.1184543477
 31
0.0
 11
241.1500174193
 21
148.0790789449
 31
0.0
 11
240.9769429576
 21
148.0520726764
 31
0.0
 11
240.8037578362
 21
148.0370579607
 31
0.0
 11
240.6260932569
 21
148.0234093025
 31
0.0
 11
240.5374338724
 21
148.0090265274
 31
0.0
 11
240.4548276903
 21
147.9808847562
 31
0.0
 11
240.3832981569
 21
147.932190573
 31
0.0
 11
240.3276675734
 21
147.8637548979
 31
0.0
 11
240.2909247088
 21
147.784089591
 31
0.0
 11
240.270244632
 21
147.6987587706
 31
0.0
 11
240.2669320137
 21
147.5227195749
 31
0.0
 11
240.3033875185
 21
147.3508294103
 31
0.0
 11
240.361444472
 21
147.1855669236
 31
0.0
  0
SPLINE
  5
380
330
28
100
AcDbEntity
  8
0
  6
Continuous
 62
     0
100
AcDbSpline
210
0.0
220
0.0
230
1.0
 70
    24
 71
     3
 72
     8
 73
     4
 74
     2
 42
0.0000000001
 43
0.0000000001
 44
0.0000000001
 40
0.0
 40
0.0
 40
0.0
 40
0.0
 40
0.7429424463615846
 40
0.7429424463615846
 40
0.7429424463615846
 40
0.7429424463615846
 10
240.361444472
 20
147.1855669236
 30
0.0
 10
240.4304969814667
 20
146.9477413019
 30
0.0
 10
240.4995494909334
 20
146.7099156802
 30
0.0
 10
240.5686020004
 20
146.4720900585
 30
0.0
 11
240.361444472
 21
147.1855669236
 31
0.0
 11
240.5686020004
 21
146.4720900585
 31
0.0
  0
SPLINE
  5
381
330
28
100
AcDbEntity
  8
0
  6
Continuous
 62
     0
100
AcDbSpline
210
0.0
220
0.0
230
1.0
 70
    24
 71
     3
 72
     8
 73
     4
 74
     2
 42
0.0000000001
 43
0.0000000001
 44
0.0000000001
 40
0.0
 40
0.0
 40
0.0
 40
0.0
 40
0.5906267878640221
 40
0.5906267878640221
 40
0.5906267878640221
 40
0.5906267878640221
 10
240.5686020004
 20
146.4720900585
 30
0.0
 10
240.6056096303333
 20
146.2787239921667
 30
0.0
 10
240.6426172602667
 20
146.0853579258333
 30
0.0
 10
240.6796248902
 20
145.8919918595
 30
0.0
 11
240.5686020004
 21
146.4720900585
 31
0.0
 11
240.6796248902
 21
145.8919918595
 31
0.0
  0
SPLINE
  5
382
330
28
100
AcDbEntity
  8
0
  6
Continuous
 62
     0
100
AcDbSpline
210
0.0
220
0.0
230
1.0
 70
     8
 71
     3
 72
    17
 73
    13
 74
    11
 42
0.0000000001
 43
0.0000000001
 44
0.0000000001
 40
0.0
 40
0.0
 40
0.0
 40
0.0
 40
0.3673180334620382
 40
0.5512916781420256
 40
0.7351309361127787
 40
0.9196689071280123
 40
1.014559563666395
 40
1.107591399630862
 40
1.198202538434485
 40
1.290195257025098
 40
1.384747132391559
 40
1.478621598015145
 40
1.478621598015145
 40
1.478621598015145
 40
1.478621598015145
 10
240.6796248902
 20
145.8919918595
 30
0.0
 10
240.7130272304088
 20
145.7735395608631
 30
0.0
 10
240.76315935165
 20
145.5957596520472
 30
0.0
 10
240.7705531957847
 20
145.3495308274438
 30
0.0
 10
240.7535351854617
 20
145.1660150414351
 30
0.0
 10
240.7236782963776
 20
145.0139851281305
 30
0.0
 10
240.6840456772271
 20
144.8960524842134
 30
0.0
 10
240.640956190727
 20
144.8131594761624
 30
0.0
 10
240.5786873919868
 20
144.7436076193813
 30
0.0
 10
240.4972652245911
 20
144.697512312839
 30
0.0
 10
240.4075328331449
 20
144.669130738137
 30
0.0
 10
240.3449613934528
 20
144.6624116534065
 30
0.0
 10
240.3137881486
 20
144.6590641889
 30
0.0
 11
240.6796248902
 21
145.8919918595
 31
0.0
 11
240.7600379427
 21
145.5335838815
 31
0.0
 11
240.766793856
 21
145.3497343246
 31
0.0
 11
240.7504705587
 21
145.1666211827
 31
0.0
 11
240.7127870609
 21
144.9859717522
 31
0.0
 11
240.6815339141
 21
144.8963755608
 31
0.0
 11
240.6372257118
 21
144.8145727142
 31
0.0
 11
240.5759479745
 21
144.7478238012
 31
0.0
 11
240.4968277392
 21
144.7008914175
 31
0.0
 11
240.4067429278
 21
144.6721723665
 31
0.0
 11
240.3137881486
 21
144.6590641889
 31
0.0
  0
SPLINE
  5
383
330
28
100
AcDbEntity
  8
0
  6
Continuous
 62
     0
100
AcDbSpline
210
0.0
220
0.0
230
1.0
 70
     8
 71
     3
 72
     9
 73
     5
 74
     3
 42
0.0000000001
 43
0.0000000001
 44
0.0000000001
 40
0.0
 40
0.0
 40
0.0
 40
0.0
 40
0.2938323863124163
 40
0.5879927747300293
 40
0.5879927747300293
 40
0.5879927747300293
 40
0.5879927747300293
 10
240.3137881486
 20
144.6590641889
 30
0.0
 10
240.2158002665611
 20
144.6611594154706
 30
0.0
 10
240.0197151196071
 20
144.6653522074919
 30
0.0
 10
239.8249959206373
 20
144.6888355516982
 30
0.0
 10
239.7275820107
 20
144.7005837737
 30
0.0
 11
240.3137881486
 21
144.6590641889
 31
0.0
 11
240.0201656086
 21
144.6701671277
 31
0.0
 11
239.7275820107
 21
144.7005837737
 31
0.0
  0
SPLINE
  5
384
330
28
100
AcDbEntity
  8
0
  6
Continuous
 62
     0
100
AcDbSpline
210
0.0
220
0.0
230
1.0
 70
    24
 71
     3
 72
     8
 73
     4
 74
     2
 42
0.0000000001
 43
0.0000000001
 44
0.0000000001
 40
0.0
 40
0.0
 40
0.0
 40
0.0
 40
0.59076311727213
 40
0.59076311727213
 40
0.59076311727213
 40
0.59076311727213
 10
239.7275820107
 20
144.7005837737
 30
0.0
 10
239.5306715798333
 20
144.7026277532667
 30
0.0
 10
239.3337611489666
 20
144.7046717328333
 30
0.0
 10
239.1368507181
 20
144.7067157124
 30
0.0
 11
239.7275820107
 21
144.7005837737
 31
0.0
 11
239.1368507181
 21
144.7067157124
 31
0.0
  0
SPLINE
  5
385
330
28
100
AcDbEntity
  8
0
  6
Continuous
 62
     0
100
AcDbSpline
210
0.0
220
0.0
230
1.0
 70
     8
 71
     3
 72
     9
 73
     5
 74
     3
 42
0.0000000001
 43
0.0000000001
 44
0.0000000001
 40
0.0
 40
0.0
 40
0.0
 40
0.0
 40
0.5914314538913094
 40
1.182855719925473
 40
1.182855719925473
 40
1.182855719925473
 40
1.182855719925473
 10
239.1368507181
 20
144.7067157124
 30
0.0
 10
238.9396615119567
 20
144.6965619774043
 30
0.0
 10
238.5452854961741
 20
144.6762546308146
 30
0.0
 10
238.1522885885502
 20
144.7149619129424
 30
0.0
 10
237.9557913288
 20
144.7343154364
 30
0.0
 11
239.1368507181
 21
144.7067157124
 31
0.0
 11
238.5456278809
 21
144.6910083439
 31
0.0
 11
237.9557913288
 21
144.7343154364
 31
0.0
  0
SPLINE
  5
386
330
28
100
AcDbEntity
  8
0
  6
Continuous
 62
     0
100
AcDbSpline
210
0.0
220
0.0
230
1.0
 70
     8
 71
     3
 72
    11
 73
     7
 74
     5
 42
0.0000000001
 43
0.0000000001
 44
0.0000000001
 40
0.0
 40
0.0
 40
0.0
 40
0.0
 40
0.4428622468635073
 40
0.8857098791610431
 40
1.328559959901511
 40
1.771437301196927
 40
1.771437301196927
 40
1.771437301196927
 40
1.771437301196927
 10
237.9557913288
 20
144.7343154364
 30
0.0
 10
237.809454364088
 20
144.7539681410086
 30
0.0
 10
237.5167852638207
 20
144.7932729016815
 30
0.0
 10
237.0720466926568
 20
144.8018240121152
 30
0.0
 10
236.6330273022992
 20
144.7368087653654
 30
0.0
 10
236.3377967863275
 20
144.7262187439669
 30
0.0
 10
236.1901769851
 20
144.7209235703
 30
0.0
 11
237.9557913288
 21
144.7343154364
 31
0.0
 11
237.5158243119
 21
144.7848722731
 31
0.0
 11
237.0730015255
 21
144.7895632513
 31
0.0
 11
236.6323995045
 21
144.7449980956
 31
0.0
 11
236.1901769851
 21
144.7209235703
 31
0.0
  0
SPLINE
  5
387
330
28
100
AcDbEntity
  8
0
  6
Continuous
 62
     0
100
AcDbSpline
210
0.0
220
0.0
230
1.0
 70
    24
 71
     3
 72
     8
 73
     4
 74
     2
 42
0.0000000001
 43
0.0000000001
 44
0.0000000001
 40
0.0
 40
0.0
 40
0.0
 40
0.0
 40
0.294583028675918
 40
0.294583028675918
 40
0.294583028675918
 40
0.294583028675918
 10
236.1901769851
 20
144.7209235703
 30
0.0
 10
236.0948459384333
 20
144.6973838057
 30
0.0
 10
235.9995148917666
 20
144.6738440411
 30
0.0
 10
235.9041838451
 20
144.6503042765
 30
0.0
 11
236.1901769851
 21
144.7209235703
 31
0.0
 11
235.9041838451
 21
144.6503042765
 31
0.0
  0
SPLINE
  5
388
330
28
100
AcDbEntity
  8
0
  6
Continuous
 62
     0
100
AcDbSpline
210
0.0
220
0.0
230
1.0
 70
     8
 71
     3
 72
    15
 73
    11
 74
     9
 42
0.0000000001
 43
0.0000000001
 44
0.0000000001
 40
0.0
 40
0.0
 40
0.0
 40
0.0
 40
0.1300088089821971
 40
0.2606444764225542
 40
0.3248937227065745
 40
0.3894802013415214
 40
0.4233207596011805
 40
0.458203280478878
 40
0.4916892332997305
 40
0.5233707983557934
 40
0.5233707983557934
 40
0.5233707983557934
 40
0.5233707983557934
 10
235.9041838451
 20
144.6503042765
 30
0.0
 10
235.8652949102064
 20
144.6306192851846
 30
0.0
 10
235.7873295311423
 20
144.5911543881905
 30
0.0
 10
235.6761029892009
 20
144.5809316790132
 30
0.0
 10
235.5908899021448
 20
144.5981497101532
 30
0.0
 10
235.5406408481539
 20
144.6192932188915
 30
0.0
 10
235.5017057920243
 20
144.6408713178607
 30
0.0
 10
235.4731602209287
 20
144.6591277510254
 30
0.0
 10
235.4468625308397
 20
144.6812035784039
 30
0.0
 10
235.4390423571086
 20
144.7018340419423
 30
0.0
 10
235.4352405345
 20
144.7118636609
 30
0.0
 11
235.9041838451
 21
144.6503042765
 31
0.0
 11
235.7847141721
 21
144.5990276966
 31
0.0
 11
235.6545962124
 21
144.5874089974
 31
0.0
 11
235.5916260993
 21
144.6001655841
 31
0.0
 11
235.5318567955
 21
144.6246409502
 31
0.0
 11
235.5022230556
 21
144.640981845
 31
0.0
 11
235.4730627847
 21
144.6601252215
 31
0.0
 11
235.448846115
 21
144.683252304
 31
0.0
 11
235.4352405345
 21
144.7118636609
 31
0.0
  0
SPLINE
  5
389
330
28
100
AcDbEntity
  8
0
  6
Continuous
 62
     0
100
AcDbSpline
210
0.0
220
0.0
230
1.0
 70
     8
 71
     3
 72
    15
 73
    11
 74
     9
 42
0.0000000001
 43
0.0000000001
 44
0.0000000001
 40
0.0
 40
0.0
 40
0.0
 40
0.0
 40
0.0167579561800046
 40
0.0339541615069087
 40
0.0534807214153045
 40
0.0749837599095502
 40
0.1182061582386325
 40
0.1556405692126037
 40
0.2256755471154036
 40
0.2989025696796397
 40
0.2989025696796397
 40
0.2989025696796397
 40
0.2989025696796397
 10
235.4352405345
 20
144.7118636609
 30
0.0
 10
235.4344091560373
 20
144.7175372612171
 30
0.0
 10
235.4327246571466
 20
144.7290328361799
 30
0.0
 10
235.4420179980612
 20
144.7453590618089
 30
0.0
 10
235.4558317763382
 20
144.7589490630621
 30
0.0
 10
235.4791356263544
 20
144.7748835934295
 30
0.0
 10
235.5099136122246
 20
144.7897552551248
 30
0.0
 10
235.5575252629993
 20
144.8060242274034
 30
0.0
 10
235.6165424914375
 20
144.8184892267303
 30
0.0
 10
235.6631506803212
 20
144.8288239447152
 30
0.0
 10
235.6869740172
 20
144.8341064385
 30
0.0
 11
235.4352405345
 21
144.7118636609
 31
0.0
 11
235.4345939445
 21
144.7286091384
 31
0.0
 11
235.4421241842
 21
144.7440689239
 31
0.0
 11
235.4557285639
 21
144.7580763289
 31
0.0
 11
235.4733043937
 21
144.770464665
 31
0.0
 11
235.511997418
 21
144.7897266895
 31
0.0
 11
235.547363936
 21
144.8019963484
 31
0.0
 11
235.6154563017
 21
144.8183770646
 31
0.0
 11
235.6869740172
 21
144.8341064385
 31
0.0
  0
SPLINE
  5
38A
330
28
100
AcDbEntity
  8
0
  6
Continuous
 62
     0
100
AcDbSpline
210
0.0
220
0.0
230
1.0
 70
     8
 71
     3
 72
     9
 73
     5
 74
     3
 42
0.0000000001
 43
0.0000000001
 44
0.0000000001
 40
0.0
 40
0.0
 40
0.0
 40
0.0
 40
0.7001600513746347
 40
0.8905026552268961
 40
0.8905026552268961
 40
0.8905026552268961
 40
0.8905026552268961
 10
235.6869740172
 20
144.8341064385
 30
0.0
 10
235.9197399018117
 20
144.9059348300943
 30
0.0
 10
236.2157845531538
 20
144.9972901899292
 30
0.0
 10
236.4026223688763
 20
145.2316056486703
 30
0.0
 10
236.4425584613
 20
145.2816899626
 30
0.0
 11
235.6869740172
 21
144.8341064385
 31
0.0
 11
236.3177607487
 21
145.1379685732
 31
0.0
 11
236.4425584613
 21
145.2816899626
 31
0.0
  0
SPLINE
  5
38B
330
28
100
AcDbEntity
  8
0
  6
Continuous
 62
     0
100
AcDbSpline
210
0.0
220
0.0
230
1.0
 70
     8
 71
     3
 72
    19
 73
    15
 74
    13
 42
0.0000000001
 43
0.0000000001
 44
0.0000000001
 40
0.0
 40
0.0
 40
0.0
 40
0.0
 40
0.1921033514999825
 40
0.2875816936097192
 40
0.3834473346493977
 40
0.479526809533731
 40
0.5757461923721848
 40
0.6713037851792731
 40
0.7664266868192111
 40
0.86257901078898
 40
0.9589554907162122
 40
1.149739298640927
 40
1.341736927989877
 40
1.533355050397072
 40
1.533355050397072
 40
1.533355050397072
 40
1.533355050397072
 10
236.4425584613
 20
145.2816899626
 30
0.0
 10
236.483150405484
 20
145.3314196141005
 30
0.0
 10
236.5439171748519
 20
145.4058656728989
 30
0.0
 10
236.642149499485
 20
145.4886107798635
 30
0.0
 10
236.7264439287943
 20
145.5355166946785
 30
0.0
 10
236.8191218304889
 20
145.5637738947162
 30
0.0
 10
236.9157654825165
 20
145.5694971880214
 30
0.0
 10
237.0109191592691
 20
145.553985467829
 30
0.0
 10
237.1004990467005
 20
145.5193501566597
 30
0.0
 10
237.1857736190891
 20
145.4754921150346
 30
0.0
 10
237.2983222432882
 20
145.4149206340825
 30
0.0
 10
237.4462224167789
 20
145.3536910971544
 30
0.0
 10
237.6374793807358
 20
145.3161963568626
 30
0.0
 10
237.7645701075421
 20
145.3369344953601
 30
0.0
 10
237.8280526062
 20
145.3472933066
 30
0.0
 11
236.4425584613
 21
145.2816899626
 31
0.0
 11
236.5700934102
 21
145.425351142
 31
0.0
 11
236.643817535
 21
145.4860212931
 31
0.0
 11
236.7277380463
 21
145.5323631631
 31
0.0
 11
236.81975471
 21
145.5600073143
 31
0.0
 11
236.9157909955
 21
145.5659403996
 31
0.0
 11
237.0101364797
 21
145.5507686115
 31
0.0
 11
237.0994274664
 21
145.5179740066
 31
0.0
 11
237.1855712803
 21
145.4752596913
 31
0.0
 11
237.2710889424
 21
145.4308169714
 31
0.0
 11
237.4481585789
 21
145.3597901793
 31
0.0
 11
237.6374451179
 21
145.3276390389
 31
0.0
 11
237.8280526062
 21
145.3472933066
 31
0.0
  0
SPLINE
  5
38C
330
28
100
AcDbEntity
  8
0
  6
Continuous
 62
     0
100
AcDbSpline
210
0.0
220
0.0
230
1.0
 70
     8
 71
     3
 72
    19
 73
    15
 74
    13
 42
0.0000000001
 43
0.0000000001
 44
0.0000000001
 40
0.0
 40
0.0
 40
0.0
 40
0.0
 40
0.2005728970866163
 40
0.4763213307641773
 40
1.094318112939851
 40
1.271601182554805
 40
1.438297986959394
 40
1.580734451714611
 40
1.77649464813233
 40
2.038705010773181
 40
2.340212062997862
 40
4.839059926570722
 40
4.938041072934214
 40
5.185975237249613
 40
5.185975237249613
 40
5.185975237249613
 40
5.185975237249613
 10
237.8280526062
 20
145.3472933066
 30
0.0
 10
237.8911563417836
 20
145.3709352254166
 30
0.0
 10
238.0410153493863
 20
145.4270801502601
 30
0.0
 10
238.3222186450372
 20
145.6581902613299
 30
0.0
 10
238.7086333075541
 20
145.775769116329
 30
0.0
 10
239.0052014427265
 20
145.6888932153957
 30
0.0
 10
239.1822986527084
 20
145.612209251648
 30
0.0
 10
239.2931369971278
 20
145.7959442670436
 30
0.0
 10
239.183193789191
 20
145.9859688313154
 30
0.0
 10
239.0103212339649
 20
146.1644813070064
 30
0.0
 10
238.5139068148504
 20
147.0642670638281
 30
0.0
 10
237.9943601691859
 20
147.9767874546249
 30
0.0
 10
238.0505613142634
 20
148.9260591608606
 30
0.0
 10
238.0768009400919
 20
149.03899462606
 30
0.0
 10
238.0955539311
 20
149.119707582
 30
0.0
 11
237.8280526062
 21
145.3472933066
 31
0.0
 11
238.0124947024
 21
145.4261006679
 31
0.0
 11
238.2431050731
 21
145.5772828613
 31
0.0
 11
238.8424263853
 21
145.7280608024
 31
0.0
 11
239.0135630766
 21
145.6817842461
 31
0.0
 11
239.1781373004
 21
145.6552672806
 31
0.0
 11
239.2572767261
 21
145.7736948863
 31
0.0
 11
239.1916376127
 21
145.958122545
 31
0.0
 11
239.0272582962
 21
146.1624108574
 31
0.0
 11
238.8695208541
 21
146.4193649426
 31
0.0
 11
238.0425055624
 21
148.7773908866
 31
0.0
 11
238.0491979682
 21
148.8761455272
 31
0.0
 11
238.0955539311
 21
149.119707582
 31
0.0
  0
SPLINE
  5
38D
330
28
100
AcDbEntity
  8
0
  6
Continuous
 62
     0
100
AcDbSpline
210
0.0
220
0.0
230
1.0
 70
     8
 71
     3
 72
     9
 73
     5
 74
     3
 42
0.0000000001
 43
0.0000000001
 44
0.0000000001
 40
0.0
 40
0.0
 40
0.0
 40
0.0
 40
0.590587551206318
 40
1.1811748091863
 40
1.1811748091863
 40
1.1811748091863
 40
1.1811748091863
 10
238.0955539311
 20
149.119707582
 30
0.0
 10
238.1575782730088
 20
149.3067716844124
 30
0.0
 10
238.2816269260314
 20
149.6808997963599
 30
0.0
 10
238.451607336543
 20
150.0365211853476
 30
0.0
 10
238.5365975207
 20
150.2143318357
 30
0.0
 11
238.0955539311
 21
149.119707582
 31
0.0
 11
238.2931099019
 21
149.6762732062
 31
0.0
 11
238.5365975207
 21
150.2143318357
 31
0.0
  0
SPLINE
  5
38E
330
28
100
AcDbEntity
  8
0
  6
Continuous
 62
     0
100
AcDbSpline
210
0.0
220
0.0
230
1.0
 70
     8
 71
     3
 72
     9
 73
     5
 74
     3
 42
0.0000000001
 43
0.0000000001
 44
0.0000000001
 40
0.0
 40
0.0
 40
0.0
 40
0.0
 40
0.2941807190318792
 40
0.588357559968491
 40
0.588357559968491
 40
0.588357559968491
 40
0.588357559968491
 10
238.5365975207
 20
150.2143318357
 30
0.0
 10
238.5858911313287
 20
150.2996763541356
 30
0.0
 10
238.6844777027633
 20
150.470364265936
 30
0.0
 10
238.7339695426611
 20
150.6611631833888
 30
0.0
 10
238.7587152995
 20
150.7565620133
 30
0.0
 11
238.5365975207
 21
150.2143318357
 31
0.0
 11
238.6722045079
 21
150.4753932087
 31
0.0
 11
238.7587152995
 21
150.7565620133
 31
0.0
  0
SPLINE
  5
38F
330
28
100
AcDbEntity
  8
0
  6
Continuous
 62
     0
100
AcDbSpline
210
0.0
220
0.0
230
1.0
 70
     8
 71
     3
 72
    11
 73
     7
 74
     5
 42
0.0000000001
 43
0.0000000001
 44
0.0000000001
 40
0.0
 40
0.0
 40
0.0
 40
0.0
 40
0.3173219491718447
 40
0.6393246959415003
 40
0.9576221756619876
 40
1.276321077751096
 40
1.276321077751096
 40
1.276321077751096
 40
1.276321077751096
 10
238.7587152995
 20
150.7565620133
 30
0.0
 10
238.7655490144851
 20
150.8625732508551
 30
0.0
 10
238.7793172481871
 20
151.0761594915586
 30
0.0
 10
238.718722621086
 20
151.3912663078557
 30
0.0
 10
238.6870983187226
 20
151.7098378139178
 30
0.0
 10
238.6932181032523
 20
151.9223083015565
 30
0.0
 10
238.6962799238
 20
152.0286104927
 30
0.0
 11
238.7587152995
 21
150.7565620133
 31
0.0
 11
238.7658586542
 21
151.0738035489
 31
0.0
 11
238.7233947003
 21
151.3929940587
 31
0.0
 11
238.6938844138
 21
151.7099205937
 31
0.0
 11
238.6962799238
 21
152.0286104927
 31
0.0
  0
SPLINE
  5
390
330
28
100
AcDbEntity
  8
0
  6
Continuous
 62
     0
100
AcDbSpline
210
0.0
220
0.0
230
1.0
 70
     8
 71
     3
 72
    11
 73
     7
 74
     5
 42
0.0000000001
 43
0.0000000001
 44
0.0000000001
 40
0.0
 40
0.0
 40
0.0
 40
0.0
 40
0.5900227627326217
 40
1.180033726547336
 40
1.770055077278133
 40
2.360076086077689
 40
2.360076086077689
 40
2.360076086077689
 40
2.360076086077689
 10
238.6962799238
 20
152.0286104927
 30
0.0
 10
238.7077201142078
 20
152.2251295986301
 30
0.0
 10
238.7306002662492
 20
152.6181638806202
 30
0.0
 10
238.6632460380667
 20
153.2089742203452
 30
0.0
 10
238.4747047619849
 20
153.7708499070167
 30
0.0
 10
238.4261754943077
 20
154.162165473735
 30
0.0
 10
238.4019108675
 20
154.3578232004
 30
0.0
 11
238.6962799238
 21
152.0286104927
 31
0.0
 11
238.7136544419
 21
152.6183773845
 31
0.0
 11
238.6430489918
 21
153.2041485069
 31
0.0
 11
238.4939961472
 21
153.7750324214
 31
0.0
 11
238.4019108675
 21
154.3578232004
 31
0.0
  0
SPLINE
  5
391
330
28
100
AcDbEntity
  8
0
  6
Continuous
 62
     0
100
AcDbSpline
210
0.0
220
0.0
230
1.0
 70
     8
 71
     3
 72
    15
 73
    11
 74
     9
 42
0.0000000001
 43
0.0000000001
 44
0.0000000001
 40
0.0
 40
0.0
 40
0.0
 40
0.0
 40
0.6071139685230463
 40
0.9937666662229681
 40
1.464372839372971
 40
3.006070761556038
 40
3.715963644564434
 40
4.3599052507474
 40
5.527882329672222
 40
6.272509615586401
 40
6.272509615586401
 40
6.272509615586401
 40
6.272509615586401
 10
238.4019108675
 20
154.3578232004
 30
0.0
 10
238.3650288459048
 20
154.5592454681513
 30
0.0
 10
238.3046577697237
 20
154.8889475437157
 30
0.0
 10
238.5131363615988
 20
155.3819662339682
 30
0.0
 10
239.3354974150694
 20
155.6078938122562
 30
0.0
 10
240.163103630296
 20
155.8699416930523
 30
0.0
 10
241.0709317976626
 20
156.2765393858213
 30
0.0
 10
241.5804199546749
 20
156.9637193678149
 30
0.0
 10
242.1376025700091
 20
157.6054846429622
 30
0.0
 10
242.6193873171158
 20
158.0246376050745
 30
0.0
 10
242.8069588166
 20
158.1878249
 30
0.0
 11
238.4019108675
 21
154.3578232004
 31
0.0
 11
238.3666007217
 21
154.9639094685
 31
0.0
 11
238.5361382175
 21
155.3114110457
 31
0.0
 11
238.9640599288
 21
155.507250723
 31
0.0
 11
240.4260247028
 21
155.9966293932
 31
0.0
 11
241.0501068522
 21
156.3349626256
 31
0.0
 11
241.4781889439
 21
156.8160099361
 31
0.0
 11
242.2540883616
 21
157.6890222788
 31
0.0
 11
242.8069588166
 21
158.1878249
 31
0.0
  0
SPLINE
  5
392
330
28
100
AcDbEntity
  8
0
  6
Continuous
 62
     0
100
AcDbSpline
210
0.0
220
0.0
230
1.0
 70
     8
 71
     3
 72
    15
 73
    11
 74
     9
 42
0.0000000001
 43
0.0000000001
 44
0.0000000001
 40
0.0
 40
0.0
 40
0.0
 40
0.0
 40
0.161340721981121
 40
0.3227379853549813
 40
0.4830060455771398
 40
0.6439778473232666
 40
0.8044236238678859
 40
0.9650292938037726
 40
1.283800324383555
 40
1.308995266811237
 40
1.308995266811237
 40
1.308995266811237
 40
1.308995266811237
 10
242.8069588166
 20
158.1878249
 30
0.0
 10
242.8535004253913
 20
158.2150118480819
 30
0.0
 10
242.946599953347
 20
158.2693952718336
 30
0.0
 10
243.1026424565968
 20
158.3164073092043
 30
0.0
 10
243.2656831514821
 20
158.3199259574305
 30
0.0
 10
243.422390824331
 20
158.2750184417203
 30
0.0
 10
243.5595545165077
 20
158.1874120759532
 30
0.0
 10
243.7046620890309
 20
158.0282907500384
 30
0.0
 10
243.7721673577107
 20
157.8691356663352
 30
0.0
 10
243.8019931722828
 20
157.7584822447414
 30
0.0
 10
243.8041778642
 20
157.7503770634
 30
0.0
 11
242.8069588166
 21
158.1878249
 31
0.0
 11
242.9493741457
 21
158.2636450992
 31
0.0
 11
243.1042014912
 21
158.3092254646
 31
0.0
 11
243.2644475104
 21
158.3118833694
 31
0.0
 11
243.4192748876
 21
158.2678333498
 31
0.0
 11
243.5548772695
 21
158.1820729788
 31
0.0
 11
243.6637867602
 21
158.0640352558
 31
0.0
 11
243.7975369107
 21
157.7746810314
 31
0.0
 11
243.8041778642
 21
157.7503770634
 31
0.0
  0
SPLINE
  5
393
330
28
100
AcDbEntity
  8
0
  6
Continuous
 62
     0
100
AcDbSpline
210
0.0
220
0.0
230
1.0
 70
     8
 71
     3
 72
    10
 73
     6
 74
     4
 42
0.0000000001
 43
0.0000000001
 44
0.0000000001
 40
0.0
 40
0.0
 40
0.0
 40
0.0
 40
0.7128145482304842
 40
1.08180968363159
 40
1.451038268133823
 40
1.451038268133823
 40
1.451038268133823
 40
1.451038268133823
 10
243.8041778642
 20
157.7503770634
 30
0.0
 10
243.8444742418562
 20
157.5163116030661
 30
0.0
 10
243.9056304172908
 20
157.1610799622117
 30
0.0
 10
243.9871297631754
 20
156.683611225936
 30
0.0
 10
244.0597888785743
 20
156.4482175372927
 30
0.0
 10
244.0961299248
 20
156.3304834736
 30
0.0
 11
243.8041778642
 21
157.7503770634
 31
0.0
 11
243.9248955006
 21
157.0478588555
 31
0.0
 11
243.9949106879
 21
156.685567145
 31
0.0
 11
244.0961299248
 21
156.3304834736
 31
0.0
  0
SPLINE
  5
394
330
28
100
AcDbEntity
  8
0
  6
Continuous
 62
     0
100
AcDbSpline
210
0.0
220
0.0
230
1.0
 70
     8
 71
     3
 72
    12
 73
     8
 74
     6
 42
0.0000000001
 43
0.0000000001
 44
0.0000000001
 40
0.0
 40
0.0
 40
0.0
 40
0.0
 40
0.2946035385497668
 40
0.5891279835498631
 40
0.8836526391407849
 40
1.178183129421259
 40
1.196135196449435
 40
1.196135196449435
 40
1.196135196449435
 40
1.196135196449435
 10
244.0961299248
 20
156.3304834736
 30
0.0
 10
244.1414807657866
 20
156.2431068948927
 30
0.0
 10
244.2321702722134
 20
156.0683771958647
 30
0.0
 10
244.423254446139
 20
155.841151816839
 30
0.0
 10
244.637305901788
 20
155.6405110685299
 30
0.0
 10
244.7668191627729
 20
155.4801527147051
 30
0.0
 10
244.8113122690994
 20
155.3859515853339
 30
0.0
 10
244.8138683901
 20
155.3805397473
 30
0.0
 11
244.0961299248
 21
156.3304834736
 31
0.0
 11
244.2413613153
 21
156.07416514
 31
0.0
 11
244.4270848851
 21
155.8455794792
 31
0.0
 11
244.6330499394
 21
155.6350487946
 31
0.0
 11
244.8061268247
 21
155.3967368111
 31
0.0
 11
244.8138683901
 21
155.3805397473
 31
0.0
  0
SPLINE
  5
395
330
28
100
AcDbEntity
  8
0
  6
Continuous
 62
     0
100
AcDbSpline
210
0.0
220
0.0
230
1.0
 70
     8
 71
     3
 72
    11
 73
     7
 74
     5
 42
0.0000000001
 43
0.0000000001
 44
0.0000000001
 40
0.0
 40
0.0
 40
0.0
 40
0.0
 40
0.1673280999705657
 40
2.225318182705615
 40
4.199565115493767
 40
4.916077343905771
 40
4.916077343905771
 40
4.916077343905771
 40
4.916077343905771
 10
245.9617695499
 20
149.7638758582
 30
0.0
 10
245.9591783752574
 20
149.8195791411504
 30
0.0
 10
245.9247180063904
 20
150.5603843520372
 30
0.0
 10
245.9220747204562
 20
151.9738259004153
 30
0.0
 10
245.3767261143187
 20
153.4879265408303
 30
0.0
 10
244.9703441921453
 20
154.2865731557246
 30
0.0
 10
244.8621302647
 20
154.4992417862
 30
0.0
 11
245.9617695499
 21
149.7638758582
 31
0.0
 11
245.9541829446
 21
149.9310318825
 31
0.0
 11
245.8020586457
 21
151.9833918359
 31
0.0
 11
245.1798674238
 21
153.8570324191
 31
0.0
 11
244.8621302647
 21
154.4992417862
 31
0.0
  0
SPLINE
  5
396
330
28
100
AcDbEntity
  8
0
  6
Continuous
 62
     0
100
AcDbSpline
210
0.0
220
0.0
230
1.0
 70
     8
 71
     3
 72
    16
 73
    12
 74
    10
 42
0.0000000001
 43
0.0000000001
 44
0.0000000001
 40
0.0
 40
0.0
 40
0.0
 40
0.0
 40
3.514761798992871
 40
6.914850974269079
 40
10.25759394738805
 40
13.57648432565467
 40
16.88935651441115
 40
20.2081090233794
 40
23.55054742362141
 40
26.94978387265697
 40
30.46406698865957
 40
30.46406698865957
 40
30.46406698865957
 40
30.46406698865957
 10
298.2810797597
 20
163.6088297747
 30
0.0
 10
298.5548979096597
 20
162.4694600682221
 30
0.0
 10
299.0936006182086
 20
160.2278937330158
 30
0.0
 10
299.6868662224258
 20
156.8583318240936
 30
0.0
 10
300.0958077991888
 20
153.5278720167493
 30
0.0
 10
300.3015211888766
 20
150.2072130158909
 30
0.0
 10
300.3014656661762
 20
146.8882927062745
 30
0.0
 10
300.095657155185
 20
143.567787770196
 30
0.0
 10
299.6866838884993
 20
140.2377673989018
 30
0.0
 10
299.0934656291584
 20
136.8687524669431
 30
0.0
 10
298.5548626487748
 20
134.6276188003869
 30
0.0
 10
298.2810797597
 20
133.4884048109
 30
0.0
 11
298.2810797597
 21
163.6088297747
 31
0.0
 11
299.0666814176
 21
160.1829896531
 31
0.0
 11
299.6607047597
 21
156.8351929644
 31
0.0
 11
300.063197623
 21
153.5167701343
 31
0.0
 11
300.2673807194
 21
150.204166535
 31
0.0
 11
300.2673257251
 21
146.8912943467
 31
0.0
 11
300.0630477618
 21
143.5788347274
 31
0.0
 11
299.6605071769
 21
140.2607244916
 31
0.0
 11
299.0665856993
 21
136.9137757745
 31
0.0
 11
298.2810797597
 21
133.4884048109
 31
0.0
  0
SPLINE
  5
397
330
28
100
AcDbEntity
  8
0
  6
Continuous
 62
     0
100
AcDbSpline
210
0.0
220
0.0
230
1.0
 70
     8
 71
     3
 72
    16
 73
    12
 74
    10
 42
0.0000000001
 43
0.0000000001
 44
0.0000000001
 40
0.0
 40
0.0
 40
0.0
 40
0.0
 40
1.884480060808912
 40
3.660655558334406
 40
5.367987695033524
 40
7.036827528035377
 40
8.69326362314831
 40
10.36204361718514
 40
12.06923511397801
 40
13.84497697315864
 40
15.72920390766398
 40
15.72920390766398
 40
15.72920390766398
 40
15.72920390766398
 10
298.2810797597
 20
182.7523059703
 30
0.0
 10
298.5536761605232
 20
182.1859712945902
 30
0.0
 10
299.083202341568
 20
181.0858502470771
 30
0.0
 10
299.681595279785
 20
179.3956298933823
 30
0.0
 10
300.0934394557104
 20
177.7251459270619
 30
0.0
 10
300.301503607455
 20
176.0562381007595
 30
0.0
 10
300.3014474192348
 20
174.387292223741
 30
0.0
 10
300.0932876449008
 20
172.7184645508202
 30
0.0
 10
299.6814134151614
 20
171.048207001922
 30
0.0
 10
299.083071123576
 20
169.3582641891426
 30
0.0
 10
298.5536411560036
 20
168.2583512227471
 30
0.0
 10
298.2810797597
 20
167.6920934884
 30
0.0
 11
298.2810797597
 21
182.7523059703
 31
0.0
 11
299.0666814176
 21
181.0393859095
 31
0.0
 11
299.6607047597
 21
179.3654875652
 31
0.0
 11
300.063197623
 21
177.7062761501
 31
0.0
 11
300.2673807194
 21
176.0499743505
 31
0.0
 11
300.2673257251
 21
174.3935382563
 31
0.0
 11
300.0630477618
 21
172.7373084467
 31
0.0
 11
299.6605071769
 21
171.0782533288
 31
0.0
 11
299.0665856993
 21
169.4047789702
 31
0.0
 11
298.2810797597
 21
167.6920934884
 31
0.0
  0
SPLINE
  5
399
330
28
100
AcDbEntity
  8
0
  6
Continuous
 62
     0
100
AcDbSpline
210
0.0
220
0.0
230
1.0
 70
     8
 71
     3
 72
    10
 73
     6
 74
     4
 42
0.0000000001
 43
0.0000000001
 44
0.0000000001
 40
0.0
 40
0.0
 40
0.0
 40
0.0
 40
0.1973966621709068
 40
0.4231827705585587
 40
0.6772933544463107
 40
0.6772933544463107
 40
0.6772933544463107
 40
0.6772933544463107
 10
298.2810797597
 20
167.6920934884
 30
0.0
 10
298.2557505541267
 20
167.6311787861353
 30
0.0
 10
298.201449314822
 20
167.5005886728648
 30
0.0
 10
298.1642436408072
 20
167.276031806604
 30
0.0
 10
298.1594128797718
 20
167.1161658154143
 30
0.0
 10
298.1568549386
 20
167.0315150124
 30
0.0
 11
298.2810797597
 21
167.6920934884
 31
0.0
 11
298.2118490738
 21
167.5072352877
 31
0.0
 11
298.1705657621
 21
167.2852554352
 31
0.0
 11
298.1568549386
 21
167.0315150124
 31
0.0
  0
SPLINE
  5
39A
330
28
100
AcDbEntity
  8
0
  6
Continuous
 62
     0
100
AcDbSpline
210
0.0
220
0.0
230
1.0
 70
     8
 71
     3
 72
    10
 73
     6
 74
     4
 42
0.0000000001
 43
0.0000000001
 44
0.0000000001
 40
0.0
 40
0.0
 40
0.0
 40
0.0
 40
0.2924599393550592
 40
0.6058672857008793
 40
0.9371493733614733
 40
0.9371493733614733
 40
0.9371493733614733
 40
0.9371493733614733
 10
298.1568549386
 20
164.5356120813
 30
0.0
 10
298.1597664839624
 20
164.4381230243008
 30
0.0
 10
298.1657981137635
 20
164.2361622686504
 30
0.0
 10
298.2081609496227
 20
163.9259540576437
 30
0.0
 10
298.2563283247494
 20
163.7164738935796
 30
0.0
 10
298.2810797597
 20
163.6088297747
 30
0.0
 11
298.1568549386
 21
164.5356120813
 31
0.0
 11
298.1705657621
 21
164.2434737075
 31
0.0
 11
298.2118490738
 21
163.9327972634
 31
0.0
 11
298.2810797597
 21
163.6088297747
 31
0.0
  0
SPLINE
  5
39B
330
28
100
AcDbEntity
  8
0
  6
Continuous
 62
     0
100
AcDbSpline
210
0.0
220
0.0
230
1.0
 70
     8
 71
     3
 72
    10
 73
     6
 74
     4
 42
0.0000000001
 43
0.0000000001
 44
0.0000000001
 40
0.0
 40
0.0
 40
0.0
 40
0.0
 40
0.3312820876605939
 40
0.6446894340064422
 40
0.9371493733614731
 40
0.9371493733614731
 40
0.9371493733614731
 40
0.9371493733614731
 10
298.2810797597
 20
133.4884048109
 30
0.0
 10
298.2563283247495
 20
133.3807606920204
 30
0.0
 10
298.2081609496228
 20
133.1712805279564
 30
0.0
 10
298.1657981137633
 20
132.8610723169496
 30
0.0
 10
298.1597664839622
 20
132.6591115612991
 30
0.0
 10
298.1568549386
 20
132.5616225043
 30
0.0
 11
298.2810797597
 21
133.4884048109
 31
0.0
 11
298.2118490738
 21
133.1644373222
 31
0.0
 11
298.1705657621
 21
132.8537608781
 31
0.0
 11
298.1568549386
 21
132.5616225043
 31
0.0
  0
SPLINE
  5
39C
330
28
100
AcDbEntity
  8
0
  6
Continuous
 62
     0
100
AcDbSpline
210
0.0
220
0.0
230
1.0
 70
     8
 71
     3
 72
    10
 73
     6
 74
     4
 42
0.0000000001
 43
0.0000000001
 44
0.0000000001
 40
0.0
 40
0.0
 40
0.0
 40
0.0
 40
0.254110583887752
 40
0.4798966922754039
 40
0.6772933544463374
 40
0.6772933544463374
 40
0.6772933544463374
 40
0.6772933544463374
 10
298.1568549386
 20
130.0657195732
 30
0.0
 10
298.1594128797718
 20
129.9810687701857
 30
0.0
 10
298.1642436408072
 20
129.821202778996
 30
0.0
 10
298.201449314822
 20
129.5966459127353
 30
0.0
 10
298.2557505541269
 20
129.4660557994647
 30
0.0
 10
298.2810797597
 20
129.4051410972
 30
0.0
 11
298.1568549386
 21
130.0657195732
 31
0.0
 11
298.1705657621
 21
129.8119791504
 31
0.0
 11
298.2118490738
 21
129.5899992979
 31
0.0
 11
298.2810797597
 21
129.4051410972
 31
0.0
  0
SPLINE
  5
39D
330
28
100
AcDbEntity
  8
0
  6
Continuous
 62
     0
100
AcDbSpline
210
0.0
220
0.0
230
1.0
 70
     8
 71
     3
 72
    10
 73
     6
 74
     4
 42
0.0000000001
 43
0.0000000001
 44
0.0000000001
 40
0.0
 40
0.0
 40
0.0
 40
0.0
 40
0.0407724088330195
 40
0.1386059264465475
 40
0.2939902303703069
 40
0.2939902303703069
 40
0.2939902303703069
 40
0.2939902303703069
 10
298.1568549386
 20
183.0185098009
 30
0.0
 10
298.1612511416154
 20
183.0056397707474
 30
0.0
 10
298.1761960469875
 20
182.9618880645383
 30
0.0
 10
298.2206955678563
 20
182.8742884678485
 30
0.0
 10
298.2581166984897
 20
182.7986937991716
 30
0.0
 10
298.2810797597
 20
182.7523059703
 30
0.0
 11
298.1568549386
 21
183.0185098009
 31
0.0
 11
298.1705657621
 21
182.9801118499
 31
0.0
 11
298.2118490738
 21
182.8914152584
 31
0.0
 11
298.2810797597
 21
182.7523059703
 31
0.0
  0
SPLINE
  5
39E
330
28
100
AcDbEntity
  8
0
  6
Continuous
 62
     0
100
AcDbSpline
210
0.0
220
0.0
230
1.0
 70
     8
 71
     3
 72
    14
 73
    10
 74
     8
 42
0.0000000001
 43
0.0000000001
 44
0.0000000001
 40
0.0
 40
0.0
 40
0.0
 40
0.0
 40
1.070887093346931
 40
2.163915065732159
 40
3.144729587204049
 40
3.87071264956601
 40
4.336235958883139
 40
4.584122772746126
 40
4.657809376713496
 40
4.657809376713496
 40
4.657809376713496
 40
4.657809376713496
 10
220.8424214874
 20
192.6618752523
 30
0.0
 10
220.6968545773167
 20
192.3348157599343
 30
0.0
 10
220.4027111220841
 20
191.6739347321231
 30
0.0
 10
219.7617640616639
 20
190.8336894258309
 30
0.0
 10
219.0963666535502
 20
190.1767031592092
 30
0.0
 10
218.5235382097972
 20
189.7315835065049
 30
0.0
 10
218.123414733565
 20
189.4664245066319
 30
0.0
 10
217.8985931751959
 20
189.3310684403398
 30
0.0
 10
217.8053846473691
 20
189.2781320651417
 30
0.0
 10
217.7840264769
 20
189.2660020149
 30
0.0
 11
220.8424214874
 21
192.6618752523
 31
0.0
 11
220.3697440191
 21
191.7009511254
 31
0.0
 11
219.7193981399
 21
190.8224521864
 31
0.0
 11
219.0211288186
 21
190.1336727729
 31
0.0
 11
218.4485370045
 21
189.6873656799
 31
0.0
 11
218.0605911601
 21
189.4300526928
 31
0.0
 11
217.8480297764
 21
189.3025163033
 31
0.0
 11
217.7840264769
 21
189.2660020149
 31
0.0
  0
SPLINE
  5
39F
330
28
100
AcDbEntity
  8
0
  6
Continuous
 62
     0
100
AcDbSpline
210
0.0
220
0.0
230
1.0
 70
     8
 71
     3
 72
    12
 73
     8
 74
     6
 42
0.0000000001
 43
0.0000000001
 44
0.0000000001
 40
0.0
 40
0.0
 40
0.0
 40
0.0
 40
0.9992327013794915
 40
2.013239093322222
 40
3.04117500862556
 40
4.079865395896741
 40
5.124401299514074
 40
5.124401299514074
 40
5.124401299514074
 40
5.124401299514074
 10
218.5127746146
 20
196.9919916685
 30
0.0
 10
218.7852387854885
 20
196.7983038406052
 30
0.0
 10
219.3341955195954
 20
196.4080645034816
 30
0.0
 10
219.9833330629442
 20
195.6141415738797
 30
0.0
 10
220.4708128564863
 20
194.7060092166952
 30
0.0
 10
220.7834459616192
 20
193.7059608986619
 30
0.0
 10
220.8227147633583
 20
193.0105507047054
 30
0.0
 10
220.8424042582
 20
192.66186995
 30
0.0
 11
218.5127746146
 21
196.9919916685
 31
0.0
 11
219.3007950779
 21
196.3775897309
 31
0.0
 11
219.952559403
 21
195.600793601
 31
0.0
 11
220.4395825518
 21
194.6955529156
 31
0.0
 11
220.7405794497
 21
193.7014308969
 31
0.0
 11
220.8424042582
 21
192.66186995
 31
0.0
  0
SPLINE
  5
3A0
330
28
100
AcDbEntity
  8
0
  6
Continuous
 62
     0
100
AcDbSpline
210
0.0
220
0.0
230
1.0
 70
     8
 71
     3
 72
    14
 73
    10
 74
     8
 42
0.0000000001
 43
0.0000000001
 44
0.0000000001
 40
0.0
 40
0.0
 40
0.0
 40
0.0
 40
0.3670980613900673
 40
0.7729563199621368
 40
1.1517720229476
 40
1.435127952357748
 40
1.616211158807912
 40
1.712297012751551
 40
1.74098102728836
 40
1.74098102728836
 40
1.74098102728836
 40
1.74098102728836
 10
218.5127746146
 20
196.9919916685
 30
0.0
 10
218.3904074522718
 20
196.9945276063312
 30
0.0
 10
218.1327529413238
 20
196.9998672400144
 30
0.0
 10
217.7500100190324
 20
197.0326302814485
 30
0.0
 10
217.3962906633526
 20
197.0730112695605
 30
0.0
 10
217.1178598444719
 20
197.1117349857341
 30
0.0
 10
216.9331981866425
 20
197.1402068040787
 30
0.0
 10
216.8325621759014
 20
197.1565341036695
 30
0.0
 10
216.7915424060817
 20
197.1633973203025
 30
0.0
 10
216.7821121511
 20
197.164975142
 30
0.0
 11
218.5127746146
 21
196.9919916685
 31
0.0
 11
218.145852452
 21
197.0033544705
 31
0.0
 11
217.7412585214
 21
197.0353650527
 31
0.0
 11
217.3648927865
 21
197.0783786601
 31
0.0
 11
217.0842190677
 21
197.1172739851
 31
0.0
 11
216.9052448479
 21
197.1448304055
 31
0.0
 11
216.8104046992
 21
197.1602523873
 31
0.0
 11
216.7821121511
 21
197.164975142
 31
0.0
  0
SPLINE
  5
3A1
330
28
100
AcDbEntity
  8
0
  6
Continuous
 62
     0
100
AcDbSpline
210
0.0
220
0.0
230
1.0
 70
     8
 71
     3
 72
    14
 73
    10
 74
     8
 42
0.0000000001
 43
0.0000000001
 44
0.0000000001
 40
0.0
 40
0.0
 40
0.0
 40
0.0
 40
1.277982262366917
 40
2.465109780506382
 40
3.559054731570678
 40
4.568842515611681
 40
5.478573063118232
 40
6.215862578143483
 40
6.68620464787421
 40
6.68620464787421
 40
6.68620464787421
 40
6.68620464787421
 10
250.0234523785
 20
187.0414130501
 30
0.0
 10
250.4041846763023
 20
187.23357392669
 30
0.0
 10
251.1385821235165
 20
187.6042345142913
 30
0.0
 10
252.2693098060851
 20
187.9775451759405
 30
0.0
 10
253.3483223972911
 20
188.1903481597585
 30
0.0
 10
254.3561409387758
 20
188.238534819262
 30
0.0
 10
255.2392468113366
 20
188.1358358446648
 30
0.0
 10
255.9232326798527
 20
187.9458837264565
 30
0.0
 10
256.2884591534184
 20
187.7757463307391
 30
0.0
 10
256.4307056611
 20
187.7094821026
 30
0.0
 11
250.0234523785
 21
187.0414130501
 31
0.0
 11
251.1787594952
 21
187.587768364
 31
0.0
 11
252.3052018672
 21
187.9624673457
 31
0.0
 11
253.3796459649
 21
188.1681015765
 31
0.0
 11
254.3885175874
 21
188.211106438
 31
0.0
 11
255.2918634186
 21
188.1035147175
 31
0.0
 11
256.0001916267
 21
187.8989004986
 31
0.0
 11
256.4307056611
 21
187.7094821026
 31
0.0
  0
SPLINE
  5
3A3
330
28
100
AcDbEntity
  8
0
  6
Continuous
 62
     0
100
AcDbSpline
210
0.0
220
0.0
230
1.0
 70
     8
 71
     3
 72
    24
 73
    20
 74
    18
 42
0.0000000001
 43
0.0000000001
 44
0.0000000001
 40
0.0
 40
0.0
 40
0.0
 40
0.0
 40
1.850252059684504
 40
3.509790218200223
 40
4.993777437583503
 40
6.319504317933787
 40
7.465182413612945
 40
8.449822922370242
 40
9.322033271154771
 40
10.15064461481532
 40
10.99971125109591
 40
11.89467079924819
 40
12.83621767729279
 40
13.75463584123212
 40
14.55481466159306
 40
15.23395719253832
 40
15.81913809944614
 40
16.33685149942464
 40
16.93618502416356
 40
16.93618502416356
 40
16.93618502416356
 40
16.93618502416356
 10
278.3137768768
 20
166.609297731
 30
0.0
 10
278.1012233876712
 20
167.188518625911
 30
0.0
 10
277.6980252649702
 20
168.2872574817847
 30
0.0
 10
277.0050708385405
 20
169.8019511053458
 30
0.0
 10
276.357679884029
 20
171.1434610387559
 30
0.0
 10
275.7858209922746
 20
172.3315695911028
 30
0.0
 10
275.3323220741632
 20
173.3913622698233
 30
0.0
 10
275.0400507646272
 20
174.3527051656557
 30
0.0
 10
274.9574988715893
 20
175.2526066151854
 30
0.0
 10
275.0922916168703
 20
176.0993719314606
 30
0.0
 10
275.3870267351787
 20
176.9079966826091
 30
0.0
 10
275.7886457999635
 20
177.7091718755099
 30
0.0
 10
276.2521036181105
 20
178.5022938100022
 30
0.0
 10
276.7224780221105
 20
179.2539999515514
 30
0.0
 10
277.1512773581854
 20
179.9284743514687
 30
0.0
 10
277.516390439382
 20
180.5118251407594
 30
0.0
 10
277.8231135300664
 20
181.0205444146546
 30
0.0
 10
278.1058249743517
 20
181.5126276075628
 30
0.0
 10
278.2787381344029
 20
181.8424315120705
 30
0.0
 10
278.3715119036996
 20
182.0193824817993
 30
0.0
 11
278.3137768768
 21
166.609297731
 31
0.0
 11
277.6528186528
 21
168.337466389
 31
0.0
 11
276.9753745264
 21
169.852437133
 31
0.0
 11
276.3349725836
 21
171.1911318028
 31
0.0
 11
275.7692896894
 21
172.3901124634
 31
0.0
 11
275.3320641067
 21
173.4490799269
 31
0.0
 11
275.063881198
 21
174.3964947563
 31
0.0
 11
274.993552717
 21
175.2658651016
 31
0.0
 11
275.1164625718
 21
176.0853099908
 31
0.0
 11
275.3962290318
 21
176.8869613369
 31
0.0
 11
275.7898265526
 21
177.6907234811
 31
0.0
 11
276.2600907014
 21
178.5064208232
 31
0.0
 11
276.7443728985
 21
179.2867814305
 31
0.0
 11
277.1720650081
 21
179.9630695377
 31
0.0
 11
277.531281022
 21
180.5394361161
 31
0.0
 11
277.832851825
 21
181.040925642
 31
0.0
 11
278.0895606973
 21
181.4905118066
 31
0.0
 11
278.3715119036996
 21
182.0193824817993
 31
0.0
  0
SPLINE
  5
3A4
330
28
100
AcDbEntity
  8
0
  6
Continuous
 62
     0
100
AcDbSpline
210
0.0
220
0.0
230
1.0
 70
     8
 71
     3
 72
    24
 73
    20
 74
    18
 42
0.0000000001
 43
0.0000000001
 44
0.0000000001
 40
0.0
 40
0.0
 40
0.0
 40
0.0
 40
1.715845935578264
 40
3.287877316029517
 40
4.715931568448409
 40
6.000321271374537
 40
7.103208488006489
 40
8.032113208189639
 40
8.845180225302922
 40
9.645732100080886
 40
10.52052395350365
 40
11.49528097874777
 40
12.56476761328672
 40
13.64252548357996
 40
14.6059958972586
 40
15.44119715818507
 40
16.17386160636084
 40
16.83248598023188
 40
17.44732069918442
 40
17.44732069918442
 40
17.44732069918442
 40
17.44732069918442
 10
280.0458276844
 20
167.8006096032
 30
0.0
 10
279.760480716219
 20
168.2967462473633
 30
0.0
 10
279.2137032903283
 20
169.2474355745175
 30
0.0
 10
278.2932061077761
 20
170.5238727894883
 30
0.0
 10
277.4343543383712
 20
171.6644073683978
 30
0.0
 10
276.6769667045073
 20
172.6864826893577
 30
0.0
 10
276.0760031979199
 20
173.6156101545617
 30
0.0
 10
275.6817767995985
 20
174.4864277340205
 30
0.0
 10
275.5699977688626
 20
175.3436420144601
 30
0.0
 10
275.7605101399787
 20
176.1646719686719
 30
0.0
 10
276.1570925495834
 20
176.9580820783763
 30
0.0
 10
276.691393850678
 20
177.7723477631201
 30
0.0
 10
277.307604357708
 20
178.6111067474491
 30
0.0
 10
277.9322513678633
 20
179.4387254430337
 30
0.0
 10
278.5015469365172
 20
180.2102838714484
 30
0.0
 10
278.9867707677554
 20
180.9007410700359
 30
0.0
 10
279.394494505022
 20
181.52097185215
 30
0.0
 10
279.7442832948781
 20
182.0911945142613
 30
0.0
 10
279.9476438324871
 20
182.4638629822527
 30
0.0
 10
280.0458276844
 20
182.6437898554999
 30
0.0
 11
280.0458276844
 21
167.8006096032
 31
0.0
 11
279.1639192291
 21
169.2724671884
 31
0.0
 11
278.2607640451
 21
170.5591658224
 31
0.0
 11
277.4070182019
 21
171.7039177532
 31
0.0
 11
276.6528841649
 21
172.7435998023
 31
0.0
 11
276.070004741
 21
173.6798752905
 31
0.0
 11
275.7125890712
 21
174.5372655273
 31
0.0
 11
275.6188244831
 21
175.344907884
 31
0.0
 11
275.7827853779
 21
176.1284894874
 31
0.0
 11
276.1559492029
 21
176.9196971381
 31
0.0
 11
276.6807179711
 21
177.7411403791
 31
0.0
 11
277.3077979647
 21
178.6074961623
 31
0.0
 11
277.9535577069
 21
179.4703729683
 31
0.0
 11
278.523718095
 21
180.2470275697
 31
0.0
 11
279.0026160135
 21
180.9312920872
 31
0.0
 11
279.4046718433
 21
181.5437856001
 31
0.0
 11
279.7469216634
 21
182.106503226
 31
0.0
 11
280.0458276844
 21
182.6437898554999
 31
0.0
  0
SPLINE
  5
3A8
330
28
100
AcDbEntity
  8
0
  6
Continuous
 62
     0
100
AcDbSpline
210
0.0
220
0.0
230
1.0
 70
     8
 71
     3
 72
     9
 73
     5
 74
     3
 42
0.0000000001
 43
0.0000000001
 44
0.0000000001
 40
0.0
 40
0.0
 40
0.0
 40
0.0
 40
0.0614693906088367
 40
0.1229190861537604
 40
0.1229190861537604
 40
0.1229190861537604
 40
0.1229190861537604
 10
280.0458276844
 20
182.6437898554999
 30
0.0
 10
280.0554195627753
 20
182.6618958871694
 30
0.0
 10
280.0746002462458
 20
182.6981021492558
 30
0.0
 10
280.0939095875802
 20
182.7342399600468
 30
0.0
 10
280.1035627113
 20
182.7523059703
 30
0.0
 11
280.0458276844
 21
182.6437898554999
 31
0.0
 11
280.0746354943001
 21
182.6980908322
 31
0.0
 11
280.1035627113
 21
182.7523059703
 31
0.0
  0
SPLINE
  5
3AB
330
28
100
AcDbEntity
  8
0
  6
Continuous
 62
     0
100
AcDbSpline
210
0.0
220
0.0
230
1.0
 70
     8
 71
     3
 72
    14
 73
    10
 74
     8
 42
0.0000000001
 43
0.0000000001
 44
0.0000000001
 40
0.0
 40
0.0
 40
0.0
 40
0.0
 40
0.9158282073376932
 40
1.771177000180634
 40
2.55838978608579
 40
3.274812986299741
 40
3.899221996676942
 40
4.378686969777343
 40
4.66632521151874
 40
4.66632521151874
 40
4.66632521151874
 40
4.66632521151874
 10
253.896444695
 20
181.645226729
 30
0.0
 10
254.1492642201671
 20
181.8165451674022
 30
0.0
 10
254.6382075881315
 20
182.1478685262741
 30
0.0
 10
255.3836865142716
 20
182.5640821147747
 30
0.0
 10
256.093729064278
 20
182.9030350874382
 30
0.0
 10
256.7549653055955
 20
183.1619795089867
 30
0.0
 10
257.3361633127731
 20
183.3379501802712
 30
0.0
 10
257.78993123006
 20
183.4380756176249
 30
0.0
 10
258.0438676528995
 20
183.4687689036118
 30
0.0
 10
258.1390853821
 20
183.480277867
 30
0.0
 11
253.896444695
 21
181.645226729
 31
0.0
 11
254.6621629675
 21
182.1476377485
 31
0.0
 11
255.4078203775
 21
182.566704073
 31
0.0
 11
256.1190463743
 21
182.9041378469
 31
0.0
 11
256.7868341328
 21
183.1636021246
 31
0.0
 11
257.3848472406
 21
183.3432321197
 31
0.0
 11
257.8539645614
 21
183.4423058284
 31
0.0
 11
258.1390853821
 21
183.480277867
 31
0.0
  0
SPLINE
  5
3AC
330
28
100
AcDbEntity
  8
0
  6
Continuous
 62
     0
100
AcDbSpline
210
0.0
220
0.0
230
1.0
 70
     8
 71
     3
 72
    10
 73
     6
 74
     4
 42
0.0000000001
 43
0.0000000001
 44
0.0000000001
 40
0.0
 40
0.0
 40
0.0
 40
0.0
 40
0.0937056407055674
 40
0.1501212489705628
 40
0.1688792812267172
 40
0.1688792812267172
 40
0.1688792812267172
 40
0.1688792812267172
 10
256.4307056611
 20
187.7094821026
 30
0.0
 10
256.4585890214476
 20
187.6954051051924
 30
0.0
 10
256.5032595967659
 20
187.6728530323752
 30
0.0
 10
256.5536614928705
 20
187.6477813993396
 30
0.0
 10
256.576121609996
 20
187.6366710304993
 30
0.0
 10
256.5817260692
 20
187.633898667
 30
0.0
 11
256.4307056611
 21
187.7094821026
 31
0.0
 11
256.5144075623
 21
187.6673544533
 31
0.0
 11
256.5649142233
 21
187.64221886
 31
0.0
 11
256.5817260692
 21
187.633898667
 31
0.0
  0
SPLINE
  5
3AE
330
28
100
AcDbEntity
  8
0
  6
Continuous
 62
     0
100
AcDbSpline
210
0.0
220
0.0
230
1.0
 70
     8
 71
     3
 72
    10
 73
     6
 74
     4
 42
0.0000000001
 43
0.0000000001
 44
0.0000000001
 40
0.0
 40
0.0
 40
0.0
 40
0.0
 40
0.1213750784452526
 40
0.1945726857655344
 40
0.2189170481928214
 40
0.2189170481928214
 40
0.2189170481928214
 40
0.2189170481928214
 10
258.1390853821
 20
183.480277867
 30
0.0
 10
258.1760107707625
 20
183.4637431150746
 30
0.0
 10
258.2352047349355
 20
183.437236758648
 30
0.0
 10
258.3019179484233
 20
183.4076677090201
 30
0.0
 10
258.331661928955
 20
183.394535495811
 30
0.0
 10
258.3390853821
 20
183.3912579799
 30
0.0
 11
258.1390853821
 21
183.480277867
 31
0.0
 11
258.2499006558
 21
183.4307613568
 31
0.0
 11
258.3168161967
 21
183.4010931903
 31
0.0
 11
258.3390853821
 21
183.3912579799
 31
0.0
  0
SPLINE
  5
3AF
330
28
100
AcDbEntity
  8
0
  6
Continuous
 62
     0
100
AcDbSpline
210
0.0
220
0.0
230
1.0
 70
     8
 71
     3
 72
    14
 73
    10
 74
     8
 42
0.0000000001
 43
0.0000000001
 44
0.0000000001
 40
0.0
 40
0.0
 40
0.0
 40
0.0
 40
0.1600810181792556
 40
0.6552633097180438
 40
1.507973124908087
 40
2.736872604334767
 40
4.355666866311061
 40
6.380550855282843
 40
8.826265229071693
 40
8.826265229071693
 40
8.826265229071693
 40
8.826265229071693
 10
213.5817260692
 20
187.5486172928
 30
0.0
 10
213.6299952441389
 20
187.5258705752144
 30
0.0
 10
213.8275765669438
 20
187.4327609134953
 30
0.0
 10
214.2830771354484
 20
187.2201893470382
 30
0.0
 10
215.0638864337839
 20
186.8622594058309
 30
0.0
 10
216.1908520604442
 20
186.360749007481
 30
0.0
 10
217.6856523683621
 20
185.7253573923214
 30
0.0
 10
219.5695694946969
 20
184.9686533857575
 30
0.0
 10
220.9735958518716
 20
184.4688038682593
 30
0.0
 10
221.7416915662
 20
184.1953529674
 30
0.0
 11
213.5817260692
 21
187.5486172928
 31
0.0
 11
213.7265543917
 21
187.4804213297
 31
0.0
 11
214.1752555112
 21
187.2709629634
 31
0.0
 11
214.9504314459
 21
186.9156936301
 31
0.0
 11
216.0732893121
 21
186.416309867
 31
0.0
 11
217.5629418899
 21
185.7827247819
 31
0.0
 11
219.4436674031
 21
185.0323737222
 31
0.0
 11
221.7416915662
 21
184.1953529674
 31
0.0
  0
SPLINE
  5
3B0
330
28
100
AcDbEntity
  8
0
  6
Continuous
 62
     0
100
AcDbSpline
210
0.0
220
0.0
230
1.0
 70
     8
 71
     3
 72
    11
 73
     7
 74
     5
 42
0.0000000001
 43
0.0000000001
 44
0.0000000001
 40
0.0
 40
0.0
 40
0.0
 40
0.0
 40
1.024595040543949
 40
2.320688241326681
 40
3.892252722091886
 40
5.740038374036624
 40
5.740038374036624
 40
5.740038374036624
 40
5.740038374036624
 10
220.842406825
 20
192.66186995
 30
0.0
 10
221.1250580391106
 20
192.4701401196427
 30
0.0
 10
221.7652576526427
 20
192.0358757076407
 30
0.0
 10
222.857296522331
 20
191.3351626021145
 30
0.0
 10
224.2000874490232
 20
190.517256623441
 30
0.0
 10
225.2019404415178
 20
189.9733748838842
 30
0.0
 10
225.743332669
 20
189.6794661481
 30
0.0
 11
220.842406825
 21
192.66186995
 31
0.0
 11
221.6924870453
 21
192.0898921391
 31
0.0
 11
222.7824669857
 21
191.3886066661
 31
0.0
 11
224.1273744918
 21
190.5755637907
 31
0.0
 11
225.743332669
 21
189.6794661481
 31
0.0
  0
SPLINE
  5
3B2
330
28
100
AcDbEntity
  8
0
  6
Continuous
 62
     0
100
AcDbSpline
210
0.0
220
0.0
230
1.0
 70
     8
 71
     3
 72
    12
 73
     8
 74
     6
 42
0.0000000001
 43
0.0000000001
 44
0.0000000001
 40
0.0
 40
0.0
 40
0.0
 40
0.0
 40
1.203423913252704
 40
2.50998661679185
 40
3.931653767897132
 40
5.478444760537652
 40
7.160568159251841
 40
7.160568159251841
 40
7.160568159251841
 40
7.160568159251841
 10
225.743332669
 20
189.6794661481
 30
0.0
 10
226.0928265005629
 20
189.4819621375477
 30
0.0
 10
226.8217673419519
 20
189.0700271429129
 30
0.0
 10
227.8771964513205
 20
188.2875508614297
 30
0.0
 10
228.9425910343982
 20
187.3394922585957
 30
0.0
 10
230.0047726094011
 20
186.2052439558304
 30
0.0
 10
230.6411754848333
 20
185.3362383808254
 30
0.0
 10
230.9727135927
 20
184.8835244237
 30
0.0
 11
225.743332669
 21
189.6794661481
 31
0.0
 11
226.7791365154
 21
189.066816569
 31
0.0
 11
227.8342646568
 21
188.29622543
 31
0.0
 11
228.8972352096
 21
187.3521750646
 31
0.0
 11
229.9506684137
 21
186.2195494162
 31
0.0
 11
230.9727135927
 21
184.8835244237
 31
0.0
  0
SPLINE
  5
3B4
330
28
100
AcDbEntity
  8
0
  6
Continuous
 62
     0
100
AcDbSpline
210
0.0
220
0.0
230
1.0
 70
     8
 71
     3
 72
    11
 73
     7
 74
     5
 42
0.0000000001
 43
0.0000000001
 44
0.0000000001
 40
0.0
 40
0.0
 40
0.0
 40
0.0
 40
1.074288220563773
 40
2.246037054560644
 40
3.527917836357711
 40
4.929598873978982
 40
4.929598873978982
 40
4.929598873978982
 40
4.929598873978982
 10
221.7416915662
 20
184.1953529674
 30
0.0
 10
222.0320624954005
 20
183.985414135005
 30
0.0
 10
222.6391471250813
 20
183.5464905875581
 30
0.0
 10
223.5154445772581
 20
182.7596670391461
 30
0.0
 10
224.4034546039027
 20
181.8267723598906
 30
0.0
 10
224.9295557569129
 20
181.1021391648185
 30
0.0
 10
225.2043495048
 20
180.7236479367
 30
0.0
 11
221.7416915662
 21
184.1953529674
 31
0.0
 11
222.6015502917
 21
183.5513512958
 31
0.0
 11
223.4779856977
 21
182.77362621
 31
0.0
 11
224.3548647867
 21
181.8385853542
 31
0.0
 11
225.2043495048
 21
180.7236479367
 31
0.0
  0
SPLINE
  5
3B5
330
28
100
AcDbEntity
  8
0
  6
Continuous
 62
     0
100
AcDbSpline
210
0.0
220
0.0
230
1.0
 70
     8
 71
     3
 72
    16
 73
    12
 74
    10
 42
0.0000000001
 43
0.0000000001
 44
0.0000000001
 40
0.0
 40
0.0
 40
0.0
 40
0.0
 40
2.255316847785002
 40
4.40341408431478
 40
6.486856363188995
 40
8.553125705555361
 40
10.64903789604398
 40
12.82153550989337
 40
15.10633685831891
 40
17.48304533067542
 40
19.79166950284549
 40
19.79166950284549
 40
19.79166950284549
 40
19.79166950284549
 10
230.9727135927
 20
184.8835244237
 30
0.0
 10
231.6901382236684
 20
184.6570443076328
 30
0.0
 10
233.0908805306945
 20
184.2148511258247
 30
0.0
 10
235.2205253166208
 20
183.8125561151734
 30
0.0
 10
237.3140935172785
 20
183.620879177681
 30
0.0
 10
239.3997588715582
 20
183.6501318829621
 30
0.0
 10
241.5003554487612
 20
183.8973235980314
 30
0.0
 10
243.6370015197626
 20
184.3687525053063
 30
0.0
 10
245.8072380691737
 20
185.0699669784374
 30
0.0
 10
247.9561483795349
 20
185.9620046219872
 30
0.0
 10
249.3410592627974
 20
186.6851128249061
 30
0.0
 10
250.0234523785
 20
187.0414130501
 30
0.0
 11
230.9727135927
 21
184.8835244237
 31
0.0
 11
233.136767149
 21
184.2484446733
 31
0.0
 11
235.2462514332
 21
183.8429846971
 31
0.0
 11
237.3213841417
 21
183.6570923317
 31
0.0
 11
239.3874620758
 21
183.6852164393
 31
0.0
 11
241.4692404951
 21
183.9282113429
 31
0.0
 11
243.5914045902
 21
184.3931472908
 31
0.0
 11
245.7676797063
 21
185.0889517323
 31
0.0
 11
247.9618055248
 21
186.002491581
 31
0.0
 11
250.0234523785
 21
187.0414130501
 31
0.0
  0
SPLINE
  5
3B7
330
28
100
AcDbEntity
  8
0
  6
Continuous
 62
     0
100
AcDbSpline
210
0.0
220
0.0
230
1.0
 70
     8
 71
     3
 72
    16
 73
    12
 74
    10
 42
0.0000000001
 43
0.0000000001
 44
0.0000000001
 40
0.0
 40
0.0
 40
0.0
 40
0.0
 40
2.917504632558409
 40
5.732895379356251
 40
8.485722473031919
 40
11.22196979904866
 40
13.98676691622358
 40
16.82540112255183
 40
19.76887112182007
 40
22.77898445114501
 40
25.65175356951674
 40
25.65175356951674
 40
25.65175356951674
 40
25.65175356951674
 10
228.6670074435
 20
179.789863017
 30
0.0
 10
229.6200705510537
 20
179.5947564641255
 30
0.0
 10
231.4928391576757
 20
179.2113721695564
 30
0.0
 10
234.3034968775267
 20
178.8682727989418
 30
0.0
 10
237.0684532055853
 20
178.7042040629764
 30
0.0
 10
239.8218636396466
 20
178.7292654920072
 30
0.0
 10
242.5956907572973
 20
178.9405472131101
 30
0.0
 10
245.4181422135631
 20
179.3436367024144
 30
0.0
 10
248.2882730837866
 20
179.9444360475871
 30
0.0
 10
251.1316723453821
 20
180.7086345003451
 30
0.0
 10
252.9893103069562
 20
181.3379265571414
 30
0.0
 10
253.896444695
 20
181.645226729
 30
0.0
 11
228.6670074435
 21
179.789863017
 31
0.0
 11
231.5329542873
 21
179.2438026087
 31
0.0
 11
234.3266765735
 21
178.8951755232
 31
0.0
 11
237.0748597646
 21
178.7353438748
 31
0.0
 11
239.8110002211
 21
178.7595271632
 31
0.0
 11
242.5678921215
 21
178.9684533431
 31
0.0
 11
245.3782390669
 21
179.3681960151
 31
0.0
 11
248.2602733962
 21
179.9664382414
 31
0.0
 11
251.1660930057
 21
180.7519283129
 31
0.0
 11
253.896444695
 21
181.645226729
 31
0.0
  0
SPLINE
  5
3B8
330
28
100
AcDbEntity
  8
0
  6
Continuous
 62
     0
100
AcDbSpline
210
0.0
220
0.0
230
1.0
 70
     8
 71
     3
 72
    12
 73
     8
 74
     6
 42
0.0000000001
 43
0.0000000001
 44
0.0000000001
 40
0.0
 40
0.0
 40
0.0
 40
0.0
 40
0.4233399242281396
 40
0.8589081697009305
 40
1.301492262418837
 40
1.744776779172602
 40
2.182338713886164
 40
2.182338713886164
 40
2.182338713886164
 40
2.182338713886164
 10
278.3715119037
 20
166.4957788466
 30
0.0
 10
278.4439065947478
 20
166.6174437512359
 30
0.0
 10
278.5907871227237
 20
166.8642878936783
 30
0.0
 10
278.9021606984833
 20
167.1727825309696
 30
0.0
 10
279.2657751452047
 20
167.4236145547573
 30
0.0
 10
279.6707863380219
 20
167.6087675853542
 30
0.0
 10
279.9599300788208
 20
167.6644387467201
 30
0.0
 10
280.1035627113
 20
167.6920934884
 30
0.0
 11
278.3715119037
 21
166.4957788466
 31
0.0
 11
278.6029336655
 21
166.8502653197
 31
0.0
 11
278.9082430398
 21
167.160919279
 31
0.0
 11
279.272407269
 21
167.4124448110999
 31
0.0
 11
279.6774957124
 21
167.5924573546
 31
0.0
 11
280.1035627113
 21
167.6920934884
 31
0.0
  0
SPLINE
  5
3B9
330
28
100
AcDbEntity
  8
0
  6
Continuous
 62
     0
100
AcDbSpline
210
0.0
220
0.0
230
1.0
 70
     8
 71
     3
 72
     9
 73
     5
 74
     3
 42
0.0000000001
 43
0.0000000001
 44
0.0000000001
 40
0.0
 40
0.0
 40
0.0
 40
0.0
 40
0.0614497076214298
 40
0.122919086153491
 40
0.122919086153491
 40
0.122919086153491
 40
0.122919086153491
 10
280.1035627113
 20
167.6920934884
 30
0.0
 10
280.0939095857214
 20
167.7101595022241
 30
0.0
 10
280.0746002444635
 20
167.7462973130558
 30
0.0
 10
280.0554195609249
 20
167.7825035751059
 30
0.0
 10
280.0458276844
 20
167.8006096032
 30
0.0
 11
280.1035627113
 21
167.6920934884
 31
0.0
 11
280.0746354887
 21
167.7463086372
 31
0.0
 11
280.0458276844
 21
167.8006096032
 31
0.0
  0
SPLINE
  5
3BA
330
28
100
AcDbEntity
  8
0
  6
Continuous
 62
     0
100
AcDbSpline
210
0.0
220
0.0
230
1.0
 70
     8
 71
     3
 72
     9
 73
     5
 74
     3
 42
0.0000000001
 43
0.0000000001
 44
0.0000000001
 40
0.0
 40
0.0
 40
0.0
 40
0.0
 40
0.0635666288982263
 40
0.1272596845014502
 40
0.1272596845014502
 40
0.1272596845014502
 40
0.1272596845014502
 10
278.3715119037
 20
166.4958884956
 30
0.0
 10
278.361854824602
 20
166.5147487888686
 30
0.0
 10
278.3425214595877
 20
166.5525068863574
 30
0.0
 10
278.3233647481695
 20
166.5903549160208
 30
0.0
 10
278.3137768768
 20
166.609297731
 30
0.0
 11
278.3715119037
 21
166.4958884956
 31
0.0
 11
278.3425847421
 21
166.5524918138
 31
0.0
 11
278.3137768768
 21
166.609297731
 31
0.0
  0
SPLINE
  5
3BB
330
28
100
AcDbEntity
  8
0
  6
Continuous
 62
     0
100
AcDbSpline
210
0.0
220
0.0
230
1.0
 70
     8
 71
     3
 72
     9
 73
     5
 74
     3
 42
0.0000000001
 43
0.0000000001
 44
0.0000000001
 40
0.0
 40
0.0
 40
0.0
 40
0.0
 40
0.112196957218827
 40
0.224580380950473
 40
0.224580380950473
 40
0.224580380950473
 40
0.224580380950473
 10
280.0458276844
 20
163.391797545
 30
0.0
 10
280.0554036799514
 20
163.427949797002
 30
0.0
 10
280.0745715859467
 20
163.5003143844927
 30
0.0
 10
280.0938936552182
 20
163.5726379614856
 30
0.0
 10
280.1035627113
 20
163.6088297747
 30
0.0
 11
280.0458276844
 21
163.391797545
 31
0.0
 11
280.0745941479
 21
163.5002440654
 31
0.0
 11
280.1035627113
 21
163.6088297747
 31
0.0
  0
SPLINE
  5
3BC
330
28
100
AcDbEntity
  8
0
  6
Continuous
 62
     0
100
AcDbSpline
210
0.0
220
0.0
230
1.0
 70
     8
 71
     3
 72
     9
 73
     5
 74
     3
 42
0.0000000001
 43
0.0000000001
 44
0.0000000001
 40
0.0
 40
0.0
 40
0.0
 40
0.0
 40
0.1147525060335582
 40
0.2296913730297299
 40
0.2296913730297299
 40
0.2296913730297299
 40
0.2296913730297299
 10
278.3137768768
 20
163.8499203923
 30
0.0
 10
278.3233531890929
 20
163.8869531010838
 30
0.0
 10
278.3425213658513
 20
163.9610786607039
 30
0.0
 10
278.3618431654788
 20
164.0351643250068
 30
0.0
 10
278.3715119037
 20
164.072237212
 30
0.0
 11
278.3137768768
 21
163.8499203923
 31
0.0
 11
278.3425441571
 21
163.961008561
 31
0.0
 11
278.3715119037
 21
164.072237212
 31
0.0
  0
SPLINE
  5
3BD
330
28
100
AcDbEntity
  8
0
  6
Continuous
 62
     0
100
AcDbSpline
210
0.0
220
0.0
230
1.0
 70
     8
 71
     3
 72
    21
 73
    17
 74
    15
 42
0.0000000001
 43
0.0000000001
 44
0.0000000001
 40
0.0
 40
0.0
 40
0.0
 40
0.0
 40
2.346377691552356
 40
4.868761714934498
 40
7.393494485433992
 40
9.762271580514017
 40
11.90616868441472
 40
13.93899325954494
 40
15.94544388499802
 40
17.95703522373903
 40
20.02266171457767
 40
22.20725901569361
 40
24.51369152733924
 40
26.86907704934538
 40
29.1507489802835
 40
31.08062641422569
 40
31.08062641422569
 40
31.08062641422569
 40
31.08062641422569
 10
280.0458276844
 20
133.7054370406
 30
0.0
 10
279.8335840262459
 20
134.4583664070009
 30
0.0
 10
279.3931759023625
 20
136.0207038287983
 30
0.0
 10
278.5870955938615
 20
138.3508177626494
 30
0.0
 10
277.7254123928333
 20
140.6675733691531
 30
0.0
 10
276.8974083355689
 20
142.8624952506054
 30
0.0
 10
276.1911902830901
 20
144.9275102237439
 30
0.0
 10
275.6888612902234
 20
146.9319340726131
 30
0.0
 10
275.5502879888056
 20
148.9598700738245
 30
0.0
 10
275.8598026173762
 20
150.9763159102494
 30
0.0
 10
276.4538821854655
 20
152.9795740300274
 30
0.0
 10
277.1961728863977
 20
155.0355657760638
 30
0.0
 10
278.005098167882
 20
157.1695160967995
 30
0.0
 10
278.7985603852869
 20
159.3437553628237
 30
0.0
 10
279.4958131421574
 20
161.4196395349467
 30
0.0
 10
279.8729915197457
 20
162.7720680644663
 30
0.0
 10
280.0458276844
 20
163.391797545
 30
0.0
 11
280.0458276844
 21
133.7054370406
 31
0.0
 11
279.3880984593
 21
135.9577426455
 31
0.0
 11
278.5783150286
 21
138.3466068017
 31
0.0
 11
277.7053849907
 21
140.7156295351
 31
0.0
 11
276.8830899817
 21
142.9371010844
 31
0.0
 11
276.2085360164
 21
144.9721125684
 31
0.0
 11
275.7464032107
 21
146.9517107658
 31
0.0
 11
275.6243266904
 21
148.9544442567
 31
0.0
 11
275.9007190962
 21
150.9469569799
 31
0.0
 11
276.4610049941
 21
152.9351452286
 31
0.0
 11
277.1876306976
 21
154.9953589202
 31
0.0
 11
277.99488804
 21
157.1559066549
 31
0.0
 11
278.7972954146
 21
159.3704005841
 31
0.0
 11
279.5126231255
 21
161.537041548
 31
0.0
 11
280.0458276844
 21
163.391797545
 31
0.0
  0
SPLINE
  5
3BE
330
28
100
AcDbEntity
  8
0
  6
Continuous
 62
     0
100
AcDbSpline
210
0.0
220
0.0
230
1.0
 70
     8
 71
     3
 72
    21
 73
    17
 74
    15
 42
0.0000000001
 43
0.0000000001
 44
0.0000000001
 40
0.0
 40
0.0
 40
0.0
 40
0.0
 40
2.268174545025231
 40
4.741660992972649
 40
7.255027368285861
 40
9.649600154126375
 40
11.85352337534446
 40
13.98406954112817
 40
16.11998126954281
 40
18.25114664317525
 40
20.39864267763099
 40
22.62879536763798
 40
24.94727532920625
 40
27.28164999023021
 40
29.51174138596988
 40
31.37680141871151
 40
31.37680141871151
 40
31.37680141871151
 40
31.37680141871151
 10
278.3137768768
 20
133.2473141933
 30
0.0
 10
278.1539425314138
 20
133.9863527756951
 30
0.0
 10
277.8198058652046
 20
135.5313266517712
 30
0.0
 10
277.2148514692975
 20
137.8732798615074
 30
0.0
 10
276.5684910990121
 20
140.2472333015719
 30
0.0
 10
275.9477193817777
 20
142.5352119620988
 30
0.0
 10
275.4181427033996
 20
144.7153057890168
 30
0.0
 10
275.0444549555961
 20
146.8425555943217
 30
0.0
 10
274.9427521432763
 20
148.9808968097725
 30
0.0
 10
275.1707423813351
 20
151.1133626243054
 30
0.0
 10
275.6146978381895
 20
153.2385201948908
 30
0.0
 10
276.1717225366421
 20
155.4002004320885
 30
0.0
 10
276.778428370551
 20
157.6128636727405
 30
0.0
 10
277.3738308660269
 20
159.8285411653347
 30
0.0
 10
277.8976612692052
 20
161.9071166600569
 30
0.0
 10
278.1835666327886
 20
163.2419812921452
 30
0.0
 10
278.3137768768
 20
163.8499203923
 30
0.0
 11
278.3137768768
 21
133.2473141933
 31
0.0
 11
277.8202603348
 21
135.4611473373
 31
0.0
 11
277.2130465832
 21
137.858943548
 31
0.0
 11
276.5584479321
 21
140.285569012
 31
0.0
 11
275.9417850903
 21
142.5993766458
 31
0.0
 11
275.4358409833
 21
144.7444403105
 31
0.0
 11
275.089297495
 21
146.8466140843
 31
0.0
 11
274.9976729229
 21
148.9805596903
 31
0.0
 11
275.2048372104
 21
151.101632251
 31
0.0
 11
275.6248386162
 21
153.2076564762
 31
0.0
 11
276.1697976367
 21
155.3702014322
 31
0.0
 11
276.7751310036
 21
157.6082632828
 31
0.0
 11
277.376845045
 21
159.8637555285
 31
0.0
 11
277.9132445666
 21
162.0283763236
 31
0.0
 11
278.3137768768
 21
163.8499203923
 31
0.0
  0
SPLINE
  5
3BF
330
28
100
AcDbEntity
  8
0
  6
Continuous
 62
     0
100
AcDbSpline
210
0.0
220
0.0
230
1.0
 70
     8
 71
     3
 72
     9
 73
     5
 74
     3
 42
0.0000000001
 43
0.0000000001
 44
0.0000000001
 40
0.0
 40
0.0
 40
0.0
 40
0.0
 40
0.112383423731646
 40
0.224580380950473
 40
0.224580380950473
 40
0.224580380950473
 40
0.224580380950473
 10
280.1035627113
 20
133.4884048109
 30
0.0
 10
280.0938936552182
 20
133.5245966241144
 30
0.0
 10
280.0745715859467
 20
133.5969202011073
 30
0.0
 10
280.0554036799515
 20
133.6692847885979
 30
0.0
 10
280.0458276844
 20
133.7054370406
 30
0.0
 11
280.1035627113
 21
133.4884048109
 31
0.0
 11
280.0745941479
 21
133.5969905202
 31
0.0
 11
280.0458276844
 21
133.7054370406
 31
0.0
  0
SPLINE
  5
3C0
330
28
100
AcDbEntity
  8
0
  6
Continuous
 62
     0
100
AcDbSpline
210
0.0
220
0.0
230
1.0
 70
     8
 71
     3
 72
     9
 73
     5
 74
     3
 42
0.0000000001
 43
0.0000000001
 44
0.0000000001
 40
0.0
 40
0.0
 40
0.0
 40
0.0
 40
0.1149388669961717
 40
0.2296913730297299
 40
0.2296913730297299
 40
0.2296913730297299
 40
0.2296913730297299
 10
278.3715119037
 20
133.0249973736
 30
0.0
 10
278.3618431654788
 20
133.0620702605932
 30
0.0
 10
278.3425213658513
 20
133.1361559248961
 30
0.0
 10
278.3233531890929
 20
133.2102814845163
 30
0.0
 10
278.3137768768
 20
133.2473141933
 30
0.0
 11
278.3715119037
 21
133.0249973736
 31
0.0
 11
278.3425441571
 21
133.1362260246
 31
0.0
 11
278.3137768768
 21
133.2473141933
 31
0.0
  0
SPLINE
  5
3C2
330
28
100
AcDbEntity
  8
0
  6
Continuous
 62
     0
100
AcDbSpline
210
0.0
220
0.0
230
1.0
 70
     8
 71
     3
 72
     9
 73
     5
 74
     3
 42
0.0000000001
 43
0.0000000001
 44
0.0000000001
 40
0.0
 40
0.0
 40
0.0
 40
0.0
 40
0.0613813601104828
 40
0.1229190862379198
 40
0.1229190862379198
 40
0.1229190862379198
 40
0.1229190862379198
 10
280.0458276844
 20
129.2966249823
 30
0.0
 10
280.0554058115701
 20
129.3147050919911
 30
0.0
 10
280.0745864657214
 20
129.3509113695696
 30
0.0
 10
280.0938957749491
 20
129.3870491976161
 30
0.0
 10
280.1035627113
 20
129.4051410972
 30
0.0
 11
280.0458276844
 21
129.2966249823
 31
0.0
 11
280.0745941479
 21
129.3508482425
 31
0.0
 11
280.1035627113
 21
129.4051410972
 31
0.0
  0
SPLINE
  5
3C4
330
28
100
AcDbEntity
  8
0
  6
Continuous
 62
     0
100
AcDbSpline
210
0.0
220
0.0
230
1.0
 70
     8
 71
     3
 72
     9
 73
     5
 74
     3
 42
0.0000000001
 43
0.0000000001
 44
0.0000000001
 40
0.0
 40
0.0
 40
0.0
 40
0.0
 40
0.0636035276672729
 40
0.1273711643293823
 40
0.1273711643293823
 40
0.1273711643293823
 40
0.1273711643293823
 10
278.3137768768
 20
130.4879368546
 30
0.0
 10
278.3233554907154
 20
130.5068508892396
 30
0.0
 10
278.3425374331614
 20
130.5447277602651
 30
0.0
 10
278.3618454545008
 20
130.5825405173085
 30
0.0
 10
278.3715119037
 20
130.6014712554
 30
0.0
 11
278.3137768768
 21
130.4879368546
 31
0.0
 11
278.3425441571
 21
130.5446629713
 31
0.0
 11
278.3715119037
 21
130.6014712554
 31
0.0
  0
LINE
  5
9FB
330
28
100
AcDbEntity
  8
0
  6
Continuous
 62
     0
100
AcDbLine
 10
179.2471105971
 20
110.9557970005
 30
0.0
 11
176.5294191257999
 21
106.2943687173
 31
0.0
  0
LINE
  5
9FC
330
28
100
AcDbEntity
  8
0
  6
Continuous
 62
     0
100
AcDbLine
 10
176.5294191258
 20
106.2943687173
 30
0.0
 11
156.3421523022
 21
106.2943687173
 31
0.0
  0
LINE
  5
9FE
330
28
100
AcDbEntity
  8
0
  6
Continuous
 62
     0
100
AcDbLine
 10
151.1459998795
 20
111.2486172928
 30
0.0
 11
150.3007004179
 21
111.2486172928
 31
0.0
  0
LINE
  5
9FF
330
28
100
AcDbEntity
  8
0
  6
Continuous
 62
     0
100
AcDbLine
 10
154.6101014946
 20
107.2932871233
 30
0.0
 11
152.8780506871
 21
110.2486172928
 31
0.0
  0
SPLINE
  5
A01
330
28
100
AcDbEntity
  8
0
  6
Continuous
 62
     0
100
AcDbSpline
210
0.0
220
0.0
230
1.0
 70
     8
 71
     3
 72
     9
 73
     5
 74
     3
 42
0.0000000001
 43
0.0000000001
 44
0.0000000001
 40
0.0
 40
0.0
 40
0.0
 40
0.0
 40
2.258458825982205
 40
4.378650200687023
 40
4.378650200687023
 40
4.378650200687023
 40
4.378650200687023
 10
156.3421523022
 20
106.5601547218
 30
0.0
 10
155.9997119879378
 20
107.231618046674
 30
0.0
 10
155.3357962532265
 20
108.5334363434654
 30
0.0
 10
154.8468531910461
 20
109.9104141747814
 30
0.0
 10
154.6101014946
 20
110.5771622335
 30
0.0
 11
156.3421523022
 21
106.5601547218
 31
0.0
 11
155.3613807582
 21
108.5945399968
 31
0.0
 11
154.6101014946
 21
110.5771622335
 31
0.0
  0
LINE
  5
A02
330
28
100
AcDbEntity
  8
0
  6
Continuous
 62
     0
100
AcDbLine
 10
152.8780506871
 20
111.3376472434
 30
0.0
 11
152.8780506871
 21
110.2486172928
 31
0.0
  0
LINE
  5
A03
330
28
100
AcDbEntity
  8
0
  6
Continuous
 62
     0
100
AcDbLine
 10
156.3421523022
 20
106.2943687173
 30
0.0
 11
156.3421523022
 21
106.5601547218
 31
0.0
  0
LWPOLYLINE
  5
A04
330
28
100
AcDbEntity
  8
0
  6
Continuous
 62
     0
100
AcDbPolyline
 90
       13
 70
     0
 43
0.0
 10
156.3421523022
 20
106.2943687173
 10
156.1678104202
 20
106.3019737476
 10
155.9947922124
 20
106.3247315765
 10
155.8244150935
 20
106.3624698903
 10
155.6579737164
 20
106.4149033071
 10
155.4967386625
 20
106.4816329777
 10
155.3419457925
 20
106.5621472092
 10
155.1947643569
 20
106.6558378677
 10
155.0563240867
 20
106.7619858433
 10
154.9277072942
 20
106.8797528161
 10
154.8098934293
 20
107.0082231809
 10
154.7037591079
 20
107.1464205458
 10
154.6101014946
 20
107.2932871233
  0
SPLINE
  5
A05
330
28
100
AcDbEntity
  8
0
  6
Continuous
 62
     0
100
AcDbSpline
210
0.0
220
0.0
230
1.0
 70
     8
 71
     3
 72
    10
 73
     6
 74
     4
 42
0.0000000001
 43
0.0000000001
 44
0.0000000001
 40
0.0
 40
0.0
 40
0.0
 40
0.0
 40
0.0415298666974564
 40
0.139069807417598
 40
0.2931992023005007
 40
0.2931992023005007
 40
0.2931992023005007
 40
0.2931992023005007
 10
176.5294191258
 20
106.2943687173
 30
0.0
 10
176.533755482308
 20
106.3075270474051
 30
0.0
 10
176.5482765080764
 20
106.3515899490992
 30
0.0
 10
176.5926262803733
 20
106.4390108593739
 30
0.0
 10
176.6298024051251
 20
106.5141421820684
 30
0.0
 10
176.6525701118
 20
106.5601547218
 30
0.0
 11
176.5294191258
 21
106.2943687173
 31
0.0
 11
176.5430091772
 21
106.3336120649
 31
0.0
 11
176.5839325154
 21
106.4221520018
 31
0.0
 11
176.6525701118
 21
106.5601547218
 31
0.0
  0
ARC
  5
A06
330
28
100
AcDbEntity
  8
0
  6
Continuous
 62
     0
100
AcDbCircle
 10
178.9007004179
 20
111.1557969698
 30
0.0
 40
0.4
100
AcDbArc
 50
330.0000050845999
 51
0.0
  0
ARC
  5
A07
330
28
100
AcDbEntity
  8
0
  6
Continuous
 62
     0
100
AcDbCircle
 10
265.7046913184
 20
228.7486172928
 30
0.0
 40
1.0
100
AcDbArc
 50
269.9999999999994
 51
353.0332946840996
  0
LINE
  5
A08
330
28
100
AcDbEntity
  8
0
  6
Continuous
 62
     0
100
AcDbLine
 10
271.1718235917
 20
235.7486172928
 30
0.0
 11
308.5174277775
 21
235.7486172928
 31
0.0
  0
LINE
  5
A09
330
28
100
AcDbEntity
  8
0
  6
Continuous
 62
     0
100
AcDbLine
 10
308.8479274375
 20
207.1735286879
 30
0.0
 11
280.8388305217
 21
202.2347691964
 31
0.0
  0
LINE
  5
A0A
330
28
100
AcDbEntity
  8
0
  6
Continuous
 62
     0
100
AcDbLine
 10
311.0817260692
 20
225.7486172928
 30
0.0
 11
310.4994127362
 21
209.0733452006
 31
0.0
  0
ARC
  5
A0B
330
28
100
AcDbEntity
  8
0
  6
Continuous
 62
     0
100
AcDbCircle
 10
308.5006310822
 20
209.143144194
 30
0.0
 40
2.0
100
AcDbArc
 50
279.9999999999994
 51
357.9999999999996
  0
LINE
  5
A0C
330
28
100
AcDbEntity
  8
0
  6
Continuous
 62
     0
100
AcDbLine
 10
310.5125558779999
 20
233.8881302403
 30
0.0
 11
311.0817239472
 21
225.7486476392
 31
0.0
  0
ARC
  5
A0D
330
28
100
AcDbEntity
  8
0
  6
Continuous
 62
     0
100
AcDbCircle
 10
308.5174277775
 20
233.7486172928
 30
0.0
 40
2.0
100
AcDbArc
 50
3.99999999999958
 51
89.99999999999982
  0
SPLINE
  5
A0E
330
28
100
AcDbEntity
  8
0
  6
Continuous
 62
     0
100
AcDbSpline
210
0.0
220
0.0
230
1.0
 70
     8
 71
     3
 72
    10
 73
     6
 74
     4
 42
0.0000000001
 43
0.0000000001
 44
0.0000000001
 40
0.0
 40
0.0
 40
0.0
 40
0.0
 40
7.737290364213007
 40
15.09623912260356
 40
22.40086056298699
 40
22.40086056298699
 40
22.40086056298699
 40
22.40086056298699
 10
269.8451822137999
 20
226.0730338548
 30
0.0
 10
269.7929333668305
 20
223.4944582892507
 30
0.0
 10
269.6909905611968
 20
218.4633955397796
 30
0.0
 10
269.4890852712326
 20
210.9991432668641
 30
0.0
 10
269.3639232623046
 20
206.1128922362187
 30
0.0
 10
269.3015741153
 20
203.6788182994
 30
0.0
 11
269.8451822137999
 21
226.0730338548
 31
0.0
 11
269.6794717422999
 21
218.3375182146
 31
0.0
 11
269.4903598279
 21
210.9809997777
 31
0.0
 11
269.3015741153
 21
203.6788182994
 31
0.0
  0
ARC
  5
A0F
330
28
100
AcDbEntity
  8
0
  6
Continuous
 62
     0
100
AcDbCircle
 10
275.2820888363
 20
233.7486172928
 30
0.0
 40
32.0
100
AcDbArc
 50
269.9999999999994
 51
279.9999999999994
  0
SPLINE
  5
A10
330
28
100
AcDbEntity
  8
0
  6
Continuous
 62
     0
100
AcDbSpline
210
0.0
220
0.0
230
1.0
 70
     8
 71
     3
 72
    10
 73
     6
 74
     4
 42
0.0000000001
 43
0.0000000001
 44
0.0000000001
 40
0.0
 40
0.0
 40
0.0
 40
0.0
 40
0.0125527283350616
 40
0.0251125075091766
 40
0.0376803913269761
 40
0.0376803913269761
 40
0.0376803913269761
 40
0.0376803913269761
 10
269.3015741153
 20
203.6788182994
 30
0.0
 10
269.3013492510881
 20
203.674640084438
 30
0.0
 10
269.3008993963587
 20
203.6662813076202
 30
0.0
 10
269.3000866426967
 20
203.6537471494596
 30
0.0
 10
269.2994528904354
 20
203.6453952347584
 30
0.0
 10
269.2991359121
 20
203.6412179305
 30
0.0
 11
269.3015741153
 21
203.6788182994
 31
0.0
 11
269.3008765821
 21
203.6662849664
 31
0.0
 11
269.3000638931
 21
203.6537515076
 31
0.0
 11
269.2991359121
 21
203.6412179305
 31
0.0
  0
SPLINE
  5
A11
330
28
100
AcDbEntity
  8
0
  6
Continuous
 62
     0
100
AcDbSpline
210
0.0
220
0.0
230
1.0
 70
     8
 71
     3
 72
    59
 73
    55
 74
    53
 42
0.0000000001
 43
0.0000000001
 44
0.0000000001
 40
0.0
 40
0.0
 40
0.0
 40
0.0
 40
0.0472432105865889
 40
0.0949006793273888
 40
0.143040204546185
 40
0.1917270113502912
 40
0.2410235130980084
 40
0.2909934079292678
 40
0.3417400791870455
 40
0.393401262575051
 40
0.4461019686399035
 40
0.4999487298359194
 40
0.5550471262295519
 40
0.6115205671549981
 40
0.6694966063818114
 40
0.7291079435360148
 40
0.7904841832523248
 40
0.8537728248251985
 40
0.91912313907012
 40
0.9866236674659517
 40
1.056332288350143
 40
1.128370131510812
 40
1.20285357358561
 40
1.279937534005535
 40
1.359886664559096
 40
1.442700671190563
 40
1.527327006845175
 40
1.613158030385659
 40
1.69965525337148
 40
1.786221408636706
 40
1.872458202676767
 40
1.958549451219858
 40
2.044672263408052
 40
2.130839695112994
 40
2.217132102415393
 40
2.303615570966487
 40
2.390350162775779
 40
2.477396796703991
 40
2.564814131620308
 40
2.65265395551471
 40
2.740925060636775
 40
2.829677713889146
 40
2.918947440389548
 40
3.008747740571509
 40
3.099082812261852
 40
3.189956941914463
 40
3.281376031027943
 40
3.373306705648043
 40
3.465729604051599
 40
3.558615269946111
 40
3.651933982336095
 40
3.745628563596591
 40
3.839630298893373
 40
3.933934593932992
 40
3.933934593932992
 40
3.933934593932992
 40
3.933934593932992
 10
269.2991359121
 20
203.6412179305
 30
0.0
 10
269.2977450824986
 20
203.6255301882844
 30
0.0
 10
269.2949512276281
 20
203.5940171438725
 30
0.0
 10
269.2886750636498
 20
203.5467375155625
 30
0.0
 10
269.2808100235014
 20
203.4992152979459
 30
0.0
 10
269.2711694601482
 20
203.4514605391501
 30
0.0
 10
269.2597483397821
 20
203.403473648188
 30
0.0
 10
269.2464874631796
 20
203.3552492186011
 30
0.0
 10
269.2313271730653
 20
203.306761233781
 30
0.0
 10
269.2141904143297
 20
203.2579699032725
 30
0.0
 10
269.1949903008838
 20
203.2088416177947
 30
0.0
 10
269.1736353251937
 20
203.1593602252114
 30
0.0
 10
269.1500272853991
 20
203.1095178132762
 30
0.0
 10
269.124058344281
 20
203.0593085349904
 30
0.0
 10
269.0956095155727
 20
203.0087279637182
 30
0.0
 10
269.0645538722895
 20
202.9577802316417
 30
0.0
 10
269.0307546305776
 20
202.9064748421299
 30
0.0
 10
268.9940657272909
 20
202.854828651096
 30
0.0
 10
268.9543435926744
 20
202.8028821761021
 30
0.0
 10
268.9114608350536
 20
202.7507106082346
 30
0.0
 10
268.8652979873432
 20
202.6984047025385
 30
0.0
 10
268.8157317359026
 20
202.6460564027479
 30
0.0
 10
268.762617419753
 20
202.5937439351253
 30
0.0
 10
268.7057746857998
 20
202.5415248052841
 30
0.0
 10
268.6450481253722
 20
202.4894990217592
 30
0.0
 10
268.5805980217641
 20
202.4380301445095
 30
0.0
 10
268.5128590588519
 20
202.3876166918653
 30
0.0
 10
268.442470905911
 20
202.3387870536745
 30
0.0
 10
268.369999332398
 20
202.291906884975
 30
0.0
 10
268.2959864323213
 20
202.2472397623022
 30
0.0
 10
268.2207883555752
 20
202.2048754158072
 30
0.0
 10
268.1445352038319
 20
202.1647594015998
 30
0.0
 10
268.0672219476509
 20
202.126780743303
 30
0.0
 10
267.9888607478338
 20
202.0908547736375
 30
0.0
 10
267.9094870233959
 20
202.0569195319514
 30
0.0
 10
267.8291130328507
 20
202.0249133855008
 30
0.0
 10
267.7477492452199
 20
201.9947838674092
 30
0.0
 10
267.6654017695621
 20
201.9664856413671
 30
0.0
 10
267.5820735485967
 20
201.939980261276
 30
0.0
 10
267.4977792318705
 20
201.9152398594237
 30
0.0
 10
267.4125323112897
 20
201.8922412693153
 30
0.0
 10
267.3263481791577
 20
201.8709664010677
 30
0.0
 10
267.23923778341
 20
201.8514005197832
 30
0.0
 10
267.1512246567912
 20
201.8335353559722
 30
0.0
 10
267.0623406746744
 20
201.8173666859702
 30
0.0
 10
266.9726186691855
 20
201.8028922349745
 30
0.0
 10
266.8821025411319
 20
201.7901128749044
 30
0.0
 10
266.7908430107436
 20
201.7790311279082
 30
0.0
 10
266.6989016963094
 20
201.7696495983887
 30
0.0
 10
266.606338318937
 20
201.7619737874178
 30
0.0
 10
266.513224549851
 20
201.7559956529799
 30
0.0
 10
266.4196446244302
 20
201.7517581492167
 30
0.0
 10
266.3256739304502
 20
201.7491071096551
 30
0.0
 10
266.2629043834986
 20
201.7487807398827
 30
0.0
 10
266.2314691827
 20
201.7486172928
 30
0.0
 11
269.2991359121
 21
203.6412179305
 31
0.0
 11
269.2946238833999
 21
203.5941906773
 31
0.0
 11
269.2884458846
 21
203.5469353426
 31
0.0
 11
269.2805636127
 21
203.4994455155
 31
0.0
 11
269.2709382907
 21
203.451719649
 31
0.0
 11
269.2595260360999
 21
203.4037623187
 31
0.0
 11
269.2462810996
 21
203.355579728
 31
0.0
 11
269.2311417749
 21
203.3071439407
 31
0.0
 11
269.2140271002
 21
203.2584000613
 31
0.0
 11
269.1948491611
 21
203.2093126793
 31
0.0
 11
269.1735183741
 21
203.1598710853
 31
0.0
 11
269.1499392173
 21
203.1100729262
 31
0.0
 11
269.1240021382999
 21
203.0599080235
 31
0.0
 11
269.0955884103999
 21
203.0093720839
 31
0.0
 11
269.0645697848999
 21
202.9584667169
 31
0.0
 11
269.0308132589
 21
202.9072071836
 31
0.0
 11
268.9941699999999
 21
202.8556055971
 31
0.0
 11
268.9544837992
 21
202.8036857643
 31
0.0
 11
268.9116324356
 21
202.7515313592
 31
0.0
 11
268.8655165025
 21
202.6992569626
 31
0.0
 11
268.8159981349
 21
202.6469369653
 31
0.0
 11
268.7629427781
 21
202.594659702
 31
0.0
 11
268.7061881103
 21
202.5424979858
 31
0.0
 11
268.6454855385
 21
202.490468559
 31
0.0
 11
268.5807861109
 21
202.4387757765
 31
0.0
 11
268.5129091677
 21
202.3882353247
 31
0.0
 11
268.4423971205999
 21
202.3392964259
 31
0.0
 11
268.3697805908
 21
202.2923005837
 31
0.0
 11
268.2956744909
 21
202.2475570345
 31
0.0
 11
268.2205484077
 21
202.205214901
 31
0.0
 11
268.1443645296
 21
202.1651185197
 31
0.0
 11
268.0670708522999
 21
202.1271339672
 31
0.0
 11
267.9887484474
 21
202.0912114509
 31
0.0
 11
267.9094083415
 21
202.0572772918
 31
0.0
 11
267.8290653519
 21
202.0252711306
 31
0.0
 11
267.7477321504
 21
201.9951414152
 31
0.0
 11
267.6654139466
 21
201.9668424788
 31
0.0
 11
267.5821122761
 21
201.9403354583
 31
0.0
 11
267.4978302631999
 21
201.9155892068
 31
0.0
 11
267.4126084565
 21
201.8925885185
 31
0.0
 11
267.3264442625
 21
201.8713102401
 31
0.0
 11
267.2393462544
 21
201.8517393164
 31
0.0
 11
267.1513420928
 21
201.8338686294
 31
0.0
 11
267.0624667437
 21
201.8176946534
 31
0.0
 11
266.9727535756
 21
201.8032151883
 31
0.0
 11
266.8822330286999
 21
201.7904292412
 31
0.0
 11
266.7909734135
 21
201.7793417902
 31
0.0
 11
266.6990284055
 21
201.7699552225
 31
0.0
 11
266.6064610057
 21
201.7622725522
 31
0.0
 11
266.5133338687
 21
201.7562960619
 31
0.0
 11
266.4197365326
 21
201.7520283655
 31
0.0
 11
266.3257696247
 21
201.7494697607
 31
0.0
 11
266.2314691827
 21
201.7486172928
 31
0.0
  0
SPLINE
  5
A12
330
28
100
AcDbEntity
  8
0
  6
Continuous
 62
     0
100
AcDbSpline
210
0.0
220
0.0
230
1.0
 70
     8
 71
     3
 72
    10
 73
     6
 74
     4
 42
0.0000000001
 43
0.0000000001
 44
0.0000000001
 40
0.0
 40
0.0
 40
0.0
 40
0.0
 40
0.8890603071151627
 40
2.246485731157781
 40
3.59720602507464
 40
3.59720602507464
 40
3.59720602507464
 40
3.59720602507464
 10
266.6973081119
 20
228.6273247111
 30
0.0
 10
266.7332296383669
 20
228.9214930355391
 30
0.0
 10
266.82399648062
 20
229.6648002534212
 30
0.0
 10
266.9688943871638
 20
230.8550819106619
 30
0.0
 10
267.0775589071128
 20
231.7512330360898
 30
0.0
 10
267.1317566452
 20
232.1981992032
 30
0.0
 11
266.6973081119
 21
228.6273247111
 31
0.0
 11
266.8050293274
 21
229.509834977
 31
0.0
 11
266.9690585939
 21
230.8573134301
 31
0.0
 11
267.1317566452
 21
232.1981992032
 31
0.0
  0
SPLINE
  5
A13
330
28
100
AcDbEntity
  8
0
  6
Continuous
 62
     0
100
AcDbSpline
210
0.0
220
0.0
230
1.0
 70
     8
 71
     3
 72
    42
 73
    38
 74
    36
 42
0.0000000001
 43
0.0000000001
 44
0.0000000001
 40
0.0
 40
0.0
 40
0.0
 40
0.0
 40
0.04693941338979
 40
0.0931231628425117
 40
0.1385652696451414
 40
0.1832665443846153
 40
0.2272960722452105
 40
0.2707526557251359
 40
0.3137260592558175
 40
0.356303787236486
 40
0.3985936951026864
 40
0.4406703720551492
 40
0.4825792710242857
 40
0.5244199938163419
 40
0.5663063044867567
 40
0.6083258522017492
 40
0.6505844420798659
 40
0.6931666929908328
 40
0.7361207103834694
 40
0.7795938743067672
 40
0.8237496747561434
 40
0.868698465205809
 40
0.9145410023581454
 40
0.9614062330372384
 40
1.009359810526653
 40
1.058429029026753
 40
1.108780137065027
 40
1.160569882725361
 40
1.213935633955346
 40
1.268991038048065
 40
1.325942295652891
 40
1.385066264671292
 40
1.44642930843507
 40
1.51012893680308
 40
1.57631802952896
 40
1.64519387861376
 40
1.716956006513361
 40
1.716956006513361
 40
1.716956006513361
 40
1.716956006513361
 10
267.2032954535
 20
228.7010447176
 30
0.0
 10
267.2181209520994
 20
228.7060534389773
 30
0.0
 10
267.2475332779168
 20
228.715990247786
 30
0.0
 10
267.2920277435099
 20
228.7284591514213
 30
0.0
 10
267.3362372259063
 20
228.7390170305837
 30
0.0
 10
267.3801544115266
 20
228.7475494537298
 30
0.0
 10
267.4237320010745
 20
228.7541514328342
 30
0.0
 10
267.4669740643271
 20
228.7588728278724
 30
0.0
 10
267.5098908326586
 20
228.7617732015251
 30
0.0
 10
267.5525013665115
 20
228.7629028473942
 30
0.0
 10
267.5948234332619
 20
228.7623060116651
 30
0.0
 10
267.6368644531377
 20
228.7600217698076
 30
0.0
 10
267.678632110256
 20
228.7560819655432
 30
0.0
 10
267.7201488488336
 20
228.7505070347118
 30
0.0
 10
267.7614529422306
 20
228.7433124116379
 30
0.0
 10
267.8025851212133
 20
228.7345023642217
 30
0.0
 10
267.8435764666943
 20
228.7240745978084
 30
0.0
 10
267.8844446559283
 20
228.7120225440704
 30
0.0
 10
267.9252198740111
 20
228.6983295144293
 30
0.0
 10
267.9659522303122
 20
228.6829547843563
 30
0.0
 10
268.0067108094914
 20
228.6658499595903
 30
0.0
 10
268.0475442234738
 20
228.6469579079736
 30
0.0
 10
268.0884857001003
 20
228.6262177522513
 30
0.0
 10
268.1295494067238
 20
228.6035667283024
 30
0.0
 10
268.1707245038706
 20
228.5789507227647
 30
0.0
 10
268.212002565738
 20
228.5522992380995
 30
0.0
 10
268.2533935365367
 20
228.5235195527829
 30
0.0
 10
268.2949315472228
 20
228.4924947245933
 30
0.0
 10
268.3366248879473
 20
228.459107838598
 30
0.0
 10
268.3784849693959
 20
228.4232256590088
 30
0.0
 10
268.4205435576204
 20
228.3846740151237
 30
0.0
 10
268.4628096711039
 20
228.3432843590265
 30
0.0
 10
268.505253281587
 20
228.2989080584135
 30
0.0
 10
268.5478076481101
 20
228.2514232510451
 30
0.0
 10
268.5903784031731
 20
228.2006428766428
 30
0.0
 10
268.6330693409776
 20
228.1464857102653
 30
0.0
 10
268.6605745912835
 20
228.1085184190995
 30
0.0
 10
268.6746094581999
 20
228.0891451768
 30
0.0
 11
267.2032954535
 21
228.7010447176
 31
0.0
 11
267.2478965215999
 21
228.7156752765
 31
0.0
 11
267.2923399487
 21
228.7282339588
 31
0.0
 11
267.3365468382
 21
228.7387570758
 31
0.0
 11
267.3804271501
 21
228.7472848065
 31
0.0
 11
267.4239606423
 21
228.753875283
 31
0.0
 11
267.4671606265
 21
228.7585907907
 31
0.0
 11
267.5100362871
 21
228.761487537
 31
0.0
 11
267.5525990527999
 21
228.762616207
 31
0.0
 11
267.5948847748
 21
228.7620212093
 31
0.0
 11
267.6368995682
 21
228.7597400081
 31
0.0
 11
267.6786234052
 21
228.7558058959
 31
0.0
 11
267.720092346
 21
228.7502405538
 31
0.0
 11
267.7613579371
 21
228.7430562645
 31
0.0
 11
267.8024464612999
 21
228.7342599261
 31
0.0
 11
267.8434018673
 21
228.7238463226
 31
0.0
 11
267.8842466663
 21
228.7118067841
 31
0.0
 11
267.9249674768
 21
228.6981369925
 31
0.0
 11
267.9656423424
 21
228.6827919187
 31
0.0
 11
268.0063610418
 21
228.6657120407
 31
0.0
 11
268.0471587221
 21
228.6468455878
 31
0.0
 11
268.0880572098999
 21
228.6261368479
 31
0.0
 11
268.1290979714999
 21
228.6035093042
 31
0.0
 11
268.1702613862
 21
228.5789101399
 31
0.0
 11
268.2114895129999
 21
228.5523013112
 31
0.0
 11
268.2528354846
 21
228.5235655371
 31
0.0
 11
268.294335246
 21
228.4925825166
 31
0.0
 11
268.335998303
 21
228.4592344569
 31
0.0
 11
268.3778059794999
 21
228.4234124566
 31
0.0
 11
268.4197981276
 21
228.3849403207
 31
0.0
 11
268.4620510731
 21
228.3435841566
 31
0.0
 11
268.5044759761
 21
228.2992496244
 31
0.0
 11
268.5469935802999
 21
228.2518165559
 31
0.0
 11
268.5895510002
 21
228.2011227495
 31
0.0
 11
268.6321081438
 21
228.1469676748
 31
0.0
 11
268.6746094581999
 21
228.0891451768
 31
0.0
  0
SPLINE
  5
A14
330
28
100
AcDbEntity
  8
0
  6
Continuous
 62
     0
100
AcDbSpline
210
0.0
220
0.0
230
1.0
 70
     8
 71
     3
 72
    19
 73
    15
 74
    13
 42
0.0000000001
 43
0.0000000001
 44
0.0000000001
 40
0.0
 40
0.0
 40
0.0
 40
0.0
 40
0.0197743911236924
 40
0.0412791151685577
 40
0.0646665068979093
 40
0.0900814432246343
 40
0.1176502130955122
 40
0.1475072713037251
 40
0.1798165029275547
 40
0.2147259744154595
 40
0.2523431818551362
 40
0.2928027009343047
 40
0.3362644878514964
 40
0.382800807477251
 40
0.382800807477251
 40
0.382800807477251
 40
0.382800807477251
 10
266.833342446
 20
228.609619497
 30
0.0
 10
266.8399359768762
 20
228.6095620264949
 30
0.0
 10
266.853699997154
 20
228.6094420566013
 30
0.0
 10
266.8752186661318
 20
228.6110139515563
 30
0.0
 10
266.8984925486166
 20
228.6138026611709
 30
0.0
 10
266.9236132268633
 20
228.6179795564097
 30
0.0
 10
266.9506728694731
 20
228.6235066342444
 30
0.0
 10
266.979779712381
 20
228.6304175639203
 30
0.0
 10
267.0110571508862
 20
228.6387241471007
 30
0.0
 10
267.0446272138522
 20
228.6484395299507
 30
0.0
 10
267.0806102639455
 20
228.6595651933905
 30
0.0
 10
267.1191327671465
 20
228.6721109252245
 30
0.0
 10
267.1603289014798
 20
228.6860384480229
 30
0.0
 10
267.1886507572564
 20
228.6959299888314
 30
0.0
 10
267.2032954535
 20
228.7010447176
 30
0.0
 11
266.833342446
 21
228.609619497
 31
0.0
 11
266.8531166528
 21
228.609704877
 31
0.0
 11
266.8745743429
 21
228.6111263874
 31
0.0
 11
266.897797798
 21
228.613890664
 31
0.0
 11
266.9228769406
 21
228.6180083812
 31
0.0
 11
266.9498952025
 21
228.6234902236
 31
0.0
 11
266.9789532259
 21
228.6303513606
 31
0.0
 11
267.0101886013
 21
228.6386119763
 31
0.0
 11
267.0437308788
 21
228.6482860044
 31
0.0
 11
267.0796775923
 21
228.6593714942
 31
0.0
 11
267.1181582486
 21
228.6718699651
 31
0.0
 11
267.1593351885
 21
228.6857763141
 31
0.0
 11
267.2032954535
 21
228.7010447176
 31
0.0
  0
SPLINE
  5
A15
330
28
100
AcDbEntity
  8
0
  6
Continuous
 62
     0
100
AcDbSpline
210
0.0
220
0.0
230
1.0
 70
     8
 71
     3
 72
    32
 73
    28
 74
    26
 42
0.0000000001
 43
0.0000000001
 44
0.0000000001
 40
0.0
 40
0.0
 40
0.0
 40
0.0
 40
0.1076225445956332
 40
0.213366948053256
 40
0.3173629292517644
 40
0.4208104435266906
 40
0.5236980607707684
 40
0.6252065678430187
 40
0.7254673999416114
 40
0.8252265899595064
 40
0.9245159852762149
 40
1.02280223971003
 40
1.120067907323778
 40
1.216774829144131
 40
1.313086657304135
 40
1.40859302607887
 40
1.503093076981779
 40
1.596766762279662
 40
1.689838557419374
 40
1.782051664819826
 40
1.873127558922646
 40
1.963099575405802
 40
2.051955241098785
 40
2.139646538999346
 40
2.226118670303983
 40
2.311357193126223
 40
2.395336849521735
 40
2.395336849521735
 40
2.395336849521735
 40
2.395336849521735
 10
268.6746094617
 20
228.0891451752
 30
0.0
 10
268.7027172132777
 20
228.0668489933747
 30
0.0
 10
268.7584422028073
 20
228.0226457245595
 30
0.0
 10
268.8386879073421
 20
227.9536738200121
 30
0.0
 10
268.9158525597061
 20
227.8833391671096
 30
0.0
 10
268.9900309434063
 20
227.8112143870708
 30
0.0
 10
269.0613526742609
 20
227.7374151369331
 30
0.0
 10
269.1295873724324
 20
227.6621796173446
 30
0.0
 10
269.1947267392338
 20
227.585613089949
 30
0.0
 10
269.2569216724869
 20
227.5075799134503
 30
0.0
 10
269.3162167546215
 20
227.4281410993055
 30
0.0
 10
269.3724646516292
 20
227.347527673197
 30
0.0
 10
269.425629572179
 20
227.265873829325
 30
0.0
 10
269.4757881736683
 20
227.183108274203
 30
0.0
 10
269.5229753320321
 20
227.0992858228327
 30
0.0
 10
269.567092620341
 20
227.0146363760502
 30
0.0
 10
269.6080624522866
 20
226.9293942649254
 30
0.0
 10
269.6459083631259
 20
226.8436062632365
 30
0.0
 10
269.6806531807227
 20
226.7573375396346
 30
0.0
 10
269.7122692699278
 20
226.6707950596747
 30
0.0
 10
269.74070430595
 20
226.5842429071933
 30
0.0
 10
269.7659597188845
 20
226.4978753622061
 30
0.0
 10
269.7880581501081
 20
226.4118117328729
 30
0.0
 10
269.8070484199995
 20
226.3262019801418
 30
0.0
 10
269.8228903143714
 20
226.2411857027982
 30
0.0
 10
269.8358945798213
 20
226.1569286016014
 30
0.0
 10
269.8421017281063
 20
226.1008597325083
 30
0.0
 10
269.8451822137999
 20
226.0730338548
 30
0.0
 11
268.6746094617
 21
228.0891451752
 31
0.0
 11
268.7584811634999
 21
228.0217052038
 31
0.0
 11
268.8387852232
 21
227.9529074069
 31
0.0
 11
268.9156042513
 21
227.8828074709
 31
0.0
 11
268.9897836717
 21
227.8107047539
 31
0.0
 11
269.0612729095
 21
227.7367104929
 31
0.0
 11
269.1294612491999
 21
227.6615152315
 31
0.0
 11
269.1944212122
 21
227.5851448337
 31
0.0
 11
269.2566006726
 21
227.5071345094
 31
0.0
 11
269.315985273
 21
227.4275615664
 31
0.0
 11
269.3722215206
 21
227.3469534262
 31
0.0
 11
269.4252864456999
 21
227.2654382508
 31
0.0
 11
269.4754084934
 21
227.1827339035
 31
0.0
 11
269.5226495306999
 21
227.0988038574
 31
0.0
 11
269.5667838367
 21
227.0141065758
 31
0.0
 11
269.6077139965
 21
226.9289303958
 31
0.0
 11
269.6455188447
 21
226.8432241955
 31
0.0
 11
269.6802855855
 21
226.7568897714
 31
0.0
 11
269.7119195138
 21
226.6702724997
 31
0.0
 11
269.7403387434
 21
226.5837440889
 31
0.0
 11
269.7655817718
 21
226.4973858046
 31
0.0
 11
269.7876755577
 21
226.4113207481
 31
0.0
 11
269.8066450151
 21
226.3257057762
 31
0.0
 11
269.8225209793
 21
226.2407035218
 31
0.0
 11
269.8353498494
 21
226.1564359369
 31
0.0
 11
269.8451822137999
 21
226.0730338548
 31
0.0
  0
SPLINE
  5
A16
330
28
100
AcDbEntity
  8
0
  6
Continuous
 62
     0
100
AcDbSpline
210
0.0
220
0.0
230
1.0
 70
     8
 71
     3
 72
    19
 73
    15
 74
    13
 42
0.0000000001
 43
0.0000000001
 44
0.0000000001
 40
0.0
 40
0.0
 40
0.0
 40
0.0
 40
0.0015818384415604
 40
0.0046539333156945
 40
0.0093803847386555
 40
0.0159974247283222
 40
0.0245795115492497
 40
0.0351541207263697
 40
0.0477280840328668
 40
0.0622978211382613
 40
0.078872897837436
 40
0.09741592243283
 40
0.1177078680700041
 40
0.1394532029158842
 40
0.1394532029158842
 40
0.1394532029158842
 40
0.1394532029158842
 10
266.697357426
 20
228.6273211614
 30
0.0
 10
266.6973943454824
 20
228.6267780204226
 30
0.0
 10
266.6975029664416
 20
228.6251800431429
 30
0.0
 10
266.7003261641344
 20
228.6231648141653
 30
0.0
 10
266.7046087895907
 20
228.6212906083406
 30
0.0
 10
266.7110818449061
 20
228.6194849161991
 30
0.0
 10
266.7194830960262
 20
228.6177982462821
 30
0.0
 10
266.7299550229816
 20
228.6162237991922
 30
0.0
 10
266.7424423910862
 20
228.6147761421051
 30
0.0
 10
266.7569577980463
 20
228.6134574065552
 30
0.0
 10
266.7734783318221
 20
228.6122717345762
 30
0.0
 10
266.7919194704468
 20
228.6112283840036
 30
0.0
 10
266.8120929730392
 20
228.6103203646172
 30
0.0
 10
266.8260978872367
 20
228.6098584430034
 30
0.0
 10
266.833342446
 20
228.609619497
 30
0.0
 11
266.697357426
 21
228.6273211614
 31
0.0
 11
266.697617453
 21
228.6257608413
 31
0.0
 11
266.6998235535
 21
228.6236228779
 31
0.0
 11
266.7041018338
 21
228.6216139825
 31
0.0
 11
266.7104466457999
 21
228.6197355313
 31
0.0
 11
266.7188492342
 21
228.6179894722
 31
0.0
 11
266.7293002265
 21
228.6163772938
 31
0.0
 11
266.741787177
 21
228.6149006014
 31
0.0
 11
266.756295185
 21
228.6135608465
 31
0.0
 11
266.7728265639
 21
228.6123580667
 31
0.0
 11
266.7913391093
 21
228.6112953231
 31
0.0
 11
266.8116104605
 21
228.6103813328
 31
0.0
 11
266.833342446
 21
228.609619497
 31
0.0
  0
SPLINE
  5
A17
330
28
100
AcDbEntity
  8
0
  6
Continuous
 62
     0
100
AcDbSpline
210
0.0
220
0.0
230
1.0
 70
     8
 71
     3
 72
    22
 73
    18
 74
    16
 42
0.0000000001
 43
0.0000000001
 44
0.0000000001
 40
0.0
 40
0.0
 40
0.0
 40
0.0
 40
0.3610485018185664
 40
0.7516587793859157
 40
1.143395794526505
 40
1.536244421769139
 40
1.930171296334615
 40
2.325166978382985
 40
2.721133724335471
 40
3.117967081255293
 40
3.515517255012821
 40
3.913575562299356
 40
4.311935245966125
 40
4.710379934258032
 40
5.108684575892585
 40
5.50661459802925
 40
5.87622516594601
 40
5.87622516594601
 40
5.87622516594601
 40
5.87622516594601
 10
267.1317569125999
 20
232.1981994381
 30
0.0
 10
267.1493965058966
 20
232.3173317227607
 30
0.0
 10
267.1861199796114
 20
232.565350554642
 30
0.0
 10
267.2865179448405
 20
232.9339651009042
 30
0.0
 10
267.4236794264476
 20
233.3014251168208
 30
0.0
 10
267.5973107141849
 20
233.6545642394268
 30
0.0
 10
267.8049925445525
 20
233.9900130321898
 30
0.0
 10
268.0450980533806
 20
234.3044119189909
 30
0.0
 10
268.3153532101596
 20
234.594620671345
 30
0.0
 10
268.6132270694108
 20
234.8576962355215
 30
0.0
 10
268.9358500840278
 20
235.090943872121
 30
0.0
 10
269.2800657837362
 20
235.291983723821
 30
0.0
 10
269.6424617938554
 20
235.4586875256118
 30
0.0
 10
270.0194237161886
 20
235.5896088465155
 30
0.0
 10
270.4071661197562
 20
235.6825270861719
 30
0.0
 10
270.7926338362029
 20
235.7386361470721
 30
0.0
 10
271.0485643125641
 20
235.7453727796991
 30
0.0
 10
271.1718080992
 20
235.7486168174
 30
0.0
 11
267.1317569125999
 21
232.1981994381
 31
0.0
 11
267.1914306202999
 21
232.5542823909
 31
0.0
 11
267.292056541
 21
232.9317089573
 31
0.0
 11
267.4295381282
 21
233.2985286708
 31
0.0
 11
267.6027240114
 21
233.651142757
 31
0.0
 11
267.8100962159
 21
233.9860683477
 31
0.0
 11
268.0498103728
 21
234.300008966
 31
0.0
 11
268.3196480903999
 21
234.5897972854
 31
0.0
 11
268.6170751075
 21
234.85250222
 31
0.0
 11
268.9392364120999
 21
235.0854361902
 31
0.0
 11
269.2829631202
 21
235.2861906824
 31
0.0
 11
269.6448508942
 21
235.4527069777
 31
0.0
 11
270.021288541
 21
235.5832936068
 31
0.0
 11
270.4084983197
 21
235.6766487075
 31
0.0
 11
270.8025766281
 21
235.7318808482
 31
0.0
 11
271.1718080992
 21
235.7486168174
 31
0.0
  0
SPLINE
  5
A18
330
28
100
AcDbEntity
  8
0
  6
Continuous
 62
     0
100
AcDbSpline
210
0.0
220
0.0
230
1.0
 70
     8
 71
     3
 72
    24
 73
    20
 74
    18
 42
0.0000000001
 43
0.0000000001
 44
0.0000000001
 40
0.0
 40
0.0
 40
0.0
 40
0.0
 40
1.850252059684504
 40
3.509790218200236
 40
4.993777437583516
 40
6.3195043179338
 40
7.465182413612958
 40
8.449822922370242
 40
9.322033271154757
 40
10.15064461481532
 40
10.99971125109592
 40
11.89467079924819
 40
12.83621767729281
 40
13.75463584123211
 40
14.55481466159308
 40
15.23395719253832
 40
15.81913809944615
 40
16.33685149942464
 40
16.93618502416356
 40
16.93618502416356
 40
16.93618502416356
 40
16.93618502416356
 10
278.3137768768
 20
130.4879368546
 30
0.0
 10
278.1012233876712
 20
129.908715959689
 30
0.0
 10
277.6980252649702
 20
128.8099771038153
 30
0.0
 10
277.0050708385405
 20
127.2952834802542
 30
0.0
 10
276.357679884029
 20
125.9537735468442
 30
0.0
 10
275.7858209922746
 20
124.7656649944971
 30
0.0
 10
275.3323220741632
 20
123.7058723157767
 30
0.0
 10
275.0400507646271
 20
122.7445294199443
 30
0.0
 10
274.9574988715893
 20
121.8446279704147
 30
0.0
 10
275.0922916168703
 20
120.9978626541394
 30
0.0
 10
275.3870267351787
 20
120.189237902991
 30
0.0
 10
275.7886457999634
 20
119.3880627100901
 30
0.0
 10
276.2521036181105
 20
118.5949407755979
 30
0.0
 10
276.7224780221105
 20
117.8432346340486
 30
0.0
 10
277.1512773581856
 20
117.1687602341313
 30
0.0
 10
277.5163904393819
 20
116.5854094448406
 30
0.0
 10
277.8231135300664
 20
116.0766901709454
 30
0.0
 10
278.1058249743517
 20
115.5846069780372
 30
0.0
 10
278.2787381344029
 20
115.2548030735295
 30
0.0
 10
278.3715119036996
 20
115.0778521038007
 30
0.0
 11
278.3137768768
 21
130.4879368546
 31
0.0
 11
277.6528186528
 21
128.7597681966
 31
0.0
 11
276.9753745264
 21
127.2447974526
 31
0.0
 11
276.3349725836
 21
125.9061027828
 31
0.0
 11
275.7692896894
 21
124.7071221222
 31
0.0
 11
275.3320641067
 21
123.6481546587
 31
0.0
 11
275.063881198
 21
122.7007398293
 31
0.0
 11
274.993552717
 21
121.831369484
 31
0.0
 11
275.1164625718
 21
121.0119245948
 31
0.0
 11
275.3962290318
 21
120.2102732487
 31
0.0
 11
275.7898265526
 21
119.4065111045
 31
0.0
 11
276.2600907014
 21
118.5908137624
 31
0.0
 11
276.7443728985
 21
117.8104531551
 31
0.0
 11
277.1720650081
 21
117.1341650479
 31
0.0
 11
277.531281022
 21
116.5577984695
 31
0.0
 11
277.832851825
 21
116.0563089436
 31
0.0
 11
278.0895606973
 21
115.606722779
 31
0.0
 11
278.3715119036996
 21
115.0778521038007
 31
0.0
  0
ARC
  5
A19
330
28
100
AcDbEntity
  8
0
  6
Continuous
 62
     0
100
AcDbCircle
 10
273.1028211084113
 20
112.093370454568
 30
0.0
 40
6.055264933176924
100
AcDbArc
 50
29.52964607018495
 51
89.85992849448211
  0
SPLINE
  5
A1A
330
28
100
AcDbEntity
  8
0
  6
Continuous
 62
     0
100
AcDbSpline
210
0.0
220
0.0
230
1.0
 70
     8
 71
     3
 72
    24
 73
    20
 74
    18
 42
0.0000000001
 43
0.0000000001
 44
0.0000000001
 40
0.0
 40
0.0
 40
0.0
 40
0.0
 40
1.715845935578276
 40
3.287877316029529
 40
4.715931568448421
 40
6.000321271374549
 40
7.10320848800649
 40
8.032113208189641
 40
8.845180225302924
 40
9.645732100080888
 40
10.52052395350366
 40
11.49528097874778
 40
12.56476761328673
 40
13.64252548357996
 40
14.6059958972586
 40
15.44119715818507
 40
16.17386160636085
 40
16.83248598023188
 40
17.44732069918451
 40
17.44732069918451
 40
17.44732069918451
 40
17.44732069918451
 10
280.0458276844
 20
129.2966249824
 30
0.0
 10
279.7604807162189
 20
128.8004883382368
 30
0.0
 10
279.2137032903283
 20
127.8497990110825
 30
0.0
 10
278.2932061077762
 20
126.5733617961117
 30
0.0
 10
277.4343543383711
 20
125.4328272172023
 30
0.0
 10
276.6769667045073
 20
124.4107518962423
 30
0.0
 10
276.0760031979199
 20
123.4816244310384
 30
0.0
 10
275.6817767995987
 20
122.6108068515795
 30
0.0
 10
275.5699977688626
 20
121.75359257114
 30
0.0
 10
275.7605101399788
 20
120.9325626169281
 30
0.0
 10
276.1570925495834
 20
120.1391525072237
 30
0.0
 10
276.691393850678
 20
119.3248868224799
 30
0.0
 10
277.307604357708
 20
118.4861278381508
 30
0.0
 10
277.9322513678634
 20
117.6585091425664
 30
0.0
 10
278.501546936517
 20
116.8869507141516
 30
0.0
 10
278.9867707677555
 20
116.1964935155641
 30
0.0
 10
279.394494505022
 20
115.5762627334501
 30
0.0
 10
279.7442832948781
 20
115.0060400713386
 30
0.0
 10
279.9476438324872
 20
114.6333716033472
 30
0.0
 10
280.0458276844
 20
114.4534447301
 30
0.0
 11
280.0458276844
 21
129.2966249824
 31
0.0
 11
279.1639192291
 21
127.8247673972
 31
0.0
 11
278.2607640451
 21
126.5380687632
 31
0.0
 11
277.4070182019
 21
125.3933168324
 31
0.0
 11
276.6528841649
 21
124.3536347833
 31
0.0
 11
276.070004741
 21
123.4173592951
 31
0.0
 11
275.7125890712
 21
122.5599690583
 31
0.0
 11
275.6188244831
 21
121.7523267016
 31
0.0
 11
275.7827853779
 21
120.9687450982
 31
0.0
 11
276.1559492029
 21
120.1775374475
 31
0.0
 11
276.6807179711
 21
119.3560942065
 31
0.0
 11
277.3077979647
 21
118.4897384233
 31
0.0
 11
277.9535577069
 21
117.6268616173
 31
0.0
 11
278.523718095
 21
116.8502070159
 31
0.0
 11
279.0026160135
 21
116.1659424984
 31
0.0
 11
279.4046718433
 21
115.5534489855
 31
0.0
 11
279.7469216634
 21
114.9907313596
 31
0.0
 11
280.0458276844
 21
114.4534447301
 31
0.0
  0
SPLINE
  5
A1B
330
28
100
AcDbEntity
  8
0
  6
Continuous
 62
     0
100
AcDbSpline
210
0.0
220
0.0
230
1.0
 70
     8
 71
     3
 72
    16
 73
    12
 74
    10
 42
0.0000000001
 43
0.0000000001
 44
0.0000000001
 40
0.0
 40
0.0
 40
0.0
 40
0.0
 40
1.884480060808899
 40
3.660655558334392
 40
5.36798769503351
 40
7.036827528035378
 40
8.693263623148297
 40
10.36204361718515
 40
12.06923511397801
 40
13.84497697315863
 40
15.72920390766396
 40
15.72920390766396
 40
15.72920390766396
 40
15.72920390766396
 10
298.2810797597
 20
114.3449286153
 30
0.0
 10
298.5536761605231
 20
114.9112632910098
 30
0.0
 10
299.083202341568
 20
116.011384338523
 30
0.0
 10
299.681595279785
 20
117.7016046922178
 30
0.0
 10
300.0934394557105
 20
119.372088658538
 30
0.0
 10
300.301503607455
 20
121.0409964848406
 30
0.0
 10
300.3014474192347
 20
122.709942361859
 30
0.0
 10
300.0932876449008
 20
124.3787700347798
 30
0.0
 10
299.6814134151616
 20
126.049027583678
 30
0.0
 10
299.083071123576
 20
127.7389703964574
 30
0.0
 10
298.5536411560036
 20
128.8388833628528
 30
0.0
 10
298.2810797597
 20
129.4051410972
 30
0.0
 11
298.2810797597
 21
114.3449286153
 31
0.0
 11
299.0666814176
 21
116.0578486761
 31
0.0
 11
299.6607047597
 21
117.7317470204
 31
0.0
 11
300.063197623
 21
119.3909584355
 31
0.0
 11
300.2673807194
 21
121.0472602351
 31
0.0
 11
300.2673257251
 21
122.7036963293
 31
0.0
 11
300.0630477618
 21
124.3599261389
 31
0.0
 11
299.6605071769
 21
126.0189812568
 31
0.0
 11
299.0665856993
 21
127.6924556154
 31
0.0
 11
298.2810797597
 21
129.4051410972
 31
0.0
  0
LINE
  5
A1C
330
28
100
AcDbEntity
  8
0
  6
Continuous
 62
     0
100
AcDbLine
 10
280.1035627113
 20
129.4051410972
 30
0.0
 11
298.2810797597
 21
129.4051410972
 31
0.0
  0
LINE
  5
A1D
330
28
100
AcDbEntity
  8
0
  6
Continuous
 62
     0
100
AcDbLine
 10
298.2810797597
 20
133.4884048109
 30
0.0
 11
280.1035627113
 21
133.4884048109
 31
0.0
  0
LINE
  5
A1E
330
28
100
AcDbEntity
  8
0
  6
Continuous
 62
     0
100
AcDbLine
 10
280.1035627113
 20
133.4884048109
 30
0.0
 11
280.1035627113
 21
129.4051410972
 31
0.0
  0
LINE
  5
A1F
330
28
100
AcDbEntity
  8
0
  6
Continuous
 62
     0
100
AcDbLine
 10
278.3715119037
 20
133.0249973736
 30
0.0
 11
278.3715119037
 21
130.60134609
 31
0.0
  0
LINE
  5
A20
330
28
100
AcDbEntity
  8
0
  6
Continuous
 62
     0
100
AcDbLine
 10
278.3715119037
 20
133.0250136576
 30
0.0
 11
280.1035627113
 21
133.4884048109
 31
0.0
  0
SPLINE
  5
A21
330
28
100
AcDbEntity
  8
0
  6
Continuous
 62
     0
100
AcDbSpline
210
0.0
220
0.0
230
1.0
 70
     8
 71
     3
 72
     9
 73
     5
 74
     3
 42
0.0000000001
 43
0.0000000001
 44
0.0000000001
 40
0.0
 40
0.0
 40
0.0
 40
0.0
 40
0.1147525060335582
 40
0.2296913730297299
 40
0.2296913730297299
 40
0.2296913730297299
 40
0.2296913730297299
 10
278.3137768768
 20
133.2473141933
 30
0.0
 10
278.3233531890929
 20
133.2102814845163
 30
0.0
 10
278.3425213658513
 20
133.1361559248961
 30
0.0
 10
278.3618431654788
 20
133.0620702605932
 30
0.0
 10
278.3715119037
 20
133.0249973736
 30
0.0
 11
278.3137768768
 21
133.2473141933
 31
0.0
 11
278.3425441571
 21
133.1362260246
 31
0.0
 11
278.3715119037
 21
133.0249973736
 31
0.0
  0
SPLINE
  5
A22
330
28
100
AcDbEntity
  8
0
  6
Continuous
 62
     0
100
AcDbSpline
210
0.0
220
0.0
230
1.0
 70
     8
 71
     3
 72
     9
 73
     5
 74
     3
 42
0.0000000001
 43
0.0000000001
 44
0.0000000001
 40
0.0
 40
0.0
 40
0.0
 40
0.0
 40
0.112196957218827
 40
0.224580380950473
 40
0.224580380950473
 40
0.224580380950473
 40
0.224580380950473
 10
280.0458276844
 20
133.7054370406
 30
0.0
 10
280.0554036799514
 20
133.6692847885979
 30
0.0
 10
280.0745715859467
 20
133.5969202011073
 30
0.0
 10
280.0938936552182
 20
133.5245966241144
 30
0.0
 10
280.1035627113
 20
133.4884048109
 30
0.0
 11
280.0458276844
 21
133.7054370406
 31
0.0
 11
280.0745941479
 21
133.5969905202
 31
0.0
 11
280.1035627113
 21
133.4884048109
 31
0.0
  0
SPLINE
  5
A23
330
28
100
AcDbEntity
  8
0
  6
Continuous
 62
     0
100
AcDbSpline
210
0.0
220
0.0
230
1.0
 70
     8
 71
     3
 72
    12
 73
     8
 74
     6
 42
0.0000000001
 43
0.0000000001
 44
0.0000000001
 40
0.0
 40
0.0
 40
0.0
 40
0.0
 40
0.4233399242281396
 40
0.8589081697009102
 40
1.301492262418881
 40
1.744776779172612
 40
2.182338713886173
 40
2.182338713886173
 40
2.182338713886173
 40
2.182338713886173
 10
278.3715119037
 20
130.601455739
 30
0.0
 10
278.4439065947478
 20
130.4797908343641
 30
0.0
 10
278.5907871227237
 20
130.2329466919218
 30
0.0
 10
278.9021606984833
 20
129.9244520546303
 30
0.0
 10
279.2657751452047
 20
129.6736200308426
 30
0.0
 10
279.6707863380219
 20
129.4884670002458
 30
0.0
 10
279.9599300788207
 20
129.4327958388799
 30
0.0
 10
280.1035627113
 20
129.4051410972
 30
0.0
 11
278.3715119037
 21
130.601455739
 31
0.0
 11
278.6029336655
 21
130.2469692659
 31
0.0
 11
278.9082430398
 21
129.9363153066
 31
0.0
 11
279.272407269
 21
129.6847897745
 31
0.0
 11
279.6774957124
 21
129.504777231
 31
0.0
 11
280.1035627113
 21
129.4051410972
 31
0.0
  0
SPLINE
  5
A24
330
28
100
AcDbEntity
  8
0
  6
Continuous
 62
     0
100
AcDbSpline
210
0.0
220
0.0
230
1.0
 70
     8
 71
     3
 72
     9
 73
     5
 74
     3
 42
0.0000000001
 43
0.0000000001
 44
0.0000000001
 40
0.0
 40
0.0
 40
0.0
 40
0.0
 40
0.0635666288982263
 40
0.1272596845014502
 40
0.1272596845014502
 40
0.1272596845014502
 40
0.1272596845014502
 10
278.3715119037
 20
130.60134609
 30
0.0
 10
278.361854824602
 20
130.5824857967313
 30
0.0
 10
278.3425214595877
 20
130.5447276992426
 30
0.0
 10
278.3233647481695
 20
130.5068796695792
 30
0.0
 10
278.3137768768
 20
130.4879368546
 30
0.0
 11
278.3715119037
 21
130.60134609
 31
0.0
 11
278.3425847421
 21
130.5447427718
 31
0.0
 11
278.3137768768
 21
130.4879368546
 31
0.0
  0
SPLINE
  5
A25
330
28
100
AcDbEntity
  8
0
  6
Continuous
 62
     0
100
AcDbSpline
210
0.0
220
0.0
230
1.0
 70
     8
 71
     3
 72
     9
 73
     5
 74
     3
 42
0.0000000001
 43
0.0000000001
 44
0.0000000001
 40
0.0
 40
0.0
 40
0.0
 40
0.0
 40
0.0614497076214047
 40
0.1229190861534659
 40
0.1229190861534659
 40
0.1229190861534659
 40
0.1229190861534659
 10
280.1035627113
 20
129.4051410972
 30
0.0
 10
280.0939095857214
 20
129.387075083376
 30
0.0
 10
280.0746002444635
 20
129.3509372725442
 30
0.0
 10
280.0554195609249
 20
129.3147310104941
 30
0.0
 10
280.0458276844
 20
129.2966249824
 30
0.0
 11
280.1035627113
 21
129.4051410972
 31
0.0
 11
280.0746354887
 21
129.3509259484
 31
0.0
 11
280.0458276844
 21
129.2966249824
 31
0.0
  0
LINE
  5
A26
330
28
100
AcDbEntity
  8
0
  6
Continuous
 62
     0
100
AcDbLine
 10
298.1568549386
 20
130.0657195732
 30
0.0
 11
298.1568549386
 21
132.5616225043
 31
0.0
  0
SPLINE
  5
A27
330
28
100
AcDbEntity
  8
0
  6
Continuous
 62
     0
100
AcDbSpline
210
0.0
220
0.0
230
1.0
 70
     8
 71
     3
 72
    10
 73
     6
 74
     4
 42
0.0000000001
 43
0.0000000001
 44
0.0000000001
 40
0.0
 40
0.0
 40
0.0
 40
0.0
 40
0.2924599393550308
 40
0.6058672857008791
 40
0.9371493733614731
 40
0.9371493733614731
 40
0.9371493733614731
 40
0.9371493733614731
 10
298.1568549386
 20
132.5616225043
 30
0.0
 10
298.1597664839622
 20
132.6591115612991
 30
0.0
 10
298.1657981137634
 20
132.8610723169496
 30
0.0
 10
298.2081609496226
 20
133.1712805279563
 30
0.0
 10
298.2563283247495
 20
133.3807606920204
 30
0.0
 10
298.2810797597
 20
133.4884048109
 30
0.0
 11
298.1568549386
 21
132.5616225043
 31
0.0
 11
298.1705657621
 21
132.8537608781
 31
0.0
 11
298.2118490738
 21
133.1644373222
 31
0.0
 11
298.2810797597
 21
133.4884048109
 31
0.0
  0
SPLINE
  5
A28
330
28
100
AcDbEntity
  8
0
  6
Continuous
 62
     0
100
AcDbSpline
210
0.0
220
0.0
230
1.0
 70
     8
 71
     3
 72
    10
 73
     6
 74
     4
 42
0.0000000001
 43
0.0000000001
 44
0.0000000001
 40
0.0
 40
0.0
 40
0.0
 40
0.0
 40
0.1973966621709335
 40
0.4231827705585853
 40
0.6772933544463373
 40
0.6772933544463373
 40
0.6772933544463373
 40
0.6772933544463373
 10
298.2810797597
 20
129.4051410972
 30
0.0
 10
298.2557505541268
 20
129.4660557994647
 30
0.0
 10
298.201449314822
 20
129.5966459127352
 30
0.0
 10
298.1642436408073
 20
129.8212027789961
 30
0.0
 10
298.1594128797718
 20
129.9810687701857
 30
0.0
 10
298.1568549386
 20
130.0657195732
 30
0.0
 11
298.2810797597
 21
129.4051410972
 31
0.0
 11
298.2118490738
 21
129.5899992979
 31
0.0
 11
298.1705657621
 21
129.8119791504
 31
0.0
 11
298.1568549386
 21
130.0657195732
 31
0.0
  0
LINE
  5
A29
330
28
100
AcDbEntity
  8
0
  6
Continuous
 62
     0
100
AcDbLine
 10
298.1568549386
 20
114.0787247847
 30
0.0
 11
280.1035627113
 21
114.0787247847
 31
0.0
  0
LWPOLYLINE
  5
A2A
330
28
100
AcDbEntity
  8
0
  6
Continuous
 62
     0
100
AcDbPolyline
 90
       16
 70
     0
 43
0.0
 10
278.3715119037
 20
115.0778521038
 10
278.4454266092
 20
114.9596599088
 10
278.5274262241
 20
114.8468780777
 10
278.617116983
 20
114.7400592956
 10
278.7140737973
 20
114.6397214708
 10
278.8178234133
 20
114.5463651345
 10
278.9278423614
 20
114.4604662461
 10
279.0435885218
 20
114.3824480853
 10
279.1645040016
 20
114.3126867086
 10
279.289995433
 20
114.2515247893
 10
279.4194507451
 20
114.1992603529
 10
279.5522392501
 20
114.1561477477
 10
279.6877100544
 20
114.1223976604
 10
279.8252014852
 20
114.0981737712
 10
279.9640445811
 20
114.0835927947
 10
280.1035627113
 20
114.0787247847
  0
LINE
  5
A2B
330
28
100
AcDbEntity
  8
0
  6
Continuous
 62
     0
100
AcDbLine
 10
280.1035627113
 20
114.3449286153
 30
0.0
 11
280.1035627113
 21
114.0787247847
 31
0.0
  0
SPLINE
  5
A2C
330
28
100
AcDbEntity
  8
0
  6
Continuous
 62
     0
100
AcDbSpline
210
0.0
220
0.0
230
1.0
 70
     8
 71
     3
 72
     9
 73
     5
 74
     3
 42
0.0000000001
 43
0.0000000001
 44
0.0000000001
 40
0.0
 40
0.0
 40
0.0
 40
0.0
 40
0.0614693906087614
 40
0.1229190861536726
 40
0.1229190861536726
 40
0.1229190861536726
 40
0.1229190861536726
 10
280.0458276844
 20
114.4534447301
 30
0.0
 10
280.0554195627753
 20
114.4353386984306
 30
0.0
 10
280.0746002462458
 20
114.3991324363442
 30
0.0
 10
280.0939095875802
 20
114.3629946255532
 30
0.0
 10
280.1035627113
 20
114.3449286153
 30
0.0
 11
280.0458276844
 21
114.4534447301
 31
0.0
 11
280.0746354943001
 21
114.3991437534
 31
0.0
 11
280.1035627113
 21
114.3449286153
 31
0.0
  0
LINE
  5
A2D
330
28
100
AcDbEntity
  8
0
  6
Continuous
 62
     0
100
AcDbLine
 10
298.1568549386
 20
114.0787247847
 30
0.0
 11
300.5281362307
 21
118.1557969698
 31
0.0
  0
SPLINE
  5
A2E
330
28
100
AcDbEntity
  8
0
  6
Continuous
 62
     0
100
AcDbSpline
210
0.0
220
0.0
230
1.0
 70
     8
 71
     3
 72
    10
 73
     6
 74
     4
 42
0.0000000001
 43
0.0000000001
 44
0.0000000001
 40
0.0
 40
0.0
 40
0.0
 40
0.0
 40
0.0407724088330061
 40
0.138605926446547
 40
0.2939902303703064
 40
0.2939902303703064
 40
0.2939902303703064
 40
0.2939902303703064
 10
298.1568549386
 20
114.0787247847
 30
0.0
 10
298.1612511416155
 20
114.0915948148526
 30
0.0
 10
298.1761960469875
 20
114.1353465210617
 30
0.0
 10
298.2206955678563
 20
114.2229461177514
 30
0.0
 10
298.2581166984897
 20
114.2985407864284
 30
0.0
 10
298.2810797597
 20
114.3449286153
 30
0.0
 11
298.1568549386
 21
114.0787247847
 31
0.0
 11
298.1705657621
 21
114.1171227357
 31
0.0
 11
298.2118490738
 21
114.2058193272
 31
0.0
 11
298.2810797597
 21
114.3449286153
 31
0.0
  0
ARC
  5
A2F
330
28
100
AcDbEntity
  8
0
  6
Continuous
 62
     0
100
AcDbCircle
 10
300.1817260692
 20
118.3557969698
 30
0.0
 40
0.4
100
AcDbArc
 50
330.0000000009
 51
0.0
  0
ENDSEC
  0
SECTION
  2
OBJECTS
  0
DICTIONARY
  5
48A
330
0
100
AcDbDictionary
281
     1
  3
ACAD_COLOR
350
B2C
  3
ACAD_GROUP
350
48B
  3
ACAD_LAYOUT
350
65B
  3
ACAD_MATERIAL
350
B2B
  3
ACAD_MLINESTYLE
350
48C
  3
ACAD_PLOTSETTINGS
350
65C
  3
ACAD_PLOTSTYLENAME
350
659
  3
ACDBHEADERROUNDTRIPXREC
350
BDB
  3
AcDbVariableDictionary
350
6C7
  0
DICTIONARY
  5
B2C
102
{ACAD_REACTORS
330
48A
102
}
330
48A
100
AcDbDictionary
281
     1
  0
DICTIONARY
  5
48B
102
{ACAD_REACTORS
330
48A
102
}
330
48A
100
AcDbDictionary
281
     1
  0
DICTIONARY
  5
65B
102
{ACAD_REACTORS
330
48A
102
}
330
48A
100
AcDbDictionary
281
     1
  3
Layout1
350
65E
  3
Model
350
65D
  0
DICTIONARY
  5
B2B
102
{ACAD_REACTORS
330
48A
102
}
330
48A
100
AcDbDictionary
281
     1
  0
DICTIONARY
  5
48C
102
{ACAD_REACTORS
330
48A
102
}
330
48A
100
AcDbDictionary
281
     1
  3
STANDARD
350
48D
  0
DICTIONARY
  5
65C
102
{ACAD_REACTORS
330
48A
102
}
330
48A
100
AcDbDictionary
281
     1
  0
ACDBDICTIONARYWDFLT
  5
659
102
{ACAD_REACTORS
330
48A
102
}
330
48A
100
AcDbDictionary
281
     1
  3
Normal
350
65A
100
AcDbDictionaryWithDefault
340
65A
  0
DICTIONARY
  5
BDB
102
{ACAD_REACTORS
330
48A
102
}
330
48A
100
AcDbDictionary
281
     1
  3
COLORDICT
350
BDC
  3
MATERIALDICT
350
BDD
  0
DICTIONARY
  5
6C7
102
{ACAD_REACTORS
330
48A
102
}
330
48A
100
AcDbDictionary
281
     1
  0
LAYOUT
  5
65E
102
{ACAD_REACTORS
330
65B
102
}
330
65B
100
AcDbPlotSettings
  1

  2
\\alderaan\HP LaserJet 5Si/5Si MX PS Tecnico
  4

  6

 40
0.0
 41
0.0
 42
0.0
 43
0.0
 44
0.0
 45
0.0
 46
0.0
 47
0.0
 48
0.0
 49
0.0
140
0.0
141
0.0
142
1.0
143
1.0
 70
   688
 72
     0
 73
     0
 74
     5
  7

 75
    16
147
1.0
148
0.0
149
0.0
100
AcDbLayout
  1
Layout1
 70
     0
 71
     1
 10
0.0
 20
0.0
 11
12.0
 21
9.0
 12
0.0
 22
0.0
 32
0.0
 14
1.000000000000000E+20
 24
1.000000000000000E+20
 34
1.000000000000000E+20
 15
-1.000000000000000E+20
 25
-1.000000000000000E+20
 35
-1.000000000000000E+20
146
0.0
 13
0.0
 23
0.0
 33
0.0
 16
1.0
 26
0.0
 36
0.0
 17
0.0
 27
1.0
 37
0.0
 76
     0
330
29
  0
LAYOUT
  5
65D
102
{ACAD_REACTORS
330
65B
102
}
330
65B
100
AcDbPlotSettings
  1

  2
\\alderaan\HP LaserJet 4050 Ricerca
  4
A4
  6

 40
5.027083396911621
 41
5.069430828094482
 42
5.365737915039062
 43
5.365753173828125
 44
209.8886566162109
 45
297.0530090332031
 46
0.0
 47
36.75
 48
13.2619720840853
 49
-112.5942134727183
140
392.0554943199773
141
292.0542912276189
142
1.0
143
1.898754034930987
 70
 11956
 72
     1
 73
     0
 74
     4
  7

 75
     0
147
0.5266611586351921
148
-13.2619720840853
149
112.5942134727183
100
AcDbLayout
  1
Model
 70
     1
 71
     0
 10
0.0
 20
0.0
 11
12.0
 21
9.0
 12
0.0
 22
0.0
 32
0.0
 14
0.0
 24
0.0
 34
0.0
 15
0.0
 25
0.0
 35
0.0
146
0.0
 13
0.0
 23
0.0
 33
0.0
 16
1.0
 26
0.0
 36
0.0
 17
0.0
 27
1.0
 37
0.0
 76
     0
330
28
  0
MLINESTYLE
  5
48D
102
{ACAD_REACTORS
330
48C
102
}
330
48C
100
AcDbMlineStyle
  2
STANDARD
 70
     0
  3

 62
     0
 51
90.00000000000019
 52
90.00000000000019
 71
     2
 49
0.5
 62
   256
  6
BYLAYER
 49
-0.5
 62
   256
  6
BYLAYER
  0
ACDBPLACEHOLDER
  5
65A
102
{ACAD_REACTORS
330
659
102
}
330
659
  0
XRECORD
  5
BDC
102
{ACAD_REACTORS
330
BDB
102
}
330
BDB
100
AcDbXrecord
280
     1
340
B2C
  0
XRECORD
  5
BDD
102
{ACAD_REACTORS
330
BDB
102
}
330
BDB
100
AcDbXrecord
280
     1
340
B2B
  0
ENDSEC
  0
EOF
