  0
SECTION
  2
HEADER
  9
$ACADVER
  1
AC1015
  9
$ACADMAINTVER
 70
     6
  9
$DWGCODEPAGE
  3
ANSI_1252
  9
$INSBASE
 10
0.0
 20
0.0
 30
0.0
  9
$EXTMIN
 10
-0.1
 20
-0.1
 30
0.0
  9
$EXTMAX
 10
392.6101546397866
 20
412.1013841003467
 30
0.0
  9
$LIMMIN
 10
0.0
 20
0.0
  9
$LIMMAX
 10
210.0
 20
297.0
  9
$ORTHOMODE
 70
     1
  9
$REGENMODE
 70
     1
  9
$FILLMODE
 70
     1
  9
$QTEXTMODE
 70
     0
  9
$MIRRTEXT
 70
     1
  9
$LTSCALE
 40
19.36
  9
$ATTMODE
 70
     1
  9
$TEXTSIZE
 40
0.2
  9
$TRACEWID
 40
0.05
  9
$TEXTSTYLE
  7
STANDARD
  9
$CLAYER
  8
0
  9
$CELTYPE
  6
BYLAYER
  9
$CECOLOR
 62
   256
  9
$CELTSCALE
 40
1.0
  9
$DISPSILH
 70
     0
  9
$DIMSCALE
 40
1.0
  9
$DIMASZ
 40
3.0
  9
$DIMEXO
 40
2.2
  9
$DIMDLI
 40
13.376
  9
$DIMRND
 40
0.0
  9
$DIMDLE
 40
0.0
  9
$DIMEXE
 40
6.336
  9
$DIMTP
 40
0.003
  9
$DIMTM
 40
0.003
  9
$DIMTXT
 40
1.5
  9
$DIMCEN
 40
3.168
  9
$DIMTSZ
 40
0.0
  9
$DIMTOL
 70
     1
  9
$DIMLIM
 70
     0
  9
$DIMTIH
 70
     1
  9
$DIMTOH
 70
     1
  9
$DIMSE1
 70
     0
  9
$DIMSE2
 70
     0
  9
$DIMTAD
 70
     0
  9
$DIMZIN
 70
     0
  9
$DIMBLK
  1

  9
$DIMASO
 70
     1
  9
$DIMSHO
 70
     1
  9
$DIMPOST
  1

  9
$DIMAPOST
  1

  9
$DIMALT
 70
     0
  9
$DIMALTD
 70
     2
  9
$DIMALTF
 40
25.4
  9
$DIMLFAC
 40
1.0
  9
$DIMTOFL
 70
     0
  9
$DIMTVP
 40
0.0
  9
$DIMTIX
 70
     0
  9
$DIMSOXD
 70
     0
  9
$DIMSAH
 70
     0
  9
$DIMBLK1
  1

  9
$DIMBLK2
  1

  9
$DIMSTYLE
  2
STANDARD
  9
$DIMCLRD
 70
     0
  9
$DIMCLRE
 70
     0
  9
$DIMCLRT
 70
     0
  9
$DIMTFAC
 40
1.0
  9
$DIMGAP
 40
0.09
  9
$DIMJUST
 70
     0
  9
$DIMSD1
 70
     0
  9
$DIMSD2
 70
     0
  9
$DIMTOLJ
 70
     1
  9
$DIMTZIN
 70
     0
  9
$DIMALTZ
 70
     0
  9
$DIMALTTZ
 70
     0
  9
$DIMUPT
 70
     0
  9
$DIMDEC
 70
     4
  9
$DIMTDEC
 70
     4
  9
$DIMALTU
 70
     2
  9
$DIMALTTD
 70
     2
  9
$DIMTXSTY
  7
STANDARD
  9
$DIMAUNIT
 70
     0
  9
$DIMADEC
 70
     0
  9
$DIMALTRND
 40
0.0
  9
$DIMAZIN
 70
     0
  9
$DIMDSEP
 70
    46
  9
$DIMATFIT
 70
     3
  9
$DIMFRAC
 70
     0
  9
$DIMLDRBLK
  1

  9
$DIMLUNIT
 70
     2
  9
$DIMLWD
 70
    -2
  9
$DIMLWE
 70
    -2
  9
$DIMTMOVE
 70
     0
  9
$LUNITS
 70
     2
  9
$LUPREC
 70
     4
  9
$SKETCHINC
 40
0.1
  9
$FILLETRAD
 40
0.0
  9
$AUNITS
 70
     0
  9
$AUPREC
 70
     0
  9
$MENU
  1
acad
  9
$ELEVATION
 40
0.0
  9
$PELEVATION
 40
0.0
  9
$THICKNESS
 40
0.0
  9
$LIMCHECK
 70
     0
  9
$CHAMFERA
 40
0.0
  9
$CHAMFERB
 40
0.0
  9
$CHAMFERC
 40
0.0
  9
$CHAMFERD
 40
0.0
  9
$SKPOLY
 70
     0
  9
$TDCREATE
 40
2444972.041666667
  9
$TDUCREATE
 40
2444972.0
  9
$TDUPDATE
 40
2453410.409148021
  9
$TDUUPDATE
 40
2453410.367481354
  9
$TDINDWG
 40
0.3724085069
  9
$TDUSRTIMER
 40
0.3724085069
  9
$USRTIMER
 70
     1
  9
$ANGBASE
 50
0.0
  9
$ANGDIR
 70
     0
  9
$PDMODE
 70
     3
  9
$PDSIZE
 40
0.3125
  9
$PLINEWID
 40
0.0
  9
$SPLFRAME
 70
     0
  9
$SPLINETYPE
 70
     6
  9
$SPLINESEGS
 70
     8
  9
$HANDSEED
  5
1AC7
  9
$SURFTAB1
 70
     6
  9
$SURFTAB2
 70
     6
  9
$SURFTYPE
 70
     6
  9
$SURFU
 70
     6
  9
$SURFV
 70
     6
  9
$UCSBASE
  2

  9
$UCSNAME
  2

  9
$UCSORG
 10
0.0
 20
0.0
 30
0.0
  9
$UCSXDIR
 10
1.0
 20
0.0
 30
0.0
  9
$UCSYDIR
 10
0.0
 20
1.0
 30
0.0
  9
$UCSORTHOREF
  2

  9
$UCSORTHOVIEW
 70
     0
  9
$UCSORGTOP
 10
0.0
 20
0.0
 30
0.0
  9
$UCSORGBOTTOM
 10
0.0
 20
0.0
 30
0.0
  9
$UCSORGLEFT
 10
0.0
 20
0.0
 30
0.0
  9
$UCSORGRIGHT
 10
0.0
 20
0.0
 30
0.0
  9
$UCSORGFRONT
 10
0.0
 20
0.0
 30
0.0
  9
$UCSORGBACK
 10
0.0
 20
0.0
 30
0.0
  9
$PUCSBASE
  2

  9
$PUCSNAME
  2

  9
$PUCSORG
 10
0.0
 20
0.0
 30
0.0
  9
$PUCSXDIR
 10
1.0
 20
0.0
 30
0.0
  9
$PUCSYDIR
 10
0.0
 20
1.0
 30
0.0
  9
$PUCSORTHOREF
  2

  9
$PUCSORTHOVIEW
 70
     0
  9
$PUCSORGTOP
 10
0.0
 20
0.0
 30
0.0
  9
$PUCSORGBOTTOM
 10
0.0
 20
0.0
 30
0.0
  9
$PUCSORGLEFT
 10
0.0
 20
0.0
 30
0.0
  9
$PUCSORGRIGHT
 10
0.0
 20
0.0
 30
0.0
  9
$PUCSORGFRONT
 10
0.0
 20
0.0
 30
0.0
  9
$PUCSORGBACK
 10
0.0
 20
0.0
 30
0.0
  9
$USERI1
 70
     0
  9
$USERI2
 70
     0
  9
$USERI3
 70
     0
  9
$USERI4
 70
     0
  9
$USERI5
 70
     0
  9
$USERR1
 40
0.0
  9
$USERR2
 40
0.0
  9
$USERR3
 40
0.0
  9
$USERR4
 40
0.0
  9
$USERR5
 40
0.0
  9
$WORLDVIEW
 70
     1
  9
$SHADEDGE
 70
     3
  9
$SHADEDIF
 70
    70
  9
$TILEMODE
 70
     1
  9
$MAXACTVP
 70
    16
  9
$PINSBASE
 10
0.0
 20
0.0
 30
0.0
  9
$PLIMCHECK
 70
     0
  9
$PEXTMIN
 10
1.000000000000000E+20
 20
1.000000000000000E+20
 30
1.000000000000000E+20
  9
$PEXTMAX
 10
-1.000000000000000E+20
 20
-1.000000000000000E+20
 30
-1.000000000000000E+20
  9
$PLIMMIN
 10
0.0
 20
0.0
  9
$PLIMMAX
 10
12.0
 20
9.0
  9
$UNITMODE
 70
     0
  9
$VISRETAIN
 70
     0
  9
$PLINEGEN
 70
     1
  9
$PSLTSCALE
 70
     0
  9
$TREEDEPTH
 70
  3020
  9
$CMLSTYLE
  2
STANDARD
  9
$CMLJUST
 70
     0
  9
$CMLSCALE
 40
1.0
  9
$PROXYGRAPHICS
 70
     1
  9
$MEASUREMENT
 70
     0
  9
$CELWEIGHT
370
    -1
  9
$ENDCAPS
280
     0
  9
$JOINSTYLE
280
     0
  9
$LWDISPLAY
290
     0
  9
$INSUNITS
 70
     0
  9
$HYPERLINKBASE
  1

  9
$STYLESHEET
  1

  9
$XEDIT
290
     1
  9
$CEPSNTYPE
380
     0
  9
$PSTYLEMODE
290
     1
  9
$FINGERPRINTGUID
  2
{0F0AF9B5-E614-4980-AC4C-0743D6D481F8}
  9
$VERSIONGUID
  2
{EACEA769-613B-4EDA-A783-1D0410FD6EB0}
  9
$EXTNAMES
290
     1
  9
$PSVPSCALE
 40
0.0
  9
$OLESTARTUP
290
     0
  0
ENDSEC
  0
SECTION
  2
CLASSES
  0
CLASS
  1
IMAGE
  2
AcDbRasterImage
  3
ISM
 90
      127
280
     0
281
     1
  0
CLASS
  1
DICTIONARYVAR
  2
AcDbDictionaryVar
  3
ObjectDBX Classes
 90
        0
280
     0
281
     0
  0
CLASS
  1
RASTERVARIABLES
  2
AcDbRasterVariables
  3
ISM
 90
        0
280
     0
281
     0
  0
CLASS
  1
IMAGEDEF
  2
AcDbRasterImageDef
  3
ISM
 90
        0
280
     0
281
     0
  0
CLASS
  1
IMAGEDEF_REACTOR
  2
AcDbRasterImageDefReactor
  3
ISM
 90
        1
280
     0
281
     0
  0
CLASS
  1
IDBUFFER
  2
AcDbIdBuffer
  3
ObjectDBX Classes
 90
        0
280
     0
281
     0
  0
CLASS
  1
SPATIAL_FILTER
  2
AcDbSpatialFilter
  3
ObjectDBX Classes
 90
        0
280
     0
281
     0
  0
CLASS
  1
SORTENTSTABLE
  2
AcDbSortentsTable
  3
ObjectDBX Classes
 90
        0
280
     0
281
     0
  0
CLASS
  1
LAYER_INDEX
  2
AcDbLayerIndex
  3
ObjectDBX Classes
 90
        0
280
     0
281
     0
  0
CLASS
  1
SPATIAL_INDEX
  2
AcDbSpatialIndex
  3
AutoCAD 2000
 90
        0
280
     0
281
     0
  0
CLASS
  1
OBJECT_PTR
  2
CAseDLPNTableRecord
  3
ASE-LPNTableRecord
 90
        1
280
     0
281
     0
  0
CLASS
  1
PLOTSETTINGS
  2
AcDbPlotSettings
  3
ObjectDBX Classes
 90
        0
280
     0
281
     0
  0
CLASS
  1
ACDBDICTIONARYWDFLT
  2
AcDbDictionaryWithDefault
  3
ObjectDBX Classes
 90
        0
280
     0
281
     0
  0
CLASS
  1
WIPEOUT
  2
AcDbWipeout
  3
WipeOut|AutoCAD Express Tool|expresstools@autodesk.com
 90
      127
280
     0
281
     1
  0
CLASS
  1
WIPEOUTVARIABLES
  2
AcDbWipeoutVariables
  3
WipeOut|AutoCAD Express Tool|expresstools@autodesk.com
 90
        0
280
     0
281
     0
  0
CLASS
  1
RTEXT
  2
RText
  3
RText|AutoCAD Express Tool|expresstools@autodesk.com
 90
        0
280
     0
281
     1
  0
CLASS
  1
ARCALIGNEDTEXT
  2
AcDbArcAlignedText
  3
ATEXT|AutoCAD Express Tool|expresstools@autodesk.com
 90
        0
280
     0
281
     1
  0
CLASS
  1
ACDBPLACEHOLDER
  2
AcDbPlaceHolder
  3
ObjectDBX Classes
 90
        0
280
     0
281
     0
  0
CLASS
  1
LAYOUT
  2
AcDbLayout
  3
ObjectDBX Classes
 90
        0
280
     0
281
     0
  0
ENDSEC
  0
SECTION
  2
TABLES
  0
TABLE
  2
VPORT
  5
8
330
0
100
AcDbSymbolTable
 70
     1
  0
VPORT
  5
1ABB
330
8
100
AcDbSymbolTableRecord
100
AcDbViewportTableRecord
  2
*Active
 70
     0
 10
0.0
 20
0.0
 11
1.0
 21
1.0
 12
122.3230709360364
 22
198.0641717785297
 13
0.0
 23
0.0
 14
1.0
 24
1.0
 15
0.0
 25
0.0
 16
0.0
 26
0.0
 36
1.0
 17
0.0
 27
0.0
 37
0.0
 40
218.9915028190235
 41
1.888667992047713
 42
50.0
 43
0.0
 44
0.0
 50
0.0
 51
0.0
 71
     0
 72
   100
 73
     1
 74
     1
 75
     0
 76
     0
 77
     0
 78
     0
281
     0
 65
     1
110
0.0
120
0.0
130
0.0
111
1.0
121
0.0
131
0.0
112
0.0
122
1.0
132
0.0
 79
     0
146
0.0
  0
ENDTAB
  0
TABLE
  2
LTYPE
  5
5
330
0
100
AcDbSymbolTable
 70
     1
  0
LTYPE
  5
14
330
5
100
AcDbSymbolTableRecord
100
AcDbLinetypeTableRecord
  2
BYBLOCK
 70
     0
  3

 72
    65
 73
     0
 40
0.0
  0
LTYPE
  5
15
330
5
100
AcDbSymbolTableRecord
100
AcDbLinetypeTableRecord
  2
BYLAYER
 70
     0
  3

 72
    65
 73
     0
 40
0.0
  0
LTYPE
  5
16
330
5
100
AcDbSymbolTableRecord
100
AcDbLinetypeTableRecord
  2
CONTINUOUS
 70
     0
  3
Solid line
 72
    65
 73
     0
 40
0.0
  0
ENDTAB
  0
TABLE
  2
LAYER
  5
2
330
0
100
AcDbSymbolTable
 70
     1
  0
LAYER
  5
10
330
2
100
AcDbSymbolTableRecord
100
AcDbLayerTableRecord
  2
0
 70
     0
 62
     7
  6
CONTINUOUS
370
    -3
390
D1B
  0
ENDTAB
  0
TABLE
  2
STYLE
  5
3
330
0
100
AcDbSymbolTable
 70
     1
  0
STYLE
  5
11
330
3
100
AcDbSymbolTableRecord
100
AcDbTextStyleTableRecord
  2
STANDARD
 70
     0
 40
0.0
 41
1.0
 50
0.0
 71
     0
 42
0.2
  3
txt
  4

  0
ENDTAB
  0
TABLE
  2
VIEW
  5
6
330
0
100
AcDbSymbolTable
 70
     0
  0
ENDTAB
  0
TABLE
  2
UCS
  5
7
330
0
100
AcDbSymbolTable
 70
     0
  0
ENDTAB
  0
TABLE
  2
APPID
  5
9
330
0
100
AcDbSymbolTable
 70
     1
  0
APPID
  5
218
330
9
100
AcDbSymbolTableRecord
100
AcDbRegAppTableRecord
  2
ACAD
 70
     0
  0
ENDTAB
  0
TABLE
  2
DIMSTYLE
  5
A
330
0
100
AcDbSymbolTable
 70
     1
100
AcDbDimStyleTable
  0
DIMSTYLE
105
219
330
A
100
AcDbSymbolTableRecord
100
AcDbDimStyleTableRecord
  2
STANDARD
 70
     0
 41
3.0
 47
0.003
 48
0.003
 71
     1
 73
     0
 74
     0
 77
     1
 78
     8
140
1.5
271
     3
272
     3
284
     8
340
11
  0
ENDTAB
  0
TABLE
  2
BLOCK_RECORD
  5
1
330
0
100
AcDbSymbolTable
 70
     0
  0
BLOCK_RECORD
  5
1B
330
1
100
AcDbSymbolTableRecord
100
AcDbBlockTableRecord
  2
*MODEL_SPACE
340
D20
  0
BLOCK_RECORD
  5
1C
330
1
100
AcDbSymbolTableRecord
100
AcDbBlockTableRecord
  2
*PAPER_SPACE
340
D21
  0
ENDTAB
  0
ENDSEC
  0
SECTION
  2
BLOCKS
  0
BLOCK
  5
1E
330
1B
100
AcDbEntity
  8
0
100
AcDbBlockBegin
  2
*MODEL_SPACE
 70
     0
 71
     0
 10
0.0
 20
0.0
 30
0.0
  3
*MODEL_SPACE
  1

  0
ENDBLK
  5
1F
330
1B
100
AcDbEntity
  8
0
100
AcDbBlockEnd
  0
BLOCK
  5
20
330
1C
100
AcDbEntity
 67
     1
  8
0
100
AcDbBlockBegin
  2
*PAPER_SPACE
 70
     0
 71
     0
 10
0.0
 20
0.0
 30
0.0
  3
*PAPER_SPACE
  1

  0
ENDBLK
  5
21
330
1C
100
AcDbEntity
 67
     1
  8
0
100
AcDbBlockEnd
  0
ENDSEC
  0
SECTION
  2
ENTITIES
  0
TEXT
  5
274
330
1B
100
AcDbEntity
  8
0
  6
Continuous
 62
     1
100
AcDbText
 10
118.0485706484
 20
31.8061964884
 30
0.0
 40
1.5
  1
  
 41
1.285714285699999
 72
     1
 11
119.9771420769
 21
31.8061964884
 31
0.0
100
AcDbText
  0
TEXT
  5
276
330
1B
100
AcDbEntity
  8
0
  6
Continuous
 62
     1
100
AcDbText
 10
142.7628563626
 20
31.8061964884
 30
0.0
 40
1.5
  1
 
 41
1.285714285699999
 72
     1
 11
143.7271420769
 21
31.8061964884
 31
0.0
100
AcDbText
  0
TEXT
  5
280
330
1B
100
AcDbEntity
  8
0
  6
Continuous
 62
     1
100
AcDbText
 10
191.7057135055
 20
20.9204822027
 30
0.0
 40
1.5
  1
 
 41
1.0285714286
 72
     1
 11
192.4771420769
 21
20.9204822027
 31
0.0
100
AcDbText
  0
LINE
  5
452
330
1B
100
AcDbEntity
  8
0
  6
Continuous
100
AcDbLine
 10
57.13634126329999
 20
223.5927296321
 30
0.0
 11
57.13634126329999
 21
236.2082543126
 31
0.0
  0
LINE
  5
453
330
1B
100
AcDbEntity
  8
0
  6
Continuous
100
AcDbLine
 10
77.1776493321
 20
215.4970014885
 30
0.0
 11
80.2353903172
 21
212.6793635776
 31
0.0
  0
LINE
  5
454
330
1B
100
AcDbEntity
  8
0
  6
Continuous
100
AcDbLine
 10
74.1065067823
 20
218.6365132004
 30
0.0
 11
77.1776493321
 21
215.4970014885
 31
0.0
  0
LINE
  5
455
330
1B
100
AcDbEntity
  8
0
  6
Continuous
100
AcDbLine
 10
70.90395013120001
 20
221.5442317542
 30
0.0
 11
74.1065067823
 21
218.6365132004
 31
0.0
  0
LINE
  5
456
330
1B
100
AcDbEntity
  8
0
  6
Continuous
100
AcDbLine
 10
80.2353903172
 20
212.6793635776
 30
0.0
 11
85.54981579299999
 21
210.207931614
 31
0.0
  0
LINE
  5
457
330
1B
100
AcDbEntity
  8
0
  6
Continuous
100
AcDbLine
 10
65.82498163699999
 20
224.2084772873
 30
0.0
 11
70.90395013120001
 21
221.5442317542
 31
0.0
  0
LINE
  5
458
330
1B
100
AcDbEntity
  8
0
  6
Continuous
100
AcDbLine
 10
89.1363412633
 20
211.5936930077
 30
0.0
 11
89.1363412633
 21
236.2082543126
 31
0.0
  0
LINE
  5
459
330
1B
100
AcDbEntity
  8
0
  6
Continuous
100
AcDbLine
 10
57.13634126329999
 20
223.5927296321
 30
0.0
 11
59.8769218956
 21
223.5927296321
 31
0.0
  0
LINE
  5
45A
330
1B
100
AcDbEntity
  8
0
  6
Continuous
100
AcDbLine
 10
85.54981579299999
 20
210.207931614
 30
0.0
 11
89.1363412633
 21
211.5936930077
 31
0.0
  0
LINE
  5
45B
330
1B
100
AcDbEntity
  8
0
  6
Continuous
100
AcDbLine
 10
59.8769218956
 20
223.5927296321
 30
0.0
 11
65.82498163699999
 21
224.2084772873
 31
0.0
  0
LINE
  5
45C
330
1B
100
AcDbEntity
  8
0
  6
Continuous
100
AcDbLine
 10
57.13634126329999
 20
236.2082543126
 30
0.0
 11
89.1363412633
 21
236.2082543126
 31
0.0
  0
LINE
  5
45D
330
1B
100
AcDbEntity
  8
0
  6
Continuous
100
AcDbLine
 10
53.9363412633
 20
172.6632961031
 30
0.0
 11
53.9363412633
 21
199.5116631065
 31
0.0
  0
LINE
  5
45E
330
1B
100
AcDbEntity
  8
0
  6
Continuous
100
AcDbLine
 10
57.13634126329999
 20
200.5116631065
 30
0.0
 11
57.13634126329999
 21
219.3686515846
 31
0.0
  0
LINE
  5
45F
330
1B
100
AcDbEntity
  8
0
  6
Continuous
100
AcDbLine
 10
53.9363412633
 20
199.5116631065
 30
0.0
 11
54.8191839758
 21
200.3945058189
 31
0.0
  0
LINE
  5
460
330
1B
100
AcDbEntity
  8
0
  6
Continuous
100
AcDbLine
 10
109.9363412633
 20
142.8116631065
 30
0.0
 11
116.7363412633
 21
142.8116631065
 31
0.0
  0
LINE
  5
461
330
1B
100
AcDbEntity
  8
0
  6
Continuous
100
AcDbLine
 10
70.78009126329999
 20
182.2244288597
 30
0.0
 11
70.82384122160001
 21
181.6286842499
 31
0.0
  0
LINE
  5
462
330
1B
100
AcDbEntity
  8
0
  6
Continuous
100
AcDbLine
 10
71.08634122159999
 20
181.6286842499
 30
0.0
 11
71.0425912633
 21
182.3733654294
 31
0.0
  0
LINE
  5
464
330
1B
100
AcDbEntity
  8
0
  6
Continuous
100
AcDbLine
 10
69.3363412633
 20
184.0116631065
 30
0.0
 11
69.3363412633
 21
177.0116631065
 31
0.0
  0
LINE
  5
466
330
1B
100
AcDbEntity
  8
0
  6
Continuous
100
AcDbLine
 10
69.5988412633
 20
177.9052801255
 30
0.0
 11
69.5988412633
 21
183.1180461917
 31
0.0
  0
LINE
  5
468
330
1B
100
AcDbEntity
  8
0
  6
Continuous
100
AcDbLine
 10
70.82384122160001
 20
181.6286842499
 30
0.0
 11
70.82384122160001
 21
179.3946417544
 31
0.0
  0
LINE
  5
469
330
1B
100
AcDbEntity
  8
0
  6
Continuous
100
AcDbLine
 10
71.08634122159999
 20
179.3946417544
 30
0.0
 11
71.08634122159999
 21
181.6286842499
 31
0.0
  0
LINE
  5
46A
330
1B
100
AcDbEntity
  8
0
  6
Continuous
100
AcDbLine
 10
70.82384122160001
 20
179.3946417544
 30
0.0
 11
70.78009126329999
 21
178.7988971446
 31
0.0
  0
LINE
  5
472
330
1B
100
AcDbEntity
  8
0
  6
Continuous
100
AcDbLine
 10
152.0363412633
 20
146.3116631065
 30
0.0
 11
150.3363412633
 21
146.3116631065
 31
0.0
  0
LINE
  5
473
330
1B
100
AcDbEntity
  8
0
  6
Continuous
100
AcDbLine
 10
97.33634126330001
 20
147.3116631065
 30
0.0
 11
99.17065583829999
 21
147.3116631065
 31
0.0
  0
LINE
  5
474
330
1B
100
AcDbEntity
  8
0
  6
Continuous
100
AcDbLine
 10
143.0591634376
 20
147.4116631064999
 30
0.0
 11
119.6135190891
 21
147.4116631064999
 31
0.0
  0
LINE
  5
475
330
1B
100
AcDbEntity
  8
0
  6
Continuous
100
AcDbLine
 10
100.6737674773
 20
147.9203262312
 30
0.0
 11
108.5989150493
 21
146.6651061685
 31
0.0
  0
LINE
  5
476
330
1B
100
AcDbEntity
  8
0
  6
Continuous
100
AcDbLine
 10
73.18634134680001
 20
177.0116631065
 30
0.0
 11
72.48634126330001
 21
184.0116631065
 31
0.0
  0
LINE
  5
477
330
1B
100
AcDbEntity
  8
0
  6
Continuous
100
AcDbLine
 10
72.74884126329999
 20
178.7988971446
 30
0.0
 11
72.9238413468
 21
177.0116631065
 31
0.0
  0
LINE
  5
478
330
1B
100
AcDbEntity
  8
0
  6
Continuous
100
AcDbLine
 10
72.31134117989998
 20
183.4159184966
 30
0.0
 11
72.7050911799
 21
179.3946417544
 31
0.0
  0
LINE
  5
47C
330
1B
100
AcDbEntity
  8
0
  6
Continuous
100
AcDbLine
 10
73.5363412633
 20
184.0116631065
 30
0.0
 11
73.5363412633
 21
183.2669823442
 31
0.0
  0
LINE
  5
47D
330
1B
100
AcDbEntity
  8
0
  6
Continuous
100
AcDbLine
 10
74.2363410964
 20
183.2669823442
 30
0.0
 11
74.2363410964
 21
177.0116631065
 31
0.0
  0
LINE
  5
47E
330
1B
100
AcDbEntity
  8
0
  6
Continuous
100
AcDbLine
 10
74.4988410964
 20
177.0116631065
 30
0.0
 11
74.4988410964
 21
183.2669823442
 31
0.0
  0
LINE
  5
47F
330
1B
100
AcDbEntity
  8
0
  6
Continuous
100
AcDbLine
 10
75.19884143020001
 20
183.2669823442
 30
0.0
 11
75.19884143020001
 21
184.0116631065
 31
0.0
  0
LINE
  5
480
330
1B
100
AcDbEntity
  8
0
  6
Continuous
100
AcDbLine
 10
71.0425912633
 20
178.6499609921
 30
0.0
 11
71.08634122159999
 21
179.3946417544
 31
0.0
  0
LINE
  5
481
330
1B
100
AcDbEntity
  8
0
  6
Continuous
100
AcDbLine
 10
71.9175911799
 20
179.3946417544
 30
0.0
 11
72.31134117989998
 21
183.4159184966
 31
0.0
  0
LINE
  5
482
330
1B
100
AcDbEntity
  8
0
  6
Continuous
100
AcDbLine
 10
71.6988412633
 20
177.0116631065
 30
0.0
 11
71.87384134680001
 21
178.7988971446
 31
0.0
  0
LINE
  5
483
330
1B
100
AcDbEntity
  8
0
  6
Continuous
100
AcDbLine
 10
72.1363413468
 20
184.0116631065
 30
0.0
 11
71.43634126329999
 21
177.0116631065
 31
0.0
  0
LINE
  5
484
330
1B
100
AcDbEntity
  8
0
  6
Continuous
100
AcDbLine
 10
70.9550912216
 20
178.054216278
 30
0.0
 11
71.0425912633
 21
178.6499609921
 31
0.0
  0
LINE
  5
486
330
1B
100
AcDbEntity
  8
0
  6
Continuous
100
AcDbLine
 10
70.78009126329999
 20
178.7988971446
 30
0.0
 11
70.6925912216
 21
178.3520886872
 31
0.0
  0
LINE
  5
487
330
1B
100
AcDbEntity
  8
0
  6
Continuous
100
AcDbLine
 10
70.78009126329999
 20
177.458471616
 30
0.0
 11
70.9550912216
 21
178.054216278
 31
0.0
  0
LINE
  5
48A
330
1B
100
AcDbEntity
  8
0
  6
Continuous
100
AcDbLine
 10
70.6925912216
 20
178.3520886872
 30
0.0
 11
70.5613412216
 21
178.054216278
 31
0.0
  0
LINE
  5
48C
330
1B
100
AcDbEntity
  8
0
  6
Continuous
100
AcDbLine
 10
89.1363412633
 20
207.3696149602
 30
0.0
 11
85.54981579299999
 21
205.9838535665
 31
0.0
  0
LINE
  5
48D
330
1B
100
AcDbEntity
  8
0
  6
Continuous
100
AcDbLine
 10
106.7271672978
 20
147.7599772062
 30
0.0
 11
108.5989150493
 21
147.4457754027
 31
0.0
  0
LINE
  5
48E
330
1B
100
AcDbEntity
  8
0
  6
Continuous
100
AcDbLine
 10
104.919534035
 20
148.0663935596
 30
0.0
 11
106.7271672978
 21
147.7599772062
 31
0.0
  0
LINE
  5
48F
330
1B
100
AcDbEntity
  8
0
  6
Continuous
100
AcDbLine
 10
103.1753972575
 20
148.3650243009
 30
0.0
 11
104.919534035
 21
148.0663935596
 31
0.0
  0
LWPOLYLINE
  5
490
330
1B
100
AcDbEntity
  8
0
  6
Continuous
100
AcDbPolyline
 90
        3
 70
     0
 43
0.0
 10
100.6737674773
 20
148.7990993853
 10
101.4922849521
 20
148.6562911764
 10
103.1753972575
 20
148.3650243009
  0
LINE
  5
495
330
1B
100
AcDbEntity
  8
0
  6
Continuous
100
AcDbLine
 10
96.90474720420001
 20
147.7432571656
 30
0.0
 11
97.33634126330001
 21
147.3116631065
 31
0.0
  0
LINE
  5
496
330
1B
100
AcDbEntity
  8
0
  6
Continuous
100
AcDbLine
 10
70.5613412216
 20
182.9691100392
 30
0.0
 11
70.6925912216
 21
182.6712377343
 31
0.0
  0
LINE
  5
497
330
1B
100
AcDbEntity
  8
0
  6
Continuous
100
AcDbLine
 10
70.9550912216
 20
182.9691100392
 30
0.0
 11
70.78009126329999
 21
183.5648546491
 31
0.0
  0
LINE
  5
498
330
1B
100
AcDbEntity
  8
0
  6
Continuous
100
AcDbLine
 10
70.6925912216
 20
182.6712377343
 30
0.0
 11
70.78009126329999
 21
182.2244288597
 31
0.0
  0
LINE
  5
499
330
1B
100
AcDbEntity
  8
0
  6
Continuous
100
AcDbLine
 10
71.0425912633
 20
182.3733654294
 30
0.0
 11
70.9550912216
 21
182.9691100392
 31
0.0
  0
LINE
  5
49B
330
1B
100
AcDbEntity
  8
0
  6
Continuous
100
AcDbLine
 10
77.2988414302
 20
177.0116631065
 30
0.0
 11
76.59884109639999
 21
184.0116631065
 31
0.0
  0
LINE
  5
49C
330
1B
100
AcDbEntity
  8
0
  6
Continuous
100
AcDbLine
 10
76.8613410964
 20
178.7988971446
 30
0.0
 11
77.0363414302
 21
177.0116631065
 31
0.0
  0
LINE
  5
49D
330
1B
100
AcDbEntity
  8
0
  6
Continuous
100
AcDbLine
 10
76.42384126330001
 20
183.4159184966
 30
0.0
 11
76.8175912633
 21
179.3946417544
 31
0.0
  0
LINE
  5
4A0
330
1B
100
AcDbEntity
  8
0
  6
Continuous
100
AcDbLine
 10
76.03009126329999
 20
179.3946417544
 30
0.0
 11
76.42384126330001
 21
183.4159184966
 31
0.0
  0
LINE
  5
4A1
330
1B
100
AcDbEntity
  8
0
  6
Continuous
100
AcDbLine
 10
75.8113410964
 20
177.0116631065
 30
0.0
 11
75.98634143019999
 21
178.7988971446
 31
0.0
  0
LINE
  5
4A2
330
1B
100
AcDbEntity
  8
0
  6
Continuous
100
AcDbLine
 10
76.2488414302
 20
184.0116631065
 30
0.0
 11
75.5488410964
 21
177.0116631065
 31
0.0
  0
LINE
  5
4A4
330
1B
100
AcDbEntity
  8
0
  6
Continuous
100
AcDbLine
 10
70.6050913051
 20
177.160599272
 30
0.0
 11
70.78009126329999
 21
177.458471616
 31
0.0
  0
LWPOLYLINE
  5
4AB
330
1B
100
AcDbEntity
  8
0
  6
Continuous
100
AcDbPolyline
 90
        4
 70
     0
 43
0.0
 10
74.91305749830001
 20
153.7976443795
 10
75.01573845750001
 20
153.805829333
 10
75.1316517745
 20
153.8108210266
 10
75.2027390498
 20
153.8116634676
  0
LINE
  5
4B1
330
1B
100
AcDbEntity
  8
0
  6
Continuous
100
AcDbLine
 10
153.7363412633
 20
153.6616631064999
 30
0.0
 11
153.0363412633
 21
153.6616631064999
 31
0.0
  0
LINE
  5
4B2
330
1B
100
AcDbEntity
  8
0
  6
Continuous
100
AcDbLine
 10
108.9363412633
 20
153.6616631064999
 30
0.0
 11
107.3363412633
 21
153.6616631064999
 31
0.0
  0
LINE
  5
4B3
330
1B
100
AcDbEntity
  8
0
  6
Continuous
100
AcDbLine
 10
75.2027390953
 20
153.8116631065
 30
0.0
 11
92.7141051386
 21
153.8116631065
 31
0.0
  0
LWPOLYLINE
  5
4B4
330
1B
100
AcDbEntity
  8
0
  6
Continuous
100
AcDbPolyline
 90
        6
 70
     0
 43
0.0
 10
105.2800794005
 20
150.4340199158
 10
105.9686736352
 20
150.1985007261
 10
106.6784971918
 20
149.9591312335
 10
107.4098825604
 20
149.7157259675
 10
108.1624972509
 20
149.4685708297
 10
108.9363412633
 20
149.2177262543
  0
LWPOLYLINE
  5
4BC
330
1B
100
AcDbEntity
  8
0
  6
Continuous
100
AcDbPolyline
 90
        5
 70
     0
 43
0.0
 10
102.7270235097
 20
151.3442572833
 10
103.3350228272
 20
151.1216101923
 10
103.9632539965
 20
150.8956223338
 10
104.6117170176
 20
150.6663339639
 10
105.2800794005
 20
150.4340199158
  0
LINE
  5
4C3
330
1B
100
AcDbEntity
  8
0
  6
Continuous
100
AcDbLine
 10
70.78009126329999
 20
183.5648546491
 30
0.0
 11
70.6050913051
 21
183.862726954
 31
0.0
  0
LWPOLYLINE
  5
4C9
330
1B
100
AcDbEntity
  8
0
  6
Continuous
100
AcDbPolyline
 90
       22
 70
     0
 43
0.0
 10
103.3352405362
 20
159.304046654
 10
102.6552935315
 20
159.2180136307
 10
102.5826986601
 20
159.2101543742
 10
102.5092388955
 20
159.2033974046
 10
102.4347454443
 20
159.1977273596
 10
102.3593871
 20
159.1931859127
 10
102.2836702426
 20
159.1898726119
 10
102.2075810458
 20
159.1878207441
 10
102.131133336
 20
159.1870093363
 10
102.0548749726
 20
159.1874530723
 10
101.9788421002
 20
159.1891743904
 10
101.9029985742
 20
159.1921458442
 10
101.8277838204
 20
159.1963032946
 10
101.7532390144
 20
159.2016511557
 10
101.6793229806
 20
159.2081639469
 10
101.6063516179
 20
159.2157302348
 10
101.5343610474
 20
159.2243390115
 10
101.463315148
 20
159.2339679798
 10
101.3934214551
 20
159.2444886429
 10
101.3247491472
 20
159.2558453326
 10
101.2572290459
 20
159.2680529366
 10
101.1908611511
 20
159.2810880926
  0
LWPOLYLINE
  5
4E1
330
1B
100
AcDbEntity
  8
0
  6
Continuous
100
AcDbPolyline
 90
        5
 70
     0
 43
0.0
 10
105.969381262
 20
159.5766605873
 10
105.2807182466
 20
159.5141411128
 10
104.6122455521
 20
159.4478016992
 10
103.9636478837
 20
159.3777051708
 10
103.3352405362
 20
159.304046654
  0
LWPOLYLINE
  5
4E8
330
1B
100
AcDbEntity
  8
0
  6
Continuous
100
AcDbPolyline
 90
        3
 70
     0
 43
0.0
 10
107.4104312042
 20
159.6901966028999
 10
106.6791804829
 20
159.6353872309
 10
105.969381262
 20
159.5766605873
  0
LWPOLYLINE
  5
4ED
330
1B
100
AcDbEntity
  8
0
  6
Continuous
100
AcDbPolyline
 90
        3
 70
     0
 43
0.0
 10
108.9363412633
 20
159.7871868348
 10
108.162818131
 20
159.740855344
 10
107.4104312042
 20
159.6901966028999
  0
LWPOLYLINE
  5
4F2
330
1B
100
AcDbEntity
  8
0
  6
Continuous
100
AcDbPolyline
 90
        4
 70
     0
 43
0.0
 10
108.9107456385
 20
159.9795452561
 10
108.9244877099
 20
159.9801727559
 10
108.9330195848
 20
159.9806484621
 10
108.9363412633
 20
159.9809477836
  0
LINE
  5
4F8
330
1B
100
AcDbEntity
  8
0
  6
Continuous
100
AcDbLine
 10
108.8668327077
 20
159.9779024404
 30
0.0
 11
108.9107456385
 21
159.9795452561
 31
0.0
  0
LWPOLYLINE
  5
4F9
330
1B
100
AcDbEntity
  8
0
  6
Continuous
100
AcDbPolyline
 90
       13
 70
     0
 43
0.0
 10
100.6737674773
 20
159.8532899364
 10
100.6295788505
 20
159.851812854
 10
100.5873897359
 20
159.8495711016
 10
100.5472001335
 20
159.8465453282
 10
100.5084244154
 20
159.8426730017
 10
100.4716482094
 20
159.8379572312
 10
100.4386283994
 20
159.8324729172
 10
100.4094530711
 20
159.826150778
 10
100.3840341389
 20
159.8189772455
 10
100.3638642293
 20
159.8111234012
 10
100.3494408847
 20
159.8026279732
 10
100.3402665627
 20
159.7933815564
 10
100.3363412633
 20
159.7833437702
  0
LINE
  5
508
330
1B
100
AcDbEntity
  8
0
  6
Continuous
100
AcDbLine
 10
108.8055522134
 20
159.9760572386
 30
0.0
 11
108.8668327077
 21
159.9779024404
 31
0.0
  0
LINE
  5
509
330
1B
100
AcDbEntity
  8
0
  6
Continuous
100
AcDbLine
 10
108.7296547694
 20
159.9743426281
 30
0.0
 11
108.8055522134
 21
159.9760572386
 31
0.0
  0
LINE
  5
50A
330
1B
100
AcDbEntity
  8
0
  6
Continuous
100
AcDbLine
 10
108.6449545387
 20
159.9731168435
 30
0.0
 11
108.7296547694
 21
159.9743426281
 31
0.0
  0
LWPOLYLINE
  5
50B
330
1B
100
AcDbEntity
  8
0
  6
Continuous
100
AcDbPolyline
 90
       10
 70
     0
 43
0.0
 10
108.6449545387
 20
159.9731168435
 10
107.6551088051
 20
159.9661193385
 10
106.727265894
 20
159.9576894555
 10
105.8153863161
 20
159.947513378
 10
104.9196764183
 20
159.9356612461
 10
104.0399298537
 20
159.9221961129
 10
103.1755275813
 20
159.9071687244
 10
102.3262632544
 20
159.8906336572
 10
101.4923432197
 20
159.8726544908
 10
100.6737674773
 20
159.8532899364
  0
LINE
  5
517
330
1B
100
AcDbEntity
  8
0
  6
Continuous
100
AcDbLine
 10
100.3363412633
 20
159.440104827
 30
0.0
 11
100.5307352483
 21
159.4063765369
 31
0.0
  0
LINE
  5
518
330
1B
100
AcDbEntity
  8
0
  6
Continuous
100
AcDbLine
 10
100.5307352483
 20
159.4063765369
 30
0.0
 11
100.7225594077
 21
159.3717254589
 31
0.0
  0
LINE
  5
519
330
1B
100
AcDbEntity
  8
0
  6
Continuous
100
AcDbLine
 10
100.7225594077
 20
159.3717254589
 30
0.0
 11
100.9118123939
 21
159.3361579689
 31
0.0
  0
LWPOLYLINE
  5
51A
330
1B
100
AcDbEntity
  8
0
  6
Continuous
100
AcDbPolyline
 90
        3
 70
     0
 43
0.0
 10
100.9118123939
 20
159.3361579689
 10
101.0984888152
 20
159.2996721798
 10
101.1908611511
 20
159.2810880926
  0
LINE
  5
51F
330
1B
100
AcDbEntity
  8
0
  6
Continuous
100
AcDbLine
 10
150.3363412633
 20
146.3116631065
 30
0.0
 11
147.2173972536
 21
146.9746151212
 31
0.0
  0
LINE
  5
520
330
1B
100
AcDbEntity
  8
0
  6
Continuous
100
AcDbLine
 10
70.3863412633
 20
183.1180461917
 30
0.0
 11
70.5613412216
 21
182.9691100392
 31
0.0
  0
LINE
  5
526
330
1B
100
AcDbEntity
  8
0
  6
Continuous
100
AcDbLine
 10
70.5613412216
 20
178.054216278
 30
0.0
 11
70.3863412633
 21
177.9052801255
 31
0.0
  0
LWPOLYLINE
  5
529
330
1B
100
AcDbEntity
  8
0
  6
Continuous
100
AcDbPolyline
 90
       70
 70
     0
 43
0.0
 10
75.4046178816
 20
153.862694391
 10
75.4550114547
 20
153.8761607155
 10
75.5116586187
 20
153.891689989
 10
75.5753104449
 20
153.9095539953
 10
75.6468758732
 20
153.9301464514
 10
75.7254459637
 20
153.9534952313
 10
75.80904496780001
 20
153.9792320938
 10
75.89777991050001
 20
154.0073616147
 10
75.99154376680001
 20
154.0380050825
 10
76.0880397131
 20
154.0707399598
 10
76.1868243063
 20
154.1053714349
 10
76.2883409896
 20
154.1420177123
 10
76.391623268
 20
154.1806262627
 10
76.4964753053
 20
154.2211234092
 10
76.6030929378
 20
154.263513768
 10
76.71109718
 20
154.3078728436
 10
76.820422627
 20
154.3541850443
 10
76.9311346837
 20
154.4024293883
 10
77.04305057889999
 20
154.4527008482
 10
77.155963821
 20
154.5049207636
 10
77.2700809015
 20
154.5591502757
 10
77.3858385238
 20
154.6157443251
 10
77.5030800174
 20
154.6746742646
 10
77.6219620528
 20
154.7360249544
 10
77.74339134420001
 20
154.8004137648
 10
77.86732400770001
 20
154.8679151421
 10
77.99380392729999
 20
154.9386230684
 10
78.12386946949999
 20
155.0132993489
 10
78.257507176
 20
155.0920869859
 10
78.3947305052
 20
155.1751339628
 10
78.5366181989
 20
155.2633340937
 10
78.68319468910001
 20
155.3569134032
 10
78.8344355439
 20
155.4560737189
 10
78.9913462088
 20
155.5618029297
 10
79.1541214999
 20
155.6745101073
 10
79.32256660109999
 20
155.7943634588
 10
79.49710250969999
 20
155.9220935709
 10
79.67794211330001
 20
156.0581708494
 10
79.8648725242
 20
156.2027870547
 10
80.05767607670001
 20
156.3562939538
 10
80.2562575231
 20
156.5189159861
 10
80.46071211100001
 20
156.6910733119
 10
80.6711079175
 20
156.8734343974
 10
80.88718265919998
 20
157.0660630348
 10
81.10919861950001
 20
157.2695475302
 10
81.3380107254
 20
157.4854465276
 10
81.57355439129998
 20
157.7140236467
 10
81.8158942028
 20
157.9557806113
 10
82.0660788436
 20
158.2128179407
 10
82.3242806474
 20
158.4856651359
 10
82.59032728059999
 20
158.7746693533
 10
82.86475042630001
 20
159.0818344327
 10
83.1476838709
 20
159.4076017305
 10
83.43899382790001
 20
159.7523574606
 10
83.73881062169998
 20
160.1181421614
 10
84.04685683930001
 20
160.5046712287
 10
84.36340989359999
 20
160.9127905501
 10
84.6894323481
 20
161.3463779871
 10
85.0250699458
 20
161.8053063821
 10
85.3701769437
 20
162.2898766823
 10
85.7252786757
 20
162.8047233872
 10
86.0919519647
 20
163.3513583464
 10
86.468619988
 20
163.9274601264
 10
86.85107761090001
 20
164.5316278969
 10
87.2414614482
 20
165.1661219781
 10
87.63763488509999
 20
165.8256119391
 10
88.0289829434
 20
166.4966987056
 10
88.41196729719999
 20
167.1732201579
 10
88.7901262725
 20
167.856212496
 10
89.1634598692
 20
168.5427092005
  0
LINE
  5
571
330
1B
100
AcDbEntity
  8
0
  6
Continuous
100
AcDbLine
 10
75.32267187790001
 20
153.841412141
 30
0.0
 11
75.4046178816
 21
153.862694391
 31
0.0
  0
LWPOLYLINE
  5
572
330
1B
100
AcDbEntity
  8
0
  6
Continuous
100
AcDbPolyline
 90
        3
 70
     0
 43
0.0
 10
75.2027390953
 20
153.8116631065
 10
75.2049625808
 20
153.8122286061
 10
75.2242350774
 20
153.8168686283
  0
LINE
  5
577
330
1B
100
AcDbEntity
  8
0
  6
Continuous
100
AcDbLine
 10
75.26298152619999
 20
153.8264076123
 30
0.0
 11
75.32267187790001
 21
153.841412141
 31
0.0
  0
LINE
  5
578
330
1B
100
AcDbEntity
  8
0
  6
Continuous
100
AcDbLine
 10
75.2242350774
 20
153.8168686283
 30
0.0
 11
75.26298152619999
 21
153.8264076123
 31
0.0
  0
LWPOLYLINE
  5
579
330
1B
100
AcDbEntity
  8
0
  6
Continuous
100
AcDbPolyline
 90
       13
 70
     0
 43
0.0
 10
89.1637217354
 20
168.5427971633
 10
88.94772074940001
 20
168.6324268998
 10
88.7312718184
 20
168.7243425435
 10
88.5165853669
 20
168.8191892858
 10
88.306334028
 20
168.9184305452
 10
88.1019657956
 20
169.0216867347
 10
87.90365934289999
 20
169.1265418002
 10
87.7131034195
 20
169.233046109
 10
87.53202480100001
 20
169.3414213383
 10
87.3605262737
 20
169.4492584431
 10
87.19965289660001
 20
169.5558001444
 10
87.0513308612
 20
169.6619627197
 10
86.91689269879998
 20
169.7678458213
  0
LINE
  5
588
330
1B
100
AcDbEntity
  8
0
  6
Continuous
100
AcDbLine
 10
70.6050913051
 20
183.862726954
 30
0.0
 11
70.3863412633
 21
184.0116631065
 31
0.0
  0
LWPOLYLINE
  5
589
330
1B
100
AcDbEntity
  8
0
  6
Continuous
100
AcDbPolyline
 90
       16
 70
     0
 43
0.0
 10
89.1637217354
 20
168.5427971633
 10
89.0018921787
 20
168.712069318
 10
88.8410770903
 20
168.8855643308
 10
88.6822845758
 20
169.0621944652
 10
88.5265099283
 20
169.2408524451
 10
88.3747298147
 20
169.4204180913
 10
88.2278961279
 20
169.5997653465
 10
88.086929407
 20
169.7777698021
 10
87.952713231
 20
169.9533155929
 10
87.82608906580001
 20
170.1253020963
 10
87.7078507239
 20
170.2926511511
 10
87.59873926509999
 20
170.4543137642
 10
87.4994384904
 20
170.6092765399
 10
87.4105708045
 20
170.7565681381
 10
87.332693299
 20
170.895265362
 10
87.26629412609999
 20
171.0244989018
  0
LINE
  5
59B
330
1B
100
AcDbEntity
  8
0
  6
Continuous
100
AcDbLine
 10
95.41869745220001
 20
151.7363564327
 30
0.0
 11
96.12829020100001
 21
149.0881202418
 31
0.0
  0
LINE
  5
59C
330
1B
100
AcDbEntity
  8
0
  6
Continuous
100
AcDbLine
 10
89.1363412633
 20
200.5116631065
 30
0.0
 11
89.1363412633
 21
207.3696149602
 31
0.0
  0
LINE
  5
59D
330
1B
100
AcDbEntity
  8
0
  6
Continuous
100
AcDbLine
 10
92.33634126330001
 20
185.0714610811
 30
0.0
 11
92.33634126330001
 21
199.5116631065
 31
0.0
  0
LWPOLYLINE
  5
59E
330
1B
100
AcDbEntity
  8
0
  6
Continuous
100
AcDbPolyline
 90
       10
 70
     0
 43
0.0
 10
86.91689269879998
 20
169.7678458213
 10
86.9336736735
 20
169.9159651306
 10
86.9565727642
 20
170.0629673158
 10
86.9852786813
 20
170.2083816391
 10
87.01913894969999
 20
170.3516364398
 10
87.0580821981
 20
170.4923675544
 10
87.10262493850001
 20
170.6304278131
 10
87.1526417088
 20
170.7654767117
 10
87.2073614267
 20
170.8969751167
 10
87.26629412609999
 20
171.0244989018
  0
LWPOLYLINE
  5
5AA
330
1B
100
AcDbEntity
  8
0
  6
Continuous
100
AcDbPolyline
 90
        7
 70
     0
 43
0.0
 10
90.84167068070001
 20
179.9683867777
 10
90.73134955080001
 20
179.2304779344
 10
90.6251026704
 20
178.5071789762
 10
90.52365660280002
 20
177.7984899031
 10
90.4276793025
 20
177.1044107152
 10
90.3377812435
 20
176.4249414123
 10
90.25451654360001
 20
175.7600819946
  0
LWPOLYLINE
  5
5B3
330
1B
100
AcDbEntity
  8
0
  6
Continuous
100
AcDbPolyline
 90
       16
 70
     0
 43
0.0
 10
92.151765629
 20
184.6216416603
 10
92.0866542645
 20
184.4604879554
 10
92.0137813832
 20
184.275357176
 10
91.93389151220001
 20
184.0662493221
 10
91.847416369
 20
183.8327467848
 10
91.75530224880001
 20
183.575267173
 10
91.6592696022
 20
183.295063313
 10
91.56000624689999
 20
182.9910144935
 10
91.45852638220001
 20
182.6642414257
 10
91.35752873660002
 20
182.3193590704
 10
91.2580315263
 20
181.9545951195
 10
91.1610323968
 20
181.571721881
 10
91.0696656391
 20
181.1806712391
 10
90.98574596100001
 20
180.784753822
 10
90.9094779447
 20
180.3806590015
 10
90.84167068070001
 20
179.9683867777
  0
LINE
  5
5C5
330
1B
100
AcDbEntity
  8
0
  6
Continuous
100
AcDbLine
 10
92.31692002059999
 20
185.024395255
 30
0.0
 11
92.151765629
 21
184.6216416603
 31
0.0
  0
LWPOLYLINE
  5
5C6
330
1B
100
AcDbEntity
  8
0
  6
Continuous
100
AcDbPolyline
 90
        3
 70
     0
 43
0.0
 10
92.33634126330001
 20
185.0714610811
 10
92.33422910340001
 20
185.0669427612
 10
92.31692002059999
 20
185.024395255
  0
LINE
  5
5CB
330
1B
100
AcDbEntity
  8
0
  6
Continuous
100
AcDbLine
 10
70.3863412633
 20
177.0116631065
 30
0.0
 11
70.6050913051
 21
177.160599272
 31
0.0
  0
LWPOLYLINE
  5
5CC
330
1B
100
AcDbEntity
  8
0
  6
Continuous
100
AcDbPolyline
 90
       13
 70
     0
 43
0.0
 10
91.48399799969999
 20
171.1422743287
 10
91.2328673796
 20
171.2230080702
 10
90.98370969079998
 20
171.3150604443
 10
90.73848294840001
 20
171.4177081334
 10
90.49911436870001
 20
171.5301445220999
 10
90.26748499120001
 20
171.6514861099
 10
90.0454149206
 20
171.7807794776
 10
89.834649353
 20
171.9170086534
 10
89.63684476189999
 20
172.0591031015
 10
89.4535556785
 20
172.2059462304
 10
89.28622263610001
 20
172.3563840937
 10
89.13616083300001
 20
172.5092344535999
 10
89.00454973349999
 20
172.6632961045
  0
LWPOLYLINE
  5
5DB
330
1B
100
AcDbEntity
  8
0
  6
Continuous
100
AcDbPolyline
 90
       28
 70
     0
 43
0.0
 10
90.2545505201
 20
175.7600627343
 10
90.37530155730001
 20
175.6835487302
 10
90.51585448249999
 20
175.6076715487
 10
90.67503772850002
 20
175.5330638476
 10
90.85152443490001
 20
175.4603477172
 10
91.0438435093
 20
175.3901294997
 10
91.25039188989999
 20
175.3229947342
 10
91.4694479059
 20
175.2595032651
 10
91.6991856285
 20
175.2001845692
 10
91.9376900908
 20
175.1455333481
 10
92.1829732513
 20
175.0960054025
 10
92.4329905645
 20
175.0520138325
 10
92.68565802240001
 20
175.0139255887
 10
92.93886952619999
 20
174.9820584088
 10
93.19051444190001
 20
174.9566781722
 10
93.4384951932
 20
174.9379966814
 10
93.6807447449
 20
174.9261698861
 10
93.9152438334
 20
174.9212965879
 10
94.14003779870001
 20
174.9234176181
 10
94.3532528755
 20
174.9325154838
 10
94.55311181289999
 20
174.9485145189
 10
94.7379486896
 20
174.9712815167
 10
94.90622279830001
 20
175.000626831
 10
95.05653148880001
 20
175.0363059571
 10
95.1876218603
 20
175.0780215727
 10
95.2984012049
 20
175.1254260139
 10
95.38794611580001
 20
175.1781241729
 10
95.4555101843
 20
175.2356767907
  0
LWPOLYLINE
  5
5FC
330
1B
100
AcDbEntity
  8
0
  6
Continuous
100
AcDbPolyline
 90
       16
 70
     0
 43
0.0
 10
90.2545505201
 20
175.7600627343
 10
90.32776905149999
 20
175.5557665731
 10
90.4170455607
 20
175.3525981313
 10
90.5223650769
 20
175.1514715539
 10
90.6438772189
 20
174.9522453339
 10
90.78100880380001
 20
174.7564179215
 10
90.93178343380001
 20
174.5657739907
 10
91.09494924089998
 20
174.3810589088
 10
91.2700693773
 20
174.2036411134
 10
91.4556898254
 20
174.0354892021
 10
91.65078853969999
 20
173.8775465614
 10
91.8541127467
 20
173.7305518634
 10
92.0635373842
 20
173.5956628716
 10
92.2774201435
 20
173.4736068724
 10
92.49473795390001
 20
173.3649480003
 10
92.7141786963
 20
173.2703655864
  0
LWPOLYLINE
  5
60E
330
1B
100
AcDbEntity
  8
0
  6
Continuous
100
AcDbPolyline
 90
       25
 70
     0
 43
0.0
 10
92.1517641466
 20
184.6216416603
 10
92.17541121550001
 20
184.3619043887
 10
92.22485227209999
 20
184.1046038784
 10
92.29962348269999
 20
183.8521540077
 10
92.39902337709999
 20
183.6069231487
 10
92.52211943
 20
183.3712119478
 10
92.66775680909998
 20
183.1472317422
 10
92.83456920970001
 20
182.9370838144
 10
93.0209916723
 20
182.7427396782
 10
93.2252752646
 20
182.5660225837
 10
93.44550348919999
 20
182.4085904117
 10
93.67961026339999
 20
182.2719201206
 10
93.92539930179999
 20
182.1572938901
 10
94.18056472160001
 20
182.0657870923
 10
94.44271267480001
 20
181.9982582031
 10
94.7093838063
 20
181.9553407486
 10
94.97807632679998
 20
181.9374373611
 10
95.24626948300001
 20
181.9447160023
 10
95.51144720640001
 20
181.9771083872
 10
95.7711217183
 20
182.0343106249
 10
96.0228568682
 20
182.1157860697
 10
96.2642909895
 20
182.2207703553999
 10
96.49315905500001
 20
182.3482785664
 10
96.70731392690001
 20
182.4971144774
 10
96.9047464997
 20
182.6658817767
  0
LINE
  5
629
330
1B
100
AcDbEntity
  8
0
  6
Continuous
100
AcDbLine
 10
92.7141051386
 20
153.8116631065
 30
0.0
 11
92.714116846
 21
173.2703692973
 31
0.0
  0
LINE
  5
62A
330
1B
100
AcDbEntity
  8
0
  6
Continuous
100
AcDbLine
 10
95.41869745220001
 20
151.7363564327
 30
0.0
 11
95.41869788850001
 21
174.706597487
 31
0.0
  0
LINE
  5
62B
330
1B
100
AcDbEntity
  8
0
  6
Continuous
100
AcDbLine
 10
96.12829020100001
 20
149.0881202418
 30
0.0
 11
96.12829020100001
 21
179.3416767348
 31
0.0
  0
LWPOLYLINE
  5
62C
330
1B
100
AcDbEntity
  8
0
  6
Continuous
100
AcDbPolyline
 90
       16
 70
     0
 43
0.0
 10
95.4555101699
 20
175.2356767935
 10
95.4513185963
 20
175.2057084392
 10
95.4473169138
 20
175.1743620407
 10
95.4435051225
 20
175.141628005
 10
95.4398574765
 20
175.1072428888
 10
95.4363997217
 20
175.0714456276
 10
95.43320909530002
 20
175.0349791925
 10
95.4302913367
 20
174.9978094242
 10
95.4276407066
 20
174.9599405481
 10
95.4253172243
 20
174.9221763803
 10
95.4233286218
 20
174.8844864519
 10
95.4216671672
 20
174.84687319
 10
95.4203696842
 20
174.8101982438
 10
95.41944844739999
 20
174.7747455632
 10
95.41889118209998
 20
174.7402149211
 10
95.41869788850001
 20
174.706597487
  0
LWPOLYLINE
  5
63E
330
1B
100
AcDbEntity
  8
0
  6
Continuous
100
AcDbPolyline
 90
        7
 70
     0
 43
0.0
 10
96.12829020100001
 20
179.3416767348
 10
96.0006380084
 20
178.6186078435
 10
95.8791946907
 20
177.910698179
 10
95.76396024810001
 20
177.218299918
 10
95.6549346804
 20
176.541633314
 10
95.5521179876
 20
175.8807799571
 10
95.4555101699
 20
175.2356767935
  0
LWPOLYLINE
  5
647
330
1B
100
AcDbEntity
  8
0
  6
Continuous
100
AcDbPolyline
 90
        4
 70
     0
 43
0.0
 10
89.00458492730002
 20
172.6632961031
 10
89.2006410571
 20
173.2128762672
 10
89.40329307659999
 20
173.7490767584
 10
89.6113452868
 20
174.2718975767
  0
LWPOLYLINE
  5
64D
330
1B
100
AcDbEntity
  8
0
  6
Continuous
100
AcDbPolyline
 90
        4
 70
     0
 43
0.0
 10
89.6113452868
 20
174.2718975767
 10
89.82350769270001
 20
174.7813387222
 10
90.03839344470001
 20
175.2774001948
 10
90.25451654360001
 20
175.7600819946
  0
LINE
  5
653
330
1B
100
AcDbEntity
  8
0
  6
Continuous
100
AcDbLine
 10
101.1908611511
 20
171.3422381203
 30
0.0
 11
101.0054741078
 21
171.3052973703
 31
0.0
  0
LWPOLYLINE
  5
654
330
1B
100
AcDbEntity
  8
0
  6
Continuous
100
AcDbPolyline
 90
       21
 70
     0
 43
0.0
 10
101.1908611511
 20
171.3422381203
 10
101.2576230734
 20
171.3553513142
 10
101.3255880686
 20
171.3676294196
 10
101.3947561366
 20
171.3790487212
 10
101.4652300954
 20
171.3896282477
 10
101.536907127
 20
171.3993076451
 10
101.6094787776
 20
171.4079446149
 10
101.6829785696
 20
171.4155098442
 10
101.7573729806
 20
171.4219985299
 10
101.8322529889
 20
171.4273052286
 10
101.9076309782
 20
171.4313993117
 10
101.9834945648
 20
171.4342902583
 10
102.0593975755
 20
171.4359355503
 10
102.1353442551
 20
171.4363102107
 10
102.2113303588
 20
171.4354345651
 10
102.2868969789
 20
171.4333381099
 10
102.3620224874
 20
171.4300068128
 10
102.4367285123
 20
171.4254669472
 10
102.5106210294
 20
171.419811837
 10
102.5835686973
 20
171.4130809741
 10
102.6557028574
 20
171.4052608011
  0
LINE
  5
66B
330
1B
100
AcDbEntity
  8
0
  6
Continuous
100
AcDbLine
 10
101.0054741078
 20
171.3052973703
 30
0.0
 11
100.8175108481
 21
171.2692699888
 31
0.0
  0
LINE
  5
66C
330
1B
100
AcDbEntity
  8
0
  6
Continuous
100
AcDbLine
 10
100.8175108481
 20
171.2692699888
 30
0.0
 11
100.6269721901
 21
171.2341614253
 31
0.0
  0
LWPOLYLINE
  5
66D
330
1B
100
AcDbEntity
  8
0
  6
Continuous
100
AcDbPolyline
 90
        3
 70
     0
 43
0.0
 10
100.6269721901
 20
171.2341614253
 10
100.4338614066
 20
171.1999698485
 10
100.3363412633
 20
171.1832213859
  0
LINE
  5
672
330
1B
100
AcDbEntity
  8
0
  6
Continuous
100
AcDbLine
 10
54.88623111199999
 20
169.7678458213
 30
0.0
 11
86.91689269879998
 21
169.7678458213
 31
0.0
  0
LINE
  5
673
330
1B
100
AcDbEntity
  8
0
  6
Continuous
100
AcDbLine
 10
54.4235054688
 20
171.024498901
 30
0.0
 11
87.2662941257
 21
171.024498901
 31
0.0
  0
LINE
  5
674
330
1B
100
AcDbEntity
  8
0
  6
Continuous
100
AcDbLine
 10
53.9363412633
 20
172.6632961031
 30
0.0
 11
89.00458492730002
 21
172.6632961031
 31
0.0
  0
LINE
  5
675
330
1B
100
AcDbEntity
  8
0
  6
Continuous
100
AcDbLine
 10
108.6448680799
 20
170.6502097817
 30
0.0
 11
107.6550526126
 21
170.6572073296
 31
0.0
  0
LINE
  5
676
330
1B
100
AcDbEntity
  8
0
  6
Continuous
100
AcDbLine
 10
108.7293884775
 20
170.6489885564
 30
0.0
 11
108.6448680799
 21
170.6502097817
 31
0.0
  0
LWPOLYLINE
  5
677
330
1B
100
AcDbEntity
  8
0
  6
Continuous
100
AcDbPolyline
 90
        9
 70
     0
 43
0.0
 10
100.6737674773
 20
170.7700362765
 10
101.4922849521
 20
170.7506730276
 10
102.3261615455
 20
170.7326946338
 10
103.1753972575
 20
170.7161598902
 10
104.0397860869
 20
170.7011324526
 10
104.919534035
 20
170.6876669984
 10
105.8152591049
 20
170.6758143867
 10
106.7271672978
 20
170.6656377586
 10
107.6550526126
 20
170.6572073296
  0
LINE
  5
682
330
1B
100
AcDbEntity
  8
0
  6
Continuous
100
AcDbLine
 10
108.8050518275
 20
170.6472833591
 30
0.0
 11
108.7293884775
 21
170.6489885564
 31
0.0
  0
LINE
  5
683
330
1B
100
AcDbEntity
  8
0
  6
Continuous
100
AcDbLine
 10
108.866337704
 20
170.6454401136
 30
0.0
 11
108.8050518275
 21
170.6472833591
 31
0.0
  0
LWPOLYLINE
  5
684
330
1B
100
AcDbEntity
  8
0
  6
Continuous
100
AcDbPolyline
 90
        4
 70
     0
 43
0.0
 10
106.6784971918
 20
170.9879928263
 10
107.4098825604
 20
170.9331690471
 10
108.1624972509
 20
170.8824917503
 10
108.9363412633
 20
170.8361393782
  0
LWPOLYLINE
  5
68A
330
1B
100
AcDbEntity
  8
0
  6
Continuous
100
AcDbPolyline
 90
        5
 70
     0
 43
0.0
 10
108.9363412633
 20
170.6423784294
 10
108.9329404655
 20
170.6426802261
 10
108.9243242302
 20
170.6431598476
 10
108.9104925575
 20
170.6437916529
 10
108.866337704
 20
170.6454401136
  0
LWPOLYLINE
  5
691
330
1B
100
AcDbEntity
  8
0
  6
Continuous
100
AcDbPolyline
 90
        3
 70
     0
 43
0.0
 10
105.2800794005
 20
171.1092457988
 10
105.9686736352
 20
171.0467267997
 10
106.6784971918
 20
170.9879928263
  0
LWPOLYLINE
  5
696
330
1B
100
AcDbEntity
  8
0
  6
Continuous
100
AcDbPolyline
 90
        5
 70
     0
 43
0.0
 10
102.6557028574
 20
171.4052608011
 10
103.3350228272
 20
171.3193054067
 10
103.9632539965
 20
171.2456648596
 10
104.6117170176
 20
171.1755792496
 10
105.2800794005
 20
171.1092457988
  0
LWPOLYLINE
  5
6A0
330
1B
100
AcDbEntity
  8
0
  6
Continuous
100
AcDbPolyline
 90
       28
 70
     0
 43
0.0
 10
90.84167329650001
 20
179.9683867778
 10
90.94706193710002
 20
179.8585127351
 10
91.0748535905
 20
179.7496325997
 10
91.22389228580001
 20
179.6427312756
 10
91.39282985689999
 20
179.5387757668
 10
91.5801381373
 20
179.4387064303
 10
91.7841227835
 20
179.3434284703
 10
92.002938602
 20
179.2538037483
 10
92.23460624019999
 20
179.1706429893
 10
92.47703009120001
 20
179.0946984477
 10
92.72801725029999
 20
179.026657101
 10
92.98529735069999
 20
178.9671344353
 10
93.2465431016
 20
178.9166688797
 10
93.5093913396
 20
178.8757169353
 10
93.77146440609999
 20
178.8446490444
 10
94.03039165369999
 20
178.8237462393
 10
94.283830892
 20
178.8131976033
 10
94.5294895736
 20
178.8130985587
 10
94.76514553200001
 20
178.8234500017
 10
94.98866708280001
 20
178.8441582971
 10
95.1980323067
 20
178.8750361251
 10
95.39134733900001
 20
178.9158041749
 10
95.56686350059999
 20
178.9660936704
 10
95.72299311690001
 20
179.0254497075
 10
95.858323879
 20
179.0933353691
 10
95.97163161899999
 20
179.1691365806
 10
96.06189138400001
 20
179.2521676647
 10
96.12828670689999
 20
179.3416775446
  0
LWPOLYLINE
  5
6BE
330
1B
100
AcDbEntity
  8
0
  6
Continuous
100
AcDbPolyline
 90
       13
 70
     0
 43
0.0
 10
100.3363412633
 20
149.2396193155
 10
100.3402665627
 20
149.1819638236
 10
100.3494408847
 20
149.1274423837
 10
100.3638642293
 20
149.0760628641
 10
100.3840341389
 20
149.0273849671
 10
100.4094530711
 20
148.9818621138
 10
100.4386283994
 20
148.9408439776
 10
100.4716482094
 20
148.9045364607
 10
100.5084244154
 20
148.8727470496
 10
100.5472001335
 20
148.8462293842
 10
100.5873897359
 20
148.8252378968
 10
100.6295788505
 20
148.8095269675
 10
100.6737674773
 20
148.7990993853
  0
LINE
  5
6CD
330
1B
100
AcDbEntity
  8
0
  6
Continuous
100
AcDbLine
 10
96.90474720500001
 20
147.7432571648
 30
0.0
 11
96.90474733630001
 21
182.6658809503
 31
0.0
  0
LINE
  5
6CE
330
1B
100
AcDbEntity
  8
0
  6
Continuous
100
AcDbLine
 10
97.33634126330001
 20
147.3116631065
 30
0.0
 11
97.33634126330001
 21
183.3116631065
 31
0.0
  0
LINE
  5
6CF
330
1B
100
AcDbEntity
  8
0
  6
Continuous
100
AcDbLine
 10
99.17065583800002
 20
147.3116631065
 30
0.0
 11
99.17065583800002
 21
183.3116631064
 31
0.0
  0
LINE
  5
6D0
330
1B
100
AcDbEntity
  8
0
  6
Continuous
100
AcDbLine
 10
99.4534985422
 20
147.4288203854
 30
0.0
 11
99.4534985422
 21
183.1945058275
 31
0.0
  0
LINE
  5
6D1
330
1B
100
AcDbEntity
  8
0
  6
Continuous
100
AcDbLine
 10
100.2191839769
 20
148.1945058201
 30
0.0
 11
100.2191839769
 21
182.4288203928
 31
0.0
  0
LINE
  5
6D2
330
1B
100
AcDbEntity
  8
0
  6
Continuous
100
AcDbLine
 10
100.3363412633
 20
182.3079246431
 30
0.0
 11
100.3363412633
 21
182.2820224075
 31
0.0
  0
LINE
  5
6D3
330
1B
100
AcDbEntity
  8
0
  6
Continuous
100
AcDbLine
 10
100.3363412633
 20
182.2820224075
 30
0.0
 11
100.3363412633
 21
148.3154015674
 31
0.0
  0
LINE
  5
6D4
330
1B
100
AcDbEntity
  8
0
  6
Continuous
100
AcDbLine
 10
100.6737674773
 20
182.7029999817
 30
0.0
 11
100.6737674773
 21
181.8242268276
 31
0.0
  0
LINE
  5
6D5
330
1B
100
AcDbEntity
  8
0
  6
Continuous
100
AcDbLine
 10
100.6737674773
 20
170.7700362765
 30
0.0
 11
100.6737674773
 21
159.8532899364
 31
0.0
  0
LINE
  5
6D6
330
1B
100
AcDbEntity
  8
0
  6
Continuous
100
AcDbLine
 10
100.6737674773
 20
148.7990993853
 30
0.0
 11
100.6737674773
 21
147.9203262312
 31
0.0
  0
LINE
  5
6D7
330
1B
100
AcDbEntity
  8
0
  6
Continuous
100
AcDbLine
 10
100.7363412633
 20
179.7009386066
 30
0.0
 11
100.7363412633
 21
171.254165372
 31
0.0
  0
LINE
  5
6D8
330
1B
100
AcDbEntity
  8
0
  6
Continuous
100
AcDbLine
 10
100.7363412633
 20
159.3691608345
 30
0.0
 11
100.7363412633
 21
150.9223875985
 31
0.0
  0
LWPOLYLINE
  5
6D9
330
1B
100
AcDbEntity
  8
0
  6
Continuous
100
AcDbPolyline
 90
       16
 70
     0
 43
0.0
 10
96.90474733630001
 20
182.6658809503
 10
96.8661944126
 20
182.5496928371
 10
96.8230507055
 20
182.4162402058
 10
96.7756930824
 20
182.265639942
 10
96.72446291990001
 20
182.0978839313
 10
96.6699639109
 20
181.913247774
 10
96.6130328109
 20
181.7123406267
 10
96.55414072580001
 20
181.4949171567
 10
96.4941122229
 20
181.2617108356
 10
96.4342815561
 20
181.0151418233
 10
96.3751735351
 20
180.7551144875
 10
96.31774457970001
 20
180.4829588692
 10
96.26369520149999
 20
180.2039492533
 10
96.21386666070002
 20
179.9207534552
 10
96.16852709769999
 20
179.6329742547
 10
96.12829020100001
 20
179.3416767348
  0
LINE
  5
6EB
330
1B
100
AcDbEntity
  8
0
  6
Continuous
100
AcDbLine
 10
97.11624025070002
 20
183.0915620938
 30
0.0
 11
97.11407645289999
 21
183.0869801448
 31
0.0
  0
LWPOLYLINE
  5
6EC
330
1B
100
AcDbEntity
  8
0
  6
Continuous
100
AcDbPolyline
 90
        3
 70
     0
 43
0.0
 10
97.11407645289999
 20
183.0869801448
 10
97.09398853140002
 20
183.0469944331
 10
96.90474733630001
 20
182.6658809503
  0
LWPOLYLINE
  5
6F1
330
1B
100
AcDbEntity
  8
0
  6
Continuous
100
AcDbPolyline
 90
        6
 70
     0
 43
0.0
 10
91.67901424580001
 20
171.5143624653
 10
91.87803191640001
 20
171.8805346998
 10
92.08105101180001
 20
172.2400137658
 10
92.2880715318
 20
172.5920137073
 10
92.4990934766
 20
172.9357356273
 10
92.714116846
 20
173.2703692973
  0
LINE
  5
6F9
330
1B
100
AcDbEntity
  8
0
  6
Continuous
100
AcDbLine
 10
97.11624025070002
 20
183.0915620938
 30
0.0
 11
97.33634126330001
 21
183.3116631065
 31
0.0
  0
LWPOLYLINE
  5
6FA
330
1B
100
AcDbEntity
  8
0
  6
Continuous
100
AcDbPolyline
 90
        3
 70
     0
 43
0.0
 10
97.1162397757
 20
183.0915624354
 10
97.07232736029999
 20
183.0486029657
 10
96.9158651531
 20
182.9096810215
  0
LWPOLYLINE
  5
6FF
330
1B
100
AcDbEntity
  8
0
  6
Continuous
100
AcDbPolyline
 90
       32
 70
     0
 43
0.0
 10
96.9158651531
 20
182.9096810215
 10
96.7494657469
 20
182.7828307392
 10
96.5740583346
 20
182.6687604768
 10
96.39062241790001
 20
182.5681072315
 10
96.2001823393
 20
182.4814330797
 10
96.0038015455
 20
182.4092220306
 10
95.80257665759999
 20
182.3518773288
 10
95.59763135809999
 20
182.3097192051
 10
95.3901100981
 20
182.2829830821
 10
95.1811717094
 20
182.2718182625
 10
94.97198294289998
 20
182.2762870967
 10
94.76371194450002
 20
182.2963646338
 10
94.5575217371
 20
182.3319387606
 10
94.3545637289
 20
182.3828108272
 10
94.15597127339999
 20
182.4486967573
 10
93.9628533473
 20
182.5292286344
 10
93.7762883624
 20
182.6239567528
 10
93.59731813099999
 20
182.7323521347
 10
93.42694205529999
 20
182.8538094815
 10
93.266111552
 20
182.9876505491
 10
93.1157247244
 20
183.1331279465
 10
92.97662136099999
 20
183.2894292995
 10
92.84957824880002
 20
183.4556817789
 10
92.7353048141
 20
183.630957
 10
92.634439177
 20
183.8142761913
 10
92.5475445932
 20
184.0046156427
 10
92.4751062878
 20
184.2009124619
 10
92.41752875909999
 20
184.4020704909
 10
92.37513352400001
 20
184.6069664042
 10
92.34815731010001
 20
184.8144560189
 10
92.33675074009999
 20
185.0233806854
 10
92.33633801649999
 20
185.0714610709
  0
LINE
  5
721
330
1B
100
AcDbEntity
  8
0
  6
Continuous
100
AcDbLine
 10
150.3363412633
 20
184.3116631065
 30
0.0
 11
147.2173972536
 21
183.6487110917
 31
0.0
  0
LWPOLYLINE
  5
722
330
1B
100
AcDbEntity
  8
0
  6
Continuous
100
AcDbPolyline
 90
       16
 70
     0
 43
0.0
 10
92.714116846
 20
173.2703715582
 10
92.9581504967
 20
173.2777450663
 10
93.2003270025
 20
173.2998097958
 10
93.4388032824
 20
173.33639784
 10
93.6717643695
 20
173.3872307522
 10
93.89743734850001
 20
173.4519216899
 10
94.11410483500001
 20
173.5299783829
 10
94.32011785630002
 20
173.6208068199
 10
94.5139084926
 20
173.7237157772
 10
94.6940019091
 20
173.8379221349
 10
94.8590274382
 20
173.9625567659
 10
95.00772905309998
 20
174.0966711544
 10
95.13897498490002
 20
174.2392446609
 10
95.25176628289999
 20
174.3891922474
 10
95.34524442810002
 20
174.5453727303
 10
95.41869788850001
 20
174.706597487
  0
LINE
  5
734
330
1B
100
AcDbEntity
  8
0
  6
Continuous
100
AcDbLine
 10
153.7363412633
 20
176.9616631065
 30
0.0
 11
153.0363412633
 21
176.9616631065
 31
0.0
  0
LINE
  5
735
330
1B
100
AcDbEntity
  8
0
  6
Continuous
100
AcDbLine
 10
108.9363412633
 20
176.9616631065
 30
0.0
 11
107.3363412633
 21
176.9616631065
 31
0.0
  0
LINE
  5
736
330
1B
100
AcDbEntity
  8
0
  6
Continuous
100
AcDbLine
 10
69.3363412633
 20
177.0116631065
 30
0.0
 11
70.3863412633
 21
177.0116631065
 31
0.0
  0
LINE
  5
737
330
1B
100
AcDbEntity
  8
0
  6
Continuous
100
AcDbLine
 10
71.43634126329999
 20
177.0116631065
 30
0.0
 11
71.6988412633
 21
177.0116631065
 31
0.0
  0
LINE
  5
738
330
1B
100
AcDbEntity
  8
0
  6
Continuous
100
AcDbLine
 10
72.9238413468
 20
177.0116631065
 30
0.0
 11
73.18634134680001
 21
177.0116631065
 31
0.0
  0
LINE
  5
739
330
1B
100
AcDbEntity
  8
0
  6
Continuous
100
AcDbLine
 10
74.2363410964
 20
177.0116631065
 30
0.0
 11
74.4988410964
 21
177.0116631065
 31
0.0
  0
LINE
  5
73A
330
1B
100
AcDbEntity
  8
0
  6
Continuous
100
AcDbLine
 10
75.5488410964
 20
177.0116631065
 30
0.0
 11
75.8113410964
 21
177.0116631065
 31
0.0
  0
LINE
  5
73B
330
1B
100
AcDbEntity
  8
0
  6
Continuous
100
AcDbLine
 10
77.0363414302
 20
177.0116631065
 30
0.0
 11
77.2988414302
 21
177.0116631065
 31
0.0
  0
LWPOLYLINE
  5
73F
330
1B
100
AcDbEntity
  8
0
  6
Continuous
100
AcDbPolyline
 90
       13
 70
     0
 43
0.0
 10
100.3363412633
 20
170.8399824427
 10
100.3402665627
 20
170.8299446565
 10
100.3494408847
 20
170.8206982397
 10
100.3638642293
 20
170.8122028117
 10
100.3840341389
 20
170.8043489674
 10
100.4094530711
 20
170.7971754349
 10
100.4386283994
 20
170.7908532957
 10
100.4716482094
 20
170.7853689817
 10
100.5084244154
 20
170.7806532112
 10
100.5472001335
 20
170.7767808847
 10
100.5873897359
 20
170.7737551113
 10
100.6295788505
 20
170.7715133589
 10
100.6737674773
 20
170.7700362765
  0
LINE
  5
74E
330
1B
100
AcDbEntity
  8
0
  6
Continuous
100
AcDbLine
 10
102.6631361826
 20
151.3665432214
 30
0.0
 11
102.6631361826
 21
159.2269582578
 31
0.0
  0
LINE
  5
74F
330
1B
100
AcDbEntity
  8
0
  6
Continuous
100
AcDbLine
 10
102.6631361826
 20
171.3963679551
 30
0.0
 11
102.6631361826
 21
179.2583525142
 31
0.0
  0
LINE
  5
750
330
1B
100
AcDbEntity
  8
0
  6
Continuous
100
AcDbLine
 10
102.9229437685
 20
171.3715355022
 30
0.0
 11
102.922943322
 21
179.3508131362
 31
0.0
  0
LINE
  5
751
330
1B
100
AcDbEntity
  8
0
  6
Continuous
100
AcDbLine
 10
102.9229432649
 20
151.2725121969
 30
0.0
 11
102.9229437496
 21
159.2517901458
 31
0.0
  0
LINE
  5
752
330
1B
100
AcDbEntity
  8
0
  6
Continuous
100
AcDbLine
 10
103.0817151277
 20
151.2143705306
 30
0.0
 11
103.0817151277
 21
159.2719136056
 31
0.0
  0
LINE
  5
753
330
1B
100
AcDbEntity
  8
0
  6
Continuous
100
AcDbLine
 10
103.0817151277
 20
171.3514115889
 30
0.0
 11
103.0817151277
 21
179.4089540515
 31
0.0
  0
LINE
  5
754
330
1B
100
AcDbEntity
  8
0
  6
Continuous
100
AcDbLine
 10
103.4683082274
 20
151.0736646531
 30
0.0
 11
103.4683082274
 21
159.3196441304
 31
0.0
  0
LINE
  5
755
330
1B
100
AcDbEntity
  8
0
  6
Continuous
100
AcDbLine
 10
103.4683082274
 20
171.3036818427999
 30
0.0
 11
103.4683082274
 21
179.5496598472
 31
0.0
  0
LINE
  5
756
330
1B
100
AcDbEntity
  8
0
  6
Continuous
100
AcDbLine
 10
104.7589595251
 20
150.6151543885
 30
0.0
 11
104.7589595251
 21
159.4623616341
 31
0.0
  0
LINE
  5
757
330
1B
100
AcDbEntity
  8
0
  6
Continuous
100
AcDbLine
 10
104.7589595251
 20
171.1609657647
 30
0.0
 11
104.7589595251
 21
180.0081725802
 31
0.0
  0
LWPOLYLINE
  5
758
330
1B
100
AcDbEntity
  8
0
  6
Continuous
100
AcDbPolyline
 90
       10
 70
     0
 43
0.0
 10
87.26629180969998
 20
171.024498901
 10
87.5257322837
 20
171.1972330961
 10
87.76804735339998
 20
171.3743922027
 10
87.9930511502
 20
171.5549685047
 10
88.1996629332
 20
171.7378309524
 10
88.38892057130001
 20
171.9222013536
 10
88.56376634519999
 20
172.1076878298
 10
88.7251046626
 20
172.293632534
 10
88.87200785820001
 20
172.4790847635
 10
89.00458492730002
 20
172.6632961031
  0
LINE
  5
764
330
1B
100
AcDbEntity
  8
0
  6
Continuous
100
AcDbLine
 10
70.3863412633
 20
177.9052801255
 30
0.0
 11
69.5988412633
 21
177.9052801255
 31
0.0
  0
LINE
  5
765
330
1B
100
AcDbEntity
  8
0
  6
Continuous
100
AcDbLine
 10
71.87384134680001
 20
178.7988971446
 30
0.0
 11
72.74884126329999
 21
178.7988971446
 31
0.0
  0
LINE
  5
766
330
1B
100
AcDbEntity
  8
0
  6
Continuous
100
AcDbLine
 10
75.98634143019999
 20
178.7988971446
 30
0.0
 11
76.8613410964
 21
178.7988971446
 31
0.0
  0
LINE
  5
767
330
1B
100
AcDbEntity
  8
0
  6
Continuous
100
AcDbLine
 10
76.8175912633
 20
179.3946417544
 30
0.0
 11
76.03009126329999
 21
179.3946417544
 31
0.0
  0
LINE
  5
768
330
1B
100
AcDbEntity
  8
0
  6
Continuous
100
AcDbLine
 10
72.7050911799
 20
179.3946417544
 30
0.0
 11
71.9175911799
 21
179.3946417544
 31
0.0
  0
LINE
  5
76A
330
1B
100
AcDbEntity
  8
0
  6
Continuous
100
AcDbLine
 10
100.3363412633
 20
179.9312381207
 30
0.0
 11
100.6269683877
 21
179.7643231181
 31
0.0
  0
LINE
  5
76B
330
1B
100
AcDbEntity
  8
0
  6
Continuous
100
AcDbLine
 10
100.6269683877
 20
179.7643231181
 30
0.0
 11
100.9118123939
 21
179.5986199626
 31
0.0
  0
LINE
  5
76C
330
1B
100
AcDbEntity
  8
0
  6
Continuous
100
AcDbLine
 10
100.9118123939
 20
179.5986199626
 30
0.0
 11
101.1908611511
 21
179.4340805537
 31
0.0
  0
LINE
  5
76E
330
1B
100
AcDbEntity
  8
0
  6
Continuous
100
AcDbLine
 10
99.45349854920001
 20
183.1945058206
 30
0.0
 11
100.2191839784
 21
182.4288203914
 31
0.0
  0
LWPOLYLINE
  5
76F
330
1B
100
AcDbEntity
  8
0
  6
Continuous
100
AcDbPolyline
 90
       13
 70
     0
 43
0.0
 10
108.9363412633
 20
147.031421483
 10
108.9329404655
 20
147.0829488593
 10
108.9243242302
 20
147.1322203278
 10
108.9104925575
 20
147.1792354277
 10
108.8910228494
 20
147.2245618733
 10
108.866337704
 20
147.2676314482
 10
108.8377049147
 20
147.3067403663
 10
108.8050518275
 20
147.3416572439
 10
108.7684510964
 20
147.372614565
 10
108.7293884775
 20
147.3986050494
 10
108.6883592227
 20
147.4192935593
 10
108.6448680799
 20
147.4350168129
 10
108.5989150493
 20
147.4457754027
  0
LINE
  5
77E
330
1B
100
AcDbEntity
  8
0
  6
Continuous
100
AcDbLine
 10
105.3363412633
 20
180.2085509511
 30
0.0
 11
105.3363412633
 21
171.1041376594
 31
0.0
  0
LINE
  5
77F
330
1B
100
AcDbEntity
  8
0
  6
Continuous
100
AcDbLine
 10
105.3363412633
 20
159.519190784
 30
0.0
 11
105.3363412633
 21
150.4147767277
 31
0.0
  0
LINE
  5
780
330
1B
100
AcDbEntity
  8
0
  6
Continuous
100
AcDbLine
 10
107.3363412633
 20
180.8831264484
 30
0.0
 11
107.3363412633
 21
170.9386816153999
 31
0.0
  0
LINE
  5
781
330
1B
100
AcDbEntity
  8
0
  6
Continuous
100
AcDbLine
 10
107.3363412633
 20
159.684643346
 30
0.0
 11
107.3363412633
 21
149.7402005328
 31
0.0
  0
LINE
  5
782
330
1B
100
AcDbEntity
  8
0
  6
Continuous
100
AcDbLine
 10
108.5989150493
 20
183.9582200444
 30
0.0
 11
108.5989150493
 21
183.1775508103
 31
0.0
  0
LINE
  5
783
330
1B
100
AcDbEntity
  8
0
  6
Continuous
100
AcDbLine
 10
108.5989150493
 20
170.6505901705
 30
0.0
 11
108.5989150493
 21
159.9727360424
 31
0.0
  0
LINE
  5
784
330
1B
100
AcDbEntity
  8
0
  6
Continuous
100
AcDbLine
 10
108.5989150493
 20
147.4457754027
 30
0.0
 11
108.5989150493
 21
146.6651061685
 31
0.0
  0
LINE
  5
785
330
1B
100
AcDbEntity
  8
0
  6
Continuous
100
AcDbLine
 10
108.9363412633
 20
186.8116631065
 30
0.0
 11
108.9363412633
 21
143.8116631065
 31
0.0
  0
LWPOLYLINE
  5
786
330
1B
100
AcDbEntity
  8
0
  6
Continuous
100
AcDbPolyline
 90
       13
 70
     0
 43
0.0
 10
89.1634598692
 20
168.5427092005
 10
89.44006465539999
 20
168.7485098518
 10
89.70084260790002
 20
168.9573884491
 10
89.9457937267
 20
169.1691892417
 10
90.17448377789999
 20
169.3841112202
 10
90.38734699530001
 20
169.6016055902
 10
90.5856860805
 20
169.8204042546
 10
90.76953975669998
 20
170.0402181664
 10
90.9388693006
 20
170.2609869719
 10
91.0948612437
 20
170.4818202433
 10
91.23791109649999
 20
170.7023134029
 10
91.3676233485
 20
170.9225243876
 10
91.67901424580001
 20
171.5143624653
  0
LWPOLYLINE
  5
795
330
1B
100
AcDbEntity
  8
0
  6
Continuous
100
AcDbPolyline
 90
        6
 70
     0
 43
0.0
 10
105.969381262
 20
180.4250649778
 10
105.2807182466
 20
180.1895266188
 10
104.6122455521
 20
179.9571774162
 10
103.9636478837
 20
179.7278426421
 10
103.3352405362
 20
179.5017929485
 10
102.7270235097
 20
179.2790689296
  0
LWPOLYLINE
  5
79D
330
1B
100
AcDbEntity
  8
0
  6
Continuous
100
AcDbPolyline
 90
        5
 70
     0
 43
0.0
 10
108.9363412633
 20
181.4055999586
 10
108.162818131
 20
181.1548624968
 10
107.4104312042
 20
180.9077835311
 10
106.6791804829
 20
180.6644237807
 10
105.969381262
 20
180.4250649778
  0
LWPOLYLINE
  5
7A4
330
1B
100
AcDbEntity
  8
0
  6
Continuous
100
AcDbPolyline
 90
       13
 70
     0
 43
0.0
 10
102.7270235097
 20
179.2790689296
 10
102.5960056544
 20
179.2365844427
 10
102.4656690771
 20
179.2043177405
 10
102.3360137776
 20
179.1822399502
 10
102.2070970907
 20
179.1704835092
 10
102.0788616816
 20
179.1688851393
 10
101.9511355467
 20
179.1769860467
 10
101.8240194378
 20
179.1944658139
 10
101.697412603
 20
179.2216668184
 10
101.5708407828
 20
179.2591382781
 10
101.4441458909
 20
179.3070892117
 10
101.3174860137
 20
179.3653866231
 10
101.1908611511
 20
179.4340805537
  0
LWPOLYLINE
  5
7B3
330
1B
100
AcDbEntity
  8
0
  6
Continuous
100
AcDbPolyline
 90
       13
 70
     0
 43
0.0
 10
100.6737674773
 20
181.8242268276
 10
100.6295788505
 20
181.8137992454
 10
100.5873897359
 20
181.7980883161
 10
100.5472001335
 20
181.7770968287
 10
100.5084244154
 20
181.7505791633
 10
100.4716482094
 20
181.7187897523
 10
100.4386283994
 20
181.6824822353
 10
100.4094530711
 20
181.6414640991
 10
100.3840341389
 20
181.5959412457999
 10
100.3638642293
 20
181.5472633487999
 10
100.3494408847
 20
181.4958838292
 10
100.3402665627
 20
181.4413623893
 10
100.3363412633
 20
181.3837068974
  0
LWPOLYLINE
  5
7C2
330
1B
100
AcDbEntity
  8
0
  6
Continuous
100
AcDbPolyline
 90
       13
 70
     0
 43
0.0
 10
108.5989150493
 20
183.1775508103
 10
108.6449545387
 20
183.1883211985
 10
108.6885344454
 20
183.2040960271
 10
108.7296547694
 20
183.2248758951
 10
108.7688332827
 20
183.2510284837
 10
108.8055522134
 20
183.2821877153
 10
108.8382582458
 20
183.3172534433
 10
108.8668327077
 20
183.3564368041
 10
108.8913942713
 20
183.3995277327
 10
108.9107456385
 20
183.4447935502
 10
108.9244877099
 20
183.4916563998
 10
108.9330195848
 20
183.5406936135
 10
108.9363412633
 20
183.5919047299
  0
LINE
  5
7D1
330
1B
100
AcDbEntity
  8
0
  6
Continuous
100
AcDbLine
 10
102.3262632544
 20
182.1117479868
 30
0.0
 11
100.6737674773
 21
181.8242268276
 31
0.0
  0
LINE
  5
7D2
330
1B
100
AcDbEntity
  8
0
  6
Continuous
100
AcDbLine
 10
104.0399298537
 20
182.4067170009
 30
0.0
 11
102.3262632544
 21
182.1117479868
 31
0.0
  0
LINE
  5
7D3
330
1B
100
AcDbEntity
  8
0
  6
Continuous
100
AcDbLine
 10
105.8153863161
 20
182.7091635155
 30
0.0
 11
104.0399298537
 21
182.4067170009
 31
0.0
  0
LWPOLYLINE
  5
7D4
330
1B
100
AcDbEntity
  8
0
  6
Continuous
100
AcDbPolyline
 90
        3
 70
     0
 43
0.0
 10
108.5989150493
 20
183.1775508103
 10
107.6551088051
 20
183.0195011321
 10
105.8153863161
 20
182.7091635155
  0
LINE
  5
7D9
330
1B
100
AcDbEntity
  8
0
  6
Continuous
100
AcDbLine
 10
100.6737674773
 20
182.7029999817
 30
0.0
 11
108.5989150493
 21
183.9582200444
 31
0.0
  0
LINE
  5
7DA
330
1B
100
AcDbEntity
  8
0
  6
Continuous
100
AcDbLine
 10
69.5988412633
 20
183.1180461917
 30
0.0
 11
70.3863412633
 21
183.1180461917
 31
0.0
  0
LINE
  5
7DB
330
1B
100
AcDbEntity
  8
0
  6
Continuous
100
AcDbLine
 10
143.0591634376
 20
183.2116631065
 30
0.0
 11
119.6135190891
 21
183.2116631065
 31
0.0
  0
LINE
  5
7DC
330
1B
100
AcDbEntity
  8
0
  6
Continuous
100
AcDbLine
 10
73.5363412633
 20
183.2669823442
 30
0.0
 11
74.2363410964
 21
183.2669823442
 31
0.0
  0
LINE
  5
7DD
330
1B
100
AcDbEntity
  8
0
  6
Continuous
100
AcDbLine
 10
74.4988410964
 20
183.2669823442
 30
0.0
 11
75.19884143020001
 21
183.2669823442
 31
0.0
  0
LINE
  5
7DE
330
1B
100
AcDbEntity
  8
0
  6
Continuous
100
AcDbLine
 10
97.33634126330001
 20
183.3116631065
 30
0.0
 11
99.17065583829999
 21
183.3116631065
 31
0.0
  0
LINE
  5
7DF
330
1B
100
AcDbEntity
  8
0
  6
Continuous
100
AcDbLine
 10
76.59884109639999
 20
184.0116631065
 30
0.0
 11
76.2488414302
 21
184.0116631065
 31
0.0
  0
LINE
  5
7E0
330
1B
100
AcDbEntity
  8
0
  6
Continuous
100
AcDbLine
 10
75.19884143020001
 20
184.0116631065
 30
0.0
 11
73.5363412633
 21
184.0116631065
 31
0.0
  0
LINE
  5
7E1
330
1B
100
AcDbEntity
  8
0
  6
Continuous
100
AcDbLine
 10
72.48634126330001
 20
184.0116631065
 30
0.0
 11
72.1363413468
 21
184.0116631065
 31
0.0
  0
LINE
  5
7E2
330
1B
100
AcDbEntity
  8
0
  6
Continuous
100
AcDbLine
 10
70.3863412633
 20
184.0116631065
 30
0.0
 11
69.3363412633
 21
184.0116631065
 31
0.0
  0
LINE
  5
7E3
330
1B
100
AcDbEntity
  8
0
  6
Continuous
100
AcDbLine
 10
152.0363412633
 20
184.3116631065
 30
0.0
 11
150.3363412633
 21
184.3116631065
 31
0.0
  0
LINE
  5
7E7
330
1B
100
AcDbEntity
  8
0
  6
Continuous
100
AcDbLine
 10
74.1065067823
 20
214.4124351529
 30
0.0
 11
70.90395013120001
 21
217.3201537066
 31
0.0
  0
LINE
  5
7E8
330
1B
100
AcDbEntity
  8
0
  6
Continuous
100
AcDbLine
 10
80.2353903172
 20
208.45528553
 30
0.0
 11
77.1776493321
 21
211.272923441
 31
0.0
  0
LINE
  5
7E9
330
1B
100
AcDbEntity
  8
0
  6
Continuous
100
AcDbLine
 10
92.33634126330001
 20
199.5116631065
 30
0.0
 11
91.45349855089999
 21
200.3945058189
 31
0.0
  0
LINE
  5
7EA
330
1B
100
AcDbEntity
  8
0
  6
Continuous
100
AcDbLine
 10
77.1776493321
 20
211.272923441
 30
0.0
 11
74.1065067823
 21
214.4124351529
 31
0.0
  0
LINE
  5
7EB
330
1B
100
AcDbEntity
  8
0
  6
Continuous
100
AcDbLine
 10
109.9363412633
 20
187.8116631065
 30
0.0
 11
109.9363412633
 21
142.8116631065
 31
0.0
  0
LINE
  5
7EC
330
1B
100
AcDbEntity
  8
0
  6
Continuous
100
AcDbLine
 10
109.9363412633
 20
187.8116631065
 30
0.0
 11
116.7363412633
 21
187.8116631065
 31
0.0
  0
LINE
  5
7F2
330
1B
100
AcDbEntity
  8
0
  6
Continuous
100
AcDbLine
 10
116.7363412633
 20
187.8116631065
 30
0.0
 11
116.7363412633
 21
142.8116631065
 31
0.0
  0
LINE
  5
7F3
330
1B
100
AcDbEntity
  8
0
  6
Continuous
100
AcDbLine
 10
117.7363412633
 20
186.8116631065
 30
0.0
 11
117.7363412633
 21
143.8116631065
 31
0.0
  0
LINE
  5
7F8
330
1B
100
AcDbEntity
  8
0
  6
Continuous
100
AcDbLine
 10
152.3363412633
 20
176.3858592768
 30
0.0
 11
152.7363412633
 21
176.2616631065
 31
0.0
  0
LINE
  5
7F9
330
1B
100
AcDbEntity
  8
0
  6
Continuous
100
AcDbLine
 10
119.6135190891
 20
147.4116631064999
 30
0.0
 11
119.6135190891
 21
183.2116631065
 31
0.0
  0
LWPOLYLINE
  5
7FA
330
1B
100
AcDbEntity
  8
0
  6
Continuous
100
AcDbPolyline
 90
       67
 70
     0
 43
0.0
 10
75.23299155140001
 20
153.9036232197
 10
75.29429613009999
 20
153.9258634837
 10
75.3621000249
 20
153.9511072122
 10
75.4332504695
 20
153.9788687275
 10
75.5091485037
 20
154.0093166907
 10
75.59056787900001
 20
154.0426404285
 10
75.67341406520001
 20
154.0781490058
 10
75.75793693030001
 20
154.1156828952
 10
75.8458661466
 20
154.1555020897
 10
75.9347297473
 20
154.1973800747
 10
76.0245396855
 20
154.2412454666
 10
76.11651398639999
 20
154.2872080843
 10
76.2093593072
 20
154.3352735551
 10
76.3031485659
 20
154.3854495961
 10
76.39855907419999
 20
154.4377685801
 10
76.49481037300001
 20
154.4922731186
 10
76.5918271004
 20
154.5489027862
 10
76.69017159649999
 20
154.6077567126
 10
76.7897749755
 20
154.6691462532
 10
76.8905107076
 20
154.7330308047
 10
76.9927986493
 20
154.7995434669
 10
77.0972118933
 20
154.8693364853
 10
77.2037098774
 20
154.9424981061
 10
77.3124821123
 20
155.0191452272
 10
77.4243198337
 20
155.100086272
 10
77.5391873669
 20
155.1854855304
 10
77.65717544490001
 20
155.2755120143
 10
77.7791773852
 20
155.3711067406
 10
77.90516251210001
 20
155.4725226582
 10
78.0351451369
 20
155.5799873756
 10
78.1700227796
 20
155.6945373308
 10
78.3098634341
 20
155.8166059241
 10
78.45451809479999
 20
155.9464061655
 10
78.60451857850001
 20
156.084756636
 10
78.7599888507
 20
156.2322193428
 10
78.9206734524
 20
156.3889990457
 10
79.0865235445
 20
156.5554219238
 10
79.2573817328
 20
156.7317958381
 10
79.4332441377
 20
156.9185812352
 10
79.6142894648
 20
157.116346005
 10
79.8001007667
 20
157.3251755419
 10
79.99087134879999
 20
157.5457726584
 10
80.18766189590001
 20
157.7797347415
 10
80.3901496419
 20
158.0274436676
 10
80.5982844901
 20
158.2894849424
 10
80.8134678874
 20
158.5679659896
 10
81.03542092239999
 20
158.8635902455
 10
81.2638260345
 20
159.1768331392
 10
81.49995198000001
 20
159.5096642445
 10
81.7433957361
 20
159.8629125765
 10
81.9936684688
 20
160.2370368711
 10
82.2518476978
 20
160.6335808389
 10
82.51679687079999
 20
161.0526168217
 10
82.78838643349999
 20
161.4952642775
 10
83.06907212100001
 20
161.96481094
 10
83.357449512
 20
162.4617784355
 10
83.65288829769999
 20
162.9868607981
 10
83.95870831699999
 20
163.5438550859
 10
84.27410213779999
 20
164.1357176842
 10
84.59644373199998
 20
164.7605752094
 10
84.92621709869998
 20
165.4147772452
 10
85.2633537918
 20
166.1027070765
 10
85.6031803141
 20
166.819801181
 10
85.9404117414
 20
167.5478555293
 10
86.2726418055
 20
168.2797323004
 10
86.5988717953
 20
169.0201267583
 10
86.91689269879998
 20
169.7678458213
  0
LWPOLYLINE
  5
83F
330
1B
100
AcDbEntity
  8
0
  6
Continuous
100
AcDbPolyline
 90
        6
 70
     0
 43
0.0
 10
75.01599821390001
 20
153.829811234
 10
75.0487139828
 20
153.8404131654
 10
75.08641312810001
 20
153.8528944364
 10
75.12964985950001
 20
153.867457259
 10
75.17862580400001
 20
153.8843071626
 10
75.23299155140001
 20
153.9036232197
  0
LWPOLYLINE
  5
847
330
1B
100
AcDbEntity
  8
0
  6
Continuous
100
AcDbPolyline
 90
        3
 70
     0
 43
0.0
 10
74.9461579452
 20
153.8077435936
 10
74.9649902819
 20
153.8136166205999
 10
75.01599821390001
 20
153.829811234
  0
LINE
  5
84F
330
1B
100
AcDbEntity
  8
0
  6
Continuous
100
AcDbLine
 10
85.54981579299999
 20
205.9838535665
 30
0.0
 11
80.2353903172
 21
208.45528553
 31
0.0
  0
LINE
  5
850
330
1B
100
AcDbEntity
  8
0
  6
Continuous
100
AcDbLine
 10
70.90395013120001
 20
217.3201537066
 30
0.0
 11
65.82498163699999
 21
219.9843992397
 31
0.0
  0
LINE
  5
851
330
1B
100
AcDbEntity
  8
0
  6
Continuous
100
AcDbLine
 10
99.45349854920001
 20
147.4288203923
 30
0.0
 11
100.2191839784
 21
148.1945058215
 31
0.0
  0
LWPOLYLINE
  5
852
330
1B
100
AcDbEntity
  8
0
  6
Continuous
100
AcDbPolyline
 90
        4
 70
     0
 43
0.0
 10
74.9130571562
 20
153.7976444149
 10
74.91524334090001
 20
153.798293386
 10
74.9212576625
 20
153.8001589488
 10
74.9461579452
 20
153.8077435936
  0
LINE
  5
85A
330
1B
100
AcDbEntity
  8
0
  6
Continuous
100
AcDbLine
 10
53.9363412633
 20
199.5116631065
 30
0.0
 11
92.33634126330001
 21
199.5116631065
 31
0.0
  0
LINE
  5
85B
330
1B
100
AcDbEntity
  8
0
  6
Continuous
100
AcDbLine
 10
91.45349855089999
 20
200.3945058189
 30
0.0
 11
54.8191839758
 21
200.3945058189
 31
0.0
  0
LINE
  5
85C
330
1B
100
AcDbEntity
  8
0
  6
Continuous
100
AcDbLine
 10
91.1706558384
 20
200.5116631065
 30
0.0
 11
55.1020266883
 21
200.5116631065
 31
0.0
  0
LINE
  5
85D
330
1B
100
AcDbEntity
  8
0
  6
Continuous
100
AcDbLine
 10
101.1908611511
 20
151.1892456592
 30
0.0
 11
100.9118146073
 21
151.0247075465
 31
0.0
  0
LINE
  5
85E
330
1B
100
AcDbEntity
  8
0
  6
Continuous
100
AcDbLine
 10
100.9118146073
 20
151.0247075465
 30
0.0
 11
100.6269721901
 21
150.8590052924
 31
0.0
  0
LINE
  5
85F
330
1B
100
AcDbEntity
  8
0
  6
Continuous
100
AcDbLine
 10
100.6269721901
 20
150.8590052924
 30
0.0
 11
100.3363412633
 21
150.6920880922
 31
0.0
  0
LWPOLYLINE
  5
860
330
1B
100
AcDbEntity
  8
0
  6
Continuous
100
AcDbPolyline
 90
       22
 70
     0
 43
0.0
 10
101.1908611511
 20
151.1892456592
 10
101.2576230734
 20
151.2273806617
 10
101.3255880686
 20
151.2627428242
 10
101.3947561366
 20
151.2953400496
 10
101.4652300954
 20
151.3252950215
 10
101.536907127
 20
151.3524991251
 10
101.6094787776
 20
151.3766133328
 10
101.6829785696
 20
151.3976132232
 10
101.7573729806
 20
151.4155352897
 10
101.8322529889
 20
151.4301319502
 10
101.9076309782
 20
151.4413562212
 10
101.9834945648
 20
151.4492627487
 10
102.0593975755
 20
151.4537554273
 10
102.1353442551
 20
151.4547777697
 10
102.2113303588
 20
151.4523879656
 10
102.2868969789
 20
151.4466604452
 10
102.3620224874
 20
151.4375421635
 10
102.4367285123
 20
151.4250816992
 10
102.5106210294
 20
151.4095047021
 10
102.5835686973
 20
151.3908833745
 10
102.6557028574
 20
151.3691362024
 10
102.7270235097
 20
151.3442572833
  0
LINE
  5
878
330
1B
100
AcDbEntity
  8
0
  6
Continuous
100
AcDbLine
 10
143.0591634376
 20
147.4116631064999
 30
0.0
 11
143.0591634376
 21
183.2116631065
 31
0.0
  0
LINE
  5
879
330
1B
100
AcDbEntity
  8
0
  6
Continuous
100
AcDbLine
 10
59.8769218956
 20
219.3686515846
 30
0.0
 11
57.13634126329999
 21
219.3686515846
 31
0.0
  0
LINE
  5
87A
330
1B
100
AcDbEntity
  8
0
  6
Continuous
100
AcDbLine
 10
147.2173972536
 20
146.9746151212
 30
0.0
 11
147.2173972536
 21
183.6487110917
 31
0.0
  0
LINE
  5
87B
330
1B
100
AcDbEntity
  8
0
  6
Continuous
100
AcDbLine
 10
152.3363412633
 20
154.2374669361
 30
0.0
 11
152.7363412633
 21
154.3616631065
 31
0.0
  0
LINE
  5
87C
330
1B
100
AcDbEntity
  8
0
  6
Continuous
100
AcDbLine
 10
65.82498163699999
 20
219.9843992397
 30
0.0
 11
59.8769218956
 21
219.3686515846
 31
0.0
  0
LINE
  5
87D
330
1B
100
AcDbEntity
  8
0
  6
Continuous
100
AcDbLine
 10
150.3363412633
 20
146.3116631065
 30
0.0
 11
150.3363412633
 21
184.3116631065
 31
0.0
  0
LINE
  5
87E
330
1B
100
AcDbEntity
  8
0
  6
Continuous
100
AcDbLine
 10
152.0363412633
 20
184.3116631065
 30
0.0
 11
152.0363412633
 21
146.3116631065
 31
0.0
  0
LINE
  5
87F
330
1B
100
AcDbEntity
  8
0
  6
Continuous
100
AcDbLine
 10
152.3363412633
 20
146.6328438637
 30
0.0
 11
152.3363412633
 21
146.6116631273
 31
0.0
  0
LINE
  5
880
330
1B
100
AcDbEntity
  8
0
  6
Continuous
100
AcDbLine
 10
152.3363412633
 20
146.6328438637
 30
0.0
 11
152.3363412633
 21
184.0116631065
 31
0.0
  0
LINE
  5
881
330
1B
100
AcDbEntity
  8
0
  6
Continuous
100
AcDbLine
 10
152.7363412633
 20
153.9616631065
 30
0.0
 11
152.7363412633
 21
176.6616631065
 31
0.0
  0
LINE
  5
882
330
1B
100
AcDbEntity
  8
0
  6
Continuous
100
AcDbLine
 10
153.0363412633
 20
153.6616631064999
 30
0.0
 11
153.0363412633
 21
176.9616631065
 31
0.0
  0
LINE
  5
883
330
1B
100
AcDbEntity
  8
0
  6
Continuous
100
AcDbLine
 10
153.7363412633
 20
153.6616631064999
 30
0.0
 11
153.7363412633
 21
176.9616631065
 31
0.0
  0
LINE
  5
884
330
1B
100
AcDbEntity
  8
0
  6
Continuous
100
AcDbLine
 10
155.3363412633
 20
155.2616631065
 30
0.0
 11
155.3363412633
 21
175.3616631065
 31
0.0
  0
ARC
  5
8A3
330
1B
100
AcDbEntity
  8
0
  6
Continuous
100
AcDbCircle
 10
100.7363412633
 20
182.3079246455
 30
0.0
 40
0.4
100
AcDbArc
 50
99.00000000000023
 51
180.0000000000004
  0
ARC
  5
8A4
330
1B
100
AcDbEntity
  8
0
  6
Continuous
100
AcDbCircle
 10
100.7363412633
 20
148.3154015674
 30
0.0
 40
0.4
100
AcDbArc
 50
180.0000000000004
 51
261.0000000000006
  0
ARC
  5
8A5
330
1B
100
AcDbEntity
  8
0
  6
Continuous
100
AcDbCircle
 10
109.9363412633
 20
186.8116631065
 30
0.0
 40
1.0
100
AcDbArc
 50
90.00000000000019
 51
180.0000000000004
  0
ARC
  5
8A6
330
1B
100
AcDbEntity
  8
0
  6
Continuous
100
AcDbCircle
 10
109.9363412633
 20
143.8116631065
 30
0.0
 40
1.0
100
AcDbArc
 50
180.0000000000004
 51
270.0000000000006
  0
ARC
  5
8A7
330
1B
100
AcDbEntity
  8
0
  6
Continuous
100
AcDbCircle
 10
116.7363412633
 20
186.8116631065
 30
0.0
 40
1.0
100
AcDbArc
 50
0.0
 51
90.00000000000019
  0
ARC
  5
8A8
330
1B
100
AcDbEntity
  8
0
  6
Continuous
100
AcDbCircle
 10
116.7363412633
 20
143.8116631065
 30
0.0
 40
1.0
100
AcDbArc
 50
270.0000000000006
 51
360.0000000000008
  0
ARC
  5
8A9
330
1B
100
AcDbEntity
  8
0
  6
Continuous
100
AcDbCircle
 10
108.5363412633
 20
184.3532953806
 30
0.0
 40
0.4
100
AcDbArc
 50
279.0000000000007
 51
360.0000000000008
  0
ARC
  5
8AA
330
1B
100
AcDbEntity
  8
0
  6
Continuous
100
AcDbCircle
 10
108.5363412633
 20
146.2700308323
 30
0.0
 40
0.4
100
AcDbArc
 50
0.0
 51
81.00000000000019
  0
ARC
  5
8AB
330
1B
100
AcDbEntity
  8
0
  6
Continuous
100
AcDbCircle
 10
152.0363412633
 20
146.6116631065
 30
0.0
 40
0.3
100
AcDbArc
 50
270.0000000000006
 51
360.0000000000008
  0
ARC
  5
8AC
330
1B
100
AcDbEntity
  8
0
  6
Continuous
100
AcDbCircle
 10
152.0363412633
 20
184.0116631065
 30
0.0
 40
0.3
100
AcDbArc
 50
0.0
 51
90.00000000000019
  0
ARC
  5
8AD
330
1B
100
AcDbEntity
  8
0
  6
Continuous
100
AcDbCircle
 10
143.0591634376
 20
127.4116631065
 30
0.0
 40
20.0
100
AcDbArc
 50
78.00000000110019
 51
90.00000000000019
  0
ARC
  5
8AE
330
1B
100
AcDbEntity
  8
0
  6
Continuous
100
AcDbCircle
 10
143.0591634376
 20
203.2116631065
 30
0.0
 40
20.0
100
AcDbArc
 50
270.0000000000006
 51
281.9999999989006
  0
ARC
  5
8AF
330
1B
100
AcDbEntity
  8
0
  6
Continuous
100
AcDbCircle
 10
119.6135190891
 20
127.4116631065
 30
0.0
 40
20.0
100
AcDbArc
 50
90.00000000000019
 51
95.38631225210021
  0
ARC
  5
8B0
330
1B
100
AcDbEntity
  8
0
  6
Continuous
100
AcDbCircle
 10
119.6135190891
 20
203.2116631065
 30
0.0
 40
20.0
100
AcDbArc
 50
264.6136877479006
 51
270.0000000000006
  0
ARC
  5
8B1
330
1B
100
AcDbEntity
  8
0
  6
Continuous
100
AcDbCircle
 10
99.93634126329999
 20
148.4773485314
 30
0.0
 40
0.4
100
AcDbArc
 50
315.0000005175007
 51
360.0000000000008
  0
ARC
  5
8B2
330
1B
100
AcDbEntity
  8
0
  6
Continuous
100
AcDbCircle
 10
99.93634126329999
 20
182.1459776815
 30
0.0
 40
0.4
100
AcDbArc
 50
0.0
 51
44.99999948250009
  0
ARC
  5
8B3
330
1B
100
AcDbEntity
  8
0
  6
Continuous
100
AcDbCircle
 10
99.1706558384
 20
147.7116631065
 30
0.0
 40
0.4
100
AcDbArc
 50
269.9999999889006
 51
314.9999996560008
  0
ARC
  5
8B4
330
1B
100
AcDbEntity
  8
0
  6
Continuous
100
AcDbCircle
 10
99.1706558384
 20
182.9116631065
 30
0.0
 40
0.4
100
AcDbArc
 50
45.00000034400009
 51
90.0000000111002
  0
ARC
  5
8B5
330
1B
100
AcDbEntity
  8
0
  6
Continuous
100
AcDbCircle
 10
153.0363412633
 20
153.9616631065
 30
0.0
 40
0.3
100
AcDbArc
 50
180.0000000000004
 51
270.0000000000006
  0
ARC
  5
8B6
330
1B
100
AcDbEntity
  8
0
  6
Continuous
100
AcDbCircle
 10
153.0363412633
 20
176.6616631065
 30
0.0
 40
0.3
100
AcDbArc
 50
90.00000000000019
 51
180.0000000000004
  0
ARC
  5
8B7
330
1B
100
AcDbEntity
  8
0
  6
Continuous
100
AcDbCircle
 10
153.7363412633
 20
155.2616631065
 30
0.0
 40
1.6
100
AcDbArc
 50
270.0000000000006
 51
360.0000000000008
  0
ARC
  5
8B8
330
1B
100
AcDbEntity
  8
0
  6
Continuous
100
AcDbCircle
 10
153.7363412633
 20
175.3616631065
 30
0.0
 40
1.6
100
AcDbArc
 50
0.0
 51
90.00000000000019
  0
CIRCLE
  5
8B9
330
1B
100
AcDbEntity
  8
0
  6
Continuous
100
AcDbCircle
 10
73.1363412633
 20
180.5116631065
 30
0.0
 40
6.0
  0
ARC
  5
8BA
330
1B
100
AcDbEntity
  8
0
  6
Continuous
100
AcDbCircle
 10
104.3363412633
 20
151.0729191415
 30
0.0
 40
1.0
100
AcDbArc
 50
323.7414129125007
 51
360.0000000000008
  0
ARC
  5
8BB
330
1B
100
AcDbEntity
  8
0
  6
Continuous
100
AcDbCircle
 10
104.3363412633
 20
179.5504070714
 30
0.0
 40
1.0
100
AcDbArc
 50
0.0
 51
36.25852676000009
  0
ARC
  5
8BC
330
1B
100
AcDbEntity
  8
0
  6
Continuous
100
AcDbCircle
 10
55.1020266883
 20
200.1116631065
 30
0.0
 40
0.4
100
AcDbArc
 50
90.00000000000019
 51
134.9999999937003
  0
ARC
  5
8BD
330
1B
100
AcDbEntity
  8
0
  6
Continuous
100
AcDbCircle
 10
91.1706558384
 20
200.1116631065
 30
0.0
 40
0.4
100
AcDbArc
 50
45.00000000790009
 51
90.00000000000019
  0
ARC
  5
8BE
330
1B
100
AcDbEntity
  8
0
  6
Continuous
100
AcDbCircle
 10
92.7141051386
 20
151.0116631065
 30
0.0
 40
2.799999999999999
100
AcDbArc
 50
15.00000000000003
 51
90.00000000000019
  0
ARC
  5
8BF
330
1B
100
AcDbEntity
  8
0
  6
Continuous
100
AcDbCircle
 10
99.02606767979999
 20
149.8645773771
 30
0.0
 40
3.0
100
AcDbArc
 50
195.0000000000004
 51
224.9999964334005
  0
ARC
  5
8C0
330
1B
100
AcDbEntity
  8
0
  6
Continuous
100
AcDbCircle
 10
73.1363412633
 20
172.1116631065
 30
0.0
 40
18.4
100
AcDbArc
 50
187.3182980186004
 51
275.5411512717007
  0
ARC
  5
8C1
330
1B
100
AcDbEntity
  8
0
  6
Continuous
100
AcDbCircle
 10
51.9106696743
 20
169.3857016988
 30
0.0
 40
3.0
100
AcDbArc
 50
7.318298018600017
 51
33.11120197310008
  0
ARC
  5
8C2
330
1B
100
AcDbEntity
  8
0
  6
Continuous
100
AcDbCircle
 10
56.9363412633
 20
172.6632961031
 30
0.0
 40
3.0
100
AcDbArc
 50
180.0000000000004
 51
213.1112019731005
  0
ENDSEC
  0
SECTION
  2
OBJECTS
  0
DICTIONARY
  5
8C3
330
0
100
AcDbDictionary
281
     1
  3
ACAD_COLOR
350
D1D
  3
ACAD_GROUP
350
8C4
  3
ACAD_LAYOUT
350
D1E
  3
ACAD_MATERIAL
350
D1C
  3
ACAD_MLINESTYLE
350
8C5
  3
ACAD_PLOTSETTINGS
350
D1F
  3
ACAD_PLOTSTYLENAME
350
D1A
  3
ACDBHEADERROUNDTRIPXREC
350
1AC4
  3
AcDbVariableDictionary
350
1ABC
  0
DICTIONARY
  5
D1D
102
{ACAD_REACTORS
330
8C3
102
}
330
8C3
100
AcDbDictionary
281
     1
  0
DICTIONARY
  5
8C4
102
{ACAD_REACTORS
330
8C3
102
}
330
8C3
100
AcDbDictionary
281
     1
  0
DICTIONARY
  5
D1E
102
{ACAD_REACTORS
330
8C3
102
}
330
8C3
100
AcDbDictionary
281
     1
  3
Layout1
350
D21
  3
Model
350
D20
  0
DICTIONARY
  5
D1C
102
{ACAD_REACTORS
330
8C3
102
}
330
8C3
100
AcDbDictionary
281
     1
  0
DICTIONARY
  5
8C5
102
{ACAD_REACTORS
330
8C3
102
}
330
8C3
100
AcDbDictionary
281
     1
  3
STANDARD
350
8C6
  0
DICTIONARY
  5
D1F
102
{ACAD_REACTORS
330
8C3
102
}
330
8C3
100
AcDbDictionary
281
     1
  0
ACDBDICTIONARYWDFLT
  5
D1A
102
{ACAD_REACTORS
330
8C3
102
}
330
8C3
100
AcDbDictionary
281
     1
  3
Normal
350
D1B
100
AcDbDictionaryWithDefault
340
D1B
  0
DICTIONARY
  5
1AC4
102
{ACAD_REACTORS
330
8C3
102
}
330
8C3
100
AcDbDictionary
281
     1
  3
COLORDICT
350
1AC5
  3
MATERIALDICT
350
1AC6
  0
DICTIONARY
  5
1ABC
102
{ACAD_REACTORS
330
8C3
102
}
330
8C3
100
AcDbDictionary
281
     1
  0
LAYOUT
  5
D21
102
{ACAD_REACTORS
330
D1E
102
}
330
D1E
100
AcDbPlotSettings
  1

  2
\\alderaan\HP LaserJet 4050 Ricerca
  4

  6

 40
0.0
 41
0.0
 42
0.0
 43
0.0
 44
0.0
 45
0.0
 46
0.0
 47
0.0
 48
0.0
 49
0.0
140
0.0
141
0.0
142
1.0
143
1.0
 70
   688
 72
     0
 73
     0
 74
     5
  7

 75
    16
147
1.0
148
0.0
149
0.0
100
AcDbLayout
  1
Layout1
 70
     0
 71
     1
 10
0.0
 20
0.0
 11
12.0
 21
9.0
 12
0.0
 22
0.0
 32
0.0
 14
1.000000000000000E+20
 24
1.000000000000000E+20
 34
1.000000000000000E+20
 15
-1.000000000000000E+20
 25
-1.000000000000000E+20
 35
-1.000000000000000E+20
146
0.0
 13
0.0
 23
0.0
 33
0.0
 16
1.0
 26
0.0
 36
0.0
 17
0.0
 27
1.0
 37
0.0
 76
     0
330
1C
  0
LAYOUT
  5
D20
102
{ACAD_REACTORS
330
D1E
102
}
330
D1E
100
AcDbPlotSettings
  1

  2
\\alderaan\HP LaserJet 4050 Ricerca
  4
A4
  6

 40
5.027083396911621
 41
5.069430828094482
 42
5.365737915039062
 43
5.365753173828125
 44
209.8886566162109
 45
297.0530090332031
 46
0.0
 47
94.488
 48
0.0
 49
0.0
140
0.0
141
0.0
142
1.0
143
93.83648225806984
 70
 11956
 72
     0
 73
     0
 74
     0
  7

 75
     0
147
0.0106568359761163
148
7924.110937400292
149
1000.134144841416
100
AcDbLayout
  1
Model
 70
     1
 71
     0
 10
0.0
 20
0.0
 11
12.0
 21
9.0
 12
0.0
 22
0.0
 32
0.0
 14
0.0
 24
0.0
 34
0.0
 15
0.0
 25
0.0
 35
0.0
146
0.0
 13
0.0
 23
0.0
 33
0.0
 16
1.0
 26
0.0
 36
0.0
 17
0.0
 27
1.0
 37
0.0
 76
     0
330
1B
  0
MLINESTYLE
  5
8C6
102
{ACAD_REACTORS
330
8C5
102
}
330
8C5
100
AcDbMlineStyle
  2
STANDARD
 70
     0
  3

 62
   256
 51
90.00000000000019
 52
90.00000000000019
 71
     2
 49
0.5
 62
   256
  6
BYLAYER
 49
-0.5
 62
   256
  6
BYLAYER
  0
ACDBPLACEHOLDER
  5
D1B
102
{ACAD_REACTORS
330
D1A
102
}
330
D1A
  0
XRECORD
  5
1AC5
102
{ACAD_REACTORS
330
1AC4
102
}
330
1AC4
100
AcDbXrecord
280
     1
340
D1D
  0
XRECORD
  5
1AC6
102
{ACAD_REACTORS
330
1AC4
102
}
330
1AC4
100
AcDbXrecord
280
     1
340
D1C
  0
ENDSEC
  0
EOF
